  0
SECTION
  2
HEADER
  9
$ACADVER
  1
AC1015
  9
$DWGCODEPAGE
  3
ANSI_1252
  9
$EXTMAX
 10
11.6929133858
 20
8.2677165354
 30
0.0
  9
$EXTMIN
 10
0.0
 20
0.0
 30
0.0
  9
$LIMMIN
 10
0.0
 20
0.0
  9
$LIMMAX
 10
11.6929133858
 20
8.2677165354
  9
$VIEWCTR
 10
5.8464566929
 20
4.1338582677
  9
$VIEWSIZE
 40
8.2677165354
  9
$CLAYER
  8
0
  9
$LTSCALE
 40
0.6431102362
  9
$CELTYPE
  6
BYLAYER
  9
$DIMSCALE
 40
1.0
  9
$DIMASZ
 40
0.1875
  9
$DIMEXO
 40
0.0730807087
  9
$DIMDLI
 40
0.4443307087
  9
$DIMEXE
 40
0.2104724409
  9
$DIMCEN
 40
0.1052362205
  9
$DIMLFAC
 40
1.0
  9
$DIMBLK
  1
_CLOSED
  9
$DIMTXT
 40
0.15625
  9
$DIMTOL
 70
0
  9
$DIMLIM
 70
0
  9
$DIMTFAC
 40
1.0
  9
$PDMODE
 70
3
  9
$PDSIZE
 40
0.3125
  9
$HANDSEED
  5
237
  9
$TILEMODE
 70
1
  9
$MEASUREMENT
 70
0
  9
$INSUNITS
 70
1
  0
ENDSEC
  0
SECTION
  2
CLASSES
  0
CLASS
  1
ACDBDICTIONARYWDFLT
  2
AcDbDictionaryWithDefault
  3
AutoCAD 2000
 90
0
280
0
281
0
  0
CLASS
  1
ACDBPLACEHOLDER
  2
AcDbPlaceHolder
  3
AutoCAD 2000
 90
0
280
0
281
0
  0
CLASS
  1
LAYOUT
  2
AcDbLayout
  3
AutoCAD 2000
 90
0
280
0
281
0
  0
ENDSEC
  0
SECTION
  2
TABLES
  0
TABLE
  2
VPORT
  5
8
100
AcDbSymbolTable
 70
2
  0
VPORT
  5
1F4
100
AcDbSymbolTableRecord
100
AcDbViewportTableRecord
  2
*ACTIVE
 70
0
 10
0.0
 20
0.0
 11
1.0
 21
1.0
 12
5.8464566929
 22
4.1338582677
 13
0.0
 23
0.0
 14
1.0
 24
1.0
 15
0.0
 25
0.0
 16
0.0
 26
0.0
 36
1.0
 17
0.0
 27
0.0
 37
0.0
 40
8.2677165354
 41
1.4142857143
 42
50.0
 43
0.0
 44
0.0
 50
0.0
 51
0.0
 71
0
 72
100
 73
1
 74
1
 75
0
 76
0
 77
0
 78
0
  0
ENDTAB
  0
TABLE
  2
LTYPE
  5
5
100
AcDbSymbolTable
 70
6
  0
LTYPE
  5
14
100
AcDbSymbolTableRecord
100
AcDbLinetypeTableRecord
  2
BYBLOCK
 70
0
  3

 72
65
 73
0
 40
0.0
  0
LTYPE
  5
15
100
AcDbSymbolTableRecord
100
AcDbLinetypeTableRecord
  2
BYLAYER
 70
0
  3

 72
65
 73
0
 40
0.0
  0
LTYPE
  5
16
100
AcDbSymbolTableRecord
100
AcDbLinetypeTableRecord
  2
CONTINUOUS
 70
64
  3
Solid line
 72
65
 73
0
 40
0.0
  0
LTYPE
  5
1F5
100
AcDbSymbolTableRecord
100
AcDbLinetypeTableRecord
  2
CENTER
 70
64
  3
____ _ ____ _ ____ _ ____ _ ____ _ ____ _ ____
 72
65
 73
4
 40
0.6
 49
0.375
 74
0
 49
-0.075
 74
0
 49
0.075
 74
0
 49
-0.075
 74
0
  0
LTYPE
  5
1F6
100
AcDbSymbolTableRecord
100
AcDbLinetypeTableRecord
  2
HIDDEN
 70
64
  3
- - - - - - - - - - - - - - - - - - - -
 72
65
 73
2
 40
0.2
 49
0.1
 74
0
 49
-0.1
 74
0
  0
LTYPE
  5
1F7
100
AcDbSymbolTableRecord
100
AcDbLinetypeTableRecord
  2
PHANTOM
 70
64
  3
_____ _ _ _____ _ _ _____ _ _ _____
 72
65
 73
6
 40
0.8
 49
0.45
 74
0
 49
-0.05
 74
0
 49
0.1
 74
0
 49
-0.05
 74
0
 49
0.1
 74
0
 49
-0.05
 74
0
  0
LTYPE
  5
1F8
100
AcDbSymbolTableRecord
100
AcDbLinetypeTableRecord
  2
DOT
 70
64
  3
. . . . . . . . . . . . . . . . . . . .
 72
65
 73
2
 40
0.2
 49
0.1
 74
0
 49
-0.1
 74
0
  0
LTYPE
  5
1F9
100
AcDbSymbolTableRecord
100
AcDbLinetypeTableRecord
  2
DASHED
 70
64
  3
- - - - - - - - - - - - - - - - - - - -
 72
65
 73
2
 40
0.2
 49
0.1
 74
0
 49
-0.1
 74
0
  0
ENDTAB
  0
TABLE
  2
LAYER
  5
2
100
AcDbSymbolTable
 70
36
  0
LAYER
  5
10
100
AcDbSymbolTableRecord
100
AcDbLayerTableRecord
  2
0
 70
0
 62
7
  6
CONTINUOUS
370
-3
390
F
  0
LAYER
  5
1FA
100
AcDbSymbolTableRecord
100
AcDbLayerTableRecord
  2
DEFAULT_1
 70
0
 62
7
  6
CENTER
370
-3
390
F
  0
LAYER
  5
1FB
100
AcDbSymbolTableRecord
100
AcDbLayerTableRecord
  2
DEFAULT_2
 70
0
 62
8
  6
HIDDEN
370
-3
390
F
  0
LAYER
  5
1FC
100
AcDbSymbolTableRecord
100
AcDbLayerTableRecord
  2
DEFAULT_3
 70
0
 62
7
  6
PHANTOM
370
-3
390
F
  0
LAYER
  5
1FD
100
AcDbSymbolTableRecord
100
AcDbLayerTableRecord
  2
02___PRT_ALL_AXES
 70
0
 62
7
  6
CONTINUOUS
370
-3
390
F
  0
LAYER
  5
1FE
100
AcDbSymbolTableRecord
100
AcDbLayerTableRecord
  2
40419
 70
0
 62
7
  6
CONTINUOUS
370
-3
390
F
  0
LAYER
  5
1FF
100
AcDbSymbolTableRecord
100
AcDbLayerTableRecord
  2
92437
 70
0
 62
7
  6
CONTINUOUS
370
-3
390
F
  0
LAYER
  5
200
100
AcDbSymbolTableRecord
100
AcDbLayerTableRecord
  2
92495
 70
0
 62
7
  6
CONTINUOUS
370
-3
390
F
  0
LAYER
  5
201
100
AcDbSymbolTableRecord
100
AcDbLayerTableRecord
  2
INTF_40419
 70
0
 62
7
  6
CONTINUOUS
370
-3
390
F
  0
LAYER
  5
202
100
AcDbSymbolTableRecord
100
AcDbLayerTableRecord
  2
INTF_92437
 70
0
 62
7
  6
CONTINUOUS
370
-3
390
F
  0
LAYER
  5
203
100
AcDbSymbolTableRecord
100
AcDbLayerTableRecord
  2
INTF_92495
 70
0
 62
7
  6
CONTINUOUS
370
-3
390
F
  0
LAYER
  5
204
100
AcDbSymbolTableRecord
100
AcDbLayerTableRecord
  2
INTF_CYAN
 70
0
 62
7
  6
CONTINUOUS
370
-3
390
F
  0
ENDTAB
  0
TABLE
  2
STYLE
  5
3
100
AcDbSymbolTable
 70
1
  0
STYLE
  5
11
100
AcDbSymbolTableRecord
100
AcDbTextStyleTableRecord
  2
STANDARD
 70
0
 40
0.0
 41
0.8
 50
0.0
 71
0
 42
0.2
  3
txt
  4

  0
STYLE
  5
205
100
AcDbSymbolTableRecord
100
AcDbTextStyleTableRecord
  2
TEXTSTYLE_1
 70
0
 40
0.0
 41
0.8
 50
0.0
 71
0
 42
0.2
  3
gdt
  4

  0
ENDTAB
  0
TABLE
  2
VIEW
  5
6
100
AcDbSymbolTable
 70
0
  0
ENDTAB
  0
TABLE
  2
UCS
  5
7
100
AcDbSymbolTable
 70
0
  0
ENDTAB
  0
TABLE
  2
APPID
  5
9
100
AcDbSymbolTable
 70
1
  0
APPID
  5
206
100
AcDbSymbolTableRecord
100
AcDbRegAppTableRecord
  2
ACAD
 70
0
  0
ENDTAB
  0
TABLE
  2
BLOCK_RECORD
  5
1
100
AcDbSymbolTable
 70
0
  0
BLOCK_RECORD
  5
207
100
AcDbSymbolTableRecord
100
AcDbBlockTableRecord
  2
*Model_Space
  0
BLOCK_RECORD
  5
208
100
AcDbSymbolTableRecord
100
AcDbBlockTableRecord
  2
*Paper_Space
  0
ENDTAB
  0
TABLE
  2
DIMSTYLE
  5
A
100
AcDbSymbolTable
 70
1
100
AcDbDimStyleTable
 71
0
  0
DIMSTYLE
105
209
100
AcDbSymbolTableRecord
100
AcDbDimStyleTableRecord
  2
STANDARD
 70
0
  3

  4

 40
1.0
 41
0.1875
 42
0.0625
 43
0.38
 44
0.18
 45
0.0
 46
0.0
 47
0.01
 48
0.01
140
0.15625
141
0.09
142
0.0
143
25.4
144
1.0
145
0.0
146
1.0
147
0.09
 71
0.0
 72
0.0
 73
1
 74
1
 75
0
 76
0
 77
0
 78
4
170
0
171
2
172
0
173
0
174
0
175
0
176
0
177
0
178
0
270
2
271
2
272
2
273
2
274
2
275
0
280
0
281
0
282
0
283
1
284
4
285
0
286
0
287
3
288
0
340
11
  0
ENDTAB
  0
ENDSEC
  0
SECTION
  2
BLOCKS
  0
BLOCK
  5
20
100
AcDbEntity
  8
0
100
AcDbBlockBegin
  2
*Model_Space
 70
0
 10
0.0
 20
0.0
 30
0.0
  3
*Model_Space
  1

  0
ENDBLK
  5
21
100
AcDbEntity
  8
0
100
AcDbBlockEnd
  0
BLOCK
  5
1C
100
AcDbEntity
  8
0
100
AcDbBlockBegin
  2
*Paper_Space
 70
0
 10
0.0
 20
0.0
 30
0.0
  3
*Paper_Space
  1

  0
ENDBLK
  5
1D
100
AcDbEntity
  8
0
100
AcDbBlockEnd
  0
ENDSEC
  0
SECTION
  2
ENTITIES
  0
LINE
  5
20A
100
AcDbEntity
  8
0
100
AcDbLine
 62
7
  6
CONTINUOUS
 10
1.9002176118
 20
6.551079962
 11
1.9002176123
 21
2.081079962
  0
LINE
  5
20B
100
AcDbEntity
  8
0
100
AcDbLine
 62
9
  6
CONTINUOUS
 10
1.9302176123
 20
6.5510799616
 11
1.9302176123
 21
2.051079962
  0
LINE
  5
20C
100
AcDbEntity
  8
0
100
AcDbLine
 62
9
  6
CONTINUOUS
 10
2.8702176123
 20
3.081079962
 11
2.8704317878
 21
5.5127584372
  0
LINE
  5
20D
100
AcDbEntity
  8
0
100
AcDbLine
 62
7
  6
CONTINUOUS
 10
2.9002176123
 20
5.521079962
 11
2.9002176123
 21
3.0810780476
  0
LINE
  5
20E
100
AcDbEntity
  8
0
100
AcDbLine
 62
9
  6
CONTINUOUS
 10
2.9302176123
 20
3.021079962
 11
2.9302176123
 21
3.051079962
  0
LINE
  5
20F
100
AcDbEntity
  8
0
100
AcDbLine
 62
7
  6
CONTINUOUS
 10
9.8702176123
 20
2.051079962
 11
1.9302176123
 21
2.051079962
  0
LINE
  5
210
100
AcDbEntity
  8
0
100
AcDbLine
 62
9
  6
CONTINUOUS
 10
1.9002176123
 20
2.081079962
 11
9.9002176123
 21
2.081079962
  0
LINE
  5
211
100
AcDbEntity
  8
0
100
AcDbLine
 62
7
  6
CONTINUOUS
 10
5.1402721891
 20
6.5660799621
 11
5.1320086709
 21
6.5562318845
  0
LINE
  5
212
100
AcDbEntity
  8
0
100
AcDbLine
 62
9
  6
CONTINUOUS
 10
8.8702176123
 20
3.021079962
 11
2.9302176123
 21
3.021079962
  0
LINE
  5
213
100
AcDbEntity
  8
0
100
AcDbLine
 62
7
  6
CONTINUOUS
 10
8.8702176123
 20
3.051079962
 11
2.9302176123
 21
3.051079962
  0
LINE
  5
214
100
AcDbEntity
  8
0
100
AcDbLine
 62
9
  6
CONTINUOUS
 10
2.9002176123
 20
3.081079962
 11
2.8702176123
 21
3.081079962
  0
LINE
  5
215
100
AcDbEntity
  8
0
100
AcDbLine
 62
9
  6
CONTINUOUS
 10
8.9002176123
 20
3.081079962
 11
8.9302176123
 21
3.0810799619
  0
LINE
  5
216
100
AcDbEntity
  8
0
100
AcDbLine
 62
9
  6
CONTINUOUS
 10
5.2802176123
 20
6.566079962
 11
5.2802176123
 21
6.551079962
  0
LINE
  5
217
100
AcDbEntity
  8
0
100
AcDbLine
 62
7
  6
CONTINUOUS
 10
5.1329170938
 20
6.551079962
 11
5.1320086709
 21
6.5562318845
  0
LINE
  5
218
100
AcDbEntity
  8
0
100
AcDbLine
 62
9
  6
CONTINUOUS
 10
6.5202176123
 20
6.551079962
 11
6.5202176123
 21
6.566079962
  0
LINE
  5
219
100
AcDbEntity
  8
0
100
AcDbLine
 62
7
  6
CONTINUOUS
 10
6.6684265538
 20
6.5562318845
 11
6.6675181308
 21
6.551079962
  0
LINE
  5
21A
100
AcDbEntity
  8
0
100
AcDbLine
 62
9
  6
CONTINUOUS
 10
2.9002176123
 20
4.751079962
 11
1.9002176123
 21
4.751079962
  0
LINE
  5
21B
100
AcDbEntity
  8
0
100
AcDbLine
 62
9
  6
CONTINUOUS
 10
8.9002176123
 20
4.751079962
 11
9.9002176123
 21
4.751079962
  0
LINE
  5
21C
100
AcDbEntity
  8
0
100
AcDbLine
 62
7
  6
CONTINUOUS
 10
8.8702176123
 20
5.551079962
 11
2.9302176123
 21
5.551079962
  0
LINE
  5
21D
100
AcDbEntity
  8
0
100
AcDbLine
 62
7
  6
CONTINUOUS
 10
6.6601630355
 20
6.5660799621
 11
6.6684265537
 21
6.5562318845
  0
LINE
  5
21E
100
AcDbEntity
  8
0
100
AcDbLine
 62
7
  6
CONTINUOUS
 10
1.9002176123
 20
6.551079962
 11
9.9002176123
 21
6.551079962
  0
LINE
  5
21F
100
AcDbEntity
  8
0
100
AcDbLine
 62
7
  6
CONTINUOUS
 10
5.1320086709
 20
6.5562318845
 11
6.6684265538
 21
6.5562318845
  0
LINE
  5
220
100
AcDbEntity
  8
0
100
AcDbLine
 62
7
  6
CONTINUOUS
 10
5.1402721891
 20
6.566079962
 11
6.6601630355
 21
6.566079962
  0
LINE
  5
221
100
AcDbEntity
  8
0
100
AcDbLine
 62
9
  6
CONTINUOUS
 10
8.8702176123
 20
3.051079962
 11
8.8702176123
 21
3.021079962
  0
LINE
  5
222
100
AcDbEntity
  8
0
100
AcDbLine
 62
7
  6
CONTINUOUS
 10
8.9002176123
 20
3.081079962
 11
8.9002176123
 21
5.5210811308
  0
LINE
  5
223
100
AcDbEntity
  8
0
100
AcDbLine
 62
9
  6
CONTINUOUS
 10
8.9300017155
 20
5.5127644502
 11
8.9302176123
 21
3.081079962
  0
LINE
  5
224
100
AcDbEntity
  8
0
100
AcDbLine
 62
9
  6
CONTINUOUS
 10
9.8702176123
 20
2.051079962
 11
9.8702176123
 21
6.5510799349
  0
LINE
  5
225
100
AcDbEntity
  8
0
100
AcDbLine
 62
7
  6
CONTINUOUS
 10
9.9002176123
 20
2.081079962
 11
9.9002176118
 21
6.551079962
  0
ARC
  5
226
100
AcDbEntity
  8
0
100
AcDbCircle
 62
7
  6
CONTINUOUS
 10
2.9302148637
 20
3.0810759103
 40
0.0599936713
100
AcDbArc
 50
179.9961307018
 51
270.0026249303
  0
ARC
  5
227
100
AcDbEntity
  8
0
100
AcDbCircle
 62
7
  6
CONTINUOUS
 10
1.9302176123
 20
2.081079962
 40
0.03
100
AcDbArc
 50
179.9999999996
 51
270.0000000004
  0
ARC
  5
228
100
AcDbEntity
  8
0
100
AcDbCircle
 62
7
  6
CONTINUOUS
 10
2.9302161559
 20
3.0810778124
 40
0.0299974639
100
AcDbArc
 50
179.9958948633
 51
270.0027815524
  0
ARC
  5
229
100
AcDbEntity
  8
0
100
AcDbCircle
 62
7
  6
CONTINUOUS
 10
2.9302176123
 20
5.521079962
 40
0.03
100
AcDbArc
 50
90.0000000002
 51
179.9969767866
  0
ARC
  5
22A
100
AcDbEntity
  8
0
100
AcDbCircle
 62
7
  6
CONTINUOUS
 10
8.870221165
 20
3.0810776788
 40
0.0599943119
100
AcDbArc
 50
269.9966073387
 51
0.0021804348
  0
ARC
  5
22B
100
AcDbEntity
  8
0
100
AcDbCircle
 62
7
  6
CONTINUOUS
 10
9.8702176123
 20
2.081079962
 40
0.03
100
AcDbArc
 50
269.9999999996
 51
360.0
  0
ARC
  5
22C
100
AcDbEntity
  8
0
100
AcDbCircle
 62
7
  6
CONTINUOUS
 10
8.8702197498
 20
3.0810785052
 40
0.0299974741
100
AcDbArc
 50
269.9959179619
 51
0.0027822446
  0
ARC
  5
22D
100
AcDbEntity
  8
0
100
AcDbCircle
 62
7
  6
CONTINUOUS
 10
8.8702176123
 20
5.521079962
 40
0.03
100
AcDbArc
 50
0.0022322616
 51
89.9999999947
  0
SPLINE
  5
22E
100
AcDbEntity
  8
0
100
AcDbSpline
 62
9
  6
CONTINUOUS
 70
0
 71
3
 72
20
 73
16
 74
14
 42
0.0000001
 43
0.0000001
 44
0.0000000001
 12
-0.0010843466
 22
0.0936473263
 32
0.0
 13
-0.09365042
 23
0.0007722493
 33
0.0
 40
0.0
 40
0.0
 40
0.0
 40
0.0
 40
0.1224683822
 40
0.1839185032
 40
0.2454558722
 40
0.3071438083
 40
0.3690257696
 40
0.4933277452
 40
0.6186269955
 40
0.6817499762
 40
0.7451040672
 40
0.8086674937
 40
0.8724280397
 40
0.9362716961
 40
1.0
 40
1.0
 40
1.0
 40
1.0
 10
8.9300017145
 20
5.5127644144
 30
0.0
 10
8.9299574485
 20
5.5165873599
 30
0.0
 10
8.9293863158
 20
5.5223422236
 30
0.0
 10
8.9275612253
 20
5.5297935851
 30
0.0
 10
8.9256317343
 20
5.5352373835
 30
0.0
 10
8.9231594971
 20
5.5404712493
 30
0.0
 10
8.9191779978
 20
5.5471186877
 30
0.0
 10
8.912970088
 20
5.554688102
 30
0.0
 10
8.905387223
 20
5.5609413658
 30
0.0
 10
8.8986465366
 20
5.5650045468
 30
0.0
 10
8.8932804834
 20
5.5675582403
 30
0.0
 10
8.8876674672
 20
5.5695701144
 30
0.0
 10
8.8818647997
 20
5.5710064465
 30
0.0
 10
8.8759477174
 20
5.5718808274
 30
0.0
 10
8.8719643676
 20
5.5720959026
 30
0.0
 10
8.8699749734
 20
5.5721123073
 30
0.0
 11
8.9300017145
 21
5.5127644144
 31
0.0
 11
8.9288437092
 21
5.5241754122
 31
0.0
 11
8.9274693805
 21
5.5297639305
 31
0.0
 11
8.925543951
 21
5.5351959793
 31
0.0
 11
8.923078724
 21
5.5404209025
 31
0.0
 11
8.9201010896
 21
5.5453929394
 31
0.0
 11
8.9127226922
 21
5.5543973699
 31
0.0
 11
8.9036692175
 21
5.5618631852
 31
0.0
 11
8.8986066072
 21
5.5649157432
 31
0.0
 11
8.8932484202
 21
5.5674641433
 31
0.0
 11
8.8876441812
 21
5.5694716411
 31
0.0
 11
8.8818491041
 21
5.5709120431
 31
0.0
 11
8.8759346068
 21
5.5717892074
 31
0.0
 11
8.8699749734
 21
5.5721123073
 31
0.0
  0
SPLINE
  5
22F
100
AcDbEntity
  8
0
100
AcDbSpline
 62
9
  6
CONTINUOUS
 70
0
 71
3
 72
16
 73
12
 74
10
 42
0.0000001
 43
0.0000001
 44
0.0000000001
 12
-5.9395167186
 22
0.0010714803
 32
0.0
 13
-5.9395166226
 23
-0.0015126986
 33
0.0
 40
0.0
 40
0.0
 40
0.0
 40
0.0
 40
0.1249979899
 40
0.2499977276
 40
0.3124980603
 40
0.3749986009
 40
0.5000000198
 40
0.6250014256
 40
0.7500022608
 40
0.8750019707
 40
1.0
 40
1.0
 40
1.0
 40
1.0
 10
8.8699749734
 20
5.5721123073
 30
0.0
 10
8.6224990898
 20
5.5721569516
 30
0.0
 10
8.1275438768
 20
5.5723193486
 30
0.0
 10
7.5088481065
 20
5.5725845829
 30
0.0
 10
7.0138871938
 20
5.5727628377
 30
0.0
 10
6.5189229368
 20
5.5728918574
 30
0.0
 10
5.9002166036
 20
5.5729493744
 30
0.0
 10
5.1577697547
 20
5.572869616
 30
0.0
 10
4.4153263224
 20
5.5726409055
 30
0.0
 10
3.6728896037
 20
5.5723419749
 30
0.0
 10
3.1779343738
 20
5.5721689494
 30
0.0
 10
2.9304584162
 20
5.5721059213
 30
0.0
 11
8.8699749734
 21
5.5721123073
 31
0.0
 11
8.1275473429
 21
5.5723317947
 31
0.0
 11
7.3851093577
 21
5.5726263182
 31
0.0
 11
7.0138876032
 21
5.5727566831
 31
0.0
 11
6.6426646041
 21
5.5728526852
 31
0.0
 11
5.9002165776
 21
5.5729245779
 31
0.0
 11
5.1577686308
 21
5.5728447903
 31
0.0
 11
4.4153240993
 21
5.572629201
 31
0.0
 11
3.6728862734
 21
5.5723485388
 31
0.0
 11
2.9304584162
 21
5.5721059213
 31
0.0
  0
SPLINE
  5
230
100
AcDbEntity
  8
0
100
AcDbSpline
 62
9
  6
CONTINUOUS
 70
0
 71
3
 72
20
 73
16
 74
14
 42
0.0000001
 43
0.0000001
 44
0.0000000001
 12
-0.0936501561
 22
-0.0007709278
 32
0.0
 13
-0.0011119852
 23
-0.0936467274
 33
0.0
 40
0.0
 40
0.0
 40
0.0
 40
0.0
 40
0.0637306341
 40
0.1275764018
 40
0.191338852
 40
0.254903935
 40
0.3182592062
 40
0.3813826259
 40
0.5066809293
 40
0.6309828551
 40
0.6928645417
 40
0.7545508882
 40
0.816085394
 40
0.8775328548
 40
1.0
 40
1.0
 40
1.0
 40
1.0
 10
2.9304584162
 20
5.5721059213
 30
0.0
 10
2.9284689549
 20
5.572089544
 30
0.0
 10
2.9244854749
 20
5.5718744937
 30
0.0
 10
2.9185682129
 20
5.5710000816
 30
0.0
 10
2.9127654
 20
5.5695636688
 30
0.0
 10
2.9071522764
 20
5.5675517073
 30
0.0
 10
2.9017861638
 20
5.5649979418
 30
0.0
 10
2.8950455214
 20
5.5609346814
 30
0.0
 10
2.8874629249
 20
5.5546811612
 30
0.0
 10
2.8812550651
 20
5.5471118562
 30
0.0
 10
2.877273236
 20
5.5404647146
 30
0.0
 10
2.8748009308
 20
5.5352310467
 30
0.0
 10
2.8728719149
 20
5.5297873158
 30
0.0
 10
2.871048027
 20
5.5223358718
 30
0.0
 10
2.8704771821
 20
5.5165813049
 30
0.0
 10
2.8704317882
 20
5.5127584225
 30
0.0
 11
2.9304584162
 21
5.5721059213
 31
0.0
 11
2.9244985796
 21
5.5717828614
 31
0.0
 11
2.9185839045
 21
5.570905668
 31
0.0
 11
2.9127886804
 21
5.5694651906
 31
0.0
 11
2.907184327
 21
5.567457604
 31
0.0
 11
2.9018260757
 21
5.5649091222
 31
0.0
 11
2.8967634874
 21
5.5618564817
 31
0.0
 11
2.8877102939
 21
5.5543905188
 31
0.0
 11
2.8803318468
 21
5.5453861792
 31
0.0
 11
2.8773540114
 21
5.5404143125
 31
0.0
 11
2.8748887845
 21
5.5351895726
 31
0.0
 11
2.8729638353
 21
5.529757656
 31
0.0
 11
2.8715902863
 21
5.52416922
 31
0.0
 11
2.8704317882
 21
5.5127584225
 31
0.0
  0
SPLINE
  5
231
100
AcDbEntity
  8
0
100
AcDbSpline
 62
9
  6
CONTINUOUS
 70
0
 71
3
 72
19
 73
15
 74
13
 42
0.0000001
 43
0.0000001
 44
0.0000000001
 12
0.0000000915
 22
-0.0323265224
 32
0.0
 13
-0.0323264592
 23
-0.0000638996
 33
0.0
 40
0.0
 40
0.0
 40
0.0
 40
0.0
 40
0.0254124129
 40
0.0535988225
 40
0.0864178713
 40
0.1249633092
 40
0.169787883
 40
0.2209829213
 40
0.27840678
 40
0.3418047929
 40
0.48488464
 40
0.646075002
 40
0.8201545174
 40
1.0
 40
1.0
 40
1.0
 40
1.0
 10
2.9002178147
 20
5.521079962
 30
0.0
 10
2.9002178154
 20
5.5208061303
 30
0.0
 10
2.9001073974
 20
5.5202252017
 30
0.0
 10
2.8996469326
 20
5.5194028454
 30
0.0
 10
2.8989135372
 20
5.5186102005
 30
0.0
 10
2.897914838
 20
5.5178478204
 30
0.0
 10
2.896657327
 20
5.517120169
 30
0.0
 10
2.8951528727
 20
5.516429854
 30
0.0
 10
2.8934146213
 20
5.5157823673
 30
0.0
 10
2.8906936501
 20
5.5149514091
 30
0.0
 10
2.8868212641
 20
5.514088103
 30
0.0
 10
2.8817183224
 20
5.513337134
 30
0.0
 10
2.8761839326
 20
5.5128739393
 30
0.0
 10
2.8723697088
 20
5.5127623278
 30
0.0
 10
2.8704317863
 20
5.5127584971
 30
0.0
 11
2.9002178147
 21
5.521079962
 31
0.0
 11
2.900073734
 21
5.5202712008
 31
0.0
 11
2.8996450671
 21
5.5194671654
 31
0.0
 11
2.8989371833
 21
5.5186769351
 31
0.0
 11
2.8979554525
 21
5.5179095889
 31
0.0
 11
2.8967072415
 21
5.5171736298
 31
0.0
 11
2.8952066928
 21
5.5164756053
 31
0.0
 11
2.8934693842
 21
5.5158216487
 31
0.0
 11
2.8915108971
 21
5.5152178927
 31
0.0
 11
2.887002891
 21
5.5141829822
 31
0.0
 11
2.881849918
 21
5.5134093468
 31
0.0
 11
2.8762430612
 21
5.5129291145
 31
0.0
 11
2.8704317863
 21
5.5127584971
 31
0.0
  0
LINE
  5
232
100
AcDbEntity
  8
0
100
AcDbLine
 62
9
  6
CONTINUOUS
 10
2.9302176123
 20
5.551079962
 11
2.9304584161
 21
5.5721059214
  0
LINE
  5
233
100
AcDbEntity
  8
0
100
AcDbLine
 62
9
  6
CONTINUOUS
 10
8.8702176123
 20
5.5510799565
 11
8.8699749736
 21
5.5721123117
  0
SPLINE
  5
234
100
AcDbEntity
  8
0
100
AcDbSpline
 62
9
  6
CONTINUOUS
 70
0
 71
3
 72
19
 73
15
 74
13
 42
0.0000001
 43
0.0000001
 44
0.0000000001
 12
0.0000005628
 22
-0.0323217112
 32
0.0
 13
0.0323216469
 23
-0.0000644809
 33
0.0
 40
0.0
 40
0.0
 40
0.0
 40
0.0
 40
0.0253975327
 40
0.0535711979
 40
0.0863804057
 40
0.124918811
 40
0.1697388457
 40
0.2209314987
 40
0.2783548233
 40
0.341753923
 40
0.4848402397
 40
0.6460417158
 40
0.82013622
 40
1.0
 40
1.0
 40
1.0
 40
1.0
 10
8.9002175794
 20
5.521079962
 30
0.0
 10
8.9002175842
 20
5.5208063314
 30
0.0
 10
8.9003280244
 20
5.5202257894
 30
0.0
 10
8.900788493
 20
5.519404056
 30
0.0
 10
8.9015218436
 20
5.5186120275
 30
0.0
 10
8.9025204634
 20
5.5178502366
 30
0.0
 10
8.9037778698
 20
5.5171231415
 30
0.0
 10
8.905282202
 20
5.5164333483
 30
0.0
 10
8.9070203161
 20
5.5157863449
 30
0.0
 10
8.909741106
 20
5.5149559893
 30
0.0
 10
8.9136132238
 20
5.5140933011
 30
0.0
 10
8.9187158139
 20
5.5133428382
 30
0.0
 10
8.9242498724
 20
5.5128799099
 30
0.0
 10
8.9280638843
 20
5.5127683161
 30
0.0
 10
8.9300017155
 20
5.5127644502
 30
0.0
 11
8.9002175794
 21
5.521079962
 31
0.0
 11
8.9003616641
 21
5.5202718142
 31
0.0
 11
8.90079031
 21
5.5194683881
 31
0.0
 11
8.9014981473
 21
5.5186787554
 31
0.0
 11
8.9024798061
 21
5.5179119874
 31
0.0
 11
8.903727922
 21
5.5171765805
 31
0.0
 11
8.9052283562
 21
5.5164790769
 31
0.0
 11
8.9069655333
 21
5.5158256045
 31
0.0
 11
8.9089238742
 21
5.5152222901
 31
0.0
 11
8.9134315579
 21
5.5141881176
 31
0.0
 11
8.9185841878
 21
5.513415001
 31
0.0
 11
8.9241907139
 21
5.5129350445
 31
0.0
 11
8.9300017155
 21
5.5127644502
 31
0.0
  0
ENDSEC
  0
SECTION
  2
OBJECTS
  0
DICTIONARY
  5
C
100
AcDbDictionary
280
0
281
1
  3
ACAD_GROUP
350
D
  3
ACAD_MLINESTYLE
350
17
  3
ACAD_LAYOUT
350
1A
  3
ACAD_PLOTSETTINGS
350
19
  3
ACAD_PLOTSTYLENAME
350
E
  0
DICTIONARY
  5
D
102
{ACAD_REACTORS
330
C
102
}
100
AcDbDictionary
280
0
281
1
  0
ACDBDICTIONARYWDFLT
  5
E
102
{ACAD_REACTORS
330
C
102
}
100
AcDbDictionary
281
1
  3
Normal
350
F
100
AcDbDictionaryWithDefault
340
F
  0
DICTIONARY
  5
17
102
{ACAD_REACTORS
330
C
102
}
100
AcDbDictionary
280
0
281
1
  3
Standard
350
18
  0
DICTIONARY
  5
19
102
{ACAD_REACTORS
330
C
102
}
100
AcDbDictionary
281
1
  0
DICTIONARY
  5
1A
102
{ACAD_REACTORS
330
C
102
}
100
AcDbDictionary
281
1
  3
Model
350
235
  3
Layout1
350
236
  0
ACDBPLACEHOLDER
  5
F
102
{ACAD_REACTORS
330
E
102
}
  0
MLINESTYLE
  5
18
102
{ACAD_REACTORS
330
17
102
}
100
AcDbMlineStyle
  2
STANDARD
 70
0
  3

 62
256
 51
90.0
 52
90.0
 71
2
 49
0.5
 62
256
  6
BYLAYER
 49
-0.5
 62
256
  6
BYLAYER
  0
LAYOUT
  5
235
102
{ACAD_REACTORS
330
1A
102
}
100
AcDbPlotSettings
  1

  2
none_device
  4
ISO_A4_(297.00_x_210.00_MM)
  6

 40
0.0
 41
0.0
 42
0.0
 43
0.0
 44
297.0
 45
210.0
 46
0.0
 47
0.0
 48
0.0
 49
0.0
140
0.0
141
0.0
142
1.0
143
1.0
 70
1024
 72
0
 73
0
 74
0
  7

 75
0
147
1.0
148
0.0
149
0.0
100
AcDbLayout
  1
Model
 70
0
 71
0
 10
0.0
 20
0.0
 11
11.6929133858
 21
8.2677165354
 12
0.0
 22
0.0
 32
0.0
 14
0.0
 24
0.0
 34
0.0
 15
0.0
 25
0.0
 35
0.0
146
0.0
 13
0.0
 23
0.0
 33
0.0
 16
1.0
 26
0.0
 36
0.0
 17
0.0
 27
1.0
 37
0.0
 76
0
330
207
345
0
346
0
  0
LAYOUT
  5
236
102
{ACAD_REACTORS
330
1A
102
}
100
AcDbPlotSettings
  1

  2
none_device
  4
ISO_A4_(297.00_x_210.00_MM)
  6

 40
0.0
 41
0.0
 42
0.0
 43
0.0
 44
297.0
 45
210.0
 46
0.0
 47
0.0
 48
0.0
 49
0.0
140
0.0
141
0.0
142
1.0
143
1.0
 70
0
 72
0
 73
0
 74
0
  7

 75
0
147
1.0
148
0.0
149
0.0
100
AcDbLayout
  1
Layout1
 70
0
 71
1
 10
0.0
 20
0.0
 11
11.6929133858
 21
8.2677165354
 12
0.0
 22
0.0
 32
0.0
 14
0.0
 24
0.0
 34
0.0
 15
0.0
 25
0.0
 35
0.0
146
0.0
 13
0.0
 23
0.0
 33
0.0
 16
1.0
 26
0.0
 36
0.0
 17
0.0
 27
1.0
 37
0.0
 76
0
330
208
345
0
346
0
  0
ENDSEC
  0
EOF
