999
DXF file: E:\BT Custom\CADOUTPUT\_FRONT.dxf
999
Pro/ENGINEER 2018400 by Parametric Technology Corporation
  0
SECTION
  2
HEADER
  9
$ACADVER
  1
AC1018
  9
$DWGCODEPAGE
  3
ANSI_1252
  9
$EXTMAX
 10
22.0
 20
17.0
 30
0.0
  9
$EXTMIN
 10
0.0
 20
0.0
 30
0.0
  9
$LIMMIN
 10
0.0
 20
0.0
  9
$LIMMAX
 10
22.0
 20
17.0
  9
$VIEWCTR
 10
11.0
 20
8.5
  9
$VIEWSIZE
 40
17.0
  9
$CLAYER
  8
0
  9
$LTSCALE
 40
1.21
  9
$CELTYPE
  6
BYLAYER
  9
$DIMSCALE
 40
1.0
  9
$DIMASZ
 40
0.1
  9
$DIMEXO
 40
0.0625
  9
$DIMDLI
 40
0.836
  9
$DIMEXE
 40
0.125
  9
$DIMCEN
 40
0.198
  9
$DIMLFAC
 40
1.0
  9
$DIMBLK
  1
_FILLED
  9
$DIMALT
 70
1
  9
$DIMALTD
 70
2
  9
$DIMALTTD
 70
2
  9
$DIMALTF
 40
25.4
  9
$DIMTXT
 40
0.08
  9
$DIMTOL
 70
1
  9
$DIMLIM
 70
0
  9
$DIMTFAC
 40
1.0
  9
$DIMTP
 40
0.001
  9
$DIMTM
 40
0.001
  9
$DIMGAP
 40
0.09
  9
$DIMDSEP
 70
46
  9
$AUNITS
 70
0
  9
$PDMODE
 70
3
  9
$PDSIZE
 40
0.06
  9
$HANDSEED
  5
266
  9
$TILEMODE
 70
1
  9
$MEASUREMENT
 70
0
  9
$INSUNITS
 70
1
  0
ENDSEC
  0
SECTION
  2
CLASSES
  0
CLASS
  1
ACDBDICTIONARYWDFLT
  2
AcDbDictionaryWithDefault
  3
AutoCAD 2000
 90
0
 91
1
280
0
281
0
  0
CLASS
  1
ACDBPLACEHOLDER
  2
AcDbPlaceHolder
  3
AutoCAD 2000
 90
0
 91
1
280
0
281
0
  0
CLASS
  1
LAYOUT
  2
AcDbLayout
  3
AutoCAD 2000
 90
0
 91
0
280
0
281
0
  0
ENDSEC
  0
SECTION
  2
TABLES
  0
TABLE
  2
VPORT
  5
8
100
AcDbSymbolTable
 70
2
  0
VPORT
  5
1F4
100
AcDbSymbolTableRecord
100
AcDbViewportTableRecord
  2
*ACTIVE
 70
0
 10
0.0
 20
0.0
 11
1.0
 21
1.0
 12
11.0
 22
8.5
 13
0.0
 23
0.0
 14
1.0
 24
1.0
 15
0.0
 25
0.0
 16
0.0
 26
0.0
 36
1.0
 17
0.0
 27
0.0
 37
0.0
 40
17.0
 41
1.2941176471
 42
50.0
 43
0.0
 44
0.0
 50
0.0
 51
0.0
 71
0
 72
100
 73
1
 74
1
 75
0
 76
0
 77
0
 78
0
  0
ENDTAB
  0
TABLE
  2
LTYPE
  5
5
100
AcDbSymbolTable
 70
6
  0
LTYPE
  5
14
100
AcDbSymbolTableRecord
100
AcDbLinetypeTableRecord
  2
BYBLOCK
 70
0
  3

 72
65
 73
0
 40
0.0
  0
LTYPE
  5
15
100
AcDbSymbolTableRecord
100
AcDbLinetypeTableRecord
  2
BYLAYER
 70
0
  3

 72
65
 73
0
 40
0.0
  0
LTYPE
  5
16
100
AcDbSymbolTableRecord
100
AcDbLinetypeTableRecord
  2
CONTINUOUS
 70
64
  3
Solid line
 72
65
 73
0
 40
0.0
  0
LTYPE
  5
1F5
100
AcDbSymbolTableRecord
100
AcDbLinetypeTableRecord
  2
CENTER
 70
64
  3
____ _ ____ _ ____ _ ____ _ ____ _ ____ _ ____
 72
65
 73
4
 40
0.6
 49
0.375
 74
0
 49
-0.075
 74
0
 49
0.075
 74
0
 49
-0.075
 74
0
  0
LTYPE
  5
1F6
100
AcDbSymbolTableRecord
100
AcDbLinetypeTableRecord
  2
HIDDEN
 70
64
  3
- - - - - - - - - - - - - - - - - - - -
 72
65
 73
2
 40
0.2
 49
0.1
 74
0
 49
-0.1
 74
0
  0
LTYPE
  5
1F7
100
AcDbSymbolTableRecord
100
AcDbLinetypeTableRecord
  2
PHANTOM
 70
64
  3
_____ _ _ _____ _ _ _____ _ _ _____
 72
65
 73
6
 40
0.8
 49
0.45
 74
0
 49
-0.05
 74
0
 49
0.1
 74
0
 49
-0.05
 74
0
 49
0.1
 74
0
 49
-0.05
 74
0
  0
LTYPE
  5
1F8
100
AcDbSymbolTableRecord
100
AcDbLinetypeTableRecord
  2
DOT
 70
64
  3
. . . . . . . . . . . . . . . . . . . .
 72
65
 73
2
 40
0.2
 49
0.1
 74
0
 49
-0.1
 74
0
  0
LTYPE
  5
1F9
100
AcDbSymbolTableRecord
100
AcDbLinetypeTableRecord
  2
DASHED
 70
64
  3
- - - - - - - - - - - - - - - - - - - -
 72
65
 73
2
 40
0.2
 49
0.1
 74
0
 49
-0.1
 74
0
  0
ENDTAB
  0
TABLE
  2
LAYER
  5
2
100
AcDbSymbolTable
 70
36
  0
LAYER
  5
10
100
AcDbSymbolTableRecord
100
AcDbLayerTableRecord
  2
0
 70
0
 62
7
  6
CONTINUOUS
370
-3
390
F
  0
LAYER
  5
1FA
100
AcDbSymbolTableRecord
100
AcDbLayerTableRecord
  2
DEFAULT_1
 70
0
 62
7
  6
CENTER
370
-3
390
F
  0
LAYER
  5
1FB
100
AcDbSymbolTableRecord
100
AcDbLayerTableRecord
  2
DEFAULT_2
 70
0
 62
8
  6
HIDDEN
370
-3
390
F
  0
LAYER
  5
1FC
100
AcDbSymbolTableRecord
100
AcDbLayerTableRecord
  2
DEFAULT_3
 70
0
 62
7
  6
PHANTOM
370
-3
390
F
  0
LAYER
  5
1FD
100
AcDbSymbolTableRecord
100
AcDbLayerTableRecord
  2
ALL_FEATURES
 70
0
 62
7
  6
CONTINUOUS
370
-3
390
F
  0
LAYER
  5
1FE
100
AcDbSymbolTableRecord
100
AcDbLayerTableRecord
  2
AXES_FEATURES
 70
0
 62
7
  6
CONTINUOUS
370
-3
390
F
  0
LAYER
  5
1FF
100
AcDbSymbolTableRecord
100
AcDbLayerTableRecord
  2
DEFAULT_COORDINATE_SYSTEM
 70
0
 62
7
  6
CONTINUOUS
370
-3
390
F
  0
LAYER
  5
200
100
AcDbSymbolTableRecord
100
AcDbLayerTableRecord
  2
DEFAULT_DATUM_AXES
 70
0
 62
7
  6
CONTINUOUS
370
-3
390
F
  0
LAYER
  5
201
100
AcDbSymbolTableRecord
100
AcDbLayerTableRecord
  2
DEFAULT_DATUM_PLANES
 70
0
 62
7
  6
CONTINUOUS
370
-3
390
F
  0
LAYER
  5
202
100
AcDbSymbolTableRecord
100
AcDbLayerTableRecord
  2
DIMENSIONS
 70
0
 62
7
  6
CONTINUOUS
370
-3
390
F
  0
ENDTAB
  0
TABLE
  2
STYLE
  5
3
100
AcDbSymbolTable
 70
1
  0
STYLE
  5
11
100
AcDbSymbolTableRecord
100
AcDbTextStyleTableRecord
  2
STANDARD
 70
0
 40
0.0
 41
0.8
 50
0.0
 71
0
 42
0.2
  3
txt
  4

  0
STYLE
  5
203
100
AcDbSymbolTableRecord
100
AcDbTextStyleTableRecord
  2
TEXTSTYLE_1
 70
0
 40
0.0
 41
0.8
 50
0.0
 71
0
 42
0.2
  3
gdt
  4

  0
ENDTAB
  0
TABLE
  2
VIEW
  5
6
100
AcDbSymbolTable
 70
0
  0
ENDTAB
  0
TABLE
  2
UCS
  5
7
100
AcDbSymbolTable
 70
0
  0
ENDTAB
  0
TABLE
  2
APPID
  5
9
100
AcDbSymbolTable
 70
1
  0
APPID
  5
204
100
AcDbSymbolTableRecord
100
AcDbRegAppTableRecord
  2
ACAD
 70
0
  0
ENDTAB
  0
TABLE
  2
BLOCK_RECORD
  5
1
100
AcDbSymbolTable
 70
0
  0
BLOCK_RECORD
  5
205
100
AcDbSymbolTableRecord
100
AcDbBlockTableRecord
  2
*Model_Space
  0
BLOCK_RECORD
  5
206
100
AcDbSymbolTableRecord
100
AcDbBlockTableRecord
  2
*Paper_Space
  0
BLOCK_RECORD
  5
207
100
AcDbSymbolTableRecord
100
AcDbBlockTableRecord
  2
_FILLED
  0
ENDTAB
  0
TABLE
  2
DIMSTYLE
  5
A
100
AcDbSymbolTable
 70
1
100
AcDbDimStyleTable
 71
0
  0
DIMSTYLE
105
208
100
AcDbSymbolTableRecord
100
AcDbDimStyleTableRecord
  2
STANDARD
 70
0
  3

  4

 40
1.0
 41
0.1
 42
0.0625
 43
0.38
 44
0.125
 45
0.0
 46
0.0
 47
0.001
 48
0.001
140
0.08
141
0.09
142
0.0
143
25.4
144
1.0
145
0.0
146
1.0
147
0.09
 71
1.0
 72
0.0
 73
1
 74
1
 75
0
 76
0
 77
0
 78
4
 79
1
170
1
171
2
172
0
173
0
174
0
175
0
176
0
177
0
178
0
270
2
179
3
271
3
272
3
273
2
274
2
275
0
280
0
281
0
282
0
283
1
284
4
285
0
286
0
287
3
288
0
340
11
278
46
341
207
342
207
343
207
344
207
  0
ENDTAB
  0
ENDSEC
  0
SECTION
  2
BLOCKS
  0
BLOCK
  5
20
100
AcDbEntity
  8
0
100
AcDbBlockBegin
  2
*Model_Space
 70
0
 10
0.0
 20
0.0
 30
0.0
  3
*Model_Space
  1

  0
ENDBLK
  5
21
100
AcDbEntity
  8
0
100
AcDbBlockEnd
  0
BLOCK
  5
1C
100
AcDbEntity
  8
0
100
AcDbBlockBegin
  2
*Paper_Space
 70
0
 10
0.0
 20
0.0
 30
0.0
  3
*Paper_Space
  1

  0
ENDBLK
  5
1D
100
AcDbEntity
  8
0
100
AcDbBlockEnd
  0
BLOCK
  5
209
100
AcDbEntity
  8
0
100
AcDbBlockBegin
  2
_FILLED
 70
64
 10
0.0
 20
0.0
  3
_FILLED
  1

  0
SOLID
  5
20A
100
AcDbEntity
  8
0
  6
BYBLOCK
 62
0
100
AcDbTrace
 10
0.0
 20
0.0
 11
-1.0
 21
0.2
 12
-1.0
 22
-0.2
 13
-1.0
 23
-0.2
  0
ENDBLK
  5
20B
100
AcDbEntity
  8
0
  6
BYBLOCK
 62
0
100
AcDbBlockEnd
  0
ENDSEC
  0
SECTION
  2
ENTITIES
  0
LINE
  5
20C
100
AcDbEntity
  8
0
100
AcDbLine
 62
7
  6
CONTINUOUS
 10
8.1876924982
 20
9.7754410381
 11
8.1876924982
 21
8.7576115144
  0
LINE
  5
20D
100
AcDbEntity
  8
0
100
AcDbLine
 62
9
  6
CONTINUOUS
 10
8.2176924982
 20
9.8077274902
 11
8.2176923774
 21
9.748438368
  0
LINE
  5
20E
100
AcDbEntity
  8
0
100
AcDbLine
 62
9
  6
CONTINUOUS
 10
8.217692418
 20
9.8053417631
 11
8.2177658837
 21
9.8054411381
  0
LINE
  5
20F
100
AcDbEntity
  8
0
100
AcDbLine
 62
9
  6
CONTINUOUS
 10
9.7751927667
 20
9.7484392027
 11
9.7751920946
 21
9.805341462
  0
LINE
  5
210
100
AcDbEntity
  8
0
100
AcDbLine
 62
7
  6
CONTINUOUS
 10
9.8051924982
 20
8.7579169181
 11
9.8051924982
 21
9.7754409736
  0
LINE
  5
211
100
AcDbEntity
  8
0
100
AcDbLine
 62
9
  6
CONTINUOUS
 10
9.8351852972
 20
8.7277919004
 11
9.8351924982
 21
9.0783156443
  0
LINE
  5
212
100
AcDbEntity
  8
0
100
AcDbLine
 62
7
  6
CONTINUOUS
 10
8.2176937579
 20
8.7276115137
 11
9.7810870644
 21
8.727658495
  0
LINE
  5
213
100
AcDbEntity
  8
0
100
AcDbLine
 62
7
  6
CONTINUOUS
 10
13.6576912384
 20
8.7276115136
 11
12.094297932
 21
8.727658495
  0
LINE
  5
214
100
AcDbEntity
  8
0
100
AcDbLine
 62
9
  6
CONTINUOUS
 10
9.7751925636
 20
9.8053416748
 11
9.7751195021
 21
9.8054410691
  0
LINE
  5
215
100
AcDbEntity
  8
0
100
AcDbLine
 62
9
  6
CONTINUOUS
 10
9.8351924982
 20
9.0783156443
 11
12.0401924982
 21
9.0783156443
  0
LINE
  5
216
100
AcDbEntity
  8
0
100
AcDbLine
 62
7
  6
CONTINUOUS
 10
13.6576924982
 20
9.8054407968
 11
12.1001924982
 21
9.8054407968
  0
LINE
  5
217
100
AcDbEntity
  8
0
100
AcDbLine
 62
7
  6
CONTINUOUS
 10
9.7751924982
 20
9.8054407968
 11
8.2176924982
 21
9.8054407968
  0
LINE
  5
218
100
AcDbEntity
  8
0
100
AcDbLine
 62
7
  6
CONTINUOUS
 10
8.2176925247
 20
9.8077274918
 11
13.6576924834
 21
9.8077274897
  0
LINE
  5
219
100
AcDbEntity
  8
0
100
AcDbLine
 62
9
  6
CONTINUOUS
 10
12.1001924297
 20
9.8053416935
 11
12.1002659032
 21
9.8054410746
  0
LINE
  5
21A
100
AcDbEntity
  8
0
100
AcDbLine
 62
9
  6
CONTINUOUS
 10
12.0401924985
 20
9.0783150569
 11
12.0401996993
 21
8.7277917034
  0
LINE
  5
21B
100
AcDbEntity
  8
0
100
AcDbLine
 62
7
  6
CONTINUOUS
 10
12.0701924982
 20
9.7754409741
 11
12.0701924982
 21
8.7579169698
  0
LINE
  5
21C
100
AcDbEntity
  8
0
100
AcDbLine
 62
9
  6
CONTINUOUS
 10
12.1001929259
 20
9.8053414704
 11
12.1001922297
 21
9.7484396381
  0
LINE
  5
21D
100
AcDbEntity
  8
0
100
AcDbLine
 62
9
  6
CONTINUOUS
 10
13.657692619
 20
9.7484373769
 11
13.6576924982
 21
9.8077274897
  0
LINE
  5
21E
100
AcDbEntity
  8
0
100
AcDbLine
 62
7
  6
CONTINUOUS
 10
13.6876924982
 20
8.7576115144
 11
13.6876924982
 21
9.7754410311
  0
LINE
  5
21F
100
AcDbEntity
  8
0
100
AcDbLine
 62
9
  6
CONTINUOUS
 10
13.6576925781
 20
9.8053417611
 11
13.6576195146
 21
9.805441154
  0
ARC
  5
220
100
AcDbEntity
  8
0
100
AcDbCircle
 62
7
  6
CONTINUOUS
 10
9.8359464192
 20
7.323148864
 40
1.7551669422
100
AcDbArc
 50
90.0246110437
 51
91.0148325489
  0
ARC
  5
221
100
AcDbEntity
  8
0
100
AcDbCircle
 62
7
  6
CONTINUOUS
 10
12.0400820135
 20
7.3953334465
 40
1.6829822014
100
AcDbArc
 50
88.9636596719
 51
89.9962386368
  0
ARC
  5
222
100
AcDbEntity
  8
0
100
AcDbCircle
 62
9
  6
CONTINUOUS
 10
12.1002185321
 20
9.7751206871
 40
0.0302210169
100
AcDbArc
 50
90.048546599
 51
109.3950737954
  0
ARC
  5
223
100
AcDbEntity
  8
0
100
AcDbCircle
 62
9
  6
CONTINUOUS
 10
8.2177185451
 20
9.7751207655
 40
0.030221008
100
AcDbArc
 50
90.0484191203
 51
109.3954707772
  0
ARC
  5
224
100
AcDbEntity
  8
0
100
AcDbCircle
 62
9
  6
CONTINUOUS
 10
8.2176969037
 20
9.7752743821
 40
0.0300718042
100
AcDbArc
 50
115.8789589496
 51
130.9115047966
  0
ARC
  5
225
100
AcDbEntity
  8
0
100
AcDbCircle
 62
9
  6
CONTINUOUS
 10
12.1001968983
 20
9.7752743284
 40
0.030071793
100
AcDbArc
 50
115.879349924
 51
130.9107260724
  0
ARC
  5
226
100
AcDbEntity
  8
0
100
AcDbCircle
 62
9
  6
CONTINUOUS
 10
12.1002082458
 20
9.7754013401
 40
0.0300157737
100
AcDbArc
 50
158.813669383
 51
179.9243401723
  0
ARC
  5
227
100
AcDbEntity
  8
0
100
AcDbCircle
 62
9
  6
CONTINUOUS
 10
8.2177082049
 20
9.7754014115
 40
0.0300157329
100
AcDbArc
 50
158.8129551519
 51
179.9243539181
  0
ARC
  5
228
100
AcDbEntity
  8
0
100
AcDbCircle
 62
7
  6
CONTINUOUS
 10
13.6576924982
 20
8.7576115887
 40
0.03
100
AcDbArc
 50
269.9975838823
 51
359.9998581602
  0
ARC
  5
229
100
AcDbEntity
  8
0
100
AcDbCircle
 62
7
  6
CONTINUOUS
 10
8.2176924982
 20
8.7576115882
 40
0.03
100
AcDbArc
 50
180.0001409661
 51
270.0024161178
  0
ARC
  5
22A
100
AcDbEntity
  8
0
100
AcDbCircle
 62
7
  6
CONTINUOUS
 10
8.2176906822
 20
9.7754426416
 40
0.0299976423
100
AcDbArc
 50
89.8545874185
 51
179.9957782497
  0
ARC
  5
22B
100
AcDbEntity
  8
0
100
AcDbCircle
 62
7
  6
CONTINUOUS
 10
12.1001907549
 20
9.7754425778
 40
0.0299976421
100
AcDbArc
 50
89.8547053711
 51
179.9968382831
  0
ARC
  5
22C
100
AcDbEntity
  8
0
100
AcDbCircle
 62
7
  6
CONTINUOUS
 10
12.1001898653
 20
8.7579207355
 40
0.0299971696
100
AcDbArc
 50
180.0072012262
 51
269.9997439647
  0
ARC
  5
22D
100
AcDbEntity
  8
0
100
AcDbCircle
 62
7
  6
CONTINUOUS
 10
13.6576934288
 20
9.7754429218
 40
0.0299971641
100
AcDbArc
 50
359.9965453879
 51
90.1411246285
  0
ARC
  5
22E
100
AcDbEntity
  8
0
100
AcDbCircle
 62
7
  6
CONTINUOUS
 10
9.7751936409
 20
9.7754428375
 40
0.029997164
100
AcDbArc
 50
359.9961805005
 51
90.1415535395
  0
ARC
  5
22F
100
AcDbEntity
  8
0
100
AcDbCircle
 62
7
  6
CONTINUOUS
 10
9.7751960698
 20
8.7579205293
 40
0.0299966605
100
AcDbArc
 50
269.9984631153
 51
359.993192492
  0
ARC
  5
230
100
AcDbEntity
  8
0
100
AcDbCircle
 62
9
  6
CONTINUOUS
 10
12.1000386207
 20
9.775455014
 40
0.0298315901
100
AcDbArc
 50
130.9082534221
 51
153.8042897544
  0
ARC
  5
231
100
AcDbEntity
  8
0
100
AcDbCircle
 62
9
  6
CONTINUOUS
 10
8.2175385816
 20
9.7754551185
 40
0.0298315338
100
AcDbArc
 50
130.9090376
 51
153.8066101174
  0
ARC
  5
232
100
AcDbEntity
  8
0
100
AcDbCircle
 62
9
  6
CONTINUOUS
 10
8.2175568927
 20
9.7755439498
 40
0.0297681597
100
AcDbArc
 50
109.3724806809
 51
115.8629609821
  0
ARC
  5
233
100
AcDbEntity
  8
0
100
AcDbCircle
 62
9
  6
CONTINUOUS
 10
12.1000568694
 20
9.7755439271
 40
0.0297681126
100
AcDbArc
 50
109.3720943226
 51
115.8633508417
  0
ARC
  5
234
100
AcDbEntity
  8
0
100
AcDbCircle
 62
9
  6
CONTINUOUS
 10
12.0997489976
 20
9.7755609483
 40
0.0295298884
100
AcDbArc
 50
153.820470201
 51
158.7803881558
  0
ARC
  5
235
100
AcDbEntity
  8
0
100
AcDbCircle
 62
9
  6
CONTINUOUS
 10
8.2172489252
 20
9.775561038
 40
0.0295298116
100
AcDbArc
 50
153.8228062926
 51
158.7796729978
  0
SPLINE
  5
236
100
AcDbEntity
  8
0
100
AcDbSpline
 62
7
  6
CONTINUOUS
 70
0
 71
3
 72
9
 73
5
 74
0
 42
0.0000001
 43
0.0000001
 44
0.0000000001
 40
0.0
 40
0.0
 40
0.0
 40
0.0
 40
0.5000988626
 40
1.0
 40
1.0
 40
1.0
 40
1.0
 10
8.1996655374
 20
9.7993131789
 30
0.0
 10
8.2009878446
 20
9.8007010464
 30
0.0
 10
8.2038752247
 20
9.8032572413
 30
0.0
 10
8.2072326874
 20
9.8051837364
 30
0.0
 10
8.2089986876
 20
9.8059273832
 30
0.0
  0
SPLINE
  5
237
100
AcDbEntity
  8
0
100
AcDbSpline
 62
7
  6
CONTINUOUS
 70
0
 71
3
 72
9
 73
5
 74
0
 42
0.0000001
 43
0.0000001
 44
0.0000000001
 40
0.0
 40
0.0
 40
0.0
 40
0.0
 40
0.5011127571
 40
1.0
 40
1.0
 40
1.0
 40
1.0
 10
8.2089986876
 20
9.8059273832
 30
0.0
 10
8.2103721799
 20
9.8065057485
 30
0.0
 10
8.2132284503
 20
9.8074031117
 30
0.0
 10
8.2162088455
 20
9.8077274918
 30
0.0
 10
8.2176925247
 20
9.8077274918
 30
0.0
  0
SPLINE
  5
238
100
AcDbEntity
  8
0
100
AcDbSpline
 62
7
  6
CONTINUOUS
 70
0
 71
3
 72
9
 73
5
 74
0
 42
0.0000001
 43
0.0000001
 44
0.0000000001
 40
0.0
 40
0.0
 40
0.0
 40
0.0
 40
0.4988881306
 40
1.0
 40
1.0
 40
1.0
 40
1.0
 10
13.6576924834
 20
9.8077274897
 30
0.0
 10
13.6591755529
 20
9.8077274897
 30
0.0
 10
13.6621547141
 20
9.807403393
 30
0.0
 10
13.6650099015
 20
9.8065067488
 30
0.0
 10
13.6663829116
 20
9.8059288301
 30
0.0
  0
SPLINE
  5
239
100
AcDbEntity
  8
0
100
AcDbSpline
 62
7
  6
CONTINUOUS
 70
0
 71
3
 72
9
 73
5
 74
0
 42
0.0000001
 43
0.0000001
 44
0.0000000001
 40
0.0
 40
0.0
 40
0.0
 40
0.0
 40
0.499883358
 40
1.0
 40
1.0
 40
1.0
 40
1.0
 10
13.6663829116
 20
9.8059288301
 30
0.0
 10
13.6680721299
 20
9.8052178151
 30
0.0
 10
13.6712910895
 20
9.8033941337
 30
0.0
 10
13.6740825612
 20
9.8009851735
 30
0.0
 10
13.6753674651
 20
9.7996770609
 30
0.0
  0
LINE
  5
23A
100
AcDbEntity
  8
0
100
AcDbLine
 62
7
  6
CONTINUOUS
 10
9.8351852971
 20
8.727791667
 11
9.7810870644
 21
8.727658495
  0
SPLINE
  5
23B
100
AcDbEntity
  8
0
100
AcDbSpline
 62
7
  6
CONTINUOUS
 70
0
 71
3
 72
9
 73
5
 74
0
 42
0.0000001
 43
0.0000001
 44
0.0000000001
 40
0.0
 40
0.0
 40
0.0
 40
0.0
 40
0.5
 40
1.0
 40
1.0
 40
1.0
 40
1.0
 10
12.0401996994
 20
8.727791667
 30
0.0
 10
11.6726973075
 20
8.7277031902
 30
0.0
 10
10.9376924982
 20
8.7276430485
 30
0.0
 10
10.2026876889
 20
8.7277031741
 30
0.0
 10
9.8351852971
 20
8.727791667
 30
0.0
  0
LINE
  5
23C
100
AcDbEntity
  8
0
100
AcDbLine
 62
7
  6
CONTINUOUS
 10
12.094297932
 20
8.727658495
 11
12.0401996994
 21
8.727791667
  0
SPLINE
  5
23D
100
AcDbEntity
  8
0
100
AcDbSpline
 62
7
  6
CONTINUOUS
 70
0
 71
3
 72
16
 73
12
 74
0
 42
0.0000001
 43
0.0000001
 44
0.0000000001
 40
0.0
 40
0.0
 40
0.0
 40
0.0
 40
0.0073518709
 40
0.0204299939
 40
0.0684951294
 40
0.1473130336
 40
0.2572030326
 40
0.397856992
 40
0.5688384166
 40
0.7696990657
 40
1.0
 40
1.0
 40
1.0
 40
1.0
 10
12.1001897313
 20
8.7279236451
 30
0.0
 10
12.1001897833
 20
8.7279106867
 30
0.0
 10
12.1001622045
 20
8.7278794442
 30
0.0
 10
12.1000506787
 20
8.7278377
 30
0.0
 10
12.0998050947
 20
8.7277918774
 30
0.0
 10
12.0993910338
 20
8.7277510829
 30
0.0
 10
12.0988108477
 20
8.7277159688
 30
0.0
 10
12.0980685373
 20
8.7276892793
 30
0.0
 10
12.097165286
 20
8.7276706701
 30
0.0
 10
12.0961040076
 20
8.7276602266
 30
0.0
 10
12.0953440259
 20
8.7276581663
 30
0.0
 10
12.094938094
 20
8.7276580073
 30
0.0
  0
LINE
  5
23E
100
AcDbEntity
  8
0
100
AcDbLine
 62
7
  6
CONTINUOUS
 10
9.7804468104
 20
8.7276578823
 11
9.7758562834
 21
8.7277659903
  0
LINE
  5
23F
100
AcDbEntity
  8
0
100
AcDbLine
 62
7
  6
CONTINUOUS
 10
9.7758562834
 20
8.7277659903
 11
9.7751952652
 21
8.7279236451
  0
LINE
  5
240
100
AcDbEntity
  8
0
100
AcDbLine
 62
9
  6
CONTINUOUS
 10
8.2176923831
 20
9.7485322531
 11
9.7751927623
 21
9.7484651345
  0
SPLINE
  5
241
100
AcDbEntity
  8
0
100
AcDbSpline
 62
9
  6
CONTINUOUS
 70
0
 71
3
 72
21
 73
17
 74
0
 42
0.0000001
 43
0.0000001
 44
0.0000000001
 40
0.0
 40
0.0
 40
0.0
 40
0.0
 40
0.0055366412
 40
0.0120115169
 40
0.0200117471
 40
0.0298393124
 40
0.0554808781
 40
0.0894664308
 40
0.131824313
 40
0.1822220263
 40
0.2402071842
 40
0.3052969833
 40
0.4545168698
 40
0.6244869284
 40
0.809009048
 40
1.0
 40
1.0
 40
1.0
 40
1.0
 10
8.1876924866
 20
9.7518233091
 30
0.0
 10
8.1876924861
 20
9.7517668679
 30
0.0
 10
8.1877223962
 20
9.7516436997
 30
0.0
 10
8.1878420255
 20
9.7514748814
 30
0.0
 10
8.1880294817
 20
9.7513107804
 30
0.0
 10
8.188405163
 20
9.7510735852
 30
0.0
 10
8.1890603835
 20
9.7507963936
 30
0.0
 10
8.1900549358
 20
9.7504919124
 30
0.0
 10
8.1913142437
 20
9.7501990132
 30
0.0
 10
8.192825525
 20
9.7499193181
 30
0.0
 10
8.1945745669
 20
9.7496563892
 30
0.0
 10
8.1973297384
 20
9.749316612
 30
0.0
 10
8.2012324782
 20
9.7489665024
 30
0.0
 10
8.20635902
 20
9.7486637004
 30
0.0
 10
8.211917247
 20
9.748480102
 30
0.0
 10
8.2157453922
 20
9.7484382966
 30
0.0
 10
8.2176923774
 20
9.748438368
 30
0.0
  0
SPLINE
  5
242
100
AcDbEntity
  8
0
100
AcDbSpline
 62
9
  6
CONTINUOUS
 70
0
 71
3
 72
11
 73
7
 74
0
 42
0.0000001
 43
0.0000001
 44
0.0000000001
 40
0.0
 40
0.0
 40
0.0
 40
0.0
 40
0.2503956814
 40
0.500575794
 40
0.7504284152
 40
1.0
 40
1.0
 40
1.0
 40
1.0
 10
13.6576924982
 20
9.7817238182
 30
0.0
 10
13.6615940033
 20
9.7817238183
 30
0.0
 10
13.6694786455
 20
9.7801694049
 30
0.0
 10
13.6794503808
 20
9.7735181492
 30
0.0
 10
13.6861300589
 20
9.763579254
 30
0.0
 10
13.6876924982
 20
9.7557119954
 30
0.0
 10
13.6876924982
 20
9.7518233309
 30
0.0
  0
SPLINE
  5
243
100
AcDbEntity
  8
0
100
AcDbSpline
 62
9
  6
CONTINUOUS
 70
0
 71
3
 72
11
 73
7
 74
0
 42
0.0000001
 43
0.0000001
 44
0.0000000001
 40
0.0
 40
0.0
 40
0.0
 40
0.0
 40
0.2503948048
 40
0.5005726479
 40
0.7504238681
 40
1.0
 40
1.0
 40
1.0
 40
1.0
 10
13.6576919934
 20
9.8053417607
 30
0.0
 10
13.661593565
 20
9.8053417232
 30
0.0
 10
13.6694783482
 20
9.8037875404
 30
0.0
 10
13.6794502861
 20
9.7971362005
 30
0.0
 10
13.6861301297
 20
9.7871971123
 30
0.0
 10
13.6876925611
 20
9.7793296089
 30
0.0
 10
13.6876924982
 20
9.7754407936
 30
0.0
  0
SPLINE
  5
244
100
AcDbEntity
  8
0
100
AcDbSpline
 62
9
  6
CONTINUOUS
 70
0
 71
3
 72
11
 73
7
 74
0
 42
0.0000001
 43
0.0000001
 44
0.0000000001
 40
0.0
 40
0.0
 40
0.0
 40
0.0
 40
0.2503957625
 40
0.5005759181
 40
0.7504285866
 40
1.0
 40
1.0
 40
1.0
 40
1.0
 10
8.2176924982
 20
9.7817237964
 30
0.0
 10
8.2137909926
 20
9.7817237988
 30
0.0
 10
8.2059063527
 20
9.7801693675
 30
0.0
 10
8.1959346155
 20
9.7735181188
 30
0.0
 10
8.1892549403
 20
9.7635792243
 30
0.0
 10
8.1876924982
 20
9.7557119703
 30
0.0
 10
8.1876924982
 20
9.7518233091
 30
0.0
  0
SPLINE
  5
245
100
AcDbEntity
  8
0
100
AcDbSpline
 62
9
  6
CONTINUOUS
 70
0
 71
3
 72
22
 73
18
 74
0
 42
0.0000001
 43
0.0000001
 44
0.0000000001
 40
0.0
 40
0.0
 40
0.0
 40
0.0
 40
0.1942008231
 40
0.3817256716
 40
0.5542569708
 40
0.7053792305
 40
0.7710812581
 40
0.8293878565
 40
0.8797503517
 40
0.9216288533
 40
0.9392312344
 40
0.9545669912
 40
0.967625515
 40
0.9784036599
 40
0.9869139023
 40
0.9932070838
 40
1.0
 40
1.0
 40
1.0
 40
1.0
 10
12.0402008216
 20
9.0483383894
 30
0.0
 10
12.042147897
 20
9.0483385974
 30
0.0
 10
12.0459751565
 20
9.0483072507
 30
0.0
 10
12.0515310329
 20
9.0481868279
 30
0.0
 10
12.0566532759
 20
9.0480124841
 30
0.0
 10
12.0605537972
 20
9.0478546537
 30
0.0
 10
12.0633102331
 20
9.0477482085
 30
0.0
 10
12.0650575013
 20
9.0476889345
 30
0.0
 10
12.066566498
 20
9.0476522233
 30
0.0
 10
12.0676678474
 20
9.0476439577
 30
0.0
 10
12.0684179819
 20
9.0476574773
 30
0.0
 10
12.0688786131
 20
9.0476757247
 30
0.0
 10
12.0692711334
 20
9.0477033437
 30
0.0
 10
12.0695917765
 20
9.0477382721
 30
0.0
 10
12.069849317
 20
9.0477859156
 30
0.0
 10
12.07004517
 20
9.047838092
 30
0.0
 10
12.0701924504
 20
9.0479253486
 30
0.0
 10
12.0701924981
 20
9.047993455
 30
0.0
  0
SPLINE
  5
246
100
AcDbEntity
  8
0
100
AcDbSpline
 62
9
  6
CONTINUOUS
 70
0
 71
3
 72
15
 73
11
 74
0
 42
0.0000001
 43
0.0000001
 44
0.0000000001
 40
0.0
 40
0.0
 40
0.0
 40
0.0
 40
0.026909212
 40
0.0486950081
 40
0.0773682979
 40
0.1565943965
 40
0.2657703538
 40
0.4050343464
 40
0.5742414806
 40
1.0
 40
1.0
 40
1.0
 40
1.0
 10
12.0701924982
 20
8.7579169691
 30
0.0
 10
12.0701924969
 20
8.7578900608
 30
0.0
 10
12.0701504563
 20
8.75784876
 30
0.0
 10
12.0700818493
 20
8.7578184659
 30
0.0
 10
12.0699570266
 20
8.7577784947
 30
0.0
 10
12.069743233
 20
8.7577417054
 30
0.0
 10
12.0694170773
 20
8.7577071832
 30
0.0
 10
12.0690001691
 20
8.7576821735
 30
0.0
 10
12.0682662754
 20
8.7576581937
 30
0.0
 10
12.0676712235
 20
8.7576564981
 30
0.0
 10
12.0672454841
 20
8.7576584745
 30
0.0
  0
LINE
  5
247
100
AcDbEntity
  8
0
100
AcDbLine
 62
9
  6
CONTINUOUS
 10
12.0672454841
 20
8.7576584745
 11
12.0401942862
 21
8.7577909939
  0
LINE
  5
248
100
AcDbEntity
  8
0
100
AcDbLine
 62
9
  6
CONTINUOUS
 10
9.7751952652
 20
8.7279236451
 11
9.7752165513
 21
9.075893088
  0
LINE
  5
249
100
AcDbEntity
  8
0
100
AcDbLine
 62
9
  6
CONTINUOUS
 10
9.7752165513
 20
9.075893088
 11
9.7751927638
 21
9.7484393566
  0
LINE
  5
24A
100
AcDbEntity
  8
0
100
AcDbLine
 62
9
  6
CONTINUOUS
 10
9.835194568
 20
8.7577909993
 11
9.8081395124
 21
8.7576584745
  0
SPLINE
  5
24B
100
AcDbEntity
  8
0
100
AcDbSpline
 62
9
  6
CONTINUOUS
 70
0
 71
3
 72
15
 73
11
 74
0
 42
0.0000001
 43
0.0000001
 44
0.0000000001
 40
0.0
 40
0.0
 40
0.0
 40
0.0
 40
0.4257385673
 40
0.5949199273
 40
0.7341777794
 40
0.8433671346
 40
0.9226220583
 40
0.9513101389
 40
0.973105865
 40
1.0
 40
1.0
 40
1.0
 40
1.0
 10
9.8081395124
 20
8.7576584745
 30
0.0
 10
9.8077137988
 20
8.7576564505
 30
0.0
 10
9.8071188
 20
8.7576580298
 30
0.0
 10
9.806384965
 20
8.7576819686
 30
0.0
 10
9.8059680848
 20
8.7577070356
 30
0.0
 10
9.8056419025
 20
8.7577416469
 30
0.0
 10
9.8054280731
 20
8.7577785004
 30
0.0
 10
9.8053031943
 20
8.7578184929
 30
0.0
 10
9.8052345912
 20
8.7578487714
 30
0.0
 10
9.8051924844
 20
8.7578900329
 30
0.0
 10
9.8051924983
 20
8.7579169257
 30
0.0
  0
LINE
  5
24C
100
AcDbEntity
  8
0
100
AcDbLine
 62
9
  6
CONTINUOUS
 10
8.2176923749
 20
9.7484380137
 11
8.2176790259
 21
9.0755800815
  0
LINE
  5
24D
100
AcDbEntity
  8
0
100
AcDbLine
 62
9
  6
CONTINUOUS
 10
8.2176790259
 20
9.0755800815
 11
8.2176937598
 21
8.7276115129
  0
LINE
  5
24E
100
AcDbEntity
  8
0
100
AcDbLine
 62
9
  6
CONTINUOUS
 10
9.8351947297
 20
9.0483384883
 11
12.0402008216
 21
9.0483384883
  0
SPLINE
  5
24F
100
AcDbEntity
  8
0
100
AcDbSpline
 62
9
  6
CONTINUOUS
 70
0
 71
3
 72
21
 73
17
 74
0
 42
0.0000001
 43
0.0000001
 44
0.0000000001
 40
0.0
 40
0.0
 40
0.0
 40
0.0
 40
0.0055328996
 40
0.012004593
 40
0.0200023301
 40
0.0298279845
 40
0.0554670283
 40
0.089451239
 40
0.1318085757
 40
0.1822062448
 40
0.2401916859
 40
0.3052820012
 40
0.4545037557
 40
0.6244774236
 40
0.8090043679
 40
1.0
 40
1.0
 40
1.0
 40
1.0
 10
12.0701925037
 20
9.7518231553
 30
0.0
 10
12.0701925038
 20
9.7517667539
 30
0.0
 10
12.0702224226
 20
9.751643661
 30
0.0
 10
12.0703420606
 20
9.7514749739
 30
0.0
 10
12.0705295168
 20
9.7513110033
 30
0.0
 10
12.0709052108
 20
9.7510739865
 30
0.0
 10
12.0715604323
 20
9.750797012
 30
0.0
 10
12.0725549744
 20
9.7504927596
 30
0.0
 10
12.0738142706
 20
9.7502000687
 30
0.0
 10
12.0753255403
 20
9.7499205761
 30
0.0
 10
12.0770745693
 20
9.7496578582
 30
0.0
 10
12.0798297272
 20
9.7493184093
 30
0.0
 10
12.0837324553
 20
9.7489687835
 30
0.0
 10
12.0888589536
 20
9.7486661367
 30
0.0
 10
12.0944171239
 20
9.7484818297
 30
0.0
 10
12.0982452536
 20
9.7484396087
 30
0.0
 10
12.1001922297
 20
9.7484396381
 30
0.0
  0
SPLINE
  5
250
100
AcDbEntity
  8
0
100
AcDbSpline
 62
9
  6
CONTINUOUS
 70
0
 71
3
 72
13
 73
9
 74
0
 42
0.0000001
 43
0.0000001
 44
0.0000000001
 40
0.0
 40
0.0
 40
0.0
 40
0.0
 40
0.240784572
 40
0.3632520478
 40
0.4870971973
 40
0.612652221
 40
0.7400995945
 40
1.0
 40
1.0
 40
1.0
 40
1.0
 10
12.0942979322
 20
8.7276605185
 30
0.0
 10
12.0916463086
 20
8.727658852
 30
0.0
 10
12.0876101763
 20
8.7283331188
 30
0.0
 10
12.0826636446
 20
8.7304469731
 30
0.0
 10
12.0791841692
 20
8.7326400785
 30
0.0
 10
12.0760358907
 20
8.7353686909
 30
0.0
 10
12.0723516134
 20
8.7396693615
 30
0.0
 10
12.0702992313
 20
8.7434930075
 30
0.0
 10
12.0692997952
 20
8.746174975
 30
0.0
  0
SPLINE
  5
251
100
AcDbEntity
  8
0
100
AcDbSpline
 62
9
  6
CONTINUOUS
 70
0
 71
3
 72
9
 73
5
 74
0
 42
0.0000001
 43
0.0000001
 44
0.0000000001
 40
0.0
 40
0.0
 40
0.0
 40
0.0
 40
0.249461817
 40
1.0
 40
1.0
 40
1.0
 40
1.0
 10
12.0692997952
 20
8.746174975
 30
0.0
 10
12.0689600453
 20
8.7470866873
 30
0.0
 10
12.0677682896
 20
8.750802756
 30
0.0
 10
12.0672430943
 20
8.7547312016
 30
0.0
 10
12.0672444323
 20
8.7576584745
 30
0.0
  0
SPLINE
  5
252
100
AcDbEntity
  8
0
100
AcDbSpline
 62
9
  6
CONTINUOUS
 70
0
 71
3
 72
13
 73
9
 74
0
 42
0.0000001
 43
0.0000001
 44
0.0000000001
 40
0.0
 40
0.0
 40
0.0
 40
0.0
 40
0.2407842015
 40
0.3632517059
 40
0.4870969605
 40
0.6126521258
 40
0.740099604
 40
1.0
 40
1.0
 40
1.0
 40
1.0
 10
9.7810870647
 20
8.727659842
 30
0.0
 10
9.783738712
 20
8.7276582674
 30
0.0
 10
9.7877748584
 20
8.7283326849
 30
0.0
 10
9.7927213665
 20
8.7304467299
 30
0.0
 10
9.7962008075
 20
8.7326399755
 30
0.0
 10
9.7993490362
 20
8.7353687169
 30
0.0
 10
9.8030332309
 20
8.7396695389
 30
0.0
 10
9.8050855416
 20
8.7434932717
 30
0.0
 10
9.8060849345
 20
8.7461752871
 30
0.0
  0
SPLINE
  5
253
100
AcDbEntity
  8
0
100
AcDbSpline
 62
9
  6
CONTINUOUS
 70
0
 71
3
 72
9
 73
5
 74
0
 42
0.0000001
 43
0.0000001
 44
0.0000000001
 40
0.0
 40
0.0
 40
0.0
 40
0.0
 40
0.2494618949
 40
1.0
 40
1.0
 40
1.0
 40
1.0
 10
9.8060849345
 20
8.7461752871
 30
0.0
 10
9.8064246563
 20
8.74708698
 30
0.0
 10
9.8076163145
 20
8.7508029606
 30
0.0
 10
9.8081414706
 20
8.754731287
 30
0.0
 10
9.8081401416
 20
8.7576584745
 30
0.0
  0
SPLINE
  5
254
100
AcDbEntity
  8
0
100
AcDbSpline
 62
9
  6
CONTINUOUS
 70
0
 71
3
 72
21
 73
17
 74
0
 42
0.0000001
 43
0.0000001
 44
0.0000000001
 40
0.0
 40
0.0
 40
0.0
 40
0.0
 40
0.1909958849
 40
0.3755232918
 40
0.5454971909
 40
0.694718846
 40
0.7598091104
 40
0.8177945251
 40
0.8681921706
 40
0.9105494494
 40
0.9445335235
 40
0.9701723705
 40
0.979997918
 40
0.9879955525
 40
0.9944671585
 40
1.0
 40
1.0
 40
1.0
 40
1.0
 10
9.7751927667
 20
9.7484392027
 30
0.0
 10
9.7771397466
 20
9.7484391884
 30
0.0
 10
9.780967886
 20
9.7484815726
 30
0.0
 10
9.7865260579
 20
9.7486661914
 30
0.0
 10
9.7916525613
 20
9.7489688714
 30
0.0
 10
9.7955552993
 20
9.7493184241
 30
0.0
 10
9.7983104601
 20
9.7496578517
 30
0.0
 10
9.8000594895
 20
9.7499205684
 30
0.0
 10
9.8015707581
 20
9.7502000665
 30
0.0
 10
9.8028300514
 20
9.7504927639
 30
0.0
 10
9.8038245896
 20
9.7507970172
 30
0.0
 10
9.8044798077
 20
9.7510739893
 30
0.0
 10
9.8048554989
 20
9.7513110033
 30
0.0
 10
9.8050429532
 20
9.7514749717
 30
0.0
 10
9.8051625897
 20
9.751643657
 30
0.0
 10
9.8051925075
 20
9.7517667487
 30
0.0
 10
9.8051925073
 20
9.7518231495
 30
0.0
  0
SPLINE
  5
255
100
AcDbEntity
  8
0
100
AcDbSpline
 62
9
  6
CONTINUOUS
 70
0
 71
3
 72
9
 73
5
 74
0
 42
0.0000001
 43
0.0000001
 44
0.0000000001
 40
0.0
 40
0.0
 40
0.0
 40
0.0
 40
0.5
 40
1.0
 40
1.0
 40
1.0
 40
1.0
 10
12.0401942862
 20
8.7577909966
 30
0.0
 10
11.6726943413
 20
8.7577041045
 30
0.0
 10
10.9376944271
 20
8.7576421088
 30
0.0
 10
10.2026945128
 20
8.7577040716
 30
0.0
 10
9.835194568
 20
8.7577909961
 30
0.0
  0
SPLINE
  5
256
100
AcDbEntity
  8
0
100
AcDbSpline
 62
9
  6
CONTINUOUS
 70
0
 71
3
 72
11
 73
7
 74
0
 42
0.0000001
 43
0.0000001
 44
0.0000000001
 40
0.0
 40
0.0
 40
0.0
 40
0.0
 40
0.2503957132
 40
0.5005758403
 40
0.7504284782
 40
1.0
 40
1.0
 40
1.0
 40
1.0
 10
12.1001924982
 20
9.7817236426
 30
0.0
 10
12.0962909929
 20
9.7817236436
 30
0.0
 10
12.0884063517
 20
9.7801692233
 30
0.0
 10
12.0784346157
 20
9.7735179703
 30
0.0
 10
12.0717549387
 20
9.7635790754
 30
0.0
 10
12.0701924982
 20
9.7557118186
 30
0.0
 10
12.0701924982
 20
9.7518231553
 30
0.0
  0
SPLINE
  5
257
100
AcDbEntity
  8
0
100
AcDbSpline
 62
9
  6
CONTINUOUS
 70
0
 71
3
 72
11
 73
7
 74
0
 42
0.0000001
 43
0.0000001
 44
0.0000000001
 40
0.0
 40
0.0
 40
0.0
 40
0.0
 40
0.2503947712
 40
0.5005726104
 40
0.7504238275
 40
1.0
 40
1.0
 40
1.0
 40
1.0
 10
9.7751920946
 20
9.8053416744
 30
0.0
 10
9.7790936528
 20
9.8053416451
 30
0.0
 10
9.7869784043
 20
9.8037874183
 30
0.0
 10
9.7969502978
 20
9.7971360992
 30
0.0
 10
9.8036301184
 20
9.7871970414
 30
0.0
 10
9.8051925537
 20
9.7793295673
 30
0.0
 10
9.8051924982
 20
9.7754407642
 30
0.0
  0
SPLINE
  5
258
100
AcDbEntity
  8
0
100
AcDbSpline
 62
9
  6
CONTINUOUS
 70
0
 71
3
 72
11
 73
7
 74
0
 42
0.0000001
 43
0.0000001
 44
0.0000000001
 40
0.0
 40
0.0
 40
0.0
 40
0.0
 40
0.2503957501
 40
0.5005758968
 40
0.7504285563
 40
1.0
 40
1.0
 40
1.0
 40
1.0
 10
9.7751924982
 20
9.7817236368
 30
0.0
 10
9.7790940038
 20
9.7817236387
 30
0.0
 10
9.786978644
 20
9.7801692104
 30
0.0
 10
9.7969503809
 20
9.7735179606
 30
0.0
 10
9.8036300565
 20
9.763579066
 30
0.0
 10
9.8051924982
 20
9.7557118113
 30
0.0
 10
9.8051924982
 20
9.7518231495
 30
0.0
  0
LINE
  5
259
100
AcDbEntity
  8
0
100
AcDbLine
 62
9
  6
CONTINUOUS
 10
12.1001924982
 20
9.781723537
 11
13.6576924982
 21
9.7817236801
  0
LINE
  5
25A
100
AcDbEntity
  8
0
100
AcDbLine
 62
9
  6
CONTINUOUS
 10
13.6576919935
 20
9.805341501
 11
12.1001929259
 21
9.8053414704
  0
LINE
  5
25B
100
AcDbEntity
  8
0
100
AcDbLine
 62
9
  6
CONTINUOUS
 10
12.1001922427
 20
9.7484651302
 11
13.6576925943
 21
9.7485322488
  0
LINE
  5
25C
100
AcDbEntity
  8
0
100
AcDbLine
 62
9
  6
CONTINUOUS
 10
13.6576926025
 20
9.748438013
 11
13.6577059704
 21
9.0755799388
  0
LINE
  5
25D
100
AcDbEntity
  8
0
100
AcDbLine
 62
9
  6
CONTINUOUS
 10
13.6577059704
 20
9.0755799388
 11
13.6576912367
 21
8.7276115129
  0
LINE
  5
25E
100
AcDbEntity
  8
0
100
AcDbLine
 62
9
  6
CONTINUOUS
 10
12.1001922412
 20
9.7484393463
 11
12.1001684333
 21
9.0755434591
  0
LINE
  5
25F
100
AcDbEntity
  8
0
100
AcDbLine
 62
9
  6
CONTINUOUS
 10
12.1001684333
 20
9.0755434591
 11
12.1001897313
 21
8.7279236451
  0
LINE
  5
260
100
AcDbEntity
  8
0
100
AcDbLine
 62
9
  6
CONTINUOUS
 10
8.2176924982
 20
9.7817236692
 11
9.7751924982
 21
9.7817235341
  0
LINE
  5
261
100
AcDbEntity
  8
0
100
AcDbLine
 62
9
  6
CONTINUOUS
 10
9.7751920946
 20
9.805341462
 11
8.2176930061
 21
9.8053415019
  0
SPLINE
  5
262
100
AcDbEntity
  8
0
100
AcDbSpline
 62
9
  6
CONTINUOUS
 70
0
 71
3
 72
21
 73
17
 74
0
 42
0.0000001
 43
0.0000001
 44
0.0000000001
 40
0.0
 40
0.0
 40
0.0
 40
0.0
 40
0.1909906119
 40
0.3755129112
 40
0.5454828357
 40
0.6947020981
 40
0.7597916962
 40
0.8177768284
 40
0.8681746856
 40
0.9105328414
 40
0.944518707
 40
0.9701605424
 40
0.9799882025
 40
0.9879884897
 40
0.9944633794
 40
1.0
 40
1.0
 40
1.0
 40
1.0
 10
13.657692619
 20
9.7484373769
 30
0.0
 10
13.659639599
 20
9.7484373402
 30
0.0
 10
13.6634677387
 20
9.7484795199
 30
0.0
 10
13.6690259309
 20
9.7486638337
 30
0.0
 10
13.6741524519
 20
9.7489667139
 30
0.0
 10
13.6780551932
 20
9.7493166577
 30
0.0
 10
13.6808103597
 20
9.7496563873
 30
0.0
 10
13.6825593996
 20
9.7499193142
 30
0.0
 10
13.6840706811
 20
9.7501990237
 30
0.0
 10
13.6853299912
 20
9.7504919405
 30
0.0
 10
13.6863245495
 20
9.7507964279
 30
0.0
 10
13.6869797771
 20
9.7510736176
 30
0.0
 10
13.6873554652
 20
9.751310809
 30
0.0
 10
13.6875429259
 20
9.751474907
 30
0.0
 10
13.6876625598
 20
9.7516437225
 30
0.0
 10
13.6876924727
 20
9.75176689
 30
0.0
 10
13.6876924734
 20
9.7518233309
 30
0.0
  0
SPLINE
  5
263
100
AcDbEntity
  8
0
100
AcDbSpline
 62
9
  6
CONTINUOUS
 70
0
 71
3
 72
22
 73
18
 74
0
 42
0.0000001
 43
0.0000001
 44
0.0000000001
 40
0.0
 40
0.0
 40
0.0
 40
0.0
 40
0.0067928049
 40
0.0130990761
 40
0.021626839
 40
0.0324249458
 40
0.0455042822
 40
0.0608602792
 40
0.0784809841
 40
0.1203844699
 40
0.1707577467
 40
0.2290657906
 40
0.2947647389
 40
0.4458722815
 40
0.6183790207
 40
0.8058636118
 40
1.0
 40
1.0
 40
1.0
 40
1.0
 10
9.8051924988
 20
9.047992914
 30
0.0
 10
9.8051925458
 20
9.0479247857
 30
0.0
 10
9.8053405549
 20
9.047837932
 30
0.0
 10
9.805536615
 20
9.0477857635
 30
0.0
 10
9.8057948289
 20
9.0477381146
 30
0.0
 10
9.8061161337
 20
9.0477031122
 30
0.0
 10
9.8065094047
 20
9.0476754165
 30
0.0
 10
9.8069707815
 20
9.0476570945
 30
0.0
 10
9.8077218072
 20
9.0476435213
 30
0.0
 10
9.8088240705
 20
9.0476518069
 30
0.0
 10
9.8103339482
 20
9.0476886073
 30
0.0
 10
9.8120818941
 20
9.0477480035
 30
0.0
 10
9.8148390915
 20
9.0478545981
 30
0.0
 10
9.8187405042
 20
9.048012472
 30
0.0
 10
9.8238636881
 20
9.0481865842
 30
0.0
 10
9.8294201509
 20
9.0483066219
 30
0.0
 10
9.8332476436
 20
9.0483382829
 30
0.0
 10
9.8351947297
 20
9.0483385149
 30
0.0
  0
ENDSEC
  0
SECTION
  2
OBJECTS
  0
DICTIONARY
  5
C
100
AcDbDictionary
280
0
281
1
  3
ACAD_GROUP
350
D
  3
ACAD_MLINESTYLE
350
17
  3
ACAD_LAYOUT
350
1A
  3
ACAD_PLOTSETTINGS
350
19
  3
ACAD_PLOTSTYLENAME
350
E
  0
DICTIONARY
  5
D
102
{ACAD_REACTORS
330
C
102
}
100
AcDbDictionary
280
0
281
1
  0
ACDBDICTIONARYWDFLT
  5
E
102
{ACAD_REACTORS
330
C
102
}
100
AcDbDictionary
281
1
  3
Normal
350
F
100
AcDbDictionaryWithDefault
340
F
  0
DICTIONARY
  5
17
102
{ACAD_REACTORS
330
C
102
}
100
AcDbDictionary
280
0
281
1
  3
Standard
350
18
  0
DICTIONARY
  5
19
102
{ACAD_REACTORS
330
C
102
}
100
AcDbDictionary
281
1
  0
DICTIONARY
  5
1A
102
{ACAD_REACTORS
330
C
102
}
100
AcDbDictionary
281
1
  3
Model
350
264
  3
Layout1
350
265
  0
ACDBPLACEHOLDER
  5
F
102
{ACAD_REACTORS
330
E
102
}
  0
MLINESTYLE
  5
18
102
{ACAD_REACTORS
330
17
102
}
100
AcDbMlineStyle
  2
STANDARD
 70
0
  3

 62
256
 51
90.0
 52
90.0
 71
2
 49
0.5
 62
256
  6
BYLAYER
 49
-0.5
 62
256
  6
BYLAYER
  0
LAYOUT
  5
264
102
{ACAD_REACTORS
330
1A
102
}
100
AcDbPlotSettings
  1

  2
none_device
  4
ANSI_C_(22.00_x_17.00_Inches)
  6

 40
0.0
 41
0.0
 42
0.0
 43
0.0
 44
558.8
 45
431.8
 46
0.0
 47
0.0
 48
0.0
 49
0.0
140
0.0
141
0.0
142
1.0
143
1.0
 70
1024
 72
0
 73
0
 74
0
  7

 75
0
147
1.0
148
0.0
149
0.0
100
AcDbLayout
  1
Model
 70
0
 71
0
 10
0.0
 20
0.0
 11
22.0
 21
17.0
 12
0.0
 22
0.0
 32
0.0
 14
0.0
 24
0.0
 34
0.0
 15
0.0
 25
0.0
 35
0.0
146
0.0
 13
0.0
 23
0.0
 33
0.0
 16
1.0
 26
0.0
 36
0.0
 17
0.0
 27
1.0
 37
0.0
 76
0
330
205
345
0
346
0
  0
LAYOUT
  5
265
102
{ACAD_REACTORS
330
1A
102
}
100
AcDbPlotSettings
  1

  2
none_device
  4
ANSI_C_(22.00_x_17.00_Inches)
  6

 40
0.0
 41
0.0
 42
0.0
 43
0.0
 44
558.8
 45
431.8
 46
0.0
 47
0.0
 48
0.0
 49
0.0
140
0.0
141
0.0
142
1.0
143
1.0
 70
0
 72
0
 73
0
 74
0
  7

 75
0
147
1.0
148
0.0
149
0.0
100
AcDbLayout
  1
Layout1
 70
0
 71
1
 10
0.0
 20
0.0
 11
22.0
 21
17.0
 12
0.0
 22
0.0
 32
0.0
 14
0.0
 24
0.0
 34
0.0
 15
0.0
 25
0.0
 35
0.0
146
0.0
 13
0.0
 23
0.0
 33
0.0
 16
1.0
 26
0.0
 36
0.0
 17
0.0
 27
1.0
 37
0.0
 76
0
330
206
345
0
346
0
  0
ENDSEC
  0
EOF
