999
DXF file: E:\BT Custom\CADOUTPUT\_TOP.dxf
999
Pro/ENGINEER 2018400 by Parametric Technology Corporation
  0
SECTION
  2
HEADER
  9
$ACADVER
  1
AC1018
  9
$DWGCODEPAGE
  3
ANSI_1252
  9
$EXTMAX
 10
22.0
 20
17.0
 30
0.0
  9
$EXTMIN
 10
0.0
 20
0.0
 30
0.0
  9
$LIMMIN
 10
0.0
 20
0.0
  9
$LIMMAX
 10
22.0
 20
17.0
  9
$VIEWCTR
 10
11.0
 20
8.5
  9
$VIEWSIZE
 40
17.0
  9
$CLAYER
  8
0
  9
$LTSCALE
 40
1.21
  9
$CELTYPE
  6
BYLAYER
  9
$DIMSCALE
 40
1.0
  9
$DIMASZ
 40
0.1
  9
$DIMEXO
 40
0.0625
  9
$DIMDLI
 40
0.836
  9
$DIMEXE
 40
0.125
  9
$DIMCEN
 40
0.198
  9
$DIMLFAC
 40
1.0
  9
$DIMBLK
  1
_FILLED
  9
$DIMALT
 70
1
  9
$DIMALTD
 70
2
  9
$DIMALTTD
 70
2
  9
$DIMALTF
 40
25.4
  9
$DIMTXT
 40
0.08
  9
$DIMTOL
 70
1
  9
$DIMLIM
 70
0
  9
$DIMTFAC
 40
1.0
  9
$DIMTP
 40
0.001
  9
$DIMTM
 40
0.001
  9
$DIMGAP
 40
0.09
  9
$DIMDSEP
 70
46
  9
$AUNITS
 70
0
  9
$PDMODE
 70
3
  9
$PDSIZE
 40
0.06
  9
$HANDSEED
  5
239
  9
$TILEMODE
 70
1
  9
$MEASUREMENT
 70
0
  9
$INSUNITS
 70
1
  0
ENDSEC
  0
SECTION
  2
CLASSES
  0
CLASS
  1
ACDBDICTIONARYWDFLT
  2
AcDbDictionaryWithDefault
  3
AutoCAD 2000
 90
0
 91
1
280
0
281
0
  0
CLASS
  1
ACDBPLACEHOLDER
  2
AcDbPlaceHolder
  3
AutoCAD 2000
 90
0
 91
1
280
0
281
0
  0
CLASS
  1
LAYOUT
  2
AcDbLayout
  3
AutoCAD 2000
 90
0
 91
0
280
0
281
0
  0
ENDSEC
  0
SECTION
  2
TABLES
  0
TABLE
  2
VPORT
  5
8
100
AcDbSymbolTable
 70
2
  0
VPORT
  5
1F4
100
AcDbSymbolTableRecord
100
AcDbViewportTableRecord
  2
*ACTIVE
 70
0
 10
0.0
 20
0.0
 11
1.0
 21
1.0
 12
11.0
 22
8.5
 13
0.0
 23
0.0
 14
1.0
 24
1.0
 15
0.0
 25
0.0
 16
0.0
 26
0.0
 36
1.0
 17
0.0
 27
0.0
 37
0.0
 40
17.0
 41
1.2941176471
 42
50.0
 43
0.0
 44
0.0
 50
0.0
 51
0.0
 71
0
 72
100
 73
1
 74
1
 75
0
 76
0
 77
0
 78
0
  0
ENDTAB
  0
TABLE
  2
LTYPE
  5
5
100
AcDbSymbolTable
 70
6
  0
LTYPE
  5
14
100
AcDbSymbolTableRecord
100
AcDbLinetypeTableRecord
  2
BYBLOCK
 70
0
  3

 72
65
 73
0
 40
0.0
  0
LTYPE
  5
15
100
AcDbSymbolTableRecord
100
AcDbLinetypeTableRecord
  2
BYLAYER
 70
0
  3

 72
65
 73
0
 40
0.0
  0
LTYPE
  5
16
100
AcDbSymbolTableRecord
100
AcDbLinetypeTableRecord
  2
CONTINUOUS
 70
64
  3
Solid line
 72
65
 73
0
 40
0.0
  0
LTYPE
  5
1F5
100
AcDbSymbolTableRecord
100
AcDbLinetypeTableRecord
  2
CENTER
 70
64
  3
____ _ ____ _ ____ _ ____ _ ____ _ ____ _ ____
 72
65
 73
4
 40
0.6
 49
0.375
 74
0
 49
-0.075
 74
0
 49
0.075
 74
0
 49
-0.075
 74
0
  0
LTYPE
  5
1F6
100
AcDbSymbolTableRecord
100
AcDbLinetypeTableRecord
  2
HIDDEN
 70
64
  3
- - - - - - - - - - - - - - - - - - - -
 72
65
 73
2
 40
0.2
 49
0.1
 74
0
 49
-0.1
 74
0
  0
LTYPE
  5
1F7
100
AcDbSymbolTableRecord
100
AcDbLinetypeTableRecord
  2
PHANTOM
 70
64
  3
_____ _ _ _____ _ _ _____ _ _ _____
 72
65
 73
6
 40
0.8
 49
0.45
 74
0
 49
-0.05
 74
0
 49
0.1
 74
0
 49
-0.05
 74
0
 49
0.1
 74
0
 49
-0.05
 74
0
  0
LTYPE
  5
1F8
100
AcDbSymbolTableRecord
100
AcDbLinetypeTableRecord
  2
DOT
 70
64
  3
. . . . . . . . . . . . . . . . . . . .
 72
65
 73
2
 40
0.2
 49
0.1
 74
0
 49
-0.1
 74
0
  0
LTYPE
  5
1F9
100
AcDbSymbolTableRecord
100
AcDbLinetypeTableRecord
  2
DASHED
 70
64
  3
- - - - - - - - - - - - - - - - - - - -
 72
65
 73
2
 40
0.2
 49
0.1
 74
0
 49
-0.1
 74
0
  0
ENDTAB
  0
TABLE
  2
LAYER
  5
2
100
AcDbSymbolTable
 70
36
  0
LAYER
  5
10
100
AcDbSymbolTableRecord
100
AcDbLayerTableRecord
  2
0
 70
0
 62
7
  6
CONTINUOUS
370
-3
390
F
  0
LAYER
  5
1FA
100
AcDbSymbolTableRecord
100
AcDbLayerTableRecord
  2
DEFAULT_1
 70
0
 62
7
  6
CENTER
370
-3
390
F
  0
LAYER
  5
1FB
100
AcDbSymbolTableRecord
100
AcDbLayerTableRecord
  2
DEFAULT_2
 70
0
 62
8
  6
HIDDEN
370
-3
390
F
  0
LAYER
  5
1FC
100
AcDbSymbolTableRecord
100
AcDbLayerTableRecord
  2
DEFAULT_3
 70
0
 62
7
  6
PHANTOM
370
-3
390
F
  0
LAYER
  5
1FD
100
AcDbSymbolTableRecord
100
AcDbLayerTableRecord
  2
ALL_FEATURES
 70
0
 62
7
  6
CONTINUOUS
370
-3
390
F
  0
LAYER
  5
1FE
100
AcDbSymbolTableRecord
100
AcDbLayerTableRecord
  2
AXES_FEATURES
 70
0
 62
7
  6
CONTINUOUS
370
-3
390
F
  0
LAYER
  5
1FF
100
AcDbSymbolTableRecord
100
AcDbLayerTableRecord
  2
DEFAULT_COORDINATE_SYSTEM
 70
0
 62
7
  6
CONTINUOUS
370
-3
390
F
  0
LAYER
  5
200
100
AcDbSymbolTableRecord
100
AcDbLayerTableRecord
  2
DEFAULT_DATUM_AXES
 70
0
 62
7
  6
CONTINUOUS
370
-3
390
F
  0
LAYER
  5
201
100
AcDbSymbolTableRecord
100
AcDbLayerTableRecord
  2
DEFAULT_DATUM_PLANES
 70
0
 62
7
  6
CONTINUOUS
370
-3
390
F
  0
LAYER
  5
202
100
AcDbSymbolTableRecord
100
AcDbLayerTableRecord
  2
DIMENSIONS
 70
0
 62
7
  6
CONTINUOUS
370
-3
390
F
  0
ENDTAB
  0
TABLE
  2
STYLE
  5
3
100
AcDbSymbolTable
 70
1
  0
STYLE
  5
11
100
AcDbSymbolTableRecord
100
AcDbTextStyleTableRecord
  2
STANDARD
 70
0
 40
0.0
 41
0.8
 50
0.0
 71
0
 42
0.2
  3
txt
  4

  0
STYLE
  5
203
100
AcDbSymbolTableRecord
100
AcDbTextStyleTableRecord
  2
TEXTSTYLE_1
 70
0
 40
0.0
 41
0.8
 50
0.0
 71
0
 42
0.2
  3
gdt
  4

  0
ENDTAB
  0
TABLE
  2
VIEW
  5
6
100
AcDbSymbolTable
 70
0
  0
ENDTAB
  0
TABLE
  2
UCS
  5
7
100
AcDbSymbolTable
 70
0
  0
ENDTAB
  0
TABLE
  2
APPID
  5
9
100
AcDbSymbolTable
 70
1
  0
APPID
  5
204
100
AcDbSymbolTableRecord
100
AcDbRegAppTableRecord
  2
ACAD
 70
0
  0
ENDTAB
  0
TABLE
  2
BLOCK_RECORD
  5
1
100
AcDbSymbolTable
 70
0
  0
BLOCK_RECORD
  5
205
100
AcDbSymbolTableRecord
100
AcDbBlockTableRecord
  2
*Model_Space
  0
BLOCK_RECORD
  5
206
100
AcDbSymbolTableRecord
100
AcDbBlockTableRecord
  2
*Paper_Space
  0
BLOCK_RECORD
  5
207
100
AcDbSymbolTableRecord
100
AcDbBlockTableRecord
  2
_FILLED
  0
ENDTAB
  0
TABLE
  2
DIMSTYLE
  5
A
100
AcDbSymbolTable
 70
1
100
AcDbDimStyleTable
 71
0
  0
DIMSTYLE
105
208
100
AcDbSymbolTableRecord
100
AcDbDimStyleTableRecord
  2
STANDARD
 70
0
  3

  4

 40
1.0
 41
0.1
 42
0.0625
 43
0.38
 44
0.125
 45
0.0
 46
0.0
 47
0.001
 48
0.001
140
0.08
141
0.09
142
0.0
143
25.4
144
1.0
145
0.0
146
1.0
147
0.09
 71
1.0
 72
0.0
 73
1
 74
1
 75
0
 76
0
 77
0
 78
4
 79
1
170
1
171
2
172
0
173
0
174
0
175
0
176
0
177
0
178
0
270
2
179
3
271
3
272
3
273
2
274
2
275
0
280
0
281
0
282
0
283
1
284
4
285
0
286
0
287
3
288
0
340
11
278
46
341
207
342
207
343
207
344
207
  0
ENDTAB
  0
ENDSEC
  0
SECTION
  2
BLOCKS
  0
BLOCK
  5
20
100
AcDbEntity
  8
0
100
AcDbBlockBegin
  2
*Model_Space
 70
0
 10
0.0
 20
0.0
 30
0.0
  3
*Model_Space
  1

  0
ENDBLK
  5
21
100
AcDbEntity
  8
0
100
AcDbBlockEnd
  0
BLOCK
  5
1C
100
AcDbEntity
  8
0
100
AcDbBlockBegin
  2
*Paper_Space
 70
0
 10
0.0
 20
0.0
 30
0.0
  3
*Paper_Space
  1

  0
ENDBLK
  5
1D
100
AcDbEntity
  8
0
100
AcDbBlockEnd
  0
BLOCK
  5
209
100
AcDbEntity
  8
0
100
AcDbBlockBegin
  2
_FILLED
 70
64
 10
0.0
 20
0.0
  3
_FILLED
  1

  0
SOLID
  5
20A
100
AcDbEntity
  8
0
  6
BYBLOCK
 62
0
100
AcDbTrace
 10
0.0
 20
0.0
 11
-1.0
 21
0.2
 12
-1.0
 22
-0.2
 13
-1.0
 23
-0.2
  0
ENDBLK
  5
20B
100
AcDbEntity
  8
0
  6
BYBLOCK
 62
0
100
AcDbBlockEnd
  0
ENDSEC
  0
SECTION
  2
ENTITIES
  0
LINE
  5
20C
100
AcDbEntity
  8
0
100
AcDbLine
 62
7
  6
CONTINUOUS
 10
8.2973184938
 20
8.7303478876
 11
8.2973184938
 21
6.2643264955
  0
LINE
  5
20D
100
AcDbEntity
  8
0
100
AcDbLine
 62
9
  6
CONTINUOUS
 10
8.3273184938
 20
8.7303478907
 11
8.3272508366
 21
6.2343266989
  0
LINE
  5
20E
100
AcDbEntity
  8
0
100
AcDbLine
 62
7
  6
CONTINUOUS
 10
12.2098182258
 20
6.2343218694
 11
13.7673186142
 21
6.2343233142
  0
LINE
  5
20F
100
AcDbEntity
  8
0
100
AcDbLine
 62
7
  6
CONTINUOUS
 10
8.3273183733
 20
6.2343233133
 11
9.8848184822
 21
6.2343219145
  0
LINE
  5
210
100
AcDbEntity
  8
0
100
AcDbLine
 62
9
  6
CONTINUOUS
 10
9.884886182
 20
6.2343247637
 11
9.8848184938
 21
7.4011888492
  0
LINE
  5
211
100
AcDbEntity
  8
0
100
AcDbLine
 62
7
  6
CONTINUOUS
 10
9.9148184938
 20
6.264324524
 11
9.9148184938
 21
7.4003491845
  0
LINE
  5
212
100
AcDbEntity
  8
0
100
AcDbLine
 62
9
  6
CONTINUOUS
 10
9.9448184938
 20
7.4591773657
 11
9.9448184938
 21
7.4303478876
  0
LINE
  5
213
100
AcDbEntity
  8
0
100
AcDbLine
 62
9
  6
CONTINUOUS
 10
13.7673184938
 20
6.5833255296
 11
12.2098184938
 21
6.5833255302
  0
LINE
  5
214
100
AcDbEntity
  8
0
100
AcDbLine
 62
9
  6
CONTINUOUS
 10
9.8848184938
 20
6.58332554
 11
8.3273184938
 21
6.5833255327
  0
LINE
  5
215
100
AcDbEntity
  8
0
100
AcDbLine
 62
7
  6
CONTINUOUS
 10
12.1498202817
 20
7.4303478876
 11
9.9448205635
 21
7.4303478876
  0
LINE
  5
216
100
AcDbEntity
  8
0
100
AcDbLine
 62
9
  6
CONTINUOUS
 10
9.9448184938
 20
7.4591773657
 11
12.1498184938
 21
7.4591773657
  0
LINE
  5
217
100
AcDbEntity
  8
0
100
AcDbLine
 62
9
  6
CONTINUOUS
 10
12.1498184941
 20
7.4591773886
 11
12.1498184939
 21
7.4303475707
  0
LINE
  5
218
100
AcDbEntity
  8
0
100
AcDbLine
 62
7
  6
CONTINUOUS
 10
12.1798184938
 20
7.4003455187
 11
12.1798184938
 21
6.2643246241
  0
LINE
  5
219
100
AcDbEntity
  8
0
100
AcDbLine
 62
9
  6
CONTINUOUS
 10
12.2098184938
 20
7.4011888492
 11
12.2097507087
 21
6.234324894
  0
LINE
  5
21A
100
AcDbEntity
  8
0
100
AcDbLine
 62
7
  6
CONTINUOUS
 10
8.2973184938
 20
8.7303478876
 11
13.7973184938
 21
8.7303478876
  0
LINE
  5
21B
100
AcDbEntity
  8
0
100
AcDbLine
 62
9
  6
CONTINUOUS
 10
13.7673184938
 20
8.7303478902
 11
13.7673861518
 21
6.2343270916
  0
LINE
  5
21C
100
AcDbEntity
  8
0
100
AcDbLine
 62
7
  6
CONTINUOUS
 10
13.7973184938
 20
6.2643267617
 11
13.7973184938
 21
8.7303478876
  0
ARC
  5
21D
100
AcDbEntity
  8
0
100
AcDbCircle
 62
7
  6
CONTINUOUS
 10
12.1498184938
 20
7.4003478876
 40
0.03
100
AcDbArc
 50
359.9954757881
 51
89.984103448
  0
ARC
  5
21E
100
AcDbEntity
  8
0
100
AcDbCircle
 62
7
  6
CONTINUOUS
 10
9.9448184938
 20
7.4003478876
 40
0.03
100
AcDbArc
 50
89.9957381666
 51
179.9877168266
  0
ARC
  5
21F
100
AcDbEntity
  8
0
100
AcDbCircle
 62
7
  6
CONTINUOUS
 10
9.8848185448
 20
6.2643244946
 40
0.0299999581
100
AcDbArc
 50
270.1277657224
 51
0.0000244421
  0
ARC
  5
220
100
AcDbEntity
  8
0
100
AcDbCircle
 62
7
  6
CONTINUOUS
 10
12.2098184573
 20
6.2643246239
 40
0.0299999581
100
AcDbArc
 50
180.0000239025
 51
269.8720327609
  0
ARC
  5
221
100
AcDbEntity
  8
0
100
AcDbCircle
 62
7
  6
CONTINUOUS
 10
8.3273184401
 20
6.2643264292
 40
0.029999958
100
AcDbArc
 50
179.9999753736
 51
269.8723079807
  0
ARC
  5
222
100
AcDbEntity
  8
0
100
AcDbCircle
 62
7
  6
CONTINUOUS
 10
13.767318511
 20
6.264326824
 40
0.0299999579
100
AcDbArc
 50
270.1277732496
 51
359.9998799949
  0
SPLINE
  5
223
100
AcDbEntity
  8
0
100
AcDbSpline
 62
9
  6
CONTINUOUS
 70
0
 71
3
 72
16
 73
12
 74
0
 42
0.0000001
 43
0.0000001
 44
0.0000000001
 40
0.0
 40
0.0
 40
0.0
 40
0.0
 40
0.1248781445
 40
0.2499954201
 40
0.3749680995
 40
0.4999425517
 40
0.6249172139
 40
0.7498933641
 40
0.8124991657
 40
0.8751505757
 40
1.0
 40
1.0
 40
1.0
 40
1.0
 10
12.1498184938
 20
7.4591773657
 30
0.0
 10
12.1536702634
 20
7.4591789812
 30
0.0
 10
12.1614001636
 20
7.4584517684
 30
0.0
 10
12.172577027
 20
7.4552354535
 30
0.0
 10
12.1829560603
 20
7.4499658512
 30
0.0
 10
12.1921317909
 20
7.4428093492
 30
0.0
 10
12.1997499886
 20
7.4340107605
 30
0.0
 10
12.2045141284
 20
7.4255477176
 30
0.0
 10
12.207241658
 20
7.4183142872
 30
0.0
 10
12.2092075019
 20
7.4108447394
 30
0.0
 10
12.2098179902
 20
7.4050397333
 30
0.0
 10
12.2098184938
 20
7.4011888492
 30
0.0
  0
SPLINE
  5
224
100
AcDbEntity
  8
0
100
AcDbSpline
 62
9
  6
CONTINUOUS
 70
0
 71
3
 72
16
 73
12
 74
0
 42
0.0000001
 43
0.0000001
 44
0.0000000001
 40
0.0
 40
0.0
 40
0.0
 40
0.0
 40
0.1248480455
 40
0.187498358
 40
0.2501019299
 40
0.3750755028
 40
0.5000513258
 40
0.6250250747
 40
0.7500009801
 40
0.8751202289
 40
1.0
 40
1.0
 40
1.0
 40
1.0
 10
9.8848184938
 20
7.4011888492
 30
0.0
 10
9.8848171324
 20
7.4050397088
 30
0.0
 10
9.8854266723
 20
7.4108450099
 30
0.0
 10
9.8873929158
 20
7.4183143353
 30
0.0
 10
9.8901211855
 20
7.4255473564
 30
0.0
 10
9.8948863136
 20
7.4340096659
 30
0.0
 10
9.9025037691
 20
7.442808754
 30
0.0
 10
9.9116794441
 20
7.4499657928
 30
0.0
 10
9.9220594415
 20
7.4552341365
 30
0.0
 10
9.9332370161
 20
7.4584487471
 30
0.0
 10
9.9409666554
 20
7.4591769943
 30
0.0
 10
9.9448184938
 20
7.4591773657
 30
0.0
  0
LINE
  5
225
100
AcDbEntity
  8
0
100
AcDbLine
 62
9
  6
CONTINUOUS
 10
8.3273184938
 20
6.2618834494
 11
9.8848184938
 21
6.2618817958
  0
LINE
  5
226
100
AcDbEntity
  8
0
100
AcDbLine
 62
9
  6
CONTINUOUS
 10
13.767317989
 20
6.5511271127
 11
12.2098189214
 21
6.5511267379
  0
LINE
  5
227
100
AcDbEntity
  8
0
100
AcDbLine
 62
9
  6
CONTINUOUS
 10
12.2098184938
 20
6.2618818314
 11
13.7673184938
 21
6.261883584
  0
SPLINE
  5
228
100
AcDbEntity
  8
0
100
AcDbSpline
 62
9
  6
CONTINUOUS
 70
0
 71
3
 72
21
 73
17
 74
0
 42
0.0000001
 43
0.0000001
 44
0.0000000001
 40
0.0
 40
0.0
 40
0.0
 40
0.0
 40
0.1926038311
 40
0.3786486319
 40
0.5499195986
 40
0.7000992193
 40
0.7654975937
 40
0.8236501599
 40
0.8740509193
 40
0.8961913806
 40
0.9162127894
 40
0.9497249782
 40
0.974496409
 40
0.9836661614
 40
0.9907954365
 40
1.0
 40
1.0
 40
1.0
 40
1.0
 10
9.8848184938
 20
6.2618830536
 30
0.0
 10
9.8867654676
 20
6.2618830536
 30
0.0
 10
9.8905931734
 20
6.2619137515
 30
0.0
 10
9.8961508186
 20
6.2620471286
 30
0.0
 10
9.9012765841
 20
6.2622654415
 30
0.0
 10
9.9051795148
 20
6.2625175266
 30
0.0
 10
9.9079358528
 20
6.2627624463
 30
0.0
 10
9.9096841558
 20
6.2629519889
 30
0.0
 10
9.9109939331
 20
6.263126478
 30
0.0
 10
9.9119178656
 20
6.2632748501
 30
0.0
 10
9.9126704214
 20
6.2634119636
 30
0.0
 10
9.9134440317
 20
6.2635834338
 30
0.0
 10
9.9140971941
 20
6.2637795793
 30
0.0
 10
9.9144779844
 20
6.2639542279
 30
0.0
 10
9.9146930449
 20
6.2640848062
 30
0.0
 10
9.9148184938
 20
6.2642314946
 30
0.0
 10
9.9148184938
 20
6.2643245408
 30
0.0
  0
SPLINE
  5
229
100
AcDbEntity
  8
0
100
AcDbSpline
 62
9
  6
CONTINUOUS
 70
0
 71
3
 72
21
 73
17
 74
0
 42
0.0000001
 43
0.0000001
 44
0.0000000001
 40
0.0
 40
0.0
 40
0.0
 40
0.0
 40
0.1926046236
 40
0.3786496122
 40
0.5499203998
 40
0.7000998768
 40
0.7654983482
 40
0.8236512842
 40
0.8740522502
 40
0.896192617
 40
0.9162137269
 40
0.9497254609
 40
0.9744969734
 40
0.9836667465
 40
0.9907959298
 40
1.0
 40
1.0
 40
1.0
 40
1.0
 10
9.8848180901
 20
6.5511292362
 30
0.0
 10
9.8867650978
 20
6.5511292379
 30
0.0
 10
9.8905928645
 20
6.551159961
 30
0.0
 10
9.8961505904
 20
6.5512933893
 30
0.0
 10
9.9012764222
 20
6.5515117072
 30
0.0
 10
9.9051794036
 20
6.5517637817
 30
0.0
 10
9.9079357816
 20
6.5520087037
 30
0.0
 10
9.9096841148
 20
6.5521982487
 30
0.0
 10
9.9109939143
 20
6.55237274
 30
0.0
 10
9.9119178574
 20
6.5525211131
 30
0.0
 10
9.9126704147
 20
6.5526582273
 30
0.0
 10
9.9134440289
 20
6.552829697
 30
0.0
 10
9.9140971997
 20
6.5530258302
 30
0.0
 10
9.9144780002
 20
6.5532004728
 30
0.0
 10
9.9146930615
 20
6.5533310403
 30
0.0
 10
9.91481851
 20
6.5534777378
 30
0.0
 10
9.9148184938
 20
6.5535707802
 30
0.0
  0
SPLINE
  5
22A
100
AcDbEntity
  8
0
100
AcDbSpline
 62
9
  6
CONTINUOUS
 70
0
 71
3
 72
11
 73
7
 74
0
 42
0.0000001
 43
0.0000001
 44
0.0000000001
 40
0.0
 40
0.0
 40
0.0
 40
0.0
 40
0.2490690366
 40
0.4986837795
 40
0.7490694203
 40
1.0
 40
1.0
 40
1.0
 40
1.0
 10
13.7973174897
 20
6.5535718447
 30
0.0
 10
13.7973174921
 20
6.5574434629
 30
0.0
 10
13.7957519892
 20
6.5652809356
 30
0.0
 10
13.7890666011
 20
6.5751727539
 30
0.0
 10
13.7790959238
 20
6.5817863154
 30
0.0
 10
13.7712190489
 20
6.5833312749
 30
0.0
 10
13.7673184942
 20
6.5833313565
 30
0.0
  0
SPLINE
  5
22B
100
AcDbEntity
  8
0
100
AcDbSpline
 62
9
  6
CONTINUOUS
 70
0
 71
3
 72
21
 73
17
 74
0
 42
0.0000001
 43
0.0000001
 44
0.0000000001
 40
0.0
 40
0.0
 40
0.0
 40
0.0
 40
0.1926028096
 40
0.3786459969
 40
0.5499153546
 40
0.7000938726
 40
0.7654919445
 40
0.8236445505
 40
0.8740453757
 40
0.8961858054
 40
0.9162071161
 40
0.9497198002
 40
0.974493013
 40
0.9836638804
 40
0.990794239
 40
1.0
 40
1.0
 40
1.0
 40
1.0
 10
12.2098189215
 20
6.5511294647
 30
0.0
 10
12.2078719207
 20
6.5511294626
 30
0.0
 10
12.2040441685
 20
6.5511600309
 30
0.0
 10
12.1984864527
 20
6.5512931445
 30
0.0
 10
12.1933606305
 20
6.5515114418
 30
0.0
 10
12.1894576595
 20
6.5517635839
 30
0.0
 10
12.1867012806
 20
6.5520084809
 30
0.0
 10
12.1849529426
 20
6.5521979952
 30
0.0
 10
12.1836431375
 20
6.5523724742
 30
0.0
 10
12.18271919
 20
6.5525208631
 30
0.0
 10
12.181966622
 20
6.5526580122
 30
0.0
 10
12.1811929905
 20
6.5528295652
 30
0.0
 10
12.1805398131
 20
6.5530258277
 30
0.0
 10
12.1801590088
 20
6.5532005647
 30
0.0
 10
12.1799439425
 20
6.5533312038
 30
0.0
 10
12.179818485
 20
6.5534779227
 30
0.0
 10
12.1798184938
 20
6.5535709828
 30
0.0
  0
SPLINE
  5
22C
100
AcDbEntity
  8
0
100
AcDbSpline
 62
9
  6
CONTINUOUS
 70
0
 71
3
 72
21
 73
17
 74
0
 42
0.0000001
 43
0.0000001
 44
0.0000000001
 40
0.0
 40
0.0
 40
0.0
 40
0.0
 40
0.1926039852
 40
0.3786489588
 40
0.5499200653
 40
0.7000997877
 40
0.7654982177
 40
0.8236508408
 40
0.8740516429
 40
0.8961921117
 40
0.9162135122
 40
0.9497256157
 40
0.9744968644
 40
0.9836664935
 40
0.9907956338
 40
1.0
 40
1.0
 40
1.0
 40
1.0
 10
12.2098184938
 20
6.2618831245
 30
0.0
 10
12.2078715199
 20
6.2618831244
 30
0.0
 10
12.2040438137
 20
6.2619138433
 30
0.0
 10
12.1984861692
 20
6.2620472638
 30
0.0
 10
12.1933604039
 20
6.262265579
 30
0.0
 10
12.1894574724
 20
6.2625176542
 30
0.0
 10
12.1867011347
 20
6.2627625771
 30
0.0
 10
12.1849528318
 20
6.2629521239
 30
0.0
 10
12.1836430548
 20
6.2631266148
 30
0.0
 10
12.1827191222
 20
6.2632749846
 30
0.0
 10
12.1819665671
 20
6.2634120932
 30
0.0
 10
12.1811929579
 20
6.2635835518
 30
0.0
 10
12.180539795
 20
6.2637796792
 30
0.0
 10
12.1801590038
 20
6.2639543144
 30
0.0
 10
12.179943943
 20
6.2640848827
 30
0.0
 10
12.1798184938
 20
6.2642315675
 30
0.0
 10
12.1798184938
 20
6.2643246116
 30
0.0
  0
SPLINE
  5
22D
100
AcDbEntity
  8
0
100
AcDbSpline
 62
9
  6
CONTINUOUS
 70
0
 71
3
 72
11
 73
7
 74
0
 42
0.0000001
 43
0.0000001
 44
0.0000000001
 40
0.0
 40
0.0
 40
0.0
 40
0.0
 40
0.2509299007
 40
0.5013155911
 40
0.7509303855
 40
1.0
 40
1.0
 40
1.0
 40
1.0
 10
8.3273184938
 20
6.5833307637
 30
0.0
 10
8.3234178679
 20
6.5833307857
 30
0.0
 10
8.3155407201
 20
6.5817864753
 30
0.0
 10
8.3055696056
 20
6.5751729984
 30
0.0
 10
8.2988837973
 20
6.5652811793
 30
0.0
 10
8.2973180644
 20
6.5574435443
 30
0.0
 10
8.2973180357
 20
6.553571836
 30
0.0
  0
SPLINE
  5
22E
100
AcDbEntity
  8
0
100
AcDbSpline
 62
9
  6
CONTINUOUS
 70
0
 71
3
 72
23
 73
19
 74
0
 42
0.0000001
 43
0.0000001
 44
0.0000000001
 40
0.0
 40
0.0
 40
0.0
 40
0.0
 40
0.1943688439
 40
0.3820639722
 40
0.5547553358
 40
0.6334360226
 40
0.706014656
 40
0.7717817988
 40
0.8301649142
 40
0.8806265908
 40
0.9226314881
 40
0.9557084727
 40
0.9688257625
 40
0.9796374526
 40
0.98812949
 40
0.9942978024
 40
0.9981726667
 40
1.0
 40
1.0
 40
1.0
 40
1.0
 10
12.2098184938
 20
7.4011888574
 30
0.0
 10
12.207871606
 20
7.4011888701
 30
0.0
 10
12.2040446689
 20
7.401178333
 30
0.0
 10
12.1984881464
 20
7.4011323629
 30
0.0
 10
12.1940906763
 20
7.4010680213
 30
0.0
 10
12.1908465183
 20
7.4010010999
 30
0.0
 10
12.1886733619
 20
7.4009463995
 30
0.0
 10
12.1867037429
 20
7.4008860767
 30
0.0
 10
12.1849559611
 20
7.4008208638
 30
0.0
 10
12.1834465114
 20
7.4007515707
 30
0.0
 10
12.1821911605
 20
7.4006790538
 30
0.0
 10
12.1813099236
 20
7.4006125476
 30
0.0
 10
12.1807420103
 20
7.4005559939
 30
0.0
 10
12.1804190278
 20
7.4005160469
 30
0.0
 10
12.1801684437
 20
7.4004781189
 30
0.0
 10
12.179982994
 20
7.4004364861
 30
0.0
 10
12.1798765539
 20
7.4004056408
 30
0.0
 10
12.1798185545
 20
7.400366191
 30
0.0
 10
12.1798185616
 20
7.4003478876
 30
0.0
  0
SPLINE
  5
22F
100
AcDbEntity
  8
0
100
AcDbSpline
 62
9
  6
CONTINUOUS
 70
0
 71
3
 72
11
 73
7
 74
0
 42
0.0000001
 43
0.0000001
 44
0.0000000001
 40
0.0
 40
0.0
 40
0.0
 40
0.0
 40
0.2509299217
 40
0.5013156156
 40
0.7509304085
 40
1.0
 40
1.0
 40
1.0
 40
1.0
 10
12.2098184938
 20
6.5833299826
 30
0.0
 10
12.2059178679
 20
6.5833299997
 30
0.0
 10
12.1980407244
 20
6.5817856599
 30
0.0
 10
12.1880696268
 20
6.5751721632
 30
0.0
 10
12.1813838405
 20
6.5652803278
 30
0.0
 10
12.1798181327
 20
6.5574426904
 30
0.0
 10
12.1798181086
 20
6.5535709827
 30
0.0
  0
SPLINE
  5
230
100
AcDbEntity
  8
0
100
AcDbSpline
 62
9
  6
CONTINUOUS
 70
0
 71
3
 72
21
 73
17
 74
0
 42
0.0000001
 43
0.0000001
 44
0.0000000001
 40
0.0
 40
0.0
 40
0.0
 40
0.0
 40
0.1926041146
 40
0.378649234
 40
0.5499204598
 40
0.7001002698
 40
0.7654987476
 40
0.8236514195
 40
0.8740522582
 40
0.8961927338
 40
0.9162141277
 40
0.949726159
 40
0.9744972524
 40
0.9836667764
 40
0.9907958017
 40
1.0
 40
1.0
 40
1.0
 40
1.0
 10
13.7673184938
 20
6.2618852747
 30
0.0
 10
13.7692654677
 20
6.2618852747
 30
0.0
 10
13.7730931741
 20
6.2619160114
 30
0.0
 10
13.778650818
 20
6.262049469
 30
0.0
 10
13.7837765832
 20
6.2622677861
 30
0.0
 10
13.7876795153
 20
6.2625198528
 30
0.0
 10
13.7904358529
 20
6.2627647785
 30
0.0
 10
13.7921841555
 20
6.262954329
 30
0.0
 10
13.7934939324
 20
6.2631288212
 30
0.0
 10
13.794417865
 20
6.2632771891
 30
0.0
 10
13.7951704196
 20
6.2634142936
 30
0.0
 10
13.7959440279
 20
6.2635857422
 30
0.0
 10
13.7965971912
 20
6.2637818542
 30
0.0
 10
13.7969779831
 20
6.263956478
 30
0.0
 10
13.7971930443
 20
6.2640870378
 30
0.0
 10
13.7973184937
 20
6.2642337194
 30
0.0
 10
13.7973184938
 20
6.2643267617
 30
0.0
  0
SPLINE
  5
231
100
AcDbEntity
  8
0
100
AcDbSpline
 62
9
  6
CONTINUOUS
 70
0
 71
3
 72
21
 73
17
 74
0
 42
0.0000001
 43
0.0000001
 44
0.0000000001
 40
0.0
 40
0.0
 40
0.0
 40
0.0
 40
0.1926045915
 40
0.3786496293
 40
0.5499204894
 40
0.7001000191
 40
0.7654984928
 40
0.8236514102
 40
0.8740523404
 40
0.8961926859
 40
0.9162137748
 40
0.9497254759
 40
0.9744969715
 40
0.9836667426
 40
0.9907959272
 40
1.0
 40
1.0
 40
1.0
 40
1.0
 10
13.767317989
 20
6.5511302925
 30
0.0
 10
13.7692650038
 20
6.5511302946
 30
0.0
 10
13.7730927853
 20
6.5511610087
 30
0.0
 10
13.7786505339
 20
6.5512944174
 30
0.0
 10
13.7837763873
 20
6.5515127348
 30
0.0
 10
13.7876793846
 20
6.5517648144
 30
0.0
 10
13.7904357736
 20
6.5520097355
 30
0.0
 10
13.7921841132
 20
6.552199279
 30
0.0
 10
13.7934939172
 20
6.5523737701
 30
0.0
 10
13.7944178629
 20
6.5525221446
 30
0.0
 10
13.7951704219
 20
6.5526592615
 30
0.0
 10
13.7959440373
 20
6.552830737
 30
0.0
 10
13.7965972078
 20
6.5530268791
 30
0.0
 10
13.7969780066
 20
6.5532015287
 30
0.0
 10
13.7971930662
 20
6.5533321009
 30
0.0
 10
13.7973185122
 20
6.5534788019
 30
0.0
 10
13.7973184938
 20
6.5535718447
 30
0.0
  0
SPLINE
  5
232
100
AcDbEntity
  8
0
100
AcDbSpline
 62
9
  6
CONTINUOUS
 70
0
 71
3
 72
21
 73
17
 74
0
 42
0.0000001
 43
0.0000001
 44
0.0000000001
 40
0.0
 40
0.0
 40
0.0
 40
0.0
 40
0.192602518
 40
0.3786454848
 40
0.5499146952
 40
0.7000931232
 40
0.7654911498
 40
0.8236437087
 40
0.8740445026
 40
0.8961849322
 40
0.9162062611
 40
0.949719058
 40
0.9744924893
 40
0.9836635009
 40
0.9907940158
 40
1.0
 40
1.0
 40
1.0
 40
1.0
 10
8.3273190017
 20
6.5511303171
 30
0.0
 10
8.3253719969
 20
6.5511303146
 30
0.0
 10
8.3215442362
 20
6.5511608574
 30
0.0
 10
8.3159865057
 20
6.5512939184
 30
0.0
 10
8.3108606694
 20
6.5515122125
 30
0.0
 10
8.306957688
 20
6.5517643663
 30
0.0
 10
8.3042013007
 20
6.5520092595
 30
0.0
 10
8.3024529572
 20
6.552198769
 30
0.0
 10
8.3011431478
 20
6.5523732463
 30
0.0
 10
8.3002191975
 20
6.5525216382
 30
0.0
 10
8.2994666265
 20
6.5526587934
 30
0.0
 10
8.2986929914
 20
6.5528303607
 30
0.0
 10
8.2980398127
 20
6.5530266452
 30
0.0
 10
8.2976590084
 20
6.5532013985
 30
0.0
 10
8.2974439421
 20
6.5533320498
 30
0.0
 10
8.2973184847
 20
6.5534787735
 30
0.0
 10
8.2973184938
 20
6.5535718361
 30
0.0
  0
SPLINE
  5
233
100
AcDbEntity
  8
0
100
AcDbSpline
 62
9
  6
CONTINUOUS
 70
0
 71
3
 72
21
 73
17
 74
0
 42
0.0000001
 43
0.0000001
 44
0.0000000001
 40
0.0
 40
0.0
 40
0.0
 40
0.0
 40
0.1926037778
 40
0.3786485193
 40
0.5499194392
 40
0.7000990265
 40
0.7654973822
 40
0.823649929
 40
0.8740506738
 40
0.8961911326
 40
0.9162125444
 40
0.9497247623
 40
0.9744962546
 40
0.9836660486
 40
0.9907953694
 40
1.0
 40
1.0
 40
1.0
 40
1.0
 10
8.3273184938
 20
6.2618850083
 30
0.0
 10
8.32537152
 20
6.2618850082
 30
0.0
 10
8.3215438143
 20
6.2619156989
 30
0.0
 10
8.3159861689
 20
6.2620490613
 30
0.0
 10
8.3108604034
 20
6.2622673734
 30
0.0
 10
8.3069574728
 20
6.2625194619
 30
0.0
 10
8.3042011348
 20
6.2627643805
 30
0.0
 10
8.3024528316
 20
6.2629539216
 30
0.0
 10
8.3011430543
 20
6.2631284102
 30
0.0
 10
8.3002191218
 20
6.263276783
 30
0.0
 10
8.2994665658
 20
6.2634138982
 30
0.0
 10
8.2986929552
 20
6.2635853723
 30
0.0
 10
8.2980397929
 20
6.263781524
 30
0.0
 10
8.2976590029
 20
6.2639561772
 30
0.0
 10
8.2974439426
 20
6.2640867588
 30
0.0
 10
8.2973184938
 20
6.2642334485
 30
0.0
 10
8.2973184938
 20
6.2643264954
 30
0.0
  0
LINE
  5
234
100
AcDbEntity
  8
0
100
AcDbLine
 62
9
  6
CONTINUOUS
 10
9.8848180901
 20
6.5511266347
 11
8.3273190017
 21
6.5511271235
  0
SPLINE
  5
235
100
AcDbEntity
  8
0
100
AcDbSpline
 62
9
  6
CONTINUOUS
 70
0
 71
3
 72
11
 73
7
 74
0
 42
0.0000001
 43
0.0000001
 44
0.0000000001
 40
0.0
 40
0.0
 40
0.0
 40
0.0
 40
0.2490691713
 40
0.4986840406
 40
0.7490696637
 40
1.0
 40
1.0
 40
1.0
 40
1.0
 10
9.9148177018
 20
6.5535707802
 30
0.0
 10
9.9148177056
 20
6.5574424224
 30
0.0
 10
9.9132521956
 20
6.5652799463
 30
0.0
 10
9.9065667525
 20
6.5751718118
 30
0.0
 10
9.8965960005
 20
6.5817854014
 30
0.0
 10
9.8887190667
 20
6.5833302733
 30
0.0
 10
9.8848184937
 20
6.5833303397
 30
0.0
  0
SPLINE
  5
236
100
AcDbEntity
  8
0
100
AcDbSpline
 62
9
  6
CONTINUOUS
 70
0
 71
3
 72
23
 73
19
 74
0
 42
0.0000001
 43
0.0000001
 44
0.0000000001
 40
0.0
 40
0.0
 40
0.0
 40
0.0
 40
0.194367022
 40
0.3820606814
 40
0.5547511755
 40
0.633431683
 40
0.7060103008
 40
0.7717775992
 40
0.8301610359
 40
0.8806231734
 40
0.9226286442
 40
0.9557063091
 40
0.9688239775
 40
0.9796360657
 40
0.9881285141
 40
0.9942972389
 40
0.998172486
 40
1.0
 40
1.0
 40
1.0
 40
1.0
 10
9.8848184938
 20
7.4011888452
 30
0.0
 10
9.8867653726
 20
7.4011888443
 30
0.0
 10
9.8905922949
 20
7.401178285
 30
0.0
 10
9.8961488021
 20
7.401132294
 30
0.0
 10
9.9005462678
 20
7.4010679448
 30
0.0
 10
9.9037904307
 20
7.4010010232
 30
0.0
 10
9.9059635971
 20
7.4009463249
 30
0.0
 10
9.9079332303
 20
7.4008860065
 30
0.0
 10
9.90968103
 20
7.4008207999
 30
0.0
 10
9.9111905009
 20
7.4007515147
 30
0.0
 10
9.9124458755
 20
7.4006790069
 30
0.0
 10
9.9133271338
 20
7.4006125098
 30
0.0
 10
9.9138950652
 20
7.4005559638
 30
0.0
 10
9.9142180621
 20
7.400516023
 30
0.0
 10
9.9144686599
 20
7.4004780988
 30
0.0
 10
9.9146541258
 20
7.4004364752
 30
0.0
 10
9.9147605744
 20
7.400405628
 30
0.0
 10
9.9148185885
 20
7.4003661929
 30
0.0
 10
9.9148185882
 20
7.4003478876
 30
0.0
  0
ENDSEC
  0
SECTION
  2
OBJECTS
  0
DICTIONARY
  5
C
100
AcDbDictionary
280
0
281
1
  3
ACAD_GROUP
350
D
  3
ACAD_MLINESTYLE
350
17
  3
ACAD_LAYOUT
350
1A
  3
ACAD_PLOTSETTINGS
350
19
  3
ACAD_PLOTSTYLENAME
350
E
  0
DICTIONARY
  5
D
102
{ACAD_REACTORS
330
C
102
}
100
AcDbDictionary
280
0
281
1
  0
ACDBDICTIONARYWDFLT
  5
E
102
{ACAD_REACTORS
330
C
102
}
100
AcDbDictionary
281
1
  3
Normal
350
F
100
AcDbDictionaryWithDefault
340
F
  0
DICTIONARY
  5
17
102
{ACAD_REACTORS
330
C
102
}
100
AcDbDictionary
280
0
281
1
  3
Standard
350
18
  0
DICTIONARY
  5
19
102
{ACAD_REACTORS
330
C
102
}
100
AcDbDictionary
281
1
  0
DICTIONARY
  5
1A
102
{ACAD_REACTORS
330
C
102
}
100
AcDbDictionary
281
1
  3
Model
350
237
  3
Layout1
350
238
  0
ACDBPLACEHOLDER
  5
F
102
{ACAD_REACTORS
330
E
102
}
  0
MLINESTYLE
  5
18
102
{ACAD_REACTORS
330
17
102
}
100
AcDbMlineStyle
  2
STANDARD
 70
0
  3

 62
256
 51
90.0
 52
90.0
 71
2
 49
0.5
 62
256
  6
BYLAYER
 49
-0.5
 62
256
  6
BYLAYER
  0
LAYOUT
  5
237
102
{ACAD_REACTORS
330
1A
102
}
100
AcDbPlotSettings
  1

  2
none_device
  4
ANSI_C_(22.00_x_17.00_Inches)
  6

 40
0.0
 41
0.0
 42
0.0
 43
0.0
 44
558.8
 45
431.8
 46
0.0
 47
0.0
 48
0.0
 49
0.0
140
0.0
141
0.0
142
1.0
143
1.0
 70
1024
 72
0
 73
0
 74
0
  7

 75
0
147
1.0
148
0.0
149
0.0
100
AcDbLayout
  1
Model
 70
0
 71
0
 10
0.0
 20
0.0
 11
22.0
 21
17.0
 12
0.0
 22
0.0
 32
0.0
 14
0.0
 24
0.0
 34
0.0
 15
0.0
 25
0.0
 35
0.0
146
0.0
 13
0.0
 23
0.0
 33
0.0
 16
1.0
 26
0.0
 36
0.0
 17
0.0
 27
1.0
 37
0.0
 76
0
330
205
345
0
346
0
  0
LAYOUT
  5
238
102
{ACAD_REACTORS
330
1A
102
}
100
AcDbPlotSettings
  1

  2
none_device
  4
ANSI_C_(22.00_x_17.00_Inches)
  6

 40
0.0
 41
0.0
 42
0.0
 43
0.0
 44
558.8
 45
431.8
 46
0.0
 47
0.0
 48
0.0
 49
0.0
140
0.0
141
0.0
142
1.0
143
1.0
 70
0
 72
0
 73
0
 74
0
  7

 75
0
147
1.0
148
0.0
149
0.0
100
AcDbLayout
  1
Layout1
 70
0
 71
1
 10
0.0
 20
0.0
 11
22.0
 21
17.0
 12
0.0
 22
0.0
 32
0.0
 14
0.0
 24
0.0
 34
0.0
 15
0.0
 25
0.0
 35
0.0
146
0.0
 13
0.0
 23
0.0
 33
0.0
 16
1.0
 26
0.0
 36
0.0
 17
0.0
 27
1.0
 37
0.0
 76
0
330
206
345
0
346
0
  0
ENDSEC
  0
EOF
