  0
SECTION
  2
HEADER
  9
$ACADVER
  1
AC1018
  9
$DWGCODEPAGE
  3
ANSI_1252
  9
$EXTMAX
 10
11.6929133858
 20
8.2677165354
 30
0.0
  9
$EXTMIN
 10
0.0
 20
-0.0
 30
0.0
  9
$LIMMIN
 10
0.0
 20
-0.0
  9
$LIMMAX
 10
11.6929133858
 20
8.2677165354
  9
$VIEWCTR
 10
5.8464566929
 20
4.1338582677
  9
$VIEWSIZE
 40
8.2677165354
  9
$CLAYER
  8
0
  9
$LTSCALE
 40
0.6431102362
  9
$CELTYPE
  6
BYLAYER
  9
$DIMSCALE
 40
1.0
  9
$DIMASZ
 40
0.1
  9
$DIMEXO
 40
0.0730807087
  9
$DIMDLI
 40
0.4443307087
  9
$DIMEXE
 40
0.2104724409
  9
$DIMCEN
 40
0.1052362205
  9
$DIMLFAC
 40
1.0
  9
$DIMBLK
  1
_FILLED
  9
$DIMTXT
 40
0.08
  9
$DIMTOL
 70
1
  9
$DIMLIM
 70
0
  9
$DIMTFAC
 40
1.0
  9
$DIMTP
 40
0.01
  9
$DIMTM
 40
0.01
  9
$PDMODE
 70
3
  9
$PDSIZE
 40
0.06
  9
$HANDSEED
  5
22F
  9
$TILEMODE
 70
1
  9
$MEASUREMENT
 70
0
  9
$INSUNITS
 70
1
  0
ENDSEC
  0
SECTION
  2
CLASSES
  0
CLASS
  1
ACDBDICTIONARYWDFLT
  2
AcDbDictionaryWithDefault
  3
AutoCAD 2000
 90
0
 91
1
280
0
281
0
  0
CLASS
  1
ACDBPLACEHOLDER
  2
AcDbPlaceHolder
  3
AutoCAD 2000
 90
0
 91
1
280
0
281
0
  0
CLASS
  1
LAYOUT
  2
AcDbLayout
  3
AutoCAD 2000
 90
0
 91
0
280
0
281
0
  0
ENDSEC
  0
SECTION
  2
TABLES
  0
TABLE
  2
VPORT
  5
8
100
AcDbSymbolTable
 70
2
  0
VPORT
  5
1F4
100
AcDbSymbolTableRecord
100
AcDbViewportTableRecord
  2
*ACTIVE
 70
0
 10
0.0
 20
0.0
 11
1.0
 21
1.0
 12
5.8464566929
 22
4.1338582677
 13
0.0
 23
0.0
 14
1.0
 24
1.0
 15
0.0
 25
0.0
 16
0.0
 26
0.0
 36
1.0
 17
0.0
 27
0.0
 37
0.0
 40
8.2677165354
 41
1.4142857143
 42
50.0
 43
0.0
 44
0.0
 50
0.0
 51
0.0
 71
0
 72
100
 73
1
 74
1
 75
0
 76
0
 77
0
 78
0
  0
ENDTAB
  0
TABLE
  2
LTYPE
  5
5
100
AcDbSymbolTable
 70
6
  0
LTYPE
  5
14
100
AcDbSymbolTableRecord
100
AcDbLinetypeTableRecord
  2
BYBLOCK
 70
0
  3

 72
65
 73
0
 40
0.0
  0
LTYPE
  5
15
100
AcDbSymbolTableRecord
100
AcDbLinetypeTableRecord
  2
BYLAYER
 70
0
  3

 72
65
 73
0
 40
0.0
  0
LTYPE
  5
16
100
AcDbSymbolTableRecord
100
AcDbLinetypeTableRecord
  2
CONTINUOUS
 70
64
  3
Solid line
 72
65
 73
0
 40
0.0
  0
LTYPE
  5
1F5
100
AcDbSymbolTableRecord
100
AcDbLinetypeTableRecord
  2
CENTER
 70
64
  3
____ _ ____ _ ____ _ ____ _ ____ _ ____ _ ____
 72
65
 73
4
 40
0.6
 49
0.375
 74
0
 49
-0.075
 74
0
 49
0.075
 74
0
 49
-0.075
 74
0
  0
LTYPE
  5
1F6
100
AcDbSymbolTableRecord
100
AcDbLinetypeTableRecord
  2
HIDDEN
 70
64
  3
- - - - - - - - - - - - - - - - - - - -
 72
65
 73
2
 40
0.2
 49
0.1
 74
0
 49
-0.1
 74
0
  0
LTYPE
  5
1F7
100
AcDbSymbolTableRecord
100
AcDbLinetypeTableRecord
  2
PHANTOM
 70
64
  3
_____ _ _ _____ _ _ _____ _ _ _____
 72
65
 73
6
 40
0.8
 49
0.45
 74
0
 49
-0.05
 74
0
 49
0.1
 74
0
 49
-0.05
 74
0
 49
0.1
 74
0
 49
-0.05
 74
0
  0
LTYPE
  5
1F8
100
AcDbSymbolTableRecord
100
AcDbLinetypeTableRecord
  2
DOT
 70
64
  3
. . . . . . . . . . . . . . . . . . . .
 72
65
 73
2
 40
0.2
 49
0.1
 74
0
 49
-0.1
 74
0
  0
LTYPE
  5
1F9
100
AcDbSymbolTableRecord
100
AcDbLinetypeTableRecord
  2
DASHED
 70
64
  3
- - - - - - - - - - - - - - - - - - - -
 72
65
 73
2
 40
0.2
 49
0.1
 74
0
 49
-0.1
 74
0
  0
ENDTAB
  0
TABLE
  2
LAYER
  5
2
100
AcDbSymbolTable
 70
36
  0
LAYER
  5
10
100
AcDbSymbolTableRecord
100
AcDbLayerTableRecord
  2
0
 70
0
 62
7
  6
CONTINUOUS
370
-3
390
F
  0
LAYER
  5
1FA
100
AcDbSymbolTableRecord
100
AcDbLayerTableRecord
  2
DEFAULT_1
 70
0
 62
7
  6
CENTER
370
-3
390
F
  0
LAYER
  5
1FB
100
AcDbSymbolTableRecord
100
AcDbLayerTableRecord
  2
DEFAULT_2
 70
0
 62
8
  6
HIDDEN
370
-3
390
F
  0
LAYER
  5
1FC
100
AcDbSymbolTableRecord
100
AcDbLayerTableRecord
  2
DEFAULT_3
 70
0
 62
7
  6
PHANTOM
370
-3
390
F
  0
LAYER
  5
1FD
100
AcDbSymbolTableRecord
100
AcDbLayerTableRecord
  2
DEFAULT_COORDINATE_SYSTEM
 70
0
 62
7
  6
CONTINUOUS
370
-3
390
F
  0
LAYER
  5
1FE
100
AcDbSymbolTableRecord
100
AcDbLayerTableRecord
  2
DEFAULT_DATUM_AXES
 70
0
 62
7
  6
CONTINUOUS
370
-3
390
F
  0
LAYER
  5
1FF
100
AcDbSymbolTableRecord
100
AcDbLayerTableRecord
  2
DEFAULT_DATUM_PLANES
 70
0
 62
7
  6
CONTINUOUS
370
-3
390
F
  0
ENDTAB
  0
TABLE
  2
STYLE
  5
3
100
AcDbSymbolTable
 70
1
  0
STYLE
  5
11
100
AcDbSymbolTableRecord
100
AcDbTextStyleTableRecord
  2
STANDARD
 70
0
 40
0.0
 41
0.8
 50
0.0
 71
0
 42
0.2
  3
txt
  4

  0
STYLE
  5
200
100
AcDbSymbolTableRecord
100
AcDbTextStyleTableRecord
  2
TEXTSTYLE_1
 70
0
 40
0.0
 41
0.8
 50
0.0
 71
0
 42
0.2
  3
gdt
  4

  0
ENDTAB
  0
TABLE
  2
VIEW
  5
6
100
AcDbSymbolTable
 70
0
  0
ENDTAB
  0
TABLE
  2
UCS
  5
7
100
AcDbSymbolTable
 70
0
  0
ENDTAB
  0
TABLE
  2
APPID
  5
9
100
AcDbSymbolTable
 70
1
  0
APPID
  5
201
100
AcDbSymbolTableRecord
100
AcDbRegAppTableRecord
  2
ACAD
 70
0
  0
ENDTAB
  0
TABLE
  2
BLOCK_RECORD
  5
1
100
AcDbSymbolTable
 70
0
  0
BLOCK_RECORD
  5
202
100
AcDbSymbolTableRecord
100
AcDbBlockTableRecord
  2
*Model_Space
  0
BLOCK_RECORD
  5
203
100
AcDbSymbolTableRecord
100
AcDbBlockTableRecord
  2
*Paper_Space
  0
ENDTAB
  0
TABLE
  2
DIMSTYLE
  5
A
100
AcDbSymbolTable
 70
1
100
AcDbDimStyleTable
 71
0
  0
DIMSTYLE
105
204
100
AcDbSymbolTableRecord
100
AcDbDimStyleTableRecord
  2
STANDARD
 70
0
  3

  4

 40
1.0
 41
0.1
 42
0.0625
 43
0.38
 44
0.18
 45
0.0
 46
0.0
 47
0.01
 48
0.01
140
0.08
141
0.09
142
0.0
143
25.4
144
1.0
145
0.0
146
1.0
147
0.09
 71
1.0
 72
0.0
 73
1
 74
1
 75
0
 76
0
 77
0
 78
4
170
0
171
2
172
0
173
0
174
0
175
0
176
0
177
0
178
0
270
2
271
2
272
2
273
2
274
2
275
0
280
0
281
0
282
0
283
1
284
4
285
0
286
0
287
3
288
0
340
11
  0
ENDTAB
  0
ENDSEC
  0
SECTION
  2
BLOCKS
  0
BLOCK
  5
20
100
AcDbEntity
  8
0
100
AcDbBlockBegin
  2
*Model_Space
 70
0
 10
0.0
 20
0.0
 30
0.0
  3
*Model_Space
  1

  0
ENDBLK
  5
21
100
AcDbEntity
  8
0
100
AcDbBlockEnd
  0
BLOCK
  5
1C
100
AcDbEntity
  8
0
100
AcDbBlockBegin
  2
*Paper_Space
 70
0
 10
0.0
 20
0.0
 30
0.0
  3
*Paper_Space
  1

  0
ENDBLK
  5
1D
100
AcDbEntity
  8
0
100
AcDbBlockEnd
  0
ENDSEC
  0
SECTION
  2
ENTITIES
  0
LINE
  5
205
100
AcDbEntity
  8
0
100
AcDbLine
 62
6
  6
CONTINUOUS
 10
1.8998778203
 20
4.0096192702
 11
1.8998778203
 21
3.7196192702
  0
LINE
  5
206
100
AcDbEntity
  8
0
100
AcDbLine
 62
6
  6
CONTINUOUS
 10
1.9298778203
 20
3.6896192702
 11
1.9298778203
 21
4.7696192815
  0
LINE
  5
207
100
AcDbEntity
  8
0
100
AcDbLine
 62
6
  6
CONTINUOUS
 10
3.4898778203
 20
4.7696192576
 11
3.4898778203
 21
4.0396192702
  0
LINE
  5
208
100
AcDbEntity
  8
0
100
AcDbLine
 62
6
  6
CONTINUOUS
 10
3.5198778203
 20
4.7329572625
 11
3.5198778203
 21
4.3514191164
  0
LINE
  5
209
100
AcDbEntity
  8
0
100
AcDbLine
 62
6
  6
CONTINUOUS
 10
3.5198778203
 20
3.6896192702
 11
3.5198778203
 21
3.7196192702
  0
LINE
  5
20A
100
AcDbEntity
  8
0
100
AcDbLine
 62
6
  6
CONTINUOUS
 10
3.5198778203
 20
4.0096192702
 11
3.5198778203
 21
4.0396192702
  0
LINE
  5
20B
100
AcDbEntity
  8
0
100
AcDbLine
 62
6
  6
CONTINUOUS
 10
9.9948778203
 20
3.6896192702
 11
1.9298778203
 21
3.6896192702
  0
LINE
  5
20C
100
AcDbEntity
  8
0
100
AcDbLine
 62
6
  6
CONTINUOUS
 10
10.0248778203
 20
3.7196192702
 11
1.8998778203
 21
3.7196192702
  0
LINE
  5
20D
100
AcDbEntity
  8
0
100
AcDbLine
 62
6
  6
CONTINUOUS
 10
10.0248778203
 20
4.0096192702
 11
1.8998778203
 21
4.0096192702
  0
LINE
  5
20E
100
AcDbEntity
  8
0
100
AcDbLine
 62
6
  6
CONTINUOUS
 10
9.9948778203
 20
4.0396192702
 11
1.9298778203
 21
4.0396192702
  0
LINE
  5
20F
100
AcDbEntity
  8
0
100
AcDbLine
 62
6
  6
CONTINUOUS
 10
8.4373778203
 20
4.14034588
 11
9.9948778203
 21
4.14034588
  0
LINE
  5
210
100
AcDbEntity
  8
0
100
AcDbLine
 62
6
  6
CONTINUOUS
 10
8.4373778203
 20
4.1428464631
 11
9.9948778203
 21
4.1428464631
  0
LINE
  5
211
100
AcDbEntity
  8
0
100
AcDbLine
 62
6
  6
CONTINUOUS
 10
1.929877946
 20
4.7696192928
 11
3.48987796
 21
4.769619245
  0
LINE
  5
212
100
AcDbEntity
  8
0
100
AcDbLine
 62
6
  6
CONTINUOUS
 10
8.4073778203
 20
4.0396192702
 11
8.4073778203
 21
4.1128464631
  0
LINE
  5
213
100
AcDbEntity
  8
0
100
AcDbLine
 62
6
  6
CONTINUOUS
 10
8.4373778203
 20
4.0399738812
 11
8.4373778203
 21
4.1428464631
  0
LINE
  5
214
100
AcDbEntity
  8
0
100
AcDbLine
 62
6
  6
CONTINUOUS
 10
9.9948778203
 20
3.6896192702
 11
9.9948778203
 21
4.1428464631
  0
LINE
  5
215
100
AcDbEntity
  8
0
100
AcDbLine
 62
6
  6
CONTINUOUS
 10
10.0248778203
 20
4.1128464631
 11
10.0248778203
 21
3.7196192702
  0
ARC
  5
216
100
AcDbEntity
  8
0
100
AcDbCircle
 62
6
  6
CONTINUOUS
 10
8.4374091097
 20
4.0099475654
 40
0.0300271707
100
AcDbArc
 50
93.4995380532
 51
96.5407752396
  0
ARC
  5
217
100
AcDbEntity
  8
0
100
AcDbCircle
 62
6
  6
CONTINUOUS
 10
9.9948778203
 20
4.0096192702
 40
0.03
100
AcDbArc
 50
0.0
 51
90.0
  0
ARC
  5
218
100
AcDbEntity
  8
0
100
AcDbCircle
 62
6
  6
CONTINUOUS
 10
1.9298778203
 20
4.0096192715
 40
0.03
100
AcDbArc
 50
90.0
 51
180.0000024923
  0
ARC
  5
219
100
AcDbEntity
  8
0
100
AcDbCircle
 62
6
  6
CONTINUOUS
 10
9.9948778203
 20
3.7196192702
 40
0.03
100
AcDbArc
 50
270.0
 51
360.0
  0
ARC
  5
21A
100
AcDbEntity
  8
0
100
AcDbCircle
 62
6
  6
CONTINUOUS
 10
1.9298778203
 20
3.7196192702
 40
0.03
100
AcDbArc
 50
180.0
 51
270.0
  0
ARC
  5
21B
100
AcDbEntity
  8
0
100
AcDbCircle
 62
6
  6
CONTINUOUS
 10
9.9948758792
 20
4.1128482422
 40
0.0299981777
100
AcDbArc
 50
359.9999984719
 51
89.9962944841
  0
ARC
  5
21C
100
AcDbEntity
  8
0
100
AcDbCircle
 62
6
  6
CONTINUOUS
 10
8.4373797614
 20
4.1128482446
 40
0.0299981754
100
AcDbArc
 50
90.0037055279
 51
180.000001554
  0
ARC
  5
21D
100
AcDbEntity
  8
0
100
AcDbCircle
 62
6
  6
CONTINUOUS
 10
8.4373821175
 20
4.0103728812
 40
0.0296010003
100
AcDbArc
 50
90.0083176971
 51
93.497640346
  0
LINE
  5
21E
100
AcDbEntity
  8
0
100
AcDbLine
 62
6
  6
CONTINUOUS
 10
1.8998778203
 20
4.0096192702
 11
1.8998778202
 21
4.346075831
  0
LINE
  5
21F
100
AcDbEntity
  8
0
100
AcDbLine
 62
6
  6
CONTINUOUS
 10
1.8998778202
 20
4.346075831
 11
1.8998778202
 21
4.349703808
  0
LINE
  5
220
100
AcDbEntity
  8
0
100
AcDbLine
 62
6
  6
CONTINUOUS
 10
1.8998778202
 20
4.349703808
 11
1.8998778203
 21
4.7329574131
  0
LINE
  5
221
100
AcDbEntity
  8
0
100
AcDbLine
 62
6
  6
CONTINUOUS
 10
1.8998778203
 20
3.7196192702
 11
1.8998778203
 21
4.0081652101
  0
LINE
  5
222
100
AcDbEntity
  8
0
100
AcDbLine
 62
6
  6
CONTINUOUS
 10
1.8998778203
 20
4.3474621271
 11
1.8998778203
 21
4.3513454165
  0
LINE
  5
223
100
AcDbEntity
  8
0
100
AcDbLine
 62
6
  6
CONTINUOUS
 10
3.5198778203
 20
4.7329572625
 11
3.5198778125
 21
4.3450925883
  0
LINE
  5
224
100
AcDbEntity
  8
0
100
AcDbLine
 62
6
  6
CONTINUOUS
 10
3.5198778125
 20
4.3450925883
 11
3.5198778129
 21
4.3413810392
  0
LINE
  5
225
100
AcDbEntity
  8
0
100
AcDbLine
 62
6
  6
CONTINUOUS
 10
3.5198778129
 20
4.3413810392
 11
3.5198778203
 21
4.0400389177
  0
LINE
  5
226
100
AcDbEntity
  8
0
100
AcDbLine
 62
6
  6
CONTINUOUS
 10
3.5198778203
 20
4.3473759638
 11
3.5198778203
 21
4.0387667666
  0
SPLINE
  5
227
100
AcDbEntity
  8
0
100
AcDbSpline
 62
6
  6
CONTINUOUS
 70
0
 71
3
 72
19
 73
15
 74
13
 42
0.0000001
 43
0.0000001
 44
0.0000000001
 12
-0.0000002243
 22
0.0524300499
 32
0.0
 13
0.0524300499
 23
0.0
 33
0.0
 40
0.0
 40
0.0
 40
0.0
 40
0.0
 40
0.1247808214
 40
0.2497972702
 40
0.3747271619
 40
0.4996231339
 40
0.62452691
 40
0.6870743473
 40
0.7496477968
 40
0.8122148402
 40
0.8435441391
 40
0.8749059512
 40
0.9375691017
 40
1.0
 40
1.0
 40
1.0
 40
1.0
 10
1.8998778203
 20
4.7329574131
 30
0.0
 10
1.899877811
 20
4.735138168
 30
0.0
 10
1.9001987793
 20
4.7395106017
 30
0.0
 10
1.9016429738
 20
4.7459225694
 30
0.0
 10
1.9040638552
 20
4.7520410683
 30
0.0
 10
1.9074761142
 20
4.757668653
 30
0.0
 10
1.9111421052
 20
4.7617661016
 30
0.0
 10
1.9145366986
 20
4.7645295467
 30
0.0
 10
1.9173002121
 20
4.7663097357
 30
0.0
 10
1.9197636719
 20
4.7675137658
 30
0.0
 10
1.9218136532
 20
4.7682855073
 30
0.0
 10
1.9239106241
 20
4.7689243025
 30
0.0
 10
1.9265982074
 20
4.7694684519
 30
0.0
 10
1.9287868609
 20
4.7696192928
 30
0.0
 10
1.929877946
 20
4.7696192928
 30
0.0
 11
1.8998778203
 21
4.7329574131
 31
0.0
 11
1.9003586109
 21
4.7394819873
 31
0.0
 11
1.9018061609
 21
4.7458747664
 31
0.0
 11
1.9042294741
 21
4.7519600853
 31
0.0
 11
1.9076403379
 21
4.7575499215
 31
0.0
 11
1.9120271235
 21
4.7624121978
 31
0.0
 11
1.9145722073
 21
4.7644802367
 31
0.0
 11
1.917332221
 21
4.7662537946
 31
0.0
 11
1.9202814129
 21
4.7676901952
 31
0.0
 11
1.9218187935
 21
4.7682686282
 31
0.0
 11
1.9233917066
 21
4.7687478686
 31
0.0
 11
1.9266121841
 21
4.7693979373
 31
0.0
 11
1.929877946
 21
4.7696192928
 31
0.0
  0
SPLINE
  5
228
100
AcDbEntity
  8
0
100
AcDbSpline
 62
6
  6
CONTINUOUS
 70
0
 71
3
 72
19
 73
15
 74
13
 42
0.0000001
 43
0.0000001
 44
0.0000000001
 12
0.0524297758
 22
0.0
 32
0.0
 13
0.0000000959
 23
-0.0524297758
 33
0.0
 40
0.0
 40
0.0
 40
0.0
 40
0.0
 40
0.0624308234
 40
0.1250940016
 40
0.1564558815
 40
0.187785246
 40
0.250352342
 40
0.3129257111
 40
0.3754730323
 40
0.500376817
 40
0.6252728889
 40
0.7502027482
 40
0.8752191493
 40
1.0
 40
1.0
 40
1.0
 40
1.0
 10
3.48987796
 20
4.769619245
 30
0.0
 10
3.4909690381
 20
4.769619245
 30
0.0
 10
3.4931576798
 20
4.769468371
 30
0.0
 10
3.4958452336
 20
4.7689241452
 30
0.0
 10
3.4979421787
 20
4.7682852956
 30
0.0
 10
3.4999921358
 20
4.7675135139
 30
0.0
 10
3.502455569
 20
4.7663094637
 30
0.0
 10
3.5052190581
 20
4.7645292738
 30
0.0
 10
3.5086136202
 20
4.761765831
 30
0.0
 10
3.5122795628
 20
4.7576683779
 30
0.0
 10
3.5156917902
 20
4.7520408156
 30
0.0
 10
3.5181126654
 20
4.7459223507
 30
0.0
 10
3.5195568435
 20
4.7395104148
 30
0.0
 10
3.5198778163
 20
4.7351380065
 30
0.0
 10
3.5198778203
 20
4.7329572625
 30
0.0
 11
3.48987796
 21
4.769619245
 31
0.0
 11
3.4931436981
 21
4.7693978498
 31
0.0
 11
3.4963641429
 21
4.7687476987
 31
0.0
 11
3.4979370385
 21
4.7682684183
 31
0.0
 11
3.4994744022
 21
4.7676899549
 31
0.0
 11
3.5024235639
 21
4.766253525
 31
0.0
 11
3.5051835501
 21
4.7644799639
 31
0.0
 11
3.5077286067
 21
4.7624119284
 31
0.0
 11
3.5121153423
 21
4.7575496525
 31
0.0
 11
3.5155261766
 21
4.7519598323
 31
0.0
 11
3.5179494769
 21
4.7458745468
 31
0.0
 11
3.5193970155
 21
4.7394818029
 31
0.0
 11
3.5198778203
 21
4.7329572625
 31
0.0
  0
LINE
  5
229
100
AcDbEntity
  8
0
100
AcDbLine
 62
6
  6
CONTINUOUS
 10
3.4898778203
 20
3.6896192702
 11
3.5198778203
 21
3.6896192702
  0
LINE
  5
22A
100
AcDbEntity
  8
0
100
AcDbLine
 62
6
  6
CONTINUOUS
 10
3.4898778203
 20
4.0396192702
 11
3.5198778203
 21
4.0396192702
  0
SPLINE
  5
22B
100
AcDbEntity
  8
0
100
AcDbSpline
 62
6
  6
CONTINUOUS
 70
0
 71
3
 72
22
 73
18
 74
16
 42
0.0000001
 43
0.0000001
 44
0.0000000001
 12
0.0
 22
0.0451551098
 32
0.0
 13
0.0451551098
 23
-0.0
 33
0.0
 40
0.0
 40
0.0
 40
0.0
 40
0.0
 40
0.0595035484
 40
0.1192934195
 40
0.179375456
 40
0.2397633082
 40
0.3005209705
 40
0.3617213259
 40
0.4234150006
 40
0.4856448976
 40
0.5484376318
 40
0.6117887277
 40
0.6756798811
 40
0.7400936433
 40
0.8049494008
 40
0.8700559972
 40
1.0
 40
1.0
 40
1.0
 40
1.0
 10
8.4073778203
 20
4.1128464631
 30
0.0
 10
8.4073778203
 20
4.1137420928
 30
0.0
 10
8.4074752157
 20
4.1155390953
 30
0.0
 10
8.4079070219
 20
4.1182090547
 30
0.0
 10
8.4086204081
 20
4.1208321122
 30
0.0
 10
8.4096128359
 20
4.1233784209
 30
0.0
 10
8.410874181
 20
4.1258215582
 30
0.0
 10
8.4123886921
 20
4.128139635
 30
0.0
 10
8.4141422176
 20
4.1303111555
 30
0.0
 10
8.4161208202
 20
4.1323135153
 30
0.0
 10
8.4183047441
 20
4.1341286593
 30
0.0
 10
8.4206725695
 20
4.1357409554
 30
0.0
 10
8.42320335
 20
4.1371344911
 30
0.0
 10
8.4258753199
 20
4.1382912871
 30
0.0
 10
8.4286610608
 20
4.1391998277
 30
0.0
 10
8.432477533
 20
4.1400743416
 30
0.0
 10
8.4354219417
 20
4.14034588
 30
0.0
 10
8.4373778203
 20
4.14034588
 30
0.0
 11
8.4073778203
 21
4.1128464631
 31
0.0
 11
8.4075221987
 21
4.1155294705
 31
0.0
 11
8.4079525508
 21
4.1181947688
 31
0.0
 11
8.4086647022
 21
4.1208126437
 31
0.0
 11
8.4096541928
 21
4.1233535995
 31
0.0
 11
8.4109113556
 21
4.1257921314
 31
0.0
 11
8.4124219745
 21
4.1281062211
 31
0.0
 11
8.4141716807
 21
4.1302739674
 31
0.0
 11
8.4161457295
 21
4.1322737723
 31
0.0
 11
8.4183253513
 21
4.1340872811
 31
0.0
 11
8.4206893342
 21
4.1356981084
 31
0.0
 11
8.4232164317
 21
4.1370898959
 31
0.0
 11
8.4258852162
 21
4.1382464444
 31
0.0
 11
8.4286688689
 21
4.1391562758
 31
0.0
 11
8.4315344034
 21
4.1398133129
 31
0.0
 11
8.4373778203
 21
4.14034588
 31
0.0
  0
SPLINE
  5
22C
100
AcDbEntity
  8
0
100
AcDbSpline
 62
6
  6
CONTINUOUS
 70
0
 71
3
 72
22
 73
18
 74
16
 42
0.0000001
 43
0.0000001
 44
0.0000000001
 12
-0.0
 22
0.0451551098
 32
0.0
 13
-0.0451551098
 23
0.0
 33
0.0
 40
0.0
 40
0.0
 40
0.0
 40
0.0
 40
0.0595035485
 40
0.1192934199
 40
0.1793754568
 40
0.2397633093
 40
0.3005209719
 40
0.3617213275
 40
0.4234150025
 40
0.4856448995
 40
0.5484376338
 40
0.6117887297
 40
0.6756798829
 40
0.7400936446
 40
0.8049494016
 40
0.8700559976
 40
1.0
 40
1.0
 40
1.0
 40
1.0
 10
10.0248778203
 20
4.1128464631
 30
0.0
 10
10.0248778203
 20
4.1137420928
 30
0.0
 10
10.0247804248
 20
4.1155390954
 30
0.0
 10
10.0243486187
 20
4.1182090547
 30
0.0
 10
10.0236352325
 20
4.1208321123
 30
0.0
 10
10.0226428047
 20
4.1233784209
 30
0.0
 10
10.0213814596
 20
4.1258215582
 30
0.0
 10
10.0198669484
 20
4.1281396351
 30
0.0
 10
10.018113423
 20
4.1303111555
 30
0.0
 10
10.0161348203
 20
4.1323135154
 30
0.0
 10
10.0139508964
 20
4.1341286594
 30
0.0
 10
10.011583071
 20
4.1357409555
 30
0.0
 10
10.0090522905
 20
4.1371344911
 30
0.0
 10
10.0063803206
 20
4.1382912871
 30
0.0
 10
10.0035945798
 20
4.1391998277
 30
0.0
 10
9.9997781075
 20
4.1400743416
 30
0.0
 10
9.9968336989
 20
4.1403458801
 30
0.0
 10
9.9948778203
 20
4.1403458801
 30
0.0
 11
10.0248778203
 21
4.1128464631
 31
0.0
 11
10.0247334419
 21
4.1155294705
 31
0.0
 11
10.0243030897
 21
4.1181947689
 31
0.0
 11
10.0235909384
 21
4.1208126438
 31
0.0
 11
10.0226014477
 21
4.1233535995
 31
0.0
 11
10.021344285
 21
4.1257921314
 31
0.0
 11
10.019833666
 21
4.1281062211
 31
0.0
 11
10.0180839598
 21
4.1302739675
 31
0.0
 11
10.016109911
 21
4.1322737723
 31
0.0
 11
10.0139302892
 21
4.1340872812
 31
0.0
 11
10.0115663063
 21
4.1356981084
 31
0.0
 11
10.0090392087
 21
4.1370898959
 31
0.0
 11
10.0063704243
 21
4.1382464445
 31
0.0
 11
10.0035867716
 21
4.1391562758
 31
0.0
 11
10.0007212372
 21
4.139813313
 31
0.0
 11
9.9948778203
 21
4.1403458801
 31
0.0
  0
ENDSEC
  0
SECTION
  2
OBJECTS
  0
DICTIONARY
  5
C
100
AcDbDictionary
280
0
281
1
  3
ACAD_GROUP
350
D
  3
ACAD_MLINESTYLE
350
17
  3
ACAD_LAYOUT
350
1A
  3
ACAD_PLOTSETTINGS
350
19
  3
ACAD_PLOTSTYLENAME
350
E
  0
DICTIONARY
  5
D
102
{ACAD_REACTORS
330
C
102
}
100
AcDbDictionary
280
0
281
1
  0
ACDBDICTIONARYWDFLT
  5
E
102
{ACAD_REACTORS
330
C
102
}
100
AcDbDictionary
281
1
  3
Normal
350
F
100
AcDbDictionaryWithDefault
340
F
  0
DICTIONARY
  5
17
102
{ACAD_REACTORS
330
C
102
}
100
AcDbDictionary
280
0
281
1
  3
Standard
350
18
  0
DICTIONARY
  5
19
102
{ACAD_REACTORS
330
C
102
}
100
AcDbDictionary
281
1
  0
DICTIONARY
  5
1A
102
{ACAD_REACTORS
330
C
102
}
100
AcDbDictionary
281
1
  3
Model
350
22D
  3
Layout1
350
22E
  0
ACDBPLACEHOLDER
  5
F
102
{ACAD_REACTORS
330
E
102
}
  0
MLINESTYLE
  5
18
102
{ACAD_REACTORS
330
17
102
}
100
AcDbMlineStyle
  2
STANDARD
 70
0
  3

 62
256
 51
90.0
 52
90.0
 71
2
 49
0.5
 62
256
  6
BYLAYER
 49
-0.5
 62
256
  6
BYLAYER
  0
LAYOUT
  5
22D
102
{ACAD_REACTORS
330
1A
102
}
100
AcDbPlotSettings
  1

  2
none_device
  4
ISO_A4_(297.00_x_210.00_MM)
  6

 40
0.0
 41
0.0
 42
0.0
 43
0.0
 44
297.0
 45
210.0
 46
0.0
 47
0.0
 48
0.0
 49
0.0
140
0.0
141
0.0
142
1.0
143
1.0
 70
1024
 72
0
 73
0
 74
0
  7

 75
0
147
1.0
148
0.0
149
0.0
100
AcDbLayout
  1
Model
 70
0
 71
0
 10
0.0
 20
0.0
 11
11.6929133858
 21
8.2677165354
 12
0.0
 22
0.0
 32
0.0
 14
0.0
 24
0.0
 34
0.0
 15
0.0
 25
0.0
 35
0.0
146
0.0
 13
0.0
 23
0.0
 33
0.0
 16
1.0
 26
0.0
 36
0.0
 17
0.0
 27
1.0
 37
0.0
 76
0
330
202
345
0
346
0
  0
LAYOUT
  5
22E
102
{ACAD_REACTORS
330
1A
102
}
100
AcDbPlotSettings
  1

  2
none_device
  4
ISO_A4_(297.00_x_210.00_MM)
  6

 40
0.0
 41
0.0
 42
0.0
 43
0.0
 44
297.0
 45
210.0
 46
0.0
 47
0.0
 48
0.0
 49
0.0
140
0.0
141
0.0
142
1.0
143
1.0
 70
0
 72
0
 73
0
 74
0
  7

 75
0
147
1.0
148
0.0
149
0.0
100
AcDbLayout
  1
Layout1
 70
0
 71
1
 10
0.0
 20
0.0
 11
11.6929133858
 21
8.2677165354
 12
0.0
 22
0.0
 32
0.0
 14
0.0
 24
0.0
 34
0.0
 15
0.0
 25
0.0
 35
0.0
146
0.0
 13
0.0
 23
0.0
 33
0.0
 16
1.0
 26
0.0
 36
0.0
 17
0.0
 27
1.0
 37
0.0
 76
0
330
203
345
0
346
0
  0
ENDSEC
  0
EOF
