999
DXF file: 38-12_right.dxf
999
Pro/ENGINEER 2023134 by Parametric Technology Corporation
  0
SECTION
  2
HEADER
  9
$ACADVER
  1
AC1032
  9
$DWGCODEPAGE
  3
ANSI_1252
  9
$EXTMAX
 10
11.0
 20
8.5
 30
0.0
  9
$EXTMIN
 10
0.0
 20
0.0
 30
0.0
  9
$LIMMIN
 10
0.0
 20
0.0
  9
$LIMMAX
 10
11.0
 20
8.5
  9
$VIEWCTR
 10
5.5
 20
4.25
  9
$VIEWSIZE
 40
8.5
  9
$CLAYER
  8
0
  9
$LTSCALE
 40
0.605
  9
$CELTYPE
  6
BYLAYER
  9
$DIMSCALE
 40
1.0
  9
$DIMASZ
 40
0.1
  9
$DIMEXO
 40
0.0625
  9
$DIMDLI
 40
0.418
  9
$DIMEXE
 40
0.125
  9
$DIMCEN
 40
0.099
  9
$DIMLFAC
 40
1.0
  9
$DIMBLK
  1
_FILLED
  9
$DIMALT
 70
1
  9
$DIMALTD
 70
2
  9
$DIMALTTD
 70
2
  9
$DIMALTF
 40
25.4
  9
$DIMTXT
 40
0.08
  9
$DIMTOL
 70
1
  9
$DIMLIM
 70
0
  9
$DIMTFAC
 40
1.0
  9
$DIMTP
 40
0.001
  9
$DIMTM
 40
0.001
  9
$DIMGAP
 40
0.09
  9
$DIMDSEP
 70
46
  9
$AUNITS
 70
0
  9
$PDMODE
 70
3
  9
$PDSIZE
 40
0.3125
  9
$HANDSEED
  5
306
  9
$TILEMODE
 70
1
  9
$MEASUREMENT
 70
0
  9
$INSUNITS
 70
1
  0
ENDSEC
  0
SECTION
  2
CLASSES
  0
CLASS
  1
ACDBDICTIONARYWDFLT
  2
AcDbDictionaryWithDefault
  3
AutoCAD 2000
 90
0
 91
1
280
0
281
0
  0
CLASS
  1
ACDBPLACEHOLDER
  2
AcDbPlaceHolder
  3
AutoCAD 2000
 90
0
 91
1
280
0
281
0
  0
CLASS
  1
LAYOUT
  2
AcDbLayout
  3
AutoCAD 2000
 90
0
 91
0
280
0
281
0
  0
ENDSEC
  0
SECTION
  2
TABLES
  0
TABLE
  2
VPORT
  5
8
100
AcDbSymbolTable
 70
2
  0
VPORT
  5
1F4
100
AcDbSymbolTableRecord
100
AcDbViewportTableRecord
  2
*ACTIVE
 70
0
 10
0.0
 20
0.0
 11
1.0
 21
1.0
 12
5.5
 22
4.25
 13
0.0
 23
0.0
 14
1.0
 24
1.0
 15
0.0
 25
0.0
 16
0.0
 26
0.0
 36
1.0
 17
0.0
 27
0.0
 37
0.0
 40
8.5
 41
1.2941176471
 42
50.0
 43
0.0
 44
0.0
 50
0.0
 51
0.0
 71
0
 72
100
 73
1
 74
1
 75
0
 76
0
 77
0
 78
0
  0
ENDTAB
  0
TABLE
  2
LTYPE
  5
5
100
AcDbSymbolTable
 70
6
  0
LTYPE
  5
14
100
AcDbSymbolTableRecord
100
AcDbLinetypeTableRecord
  2
BYBLOCK
 70
0
  3

 72
65
 73
0
 40
0.0
  0
LTYPE
  5
15
100
AcDbSymbolTableRecord
100
AcDbLinetypeTableRecord
  2
BYLAYER
 70
0
  3

 72
65
 73
0
 40
0.0
  0
LTYPE
  5
16
100
AcDbSymbolTableRecord
100
AcDbLinetypeTableRecord
  2
CONTINUOUS
 70
64
  3
Solid line
 72
65
 73
0
 40
0.0
  0
LTYPE
  5
1F5
100
AcDbSymbolTableRecord
100
AcDbLinetypeTableRecord
  2
CENTER
 70
64
  3
____ _ ____ _ ____ _ ____ _ ____ _ ____ _ ____
 72
65
 73
4
 40
0.6
 49
0.375
 74
0
 49
-0.075
 74
0
 49
0.075
 74
0
 49
-0.075
 74
0
  0
LTYPE
  5
1F6
100
AcDbSymbolTableRecord
100
AcDbLinetypeTableRecord
  2
HIDDEN
 70
64
  3
- - - - - - - - - - - - - - - - - - - -
 72
65
 73
2
 40
0.2
 49
0.1
 74
0
 49
-0.1
 74
0
  0
LTYPE
  5
1F7
100
AcDbSymbolTableRecord
100
AcDbLinetypeTableRecord
  2
PHANTOM
 70
64
  3
_____ _ _ _____ _ _ _____ _ _ _____
 72
65
 73
6
 40
0.8
 49
0.45
 74
0
 49
-0.05
 74
0
 49
0.1
 74
0
 49
-0.05
 74
0
 49
0.1
 74
0
 49
-0.05
 74
0
  0
LTYPE
  5
1F8
100
AcDbSymbolTableRecord
100
AcDbLinetypeTableRecord
  2
DOT
 70
64
  3
. . . . . . . . . . . . . . . . . . . .
 72
65
 73
2
 40
0.2
 49
0.1
 74
0
 49
-0.1
 74
0
  0
LTYPE
  5
1F9
100
AcDbSymbolTableRecord
100
AcDbLinetypeTableRecord
  2
DASHED
 70
64
  3
- - - - - - - - - - - - - - - - - - - -
 72
65
 73
2
 40
0.2
 49
0.1
 74
0
 49
-0.1
 74
0
  0
ENDTAB
  0
TABLE
  2
LAYER
  5
2
100
AcDbSymbolTable
 70
36
  0
LAYER
  5
10
100
AcDbSymbolTableRecord
100
AcDbLayerTableRecord
  2
0
 70
0
 62
7
  6
CONTINUOUS
370
-3
390
F
  0
LAYER
  5
1FA
100
AcDbSymbolTableRecord
100
AcDbLayerTableRecord
  2
DEFAULT_1
 70
0
 62
7
  6
CENTER
370
-3
390
F
  0
LAYER
  5
1FB
100
AcDbSymbolTableRecord
100
AcDbLayerTableRecord
  2
DEFAULT_2
 70
0
 62
8
  6
HIDDEN
370
-3
390
F
  0
LAYER
  5
1FC
100
AcDbSymbolTableRecord
100
AcDbLayerTableRecord
  2
DEFAULT_3
 70
0
 62
7
  6
PHANTOM
370
-3
390
F
  0
ENDTAB
  0
TABLE
  2
STYLE
  5
3
100
AcDbSymbolTable
 70
1
  0
STYLE
  5
11
100
AcDbSymbolTableRecord
100
AcDbTextStyleTableRecord
  2
STANDARD
 70
0
 40
0.0
 41
0.8
 50
0.0
 71
0
 42
0.2
  3
txt
  4

  0
STYLE
  5
1FD
100
AcDbSymbolTableRecord
100
AcDbTextStyleTableRecord
  2
TEXTSTYLE_1
 70
0
 40
0.0
 41
0.8
 50
0.0
 71
0
 42
0.2
  3
gdt
  4

  0
ENDTAB
  0
TABLE
  2
VIEW
  5
6
100
AcDbSymbolTable
 70
0
  0
ENDTAB
  0
TABLE
  2
UCS
  5
7
100
AcDbSymbolTable
 70
0
  0
ENDTAB
  0
TABLE
  2
APPID
  5
9
100
AcDbSymbolTable
 70
1
  0
APPID
  5
1FE
100
AcDbSymbolTableRecord
100
AcDbRegAppTableRecord
  2
ACAD
 70
0
  0
ENDTAB
  0
TABLE
  2
BLOCK_RECORD
  5
1
100
AcDbSymbolTable
 70
0
  0
BLOCK_RECORD
  5
1FF
100
AcDbSymbolTableRecord
100
AcDbBlockTableRecord
  2
*Model_Space
  0
BLOCK_RECORD
  5
200
100
AcDbSymbolTableRecord
100
AcDbBlockTableRecord
  2
*Paper_Space
  0
BLOCK_RECORD
  5
201
100
AcDbSymbolTableRecord
100
AcDbBlockTableRecord
  2
_FILLED
  0
ENDTAB
  0
TABLE
  2
DIMSTYLE
  5
A
100
AcDbSymbolTable
 70
1
100
AcDbDimStyleTable
 71
0
  0
DIMSTYLE
105
202
100
AcDbSymbolTableRecord
100
AcDbDimStyleTableRecord
  2
STANDARD
 70
0
  3

  4

 40
1.0
 41
0.1
 42
0.0625
 43
0.38
 44
0.125
 45
0.0
 46
0.0
 47
0.001
 48
0.001
140
0.08
141
0.09
142
0.0
143
25.4
144
1.0
145
0.0
146
1.0
147
0.09
 71
1
 72
0
 73
1
 74
1
 75
0
 76
0
 77
0
 78
4
 79
1
170
1
171
2
172
0
173
0
174
0
175
0
176
0
177
0
178
0
270
2
179
3
271
3
272
3
273
2
274
2
275
0
280
0
281
0
282
0
283
1
284
4
285
0
286
0
287
3
288
0
340
11
278
46
341
201
342
201
343
201
344
201
  0
ENDTAB
  0
ENDSEC
  0
SECTION
  2
BLOCKS
  0
BLOCK
  5
20
100
AcDbEntity
  8
0
100
AcDbBlockBegin
  2
*Model_Space
 70
0
 10
0.0
 20
0.0
 30
0.0
  3
*Model_Space
  1

  0
ENDBLK
  5
21
100
AcDbEntity
  8
0
100
AcDbBlockEnd
  0
BLOCK
  5
1C
100
AcDbEntity
  8
0
100
AcDbBlockBegin
  2
*Paper_Space
 70
0
 10
0.0
 20
0.0
 30
0.0
  3
*Paper_Space
  1

  0
ENDBLK
  5
1D
100
AcDbEntity
  8
0
100
AcDbBlockEnd
  0
BLOCK
  5
203
100
AcDbEntity
  8
0
100
AcDbBlockBegin
  2
_FILLED
 70
64
 10
0.0
 20
0.0
  3
_FILLED
  1

  0
SOLID
  5
204
100
AcDbEntity
  8
0
  6
BYBLOCK
 62
0
100
AcDbTrace
 10
0.0
 20
0.0
 11
-1.0
 21
0.2
 12
-1.0
 22
-0.2
 13
-1.0
 23
-0.2
  0
ENDBLK
  5
205
100
AcDbEntity
  8
0
  6
BYBLOCK
 62
0
100
AcDbBlockEnd
  0
ENDSEC
  0
SECTION
  2
ENTITIES
  0
MTEXT
  5
206
100
AcDbEntity
  8
0
100
AcDbMText
 62
2
  6
CONTINUOUS
  7
STANDARD
 71
3
 72
1
 10
5.5642118907
 20
0.7179910219
 30
0.0
 11
1.0
 21
0.0
 31
0.0
 73
2
 44
0.9
  1
SCALE 1.000
 40
0.08
 41
0.704
  0
LINE
  5
207
100
AcDbEntity
  8
0
100
AcDbLine
 62
7
  6
CONTINUOUS
 10
0.0
 20
0.0
 11
0.0
 21
8.5
  0
LINE
  5
208
100
AcDbEntity
  8
0
100
AcDbLine
 62
7
  6
CONTINUOUS
 10
0.0
 20
0.0
 11
11.0
 21
0.0
  0
LINE
  5
209
100
AcDbEntity
  8
0
100
AcDbLine
 62
7
  6
CONTINUOUS
 10
0.0
 20
8.5
 11
11.0
 21
8.5
  0
LINE
  5
20A
100
AcDbEntity
  8
0
100
AcDbLine
 62
7
  6
CONTINUOUS
 10
11.0
 20
0.0
 11
11.0
 21
8.5
  0
LWPOLYLINE
  5
20B
100
AcDbEntity
  8
0
100
AcDbPolyline
 62
7
  6
CONTINUOUS
 90
10
 70
0
 10
3.4206829839
 20
2.1612077403
 10
3.4200499981
 20
2.1623784021
 10
3.4163272847
 20
2.1684582564
 10
3.4120896326
 20
2.174152375
 10
3.4073790778
 20
2.1794186182
 10
3.4021935613
 20
2.1842600264
 10
3.3965932137
 20
2.1886151443
 10
3.3906484271
 20
2.1924340999
 10
3.3843561188
 20
2.1957183279
 10
3.3821550758
 20
2.1967029675
  0
LINE
  5
20C
100
AcDbEntity
  8
0
100
AcDbLine
 62
7
  6
CONTINUOUS
 10
3.4206829882
 20
2.1612077321
 11
3.4278632359
 21
2.1476558872
  0
LINE
  5
20D
100
AcDbEntity
  8
0
100
AcDbLine
 62
7
  6
CONTINUOUS
 10
3.7962270345
 20
2.3601842868
 11
3.8034072865
 21
2.3466324337
  0
LINE
  5
20E
100
AcDbEntity
  8
0
100
AcDbLine
 62
7
  6
CONTINUOUS
 10
5.2867683214
 20
2.7153242698
 11
5.7117683214
 21
2.7153242698
  0
LWPOLYLINE
  5
20F
100
AcDbEntity
  8
0
100
AcDbPolyline
 62
7
  6
CONTINUOUS
 90
10
 70
0
 10
3.7884961666
 20
2.4119968768
 10
3.7880747149
 20
2.4096227285
 10
3.7872582297
 20
2.4025720062
 10
3.7870793512
 20
2.3955085134
 10
3.787537535
 20
2.3884288938
 10
3.7886310499
 20
2.3814193984
 10
3.7903428177
 20
2.3745642934
 10
3.7926741974
 20
2.3678601676
 10
3.7956139304
 20
2.3613654678
 10
3.7962270345
 20
2.3601842868
  0
LINE
  5
210
100
AcDbEntity
  8
0
100
AcDbLine
 62
7
  6
CONTINUOUS
 10
7.1839028225
 20
3.3019384431
 11
7.2939028225
 21
3.3019384431
  0
LINE
  5
211
100
AcDbEntity
  8
0
100
AcDbLine
 62
7
  6
CONTINUOUS
 10
3.7960289349
 20
2.3595975738
 11
3.7962270076
 21
2.3601843374
  0
LINE
  5
212
100
AcDbEntity
  8
0
100
AcDbLine
 62
7
  6
CONTINUOUS
 10
3.7960247162
 20
2.3596103767
 11
3.7962270076
 21
2.3601843374
  0
LINE
  5
213
100
AcDbEntity
  8
0
100
AcDbLine
 62
7
  6
CONTINUOUS
 10
7.0332149053
 20
3.4219384431
 11
7.0639028225
 21
3.4219384431
  0
LWPOLYLINE
  5
214
100
AcDbEntity
  8
0
100
AcDbPolyline
 62
7
  6
CONTINUOUS
 90
3
 70
0
 10
5.8899594264
 20
5.2765664976
 10
5.8951475901
 20
5.2797028101
 10
5.8997183917
 20
5.2837186415
  0
LINE
  5
215
100
AcDbEntity
  8
0
100
AcDbLine
 62
7
  6
CONTINUOUS
 10
5.1551108411
 20
3.715387262
 11
5.8434258018
 21
3.715387262
  0
LINE
  5
216
100
AcDbEntity
  8
0
100
AcDbLine
 62
7
  6
CONTINUOUS
 10
5.1452683214
 20
3.7252297817
 11
5.8532683214
 21
3.7252297817
  0
LINE
  5
217
100
AcDbEntity
  8
0
100
AcDbLine
 62
7
  6
CONTINUOUS
 10
5.8532683214
 20
3.748387262
 11
5.1452683214
 21
3.748387262
  0
LINE
  5
218
100
AcDbEntity
  8
0
100
AcDbLine
 62
7
  6
CONTINUOUS
 10
6.5935878618
 20
3.8019384431
 11
6.6339028225
 21
3.8019384431
  0
LINE
  5
219
100
AcDbEntity
  8
0
100
AcDbLine
 62
7
  6
CONTINUOUS
 10
6.7639028225
 20
3.8019384431
 11
6.8058611863
 21
3.8019384431
  0
LINE
  5
21A
100
AcDbEntity
  8
0
100
AcDbLine
 62
7
  6
CONTINUOUS
 10
5.1456041912
 20
3.830387262
 11
5.8529324517
 21
3.830387262
  0
LINE
  5
21B
100
AcDbEntity
  8
0
100
AcDbLine
 62
7
  6
CONTINUOUS
 10
4.9646444987
 20
6.5420964147
 11
4.9646444987
 21
6.5716239738
  0
LINE
  5
21C
100
AcDbEntity
  8
0
100
AcDbLine
 62
7
  6
CONTINUOUS
 10
5.8529324517
 20
3.8535447423
 11
5.1456041912
 21
3.8535447423
  0
LINE
  5
21D
100
AcDbEntity
  8
0
100
AcDbLine
 62
7
  6
CONTINUOUS
 10
5.843089932
 20
3.863387262
 11
5.1554505044
 21
3.863387262
  0
LINE
  5
21E
100
AcDbEntity
  8
0
100
AcDbLine
 62
7
  6
CONTINUOUS
 10
6.1260460153
 20
3.8794384431
 11
6.5739028225
 21
3.8794384431
  0
LINE
  5
21F
100
AcDbEntity
  8
0
100
AcDbLine
 62
7
  6
CONTINUOUS
 10
5.0373036351
 20
5.7607566033
 11
5.0782385646
 21
5.3514036062
  0
LINE
  5
220
100
AcDbEntity
  8
0
100
AcDbLine
 62
7
  6
CONTINUOUS
 10
4.9988385823
 20
6.1635375966
 11
5.0373732349
 21
5.7600456622
  0
LINE
  5
221
100
AcDbEntity
  8
0
100
AcDbLine
 62
7
  6
CONTINUOUS
 10
4.987188598
 20
6.5913090132
 11
4.9938224195
 21
6.5189433555
  0
LINE
  5
222
100
AcDbEntity
  8
0
100
AcDbLine
 62
7
  6
CONTINUOUS
 10
5.0065855849
 20
6.6076387888
 11
5.0145162141
 21
6.5203835284
  0
LINE
  5
223
100
AcDbEntity
  8
0
100
AcDbLine
 62
7
  6
CONTINUOUS
 10
4.9646440966
 20
6.5716252412
 11
4.9697908181
 21
6.5142814548
  0
LINE
  5
224
100
AcDbEntity
  8
0
100
AcDbLine
 62
7
  6
CONTINUOUS
 10
4.9904109626
 20
6.5229934859
 11
4.9843319239
 21
6.5912817582
  0
LINE
  5
225
100
AcDbEntity
  8
0
100
AcDbLine
 62
7
  6
CONTINUOUS
 10
4.9646444252
 20
6.5420964147
 11
4.9988690386
 21
6.1632249643
  0
LINE
  5
226
100
AcDbEntity
  8
0
100
AcDbLine
 62
7
  6
CONTINUOUS
 10
4.9646444252
 20
6.5420964147
 11
4.9665387249
 21
6.5197615321
  0
LINE
  5
227
100
AcDbEntity
  8
0
100
AcDbLine
 62
7
  6
CONTINUOUS
 10
5.1066176976
 20
5.2930806667
 11
5.1066176976
 21
5.3226082257
  0
LINE
  5
228
100
AcDbEntity
  8
0
100
AcDbLine
 62
7
  6
CONTINUOUS
 10
5.1452683214
 20
3.7252297817
 11
5.1452683214
 21
3.748387262
  0
LINE
  5
229
100
AcDbEntity
  8
0
100
AcDbLine
 62
7
  6
CONTINUOUS
 10
5.1456041912
 20
3.830387262
 11
5.1456041912
 21
3.8535447423
  0
LINE
  5
22A
100
AcDbEntity
  8
0
100
AcDbLine
 62
7
  6
CONTINUOUS
 10
5.0877734348
 20
5.3074827978
 11
5.087775774
 21
5.3430190223
  0
LWPOLYLINE
  5
22B
100
AcDbEntity
  8
0
100
AcDbPolyline
 62
7
  6
CONTINUOUS
 90
3
 70
0
 10
5.8997183917
 20
5.2837186415
 10
5.9037076971
 20
5.2885814835
 10
5.9071482873
 20
5.2943102117
  0
LINE
  5
22C
100
AcDbEntity
  8
0
100
AcDbLine
 62
7
  6
CONTINUOUS
 10
5.0801198551
 20
5.336373949
 11
5.0814232388
 21
5.3283173181
  0
LINE
  5
22D
100
AcDbEntity
  8
0
100
AcDbLine
 62
7
  6
CONTINUOUS
 10
5.079001541
 20
5.3446890736
 11
5.0801198551
 21
5.336373949
  0
LINE
  5
22E
100
AcDbEntity
  8
0
100
AcDbLine
 62
7
  6
CONTINUOUS
 10
5.0782475629
 20
5.3513192611
 11
5.079001541
 21
5.3446890736
  0
LINE
  5
22F
100
AcDbEntity
  8
0
100
AcDbLine
 62
7
  6
CONTINUOUS
 10
5.2827683214
 20
5.2733956273
 11
5.2827683214
 21
4.7934745907
  0
LINE
  5
230
100
AcDbEntity
  8
0
100
AcDbLine
 62
7
  6
CONTINUOUS
 10
5.2867683214
 20
2.7153242698
 11
5.2867683214
 21
3.715387262
  0
LINE
  5
231
100
AcDbEntity
  8
0
100
AcDbLine
 62
7
  6
CONTINUOUS
 10
5.9071482873
 20
5.2943102117
 11
5.9098496895
 21
5.3003737591
  0
LINE
  5
232
100
AcDbEntity
  8
0
100
AcDbLine
 62
7
  6
CONTINUOUS
 10
5.9069221316
 20
5.2938764752
 11
5.9098499015
 21
5.3003693704
  0
LINE
  5
233
100
AcDbEntity
  8
0
100
AcDbLine
 62
7
  6
CONTINUOUS
 10
5.0866832536
 20
5.3061041877
 11
5.0887181127
 21
5.3002825919
  0
LINE
  5
234
100
AcDbEntity
  8
0
100
AcDbLine
 62
7
  6
CONTINUOUS
 10
5.0845288306
 20
5.3136950252
 11
5.0866832536
 21
5.3061041877
  0
LINE
  5
235
100
AcDbEntity
  8
0
100
AcDbLine
 62
7
  6
CONTINUOUS
 10
5.0828115979
 20
5.3211243569
 11
5.0846657966
 21
5.3131689183
  0
LINE
  5
236
100
AcDbEntity
  8
0
100
AcDbLine
 62
7
  6
CONTINUOUS
 10
5.0814232388
 20
5.3283173181
 11
5.0829278579
 21
5.3205822852
  0
LINE
  5
237
100
AcDbEntity
  8
0
100
AcDbLine
 62
7
  6
CONTINUOUS
 10
5.7117683214
 20
2.7153242698
 11
5.7117683214
 21
3.715387262
  0
LINE
  5
238
100
AcDbEntity
  8
0
100
AcDbLine
 62
7
  6
CONTINUOUS
 10
5.7157683214
 20
5.2733956273
 11
5.7157683214
 21
4.7934745907
  0
LINE
  5
239
100
AcDbEntity
  8
0
100
AcDbLine
 62
7
  6
CONTINUOUS
 10
5.917437432
 20
5.3292022353
 11
5.9187831795
 21
5.3372875031
  0
LINE
  5
23A
100
AcDbEntity
  8
0
100
AcDbLine
 62
7
  6
CONTINUOUS
 10
5.9158917468
 20
5.3214183078
 11
5.917437432
 21
5.3292022353
  0
LINE
  5
23B
100
AcDbEntity
  8
0
100
AcDbLine
 62
7
  6
CONTINUOUS
 10
5.9141223639
 20
5.3139495354
 11
5.9158917468
 21
5.3214183078
  0
LWPOLYLINE
  5
23C
100
AcDbEntity
  8
0
100
AcDbPolyline
 62
7
  6
CONTINUOUS
 90
3
 70
0
 10
5.9098237694
 20
5.3002958238
 10
5.9120961221
 20
5.3068347286
 10
5.9141223639
 20
5.3139495354
  0
LINE
  5
23D
100
AcDbEntity
  8
0
100
AcDbLine
 62
7
  6
CONTINUOUS
 10
6.5739028225
 20
4.7244384431
 11
6.1260460153
 21
4.7244384431
  0
LINE
  5
23E
100
AcDbEntity
  8
0
100
AcDbLine
 62
7
  6
CONTINUOUS
 10
5.0916145307
 20
5.2938764384
 11
5.0950644195
 21
5.2882528127
  0
LWPOLYLINE
  5
23F
100
AcDbEntity
  8
0
100
AcDbPolyline
 62
7
  6
CONTINUOUS
 90
5
 70
0
 10
5.0913884025
 20
5.2943101209
 10
5.0948289941
 20
5.2885814151
 10
5.0988182975
 20
5.283718594
 10
5.1033890927
 20
5.279702781
 10
5.1085772469
 20
5.2765664824
  0
LINE
  5
240
100
AcDbEntity
  8
0
100
AcDbLine
 62
7
  6
CONTINUOUS
 10
5.0886867707
 20
5.3003692947
 11
5.0916145307
 21
5.2938764384
  0
LINE
  5
241
100
AcDbEntity
  8
0
100
AcDbLine
 62
7
  6
CONTINUOUS
 10
5.8529324517
 20
3.830387262
 11
5.8529324517
 21
3.8535447423
  0
LINE
  5
242
100
AcDbEntity
  8
0
100
AcDbLine
 62
7
  6
CONTINUOUS
 10
5.8532683214
 20
3.7252297817
 11
5.8532683214
 21
3.748387262
  0
LINE
  5
243
100
AcDbEntity
  8
0
100
AcDbLine
 62
7
  6
CONTINUOUS
 10
5.891918174
 20
5.3226082257
 11
5.891918174
 21
5.2930806667
  0
LINE
  5
244
100
AcDbEntity
  8
0
100
AcDbLine
 62
7
  6
CONTINUOUS
 10
5.9107628567
 20
5.3074821153
 11
5.9107628567
 21
5.3430260063
  0
LINE
  5
245
100
AcDbEntity
  8
0
100
AcDbLine
 62
7
  6
CONTINUOUS
 10
5.9317930877
 20
4.6274684535
 11
5.9317930877
 21
3.9764084327
  0
LINE
  5
246
100
AcDbEntity
  8
0
100
AcDbLine
 62
7
  6
CONTINUOUS
 10
5.9651030491
 20
4.6118169446
 11
5.9651030491
 21
3.9921036016
  0
LINE
  5
247
100
AcDbEntity
  8
0
100
AcDbLine
 62
7
  6
CONTINUOUS
 10
6.0142071048
 20
6.5913090132
 11
6.0081202783
 21
6.5229945086
  0
LINE
  5
248
100
AcDbEntity
  8
0
100
AcDbLine
 62
7
  6
CONTINUOUS
 10
6.0298618816
 20
6.5268061205
 11
6.033891876
 21
6.571623922
  0
LINE
  5
249
100
AcDbEntity
  8
0
100
AcDbLine
 62
7
  6
CONTINUOUS
 10
5.9840525802
 20
6.5207264373
 11
5.9919510591
 21
6.6076387891
  0
LINE
  5
24A
100
AcDbEntity
  8
0
100
AcDbLine
 62
7
  6
CONTINUOUS
 10
6.033782772
 20
6.5408902192
 11
6.0338645056
 21
6.5417841348
  0
LINE
  5
24B
100
AcDbEntity
  8
0
100
AcDbLine
 62
7
  6
CONTINUOUS
 10
6.0045348868
 20
6.2156663602
 11
6.0338920408
 21
6.5420968305
  0
LINE
  5
24C
100
AcDbEntity
  8
0
100
AcDbLine
 62
7
  6
CONTINUOUS
 10
6.0335969339
 20
6.5379845646
 11
6.0338045386
 21
6.5402419076
  0
LINE
  5
24D
100
AcDbEntity
  8
0
100
AcDbLine
 62
7
  6
CONTINUOUS
 10
6.0051149135
 20
6.523288387
 11
6.0113480513
 21
6.5913089841
  0
LINE
  5
24E
100
AcDbEntity
  8
0
100
AcDbLine
 62
7
  6
CONTINUOUS
 10
5.9286196433
 20
5.4259036136
 11
5.9445002913
 21
5.596116923
  0
LINE
  5
24F
100
AcDbEntity
  8
0
100
AcDbLine
 62
7
  6
CONTINUOUS
 10
6.0337378206
 20
6.5699789168
 11
6.0338746998
 21
6.571440632
  0
LINE
  5
250
100
AcDbEntity
  8
0
100
AcDbLine
 62
7
  6
CONTINUOUS
 10
5.9684289358
 20
5.8327478674
 11
6.00462419
 21
6.2166347529
  0
LINE
  5
251
100
AcDbEntity
  8
0
100
AcDbLine
 62
7
  6
CONTINUOUS
 10
5.9442757268
 20
5.5938106363
 11
5.968571826
 21
5.8342169452
  0
LINE
  5
252
100
AcDbEntity
  8
0
100
AcDbLine
 62
7
  6
CONTINUOUS
 10
5.9206236134
 20
5.3513208744
 11
5.9286948502
 21
5.4265301
  0
LINE
  5
253
100
AcDbEntity
  8
0
100
AcDbLine
 62
7
  6
CONTINUOUS
 10
5.9199409308
 20
5.3456023903
 11
5.920622554
 21
5.3513133303
  0
LINE
  5
254
100
AcDbEntity
  8
0
100
AcDbLine
 62
7
  6
CONTINUOUS
 10
5.9187831795
 20
5.3372875031
 11
5.9199409308
 21
5.3456023903
  0
LINE
  5
255
100
AcDbEntity
  8
0
100
AcDbLine
 62
7
  6
CONTINUOUS
 10
5.7262924165
 20
4.793103648
 11
5.7268605455
 21
4.7931097377
  0
LINE
  5
256
100
AcDbEntity
  8
0
100
AcDbLine
 62
7
  6
CONTINUOUS
 10
5.7252053293
 20
4.7934745907
 11
5.2717068408
 21
4.7931097377
  0
LINE
  5
257
100
AcDbEntity
  8
0
100
AcDbLine
 62
7
  6
CONTINUOUS
 10
6.5935878618
 20
4.8019384431
 11
6.6339028225
 21
4.8019384431
  0
LINE
  5
258
100
AcDbEntity
  8
0
100
AcDbLine
 62
7
  6
CONTINUOUS
 10
6.7639028225
 20
4.8019384431
 11
6.8058611863
 21
4.8019384431
  0
LINE
  5
259
100
AcDbEntity
  8
0
100
AcDbLine
 62
7
  6
CONTINUOUS
 10
5.7123999669
 20
4.7931155835
 11
5.7262924165
 21
4.793103648
  0
LWPOLYLINE
  5
25A
100
AcDbEntity
  8
0
100
AcDbPolyline
 62
7
  6
CONTINUOUS
 90
4
 70
0
 10
5.0950644195
 20
5.2882528127
 10
5.0990463255
 20
5.2834875738
 10
5.1035884709
 20
5.2795590847
 10
5.1087341516
 20
5.2764900857
  0
LINE
  5
25B
100
AcDbEntity
  8
0
100
AcDbLine
 62
7
  6
CONTINUOUS
 10
6.0338921442
 20
6.5716239738
 11
6.0338921442
 21
6.5420964147
  0
LINE
  5
25C
100
AcDbEntity
  8
0
100
AcDbLine
 62
7
  6
CONTINUOUS
 10
6.1169581731
 20
4.7183756481
 11
6.1169581731
 21
3.885501238
  0
LINE
  5
25D
100
AcDbEntity
  8
0
100
AcDbLine
 62
7
  6
CONTINUOUS
 10
6.1260460153
 20
4.7244384431
 11
6.1260460153
 21
3.8794384431
  0
LWPOLYLINE
  5
25E
100
AcDbEntity
  8
0
100
AcDbPolyline
 62
7
  6
CONTINUOUS
 90
3
 70
0
 10
5.8782213923
 20
5.2734133787
 10
5.8842450441
 20
5.2744364576
 10
5.8899594264
 20
5.2765664976
  0
LINE
  5
25F
100
AcDbEntity
  8
0
100
AcDbLine
 62
7
  6
CONTINUOUS
 10
7.0332149053
 20
5.1819384431
 11
7.0639028225
 21
5.1819384431
  0
LWPOLYLINE
  5
260
100
AcDbEntity
  8
0
100
AcDbPolyline
 62
7
  6
CONTINUOUS
 90
4
 70
0
 10
5.1087341516
 20
5.2764900857
 10
5.1144002571
 20
5.2744058619
 10
5.1203719458
 20
5.2734084106
 10
5.1233101701
 20
5.2733204547
  0
LINE
  5
261
100
AcDbEntity
  8
0
100
AcDbLine
 62
7
  6
CONTINUOUS
 10
3.4278632359
 20
2.1476558872
 11
3.4434268515
 21
2.1559020424
  0
LINE
  5
262
100
AcDbEntity
  8
0
100
AcDbLine
 62
7
  6
CONTINUOUS
 10
3.7878436708
 20
2.3383862786
 11
3.8034072865
 21
2.3466324337
  0
LINE
  5
263
100
AcDbEntity
  8
0
100
AcDbLine
 62
7
  6
CONTINUOUS
 10
5.1112442158
 20
5.3779494819
 11
5.1028099203
 21
5.3772320275
  0
LINE
  5
264
100
AcDbEntity
  8
0
100
AcDbLine
 62
7
  6
CONTINUOUS
 10
5.1232943868
 20
5.2733197058
 11
5.1244816771
 21
5.273395579
  0
LINE
  5
265
100
AcDbEntity
  8
0
100
AcDbLine
 62
7
  6
CONTINUOUS
 10
5.8752247225
 20
5.2733206746
 11
5.8782213923
 21
5.2734133787
  0
LINE
  5
266
100
AcDbEntity
  8
0
100
AcDbLine
 62
7
  6
CONTINUOUS
 10
5.1231407408
 20
5.2733174754
 11
5.1232943868
 21
5.2733197058
  0
LINE
  5
267
100
AcDbEntity
  8
0
100
AcDbLine
 62
7
  6
CONTINUOUS
 10
5.1356065885
 20
5.2733889724
 11
5.1231407408
 21
5.2733174754
  0
LINE
  5
268
100
AcDbEntity
  8
0
100
AcDbLine
 62
7
  6
CONTINUOUS
 10
5.1244984745
 20
5.2733956273
 11
5.8740380119
 21
5.2733956273
  0
LINE
  5
269
100
AcDbEntity
  8
0
100
AcDbLine
 62
7
  6
CONTINUOUS
 10
5.1058716116
 20
5.2930806667
 11
5.8926650313
 21
5.2930806667
  0
LINE
  5
26A
100
AcDbEntity
  8
0
100
AcDbLine
 62
7
  6
CONTINUOUS
 10
7.1839028225
 20
5.3019384431
 11
7.2939028225
 21
5.3019384431
  0
LINE
  5
26B
100
AcDbEntity
  8
0
100
AcDbLine
 62
7
  6
CONTINUOUS
 10
5.8923587476
 20
5.3226082257
 11
5.1061778953
 21
5.3226082257
  0
LINE
  5
26C
100
AcDbEntity
  8
0
100
AcDbLine
 62
7
  6
CONTINUOUS
 10
5.8740377601
 20
5.3422932651
 11
5.1244986633
 21
5.3422932651
  0
LINE
  5
26D
100
AcDbEntity
  8
0
100
AcDbLine
 62
7
  6
CONTINUOUS
 10
5.87539591
 20
5.2733174753
 11
5.8674737924
 21
5.2733716379
  0
LINE
  5
26E
100
AcDbEntity
  8
0
100
AcDbLine
 62
7
  6
CONTINUOUS
 10
5.8752409197
 20
5.2733197328
 11
5.87539591
 21
5.2733174753
  0
LINE
  5
26F
100
AcDbEntity
  8
0
100
AcDbLine
 62
7
  6
CONTINUOUS
 10
5.8740548176
 20
5.2733955938
 11
5.8752409197
 21
5.2733197328
  0
LINE
  5
270
100
AcDbEntity
  8
0
100
AcDbLine
 62
7
  6
CONTINUOUS
 10
5.8872923181
 20
5.377948424
 11
5.8958011269
 21
5.3772251741
  0
LINE
  5
271
100
AcDbEntity
  8
0
100
AcDbLine
 62
7
  6
CONTINUOUS
 10
6.5739028225
 20
4.7822534036
 11
6.5739028225
 21
3.8216234825
  0
LINE
  5
272
100
AcDbEntity
  8
0
100
AcDbLine
 62
7
  6
CONTINUOUS
 10
6.5935878618
 20
4.8019384431
 11
6.5935878618
 21
3.8019384431
  0
LINE
  5
273
100
AcDbEntity
  8
0
100
AcDbLine
 62
7
  6
CONTINUOUS
 10
6.6339028225
 20
3.8019384431
 11
6.6339028225
 21
4.8019384431
  0
LINE
  5
274
100
AcDbEntity
  8
0
100
AcDbLine
 62
7
  6
CONTINUOUS
 10
6.7639028225
 20
4.8019384431
 11
6.7639028225
 21
3.8019384431
  0
LINE
  5
275
100
AcDbEntity
  8
0
100
AcDbLine
 62
7
  6
CONTINUOUS
 10
6.8058611863
 20
3.8019384431
 11
6.8058611863
 21
4.8019384431
  0
LINE
  5
276
100
AcDbEntity
  8
0
100
AcDbLine
 62
7
  6
CONTINUOUS
 10
6.8240585095
 20
4.7897606138
 11
6.8240585095
 21
3.8141162724
  0
LINE
  5
277
100
AcDbEntity
  8
0
100
AcDbLine
 62
7
  6
CONTINUOUS
 10
7.0135439931
 20
5.1629990491
 11
7.0135439931
 21
3.440877837
  0
LINE
  5
278
100
AcDbEntity
  8
0
100
AcDbLine
 62
7
  6
CONTINUOUS
 10
7.0332149053
 20
5.1819384431
 11
7.0332149053
 21
3.4219384431
  0
LINE
  5
279
100
AcDbEntity
  8
0
100
AcDbLine
 62
7
  6
CONTINUOUS
 10
7.0639028225
 20
5.1819384431
 11
7.0639028225
 21
3.4219384431
  0
LINE
  5
27A
100
AcDbEntity
  8
0
100
AcDbLine
 62
7
  6
CONTINUOUS
 10
7.1839028225
 20
5.3019384431
 11
7.1839028225
 21
3.3019384431
  0
LINE
  5
27B
100
AcDbEntity
  8
0
100
AcDbLine
 62
7
  6
CONTINUOUS
 10
7.2939028225
 20
3.3019384431
 11
7.2939028225
 21
5.3019384431
  0
LINE
  5
27C
100
AcDbEntity
  8
0
100
AcDbLine
 62
7
  6
CONTINUOUS
 10
6.0338921442
 20
6.5716239738
 11
6.0338905581
 21
6.5716239451
  0
LINE
  5
27D
100
AcDbEntity
  8
0
100
AcDbLine
 62
7
  6
CONTINUOUS
 10
4.987188598
 20
6.5913090132
 11
4.984329538
 21
6.5913090132
  0
LINE
  5
27E
100
AcDbEntity
  8
0
100
AcDbLine
 62
7
  6
CONTINUOUS
 10
6.0113480449
 20
6.5913090132
 11
6.0142071048
 21
6.5913090132
  0
ARC
  5
27F
100
AcDbEntity
  8
0
100
AcDbCircle
 62
7
  6
CONTINUOUS
 10
4.4992683214
 20
2.7153242698
 40
1.2125
100
AcDbArc
 50
207.9162282035
 51
360.0
  0
ARC
  5
280
100
AcDbEntity
  8
0
100
AcDbCircle
 62
7
  6
CONTINUOUS
 10
4.4992683214
 20
2.7153242698
 40
0.7875
100
AcDbArc
 50
207.9162282035
 51
360.0
  0
ARC
  5
281
100
AcDbEntity
  8
0
100
AcDbCircle
 62
7
  6
CONTINUOUS
 10
5.4992683214
 20
4.3019384431
 40
0.5413385827
100
AcDbArc
 50
305.8919872179
 51
323.0338771776
  0
ARC
  5
282
100
AcDbEntity
  8
0
100
AcDbCircle
 62
7
  6
CONTINUOUS
 10
5.4992683214
 20
4.3019384431
 40
0.5413385827
100
AcDbArc
 50
114.8614166377
 51
234.1080127821
  0
ARC
  5
283
100
AcDbEntity
  8
0
100
AcDbCircle
 62
7
  6
CONTINUOUS
 10
5.4992683214
 20
4.3019384431
 40
0.5413385827
100
AcDbArc
 50
36.9661228224
 51
65.1385833623
  0
ARC
  5
284
100
AcDbEntity
  8
0
100
AcDbCircle
 62
7
  6
CONTINUOUS
 10
3.5029255047
 20
2.4624393815
 40
0.312257942
100
AcDbArc
 50
257.6554550502
 51
259.01560583
  0
ARC
  5
285
100
AcDbEntity
  8
0
100
AcDbCircle
 62
7
  6
CONTINUOUS
 10
3.4985902338
 20
2.4680524255
 40
0.2952755906
100
AcDbArc
 50
349.0564679594
 51
246.775988349
  0
ARC
  5
286
100
AcDbEntity
  8
0
100
AcDbCircle
 62
7
  6
CONTINUOUS
 10
5.9569436512
 20
3.8189495924
 40
0.1733025354
100
AcDbArc
 50
22.5829162745
 51
87.3014130917
  0
ARC
  5
287
100
AcDbEntity
  8
0
100
AcDbCircle
 62
7
  6
CONTINUOUS
 10
5.8262683214
 20
3.7892773586
 40
0.049
100
AcDbArc
 50
303.4370454299
 51
57.0323158137
  0
ARC
  5
288
100
AcDbEntity
  8
0
100
AcDbCircle
 62
7
  6
CONTINUOUS
 10
5.1722683214
 20
3.7892773586
 40
0.049
100
AcDbArc
 50
122.9676841863
 51
236.5629545701
  0
ARC
  5
289
100
AcDbEntity
  8
0
100
AcDbCircle
 62
7
  6
CONTINUOUS
 10
5.9632494343
 20
3.9527335228
 40
0.0393700787
100
AcDbArc
 50
87.3014130927
 51
143.033877178
  0
ARC
  5
28A
100
AcDbEntity
  8
0
100
AcDbCircle
 62
7
  6
CONTINUOUS
 10
5.843089932
 20
3.8535447423
 40
0.0098425197
100
AcDbArc
 50
0.0
 51
90.0
  0
ARC
  5
28B
100
AcDbEntity
  8
0
100
AcDbCircle
 62
7
  6
CONTINUOUS
 10
5.1554467109
 20
3.8535447423
 40
0.0098425197
100
AcDbArc
 50
90.0
 51
180.0
  0
ARC
  5
28C
100
AcDbEntity
  8
0
100
AcDbCircle
 62
7
  6
CONTINUOUS
 10
5.8434258018
 20
3.7252297817
 40
0.0098425197
100
AcDbArc
 50
270.0
 51
360.0
  0
ARC
  5
28D
100
AcDbEntity
  8
0
100
AcDbCircle
 62
7
  6
CONTINUOUS
 10
5.1551108411
 20
3.7252297817
 40
0.0098425197
100
AcDbArc
 50
180.0
 51
270.0
  0
ARC
  5
28E
100
AcDbEntity
  8
0
100
AcDbCircle
 62
7
  6
CONTINUOUS
 10
6.1260460153
 20
3.8892809628
 40
0.0098425197
100
AcDbArc
 50
202.5829162754
 51
270.0
  0
ARC
  5
28F
100
AcDbEntity
  8
0
100
AcDbCircle
 62
7
  6
CONTINUOUS
 10
5.4992683214
 20
6.5224106279
 40
0.4999999927
100
AcDbArc
 50
9.8143492849
 51
170.1856507151
  0
ARC
  5
290
100
AcDbEntity
  8
0
100
AcDbCircle
 62
7
  6
CONTINUOUS
 10
5.4581406635
 20
5.3937202707
 40
0.3817998657
100
AcDbArc
 50
186.0539812044
 51
186.3722723072
  0
ARC
  5
291
100
AcDbEntity
  8
0
100
AcDbCircle
 62
7
  6
CONTINUOUS
 10
5.5664458413
 20
5.3933362681
 40
0.3561506748
100
AcDbArc
 50
352.5222911266
 51
353.5662030115
  0
ARC
  5
292
100
AcDbEntity
  8
0
100
AcDbCircle
 62
7
  6
CONTINUOUS
 10
5.6174569364
 20
5.386594816
 40
0.3046960679
100
AcDbArc
 50
350.2734590108
 51
352.5308494273
  0
ARC
  5
293
100
AcDbEntity
  8
0
100
AcDbCircle
 62
7
  6
CONTINUOUS
 10
5.3283445649
 20
5.3951835777
 40
0.2463603752
100
AcDbArc
 50
186.4034749026
 51
188.5158751828
  0
ARC
  5
294
100
AcDbEntity
  8
0
100
AcDbCircle
 62
7
  6
CONTINUOUS
 10
5.9569436512
 20
4.7849272938
 40
0.1733025354
100
AcDbArc
 50
272.6985869083
 51
337.4170837255
  0
ARC
  5
295
100
AcDbEntity
  8
0
100
AcDbCircle
 62
7
  6
CONTINUOUS
 10
5.7837523427
 20
5.3750657978
 40
0.1309894956
100
AcDbArc
 50
345.8427238018
 51
346.9036379126
  0
ARC
  5
296
100
AcDbEntity
  8
0
100
AcDbCircle
 62
7
  6
CONTINUOUS
 10
5.9632494343
 20
4.6511433633
 40
0.0393700787
100
AcDbArc
 50
216.966122822
 51
272.6985869073
  0
ARC
  5
297
100
AcDbEntity
  8
0
100
AcDbCircle
 62
7
  6
CONTINUOUS
 10
5.1270236234
 20
5.2932159346
 40
0.0211524443
100
AcDbArc
 50
180.3664037903
 51
194.421748744
  0
ARC
  5
298
100
AcDbEntity
  8
0
100
AcDbCircle
 62
7
  6
CONTINUOUS
 10
5.8715190245
 20
5.2932172279
 40
0.0211464478
100
AcDbArc
 50
345.5338322696
 51
359.6299881651
  0
ARC
  5
299
100
AcDbEntity
  8
0
100
AcDbCircle
 62
7
  6
CONTINUOUS
 10
5.1276402605
 20
5.2931020607
 40
0.0210200546
100
AcDbArc
 50
180.058315158
 51
194.1360495495
  0
ARC
  5
29A
100
AcDbEntity
  8
0
100
AcDbCircle
 62
7
  6
CONTINUOUS
 10
5.8709305914
 20
5.2930981768
 40
0.0209876135
100
AcDbArc
 50
345.8632913021
 51
359.9521977994
  0
ARC
  5
29B
100
AcDbEntity
  8
0
100
AcDbCircle
 62
7
  6
CONTINUOUS
 10
6.0116873824
 20
6.6118518102
 40
0.0205643347
100
AcDbArc
 50
252.4362767922
 51
260.8538800119
  0
ARC
  5
29C
100
AcDbEntity
  8
0
100
AcDbCircle
 62
7
  6
CONTINUOUS
 10
4.9868492609
 20
6.6118518163
 40
0.0205643341
100
AcDbArc
 50
279.146119246
 51
287.5637197309
  0
ARC
  5
29D
100
AcDbEntity
  8
0
100
AcDbCircle
 62
7
  6
CONTINUOUS
 10
4.9843370252
 20
6.5716174305
 40
0.0196932641
100
AcDbArc
 50
90.0217835773
 51
179.9772750848
  0
ARC
  5
29E
100
AcDbEntity
  8
0
100
AcDbCircle
 62
7
  6
CONTINUOUS
 10
6.0141976609
 20
6.5716161201
 40
0.0196932326
100
AcDbArc
 50
0.0227667339
 51
89.9725230484
  0
ARC
  5
29F
100
AcDbEntity
  8
0
100
AcDbCircle
 62
7
  6
CONTINUOUS
 10
5.872985757
 20
5.3239167196
 40
0.0184818685
100
AcDbArc
 50
50.7048158755
 51
58.3346878174
  0
ARC
  5
2A0
100
AcDbEntity
  8
0
100
AcDbCircle
 62
7
  6
CONTINUOUS
 10
5.8732970633
 20
5.3244377245
 40
0.0178750059
100
AcDbArc
 50
58.3073042993
 51
66.153325966
  0
ARC
  5
2A1
100
AcDbEntity
  8
0
100
AcDbCircle
 62
7
  6
CONTINUOUS
 10
5.8739036392
 20
5.3245571193
 40
0.0177625664
100
AcDbArc
 50
59.0348117254
 51
66.8543333806
  0
ARC
  5
2A2
100
AcDbEntity
  8
0
100
AcDbCircle
 62
7
  6
CONTINUOUS
 10
5.1246291289
 20
5.3245595752
 40
0.0177594095
100
AcDbArc
 50
113.3413428122
 51
121.1760017862
  0
ARC
  5
2A3
100
AcDbEntity
  8
0
100
AcDbCircle
 62
7
  6
CONTINUOUS
 10
5.1245003047
 20
5.3249075437
 40
0.0173857215
100
AcDbArc
 50
90.0031661258
 51
113.3270028407
  0
ARC
  5
2A4
100
AcDbEntity
  8
0
100
AcDbCircle
 62
7
  6
CONTINUOUS
 10
5.874036351
 20
5.3249086583
 40
0.0173846068
100
AcDbArc
 50
66.8676493187
 51
89.9976110776
  0
ARC
  5
2A5
100
AcDbEntity
  8
0
100
AcDbCircle
 62
7
  6
CONTINUOUS
 10
5.1250916477
 20
5.3249663959
 40
0.0173268723
100
AcDbArc
 50
90.0337281431
 51
97.7522073768
  0
ARC
  5
2A6
100
AcDbEntity
  8
0
100
AcDbCircle
 62
7
  6
CONTINUOUS
 10
5.8734478852
 20
5.2906684765
 40
0.0172728507
100
AcDbArc
 50
270.0242474388
 51
276.4354788426
  0
ARC
  5
2A7
100
AcDbEntity
  8
0
100
AcDbCircle
 62
7
  6
CONTINUOUS
 10
5.8726417622
 20
5.3593739356
 40
0.0170806947
100
AcDbArc
 50
261.6149049023
 51
270.1000533342
  0
ARC
  5
2A8
100
AcDbEntity
  8
0
100
AcDbCircle
 62
7
  6
CONTINUOUS
 10
5.1258948719
 20
5.3593713821
 40
0.0170780733
100
AcDbArc
 50
269.8997106663
 51
278.3808261445
  0
ARC
  5
2A9
100
AcDbEntity
  8
0
100
AcDbCircle
 62
7
  6
CONTINUOUS
 10
6.1260460153
 20
4.7145959234
 40
0.0098425197
100
AcDbArc
 50
90.0
 51
157.4170837246
  0
ARC
  5
2AA
100
AcDbEntity
  8
0
100
AcDbCircle
 62
7
  6
CONTINUOUS
 10
6.5139028225
 20
3.4219384431
 40
0.5
100
AcDbArc
 50
2.1708140046
 51
51.6611237721
  0
ARC
  5
2AB
100
AcDbEntity
  8
0
100
AcDbCircle
 62
7
  6
CONTINUOUS
 10
7.1839028225
 20
3.4219384431
 40
0.12
100
AcDbArc
 50
180.0
 51
270.0
  0
ARC
  5
2AC
100
AcDbEntity
  8
0
100
AcDbCircle
 62
7
  6
CONTINUOUS
 10
6.6989028225
 20
3.8463795547
 40
0.0787401575
100
AcDbArc
 50
214.3607835628
 51
325.6392164372
  0
ARC
  5
2AD
100
AcDbEntity
  8
0
100
AcDbCircle
 62
7
  6
CONTINUOUS
 10
6.5935878618
 20
3.8216234824
 40
0.0196850394
100
AcDbArc
 50
180.0
 51
270.0
  0
ARC
  5
2AE
100
AcDbEntity
  8
0
100
AcDbCircle
 62
7
  6
CONTINUOUS
 10
6.8058611863
 20
3.8216234824
 40
0.0196850394
100
AcDbArc
 50
270.0
 51
337.5816615931
  0
ARC
  5
2AF
100
AcDbEntity
  8
0
100
AcDbCircle
 62
7
  6
CONTINUOUS
 10
7.0332149053
 20
3.4416234824
 40
0.0196850394
100
AcDbArc
 50
182.1708140047
 51
270.0
  0
ARC
  5
2B0
100
AcDbEntity
  8
0
100
AcDbCircle
 62
7
  6
CONTINUOUS
 10
9.0639574189
 20
5.0293382488
 40
3.1602662894
100
AcDbArc
 50
173.8465587579
 51
173.9848562929
  0
ARC
  5
2B1
100
AcDbEntity
  8
0
100
AcDbCircle
 62
7
  6
CONTINUOUS
 10
8.6424139314
 20
5.0736883286
 40
2.7363962197
100
AcDbArc
 50
173.9834283029
 51
174.1324602215
  0
ARC
  5
2B2
100
AcDbEntity
  8
0
100
AcDbCircle
 62
7
  6
CONTINUOUS
 10
6.5139028225
 20
5.1819384431
 40
0.5
100
AcDbArc
 50
308.3388762291
 51
357.8291859954
  0
ARC
  5
2B3
100
AcDbEntity
  8
0
100
AcDbCircle
 62
7
  6
CONTINUOUS
 10
7.1839028225
 20
5.1819384431
 40
0.12
100
AcDbArc
 50
90.0
 51
180.0
  0
ARC
  5
2B4
100
AcDbEntity
  8
0
100
AcDbCircle
 62
7
  6
CONTINUOUS
 10
6.6989028225
 20
4.7574973315
 40
0.0787401575
100
AcDbArc
 50
34.3607835628
 51
145.6392164372
  0
ARC
  5
2B5
100
AcDbEntity
  8
0
100
AcDbCircle
 62
7
  6
CONTINUOUS
 10
6.5935878618
 20
4.7822534037
 40
0.0196850394
100
AcDbArc
 50
90.0
 51
180.0
  0
ARC
  5
2B6
100
AcDbEntity
  8
0
100
AcDbCircle
 62
7
  6
CONTINUOUS
 10
6.8058611863
 20
4.7822534037
 40
0.0196850394
100
AcDbArc
 50
22.4183384264
 51
90.0
  0
ARC
  5
2B7
100
AcDbEntity
  8
0
100
AcDbCircle
 62
7
  6
CONTINUOUS
 10
7.0332149053
 20
5.1622534037
 40
0.0196850394
100
AcDbArc
 50
90.0
 51
177.8291859953
  0
ARC
  5
2B8
100
AcDbEntity
  8
0
100
AcDbCircle
 62
7
  6
CONTINUOUS
 10
85.7670559229
 20
13.6838549617
 40
81.1174295691
100
AcDbArc
 50
185.0659596493
 51
185.8944125295
  0
ARC
  5
2B9
100
AcDbEntity
  8
0
100
AcDbCircle
 62
7
  6
CONTINUOUS
 10
69.7185930062
 20
12.2927908604
 40
64.9848097686
100
AcDbArc
 50
185.0933319124
 51
186.1088753133
  0
ARC
  5
2BA
100
AcDbEntity
  8
0
100
AcDbCircle
 62
7
  6
CONTINUOUS
 10
67.0671394441
 20
12.0925251977
 40
62.3473815236
100
AcDbArc
 50
185.1331380105
 51
186.1919990105
  0
LINE
  5
2BB
100
AcDbEntity
  8
0
100
AcDbLine
 62
7
  6
CONTINUOUS
 10
6.011348053
 20
6.5913089627
 11
6.0084186232
 21
6.5915489268
  0
SPLINE
  5
2BC
100
AcDbEntity
  8
0
100
AcDbSpline
 62
7
  6
CONTINUOUS
 70
0
 71
3
 72
10
 73
6
 74
0
 42
0.0000001
 43
0.0000001
 44
0.0000000001
 40
0.0
 40
0.0
 40
0.0
 40
0.0
 40
0.4974353718
 40
0.7486655692
 40
1.0
 40
1.0
 40
1.0
 40
1.0
 10
6.0054817588
 20
6.5922461453
 30
0.0
 10
6.0040424759
 20
6.5927001948
 30
0.0
 10
6.0019387723
 20
6.5936189296
 30
0.0
 10
5.9994011225
 20
6.5952911924
 30
0.0
 10
5.9982401417
 20
6.596287755
 30
0.0
 10
5.9976942265
 20
6.596820151
 30
0.0
  0
SPLINE
  5
2BD
100
AcDbEntity
  8
0
100
AcDbSpline
 62
7
  6
CONTINUOUS
 70
0
 71
3
 72
10
 73
6
 74
0
 42
0.0000001
 43
0.0000001
 44
0.0000000001
 40
0.0
 40
0.0
 40
0.0
 40
0.0
 40
0.5123280902
 40
0.7616483931
 40
1.0
 40
1.0
 40
1.0
 40
1.0
 10
5.9976942265
 20
6.596820151
 30
0.0
 10
5.996177068
 20
6.598299738
 30
0.0
 10
5.9942817268
 20
6.6009028293
 30
0.0
 10
5.9926363681
 20
6.6047059968
 30
0.0
 10
5.992119101
 20
6.6066673016
 30
0.0
 10
5.9919510571
 20
6.6076387887
 30
0.0
  0
LINE
  5
2BE
100
AcDbEntity
  8
0
100
AcDbLine
 62
7
  6
CONTINUOUS
 10
4.987188591
 20
6.5913089694
 11
4.9901180197
 21
6.5915489334
  0
SPLINE
  5
2BF
100
AcDbEntity
  8
0
100
AcDbSpline
 62
7
  6
CONTINUOUS
 70
0
 71
3
 72
10
 73
6
 74
0
 42
0.0000001
 43
0.0000001
 44
0.0000000001
 40
0.0
 40
0.0
 40
0.0
 40
0.0
 40
0.4974353727
 40
0.7486655699
 40
1.0
 40
1.0
 40
1.0
 40
1.0
 10
4.9930548831
 20
6.5922461516
 30
0.0
 10
4.9944941657
 20
6.5927002009
 30
0.0
 10
4.9965978688
 20
6.5936189353
 30
0.0
 10
4.9991355182
 20
6.5952911973
 30
0.0
 10
5.0002964989
 20
6.5962877594
 30
0.0
 10
5.000842414
 20
6.5968201552
 30
0.0
  0
SPLINE
  5
2C0
100
AcDbEntity
  8
0
100
AcDbSpline
 62
7
  6
CONTINUOUS
 70
0
 71
3
 72
10
 73
6
 74
0
 42
0.0000001
 43
0.0000001
 44
0.0000000001
 40
0.0
 40
0.0
 40
0.0
 40
0.0
 40
0.5123280856
 40
0.7616483882
 40
1.0
 40
1.0
 40
1.0
 40
1.0
 10
5.000842414
 20
6.5968201552
 30
0.0
 10
5.0023595724
 20
6.5982997415
 30
0.0
 10
5.0042549138
 20
6.6009028317
 30
0.0
 10
5.0059002732
 20
6.6047059979
 30
0.0
 10
5.0064175408
 20
6.606667302
 30
0.0
 10
5.0065855849
 20
6.6076387888
 30
0.0
  0
SPLINE
  5
2C1
100
AcDbEntity
  8
0
100
AcDbSpline
 62
7
  6
CONTINUOUS
 70
0
 71
3
 72
9
 73
5
 74
0
 42
0.0000001
 43
0.0000001
 44
0.0000000001
 40
0.0
 40
0.0
 40
0.0
 40
0.0
 40
0.5138218279
 40
1.0
 40
1.0
 40
1.0
 40
1.0
 10
5.0886855631
 20
5.3003688107
 30
0.0
 10
5.0882338879
 20
5.3015207761
 30
0.0
 10
5.0876500938
 20
5.3038883586
 30
0.0
 10
5.0876457462
 20
5.3063189676
 30
0.0
 10
5.0877734507
 20
5.3074827623
 30
0.0
  0
SPLINE
  5
2C2
100
AcDbEntity
  8
0
100
AcDbSpline
 62
7
  6
CONTINUOUS
 70
0
 71
3
 72
41
 73
37
 74
0
 42
0.0000001
 43
0.0000001
 44
0.0000000001
 40
0.0
 40
0.0
 40
0.0
 40
0.0
 40
0.0124012081
 40
0.0246828677
 40
0.0368893214
 40
0.0490525697
 40
0.061191453
 40
0.0733101029
 40
0.0974115062
 40
0.1212825828
 40
0.1449603065
 40
0.1684847057
 40
0.1917595256
 40
0.2147667782
 40
0.2375436412
 40
0.2600791507
 40
0.2823582915
 40
0.3261158603
 40
0.3688230567
 40
0.3897691095
 40
0.4104344805
 40
0.4308196041
 40
0.4509240651
 40
0.490270679
 40
0.52843212
 40
0.5653758813
 40
0.6010674177
 40
0.6685569113
 40
0.7306840906
 40
0.7872304854
 40
0.8828366863
 40
0.9215754169
 40
0.9540492345
 40
0.9679288543
 40
0.9802358935
 40
1.0
 40
1.0
 40
1.0
 40
1.0
 10
5.9218993311
 20
5.3680918362
 30
0.0
 10
5.922411041
 20
5.3728403623
 30
0.0
 10
5.9234497043
 20
5.3822894638
 30
0.0
 10
5.9250320943
 20
5.3964080687
 30
0.0
 10
5.926587219
 20
5.4104375169
 30
0.0
 10
5.9280930111
 20
5.4244170588
 30
0.0
 10
5.9295420486
 20
5.4383686132
 30
0.0
 10
5.9313866475
 20
5.4569013349
 30
0.0
 10
5.9335519095
 20
5.4799426081
 30
0.0
 10
5.9359941229
 20
5.5074286493
 30
0.0
 10
5.9383808179
 20
5.5346965048
 30
0.0
 10
5.9408758957
 20
5.5617241456
 30
0.0
 10
5.943459081
 20
5.5884840376
 30
0.0
 10
5.9460872882
 20
5.6149502124
 30
0.0
 10
5.9487164703
 20
5.6411301384
 30
0.0
 10
5.9513565968
 20
5.6670271151
 30
0.0
 10
5.9548568876
 20
5.7009584503
 30
0.0
 10
5.9591977498
 20
5.7426129058
 30
0.0
 10
5.9633858228
 20
5.7837670325
 30
0.0
 10
5.9665998964
 20
5.8160808194
 30
0.0
 10
5.968929832
 20
5.8398433074
 30
0.0
 10
5.9711972268
 20
5.8632862335
 30
0.0
 10
5.97411971
 20
5.893893967
 30
0.0
 10
5.9776474653
 20
5.9313211243
 30
0.0
 10
5.9817794221
 20
5.9752053079
 30
0.0
 10
5.9857982305
 20
6.0176862568
 30
0.0
 10
5.9909040917
 20
6.0714097605
 30
0.0
 10
5.9969166347
 20
6.1347895855
 30
0.0
 10
6.0035582769
 20
6.2061774231
 30
0.0
 10
6.011104523
 20
6.2883562175
 30
0.0
 10
6.0177823255
 20
6.3615694058
 30
0.0
 10
6.0235183262
 20
6.4255589454
 30
0.0
 10
6.026440038
 20
6.4581995819
 30
0.0
 10
6.0284592064
 20
6.4807007957
 30
0.0
 10
6.0300401992
 20
6.4983268325
 30
0.0
 10
6.0311249204
 20
6.5106305242
 30
0.0
 10
6.0317881549
 20
6.5182132297
 30
0.0
  0
SPLINE
  5
2C3
100
AcDbEntity
  8
0
100
AcDbSpline
 62
7
  6
CONTINUOUS
 70
0
 71
3
 72
26
 73
22
 74
0
 42
0.0000001
 43
0.0000001
 44
0.0000000001
 40
0.0
 40
0.0
 40
0.0
 40
0.0
 40
0.0897506092
 40
0.1462684665
 40
0.2089572087
 40
0.2768397821
 40
0.3488263622
 40
0.3860424571
 40
0.4238271947
 40
0.4619710018
 40
0.5002736031
 40
0.5385440626
 40
0.5765828555
 40
0.6141824877
 40
0.6511339316
 40
0.7223988514
 40
0.7565231265
 40
0.7894824846
 40
0.9077613059
 40
0.9577573197
 40
1.0
 40
1.0
 40
1.0
 40
1.0
 10
3.4434286686
 20
2.1559013121
 30
0.0
 10
3.4558720749
 20
2.1538526211
 30
0.0
 10
3.4763618839
 20
2.151649329
 30
0.0
 10
3.5057373645
 20
2.1511889696
 30
0.0
 10
3.532010025
 20
2.1527050321
 30
0.0
 10
3.5602272633
 20
2.1566652198
 30
0.0
 10
3.5845147974
 20
2.1622435712
 30
0.0
 10
3.6042757893
 20
2.1682713998
 30
0.0
 10
3.6192516059
 20
2.1736259418
 30
0.0
 10
3.6340936676
 20
2.1797529503
 30
0.0
 10
3.6486749426
 20
2.1866403536
 30
0.0
 10
3.6628635071
 20
2.1942735315
 30
0.0
 10
3.6765582185
 20
2.2025708424
 30
0.0
 10
3.6896592554
 20
2.2114518183
 30
0.0
 10
3.7060064139
 20
2.2238153931
 30
0.0
 10
3.7209818503
 20
2.2371380599
 30
0.0
 10
3.7344652321
 20
2.2511518196
 30
0.0
 10
3.7515558889
 20
2.2708109155
 30
0.0
 10
3.7675839651
 20
2.2943583835
 30
0.0
 10
3.7808101511
 20
2.3208379505
 30
0.0
 10
3.7857614222
 20
2.3328284819
 30
0.0
 10
3.7878431662
 20
2.3383869994
 30
0.0
  0
SPLINE
  5
2C4
100
AcDbEntity
  8
0
100
AcDbSpline
 62
7
  6
CONTINUOUS
 70
0
 71
3
 72
11
 73
7
 74
0
 42
0.0000001
 43
0.0000001
 44
0.0000000001
 40
0.0
 40
0.0
 40
0.0
 40
0.0
 40
0.24029784
 40
0.4895791236
 40
0.7444149706
 40
1.0
 40
1.0
 40
1.0
 40
1.0
 10
3.4049676732
 20
2.1958099934
 30
0.0
 10
3.4091569341
 20
2.1940452549
 30
0.0
 10
3.4173217562
 20
2.1895167429
 30
0.0
 10
3.4281235731
 20
2.1803400041
 30
0.0
 10
3.43704779
 20
2.168964267
 30
0.0
 10
3.4415724176
 20
2.1603666822
 30
0.0
 10
3.4434282791
 20
2.1559020615
 30
0.0
  0
SPLINE
  5
2C5
100
AcDbEntity
  8
0
100
AcDbSpline
 62
7
  6
CONTINUOUS
 70
0
 71
3
 72
14
 73
10
 74
0
 42
0.0000001
 43
0.0000001
 44
0.0000000001
 40
0.0
 40
0.0
 40
0.0
 40
0.0
 40
0.1218695117
 40
0.2446734582
 40
0.3684680831
 40
0.4933031527
 40
0.6191664036
 40
0.7459863368
 40
1.0
 40
1.0
 40
1.0
 40
1.0
 10
5.1154356385
 20
5.3397541914
 30
0.0
 10
5.1147277821
 20
5.3393265123
 30
0.0
 10
5.1133636969
 20
5.3383694203
 30
0.0
 10
5.1115221839
 20
5.3366673133
 30
0.0
 10
5.1099123026
 20
5.3347179837
 30
0.0
 10
5.1085592152
 20
5.3325586383
 30
0.0
 10
5.1074865924
 20
5.3302235092
 30
0.0
 10
5.1064647816
 20
5.3269336956
 30
0.0
 10
5.1061626318
 20
5.3243319331
 30
0.0
 10
5.1061778953
 20
5.3226082257
 30
0.0
  0
SPLINE
  5
2C6
100
AcDbEntity
  8
0
100
AcDbSpline
 62
7
  6
CONTINUOUS
 70
0
 71
3
 72
11
 73
7
 74
0
 42
0.0000001
 43
0.0000001
 44
0.0000000001
 40
0.0
 40
0.0
 40
0.0
 40
0.0
 40
0.3726999707
 40
0.668906014
 40
0.8801001826
 40
1.0
 40
1.0
 40
1.0
 40
1.0
 10
3.7878431823
 20
2.3383859639
 30
0.0
 10
3.7889552493
 20
2.340983055
 30
0.0
 10
3.7908890367
 20
2.345671155
 30
0.0
 10
3.7932786777
 20
2.3519004033
 30
0.0
 10
3.7949045385
 20
2.3563690633
 30
0.0
 10
3.7957355633
 20
2.3587373504
 30
0.0
 10
3.7960289349
 20
2.3595975738
 30
0.0
  0
SPLINE
  5
2C7
100
AcDbEntity
  8
0
100
AcDbSpline
 62
7
  6
CONTINUOUS
 70
0
 71
3
 72
11
 73
7
 74
0
 42
0.0000001
 43
0.0000001
 44
0.0000000001
 40
0.0
 40
0.0
 40
0.0
 40
0.0
 40
0.2476635468
 40
0.4997021337
 40
0.7519588464
 40
1.0
 40
1.0
 40
1.0
 40
1.0
 10
3.776422724
 20
2.392620577
 30
0.0
 10
3.7755028909
 20
2.3880266595
 30
0.0
 10
3.7746826507
 20
2.3785274376
 30
0.0
 10
3.7763210296
 20
2.3643040345
 30
0.0
 10
3.7807622514
 20
2.3506931743
 30
0.0
 10
3.7852699234
 20
2.3423090888
 30
0.0
 10
3.7878433971
 20
2.3383855203
 30
0.0
  0
SPLINE
  5
2C8
100
AcDbEntity
  8
0
100
AcDbSpline
 62
7
  6
CONTINUOUS
 70
0
 71
3
 72
32
 73
28
 74
0
 42
0.0000001
 43
0.0000001
 44
0.0000000001
 40
0.0
 40
0.0
 40
0.0
 40
0.0
 40
0.0179968062
 40
0.0378331572
 40
0.0595943792
 40
0.0833659504
 40
0.1369953453
 40
0.1666720123
 40
0.1981261861
 40
0.2312702997
 40
0.2660205532
 40
0.339935011
 40
0.3787159771
 40
0.4183897291
 40
0.4586829617
 40
0.4992682685
 40
0.5398164227
 40
0.5800213917
 40
0.6582740029
 40
0.6958226455
 40
0.7320849632
 40
0.8001722856
 40
0.8617223429
 40
0.9160169646
 40
0.940179391
 40
0.9622368637
 40
1.0
 40
1.0
 40
1.0
 40
1.0
 10
3.7764239219
 20
2.3926203617
 30
0.0
 10
3.7749998308
 20
2.3904261025
 30
0.0
 10
3.7719190165
 20
2.3858694358
 30
0.0
 10
3.7668362007
 20
2.3788537207
 30
0.0
 10
3.7610353676
 20
2.3713267044
 30
0.0
 10
3.751930192
 20
2.3601518974
 30
0.0
 10
3.7416264966
 20
2.3484747798
 30
0.0
 10
3.7300717362
 20
2.3364415742
 30
0.0
 10
3.7202769174
 20
2.3268550569
 30
0.0
 10
3.7096372774
 20
2.3170876828
 30
0.0
 10
3.6940129573
 20
2.3036393151
 30
0.0
 10
3.6770804431
 20
2.2904714317
 30
0.0
 10
3.6589560736
 20
2.2777380801
 30
0.0
 10
3.644498846
 20
2.2683022843
 30
0.0
 10
3.6294981217
 20
2.2592392914
 30
0.0
 10
3.6140853919
 20
2.2506323676
 30
0.0
 10
3.5983907295
 20
2.2425777256
 30
0.0
 10
3.5774617331
 20
2.2327648886
 30
0.0
 10
3.5564408869
 20
2.224201068
 30
0.0
 10
3.5355476852
 20
2.2169779297
 30
0.0
 10
3.5158302929
 20
2.210914338
 30
0.0
 10
3.492435965
 20
2.2049865115
 30
0.0
 10
3.4661269524
 20
2.2001332442
 30
0.0
 10
3.4459112105
 20
2.1976909481
 30
0.0
 10
3.4313450078
 20
2.1965419689
 30
0.0
 10
3.4191546006
 20
2.1958895149
 30
0.0
 10
3.4104556552
 20
2.1957402746
 30
0.0
 10
3.4049671335
 20
2.1958093916
 30
0.0
  0
SPLINE
  5
2C9
100
AcDbEntity
  8
0
100
AcDbSpline
 62
7
  6
CONTINUOUS
 70
0
 71
3
 72
19
 73
15
 74
0
 42
0.0000001
 43
0.0000001
 44
0.0000000001
 40
0.0
 40
0.0
 40
0.0
 40
0.0
 40
0.2253731666
 40
0.4256765889
 40
0.5987821276
 40
0.7425173251
 40
0.802705288
 40
0.8549313193
 40
0.8991760155
 40
0.9354201158
 40
0.9636442062
 40
0.9838287207
 40
0.9959539414
 40
1.0
 40
1.0
 40
1.0
 40
1.0
 10
3.4049671335
 20
2.1958093916
 30
0.0
 10
3.403251708
 20
2.1958090727
 30
0.0
 10
3.4000115966
 20
2.1958395839
 30
0.0
 10
3.3954554121
 20
2.1959638506
 30
0.0
 10
3.3915227632
 20
2.1961305792
 30
0.0
 10
3.388656741
 20
2.196286139
 30
0.0
 10
3.3867112001
 20
2.1964010601
 30
0.0
 10
3.3855193042
 20
2.1964744051
 30
0.0
 10
3.3845162954
 20
2.1965384362
 30
0.0
 10
3.383676562
 20
2.1965947546
 30
0.0
 10
3.3830699436
 20
2.1966354913
 30
0.0
 10
3.3825284111
 20
2.1966764963
 30
0.0
 10
3.3823963526
 20
2.1966825089
 30
0.0
 10
3.3821245065
 20
2.1967067013
 30
0.0
 10
3.3821550758
 20
2.1967029675
 30
0.0
  0
SPLINE
  5
2CA
100
AcDbEntity
  8
0
100
AcDbSpline
 62
7
  6
CONTINUOUS
 70
0
 71
3
 72
9
 73
5
 74
0
 42
0.0000001
 43
0.0000001
 44
0.0000000001
 40
0.0
 40
0.0
 40
0.0
 40
0.0
 40
0.5060701015
 40
1.0
 40
1.0
 40
1.0
 40
1.0
 10
5.1227409927
 20
5.3421587648
 30
0.0
 10
5.1221817891
 20
5.3421515418
 30
0.0
 10
5.1210744809
 20
5.3422053993
 30
0.0
 10
5.1199843927
 20
5.3424104554
 30
0.0
 10
5.1194565037
 20
5.3425492658
 30
0.0
  0
LINE
  5
2CB
100
AcDbEntity
  8
0
100
AcDbLine
 62
7
  6
CONTINUOUS
 10
5.1194565037
 20
5.3425492658
 11
5.117186952
 21
5.3434068308
  0
LINE
  5
2CC
100
AcDbEntity
  8
0
100
AcDbLine
 62
7
  6
CONTINUOUS
 10
5.117186952
 20
5.3434068308
 11
5.1150611628
 21
5.3447416702
  0
SPLINE
  5
2CD
100
AcDbEntity
  8
0
100
AcDbSpline
 62
7
  6
CONTINUOUS
 70
0
 71
3
 72
13
 73
9
 74
0
 42
0.0000001
 43
0.0000001
 44
0.0000000001
 40
0.0
 40
0.0
 40
0.0
 40
0.0
 40
0.2082181813
 40
0.3211754707
 40
0.4409993831
 40
0.5684116795
 40
0.7039069422
 40
1.0
 40
1.0
 40
1.0
 40
1.0
 10
5.1150611628
 20
5.3447416702
 30
0.0
 10
5.1141863061
 20
5.3454119723
 30
0.0
 10
5.1129544952
 20
5.3466065948
 30
0.0
 10
5.1115234392
 20
5.3484528297
 30
0.0
 10
5.1104937086
 20
5.3500604667
 30
0.0
 10
5.1095320863
 20
5.3518451797
 30
0.0
 10
5.1082894289
 20
5.3545319595
 30
0.0
 10
5.1074872371
 20
5.3566744727
 30
0.0
 10
5.1069789019
 20
5.3581570015
 30
0.0
  0
SPLINE
  5
2CE
100
AcDbEntity
  8
0
100
AcDbSpline
 62
7
  6
CONTINUOUS
 70
0
 71
3
 72
12
 73
8
 74
0
 42
0.0000001
 43
0.0000001
 44
0.0000000001
 40
0.0
 40
0.0
 40
0.0
 40
0.0
 40
0.1026169362
 40
0.2068470351
 40
0.4310747949
 40
0.6920711795
 40
1.0
 40
1.0
 40
1.0
 40
1.0
 10
5.8746676561
 20
5.3422456695
 30
0.0
 10
5.8749691879
 20
5.3422897026
 30
0.0
 10
5.8755708558
 20
5.3424292322
 30
0.0
 10
5.8767575075
 20
5.3429232935
 30
0.0
 10
5.8781851902
 20
5.3439801383
 30
0.0
 10
5.8796995969
 20
5.3458021411
 30
0.0
 10
5.8805532463
 20
5.3472676373
 30
0.0
 10
5.8809690827
 20
5.348082037
 30
0.0
  0
SPLINE
  5
2CF
100
AcDbEntity
  8
0
100
AcDbSpline
 62
7
  6
CONTINUOUS
 70
0
 71
3
 72
13
 73
9
 74
0
 42
0.0000001
 43
0.0000001
 44
0.0000000001
 40
0.0
 40
0.0
 40
0.0
 40
0.0
 40
0.0875567814
 40
0.1864335872
 40
0.2965848223
 40
0.417705859
 40
0.690959198
 40
1.0
 40
1.0
 40
1.0
 40
1.0
 10
5.8809690827
 20
5.348082037
 30
0.0
 10
5.8813762561
 20
5.3488794703
 30
0.0
 10
5.882150436
 20
5.3506252448
 30
0.0
 10
5.8831569112
 20
5.3534885802
 30
0.0
 10
5.8840761704
 20
5.3567390945
 30
0.0
 10
5.8852272635
 20
5.3617702783
 30
0.0
 10
5.8863662534
 20
5.3688796469
 30
0.0
 10
5.8870014013
 20
5.3748015353
 30
0.0
 10
5.8872923181
 20
5.377948424
 30
0.0
  0
SPLINE
  5
2D0
100
AcDbEntity
  8
0
100
AcDbSpline
 62
7
  6
CONTINUOUS
 70
0
 71
3
 72
36
 73
32
 74
0
 42
0.0000001
 43
0.0000001
 44
0.0000000001
 40
0.0
 40
0.0
 40
0.0
 40
0.0
 40
0.0237634022
 40
0.0473446656
 40
0.0590642831
 40
0.0707351791
 40
0.0939276829
 40
0.1169167188
 40
0.1397016094
 40
0.1622902792
 40
0.1735135266
 40
0.1846896645
 40
0.2068937539
 40
0.2288881047
 40
0.2722095428
 40
0.3146172722
 40
0.3560842478
 40
0.3965799294
 40
0.4360718176
 40
0.4745297638
 40
0.5119280507
 40
0.5482410421
 40
0.5834413807
 40
0.6503924263
 40
0.712570601
 40
0.7697748305
 40
0.8218232781
 40
0.8685766472
 40
0.9099013737
 40
0.9456638527
 40
1.0
 40
1.0
 40
1.0
 40
1.0
 10
5.9150636662
 20
5.3677000601
 30
0.0
 10
5.9160932159
 20
5.3768690104
 30
0.0
 10
5.9181624996
 20
5.3951346072
 30
0.0
 10
5.9207800741
 20
5.4179175158
 30
0.0
 10
5.9228782574
 20
5.4360340638
 30
0.0
 10
5.9249667215
 20
5.4539997809
 30
0.0
 10
5.9275359023
 20
5.4763146505
 30
0.0
 10
5.9304303119
 20
5.5029356279
 30
0.0
 10
5.9330232617
 20
5.5293520286
 30
0.0
 10
5.9350590843
 20
5.5512322454
 30
0.0
 10
5.9366768571
 20
5.5686245983
 30
0.0
 10
5.9382983898
 20
5.5858666266
 30
0.0
 10
5.9403444696
 20
5.6072692516
 30
0.0
 10
5.9436716084
 20
5.6410872099
 30
0.0
 10
5.9479600958
 20
5.6826925826
 30
0.0
 10
5.9531923471
 20
5.7318008455
 30
0.0
 10
5.9583253197
 20
5.779816319
 30
0.0
 10
5.9632697197
 20
5.826713351
 30
0.0
 10
5.9679664134
 20
5.8724616065
 30
0.0
 10
5.9723741348
 20
5.917030253
 30
0.0
 10
5.976573009
 20
5.9603791069
 30
0.0
 10
5.9806399293
 20
6.0024699944
 30
0.0
 10
5.9858158727
 20
6.0559815567
 30
0.0
 10
5.9919481235
 20
6.1194901154
 30
0.0
 10
5.9988634397
 20
6.1915062008
 30
0.0
 10
6.0051646163
 20
6.2577684216
 30
0.0
 10
6.0108189107
 20
6.318076127
 30
0.0
 10
6.0158345252
 20
6.3722511253
 30
0.0
 10
6.020218622
 20
6.4201341982
 30
0.0
 10
6.0248288633
 20
6.4709530096
 30
0.0
 10
6.02796922
 20
6.5057941958
 30
0.0
 10
6.0298618816
 20
6.5268061205
 30
0.0
  0
SPLINE
  5
2D1
100
AcDbEntity
  8
0
100
AcDbSpline
 62
7
  6
CONTINUOUS
 70
0
 71
3
 72
9
 73
5
 74
0
 42
0.0000001
 43
0.0000001
 44
0.0000000001
 40
0.0
 40
0.0
 40
0.0
 40
0.0
 40
0.5308565822
 40
1.0
 40
1.0
 40
1.0
 40
1.0
 10
5.9177730941
 20
5.3351176443
 30
0.0
 10
5.9171576959
 20
5.3315549079
 30
0.0
 10
5.9158614201
 20
5.3248662021
 30
0.0
 10
5.9142129789
 20
5.3182526609
 30
0.0
 10
5.9133237238
 20
5.3151837128
 30
0.0
  0
LINE
  5
2D2
100
AcDbEntity
  8
0
100
AcDbLine
 62
7
  6
CONTINUOUS
 10
5.9133237238
 20
5.3151837128
 11
5.9107627598
 21
5.3074826005
  0
SPLINE
  5
2D3
100
AcDbEntity
  8
0
100
AcDbSpline
 62
7
  6
CONTINUOUS
 70
0
 71
3
 72
9
 73
5
 74
0
 42
0.0000001
 43
0.0000001
 44
0.0000000001
 40
0.0
 40
0.0
 40
0.0
 40
0.0
 40
0.5311405469
 40
1.0
 40
1.0
 40
1.0
 40
1.0
 10
5.9150638643
 20
5.3677000724
 30
0.0
 10
5.9145990373
 20
5.363719988
 30
0.0
 10
5.9135685864
 20
5.3562433835
 30
0.0
 10
5.9121366591
 20
5.3488301465
 30
0.0
 10
5.9113348482
 20
5.345384958
 30
0.0
  0
SPLINE
  5
2D4
100
AcDbEntity
  8
0
100
AcDbSpline
 62
7
  6
CONTINUOUS
 70
0
 71
3
 72
14
 73
10
 74
0
 42
0.0000001
 43
0.0000001
 44
0.0000000001
 40
0.0
 40
0.0
 40
0.0
 40
0.0
 40
0.1031344834
 40
0.2165742732
 40
0.4662593692
 40
0.6003423676
 40
0.7369619663
 40
0.8717927878
 40
1.0
 40
1.0
 40
1.0
 40
1.0
 10
5.9107634252
 20
5.3430278067
 30
0.0
 10
5.910615798
 20
5.3439110011
 30
0.0
 10
5.9100760962
 20
5.345730455
 30
0.0
 10
5.9082091586
 20
5.3493390279
 30
0.0
 10
5.9052328637
 20
5.3526077094
 30
0.0
 10
5.9014364747
 20
5.3550823273
 30
0.0
 10
5.8982339392
 20
5.3565729657
 30
0.0
 10
5.8949196042
 20
5.3576276378
 30
0.0
 10
5.8926647449
 20
5.3580402223
 30
0.0
 10
5.8915577591
 20
5.3581570833
 30
0.0
  0
SPLINE
  5
2D5
100
AcDbEntity
  8
0
100
AcDbSpline
 62
7
  6
CONTINUOUS
 70
0
 71
3
 72
15
 73
11
 74
0
 42
0.0000001
 43
0.0000001
 44
0.0000000001
 40
0.0
 40
0.0
 40
0.0
 40
0.0
 40
0.1520425789
 40
0.3025833235
 40
0.4472714504
 40
0.5826153909
 40
0.7064803951
 40
0.8174080049
 40
0.9149741472
 40
1.0
 40
1.0
 40
1.0
 40
1.0
 10
5.8958012561
 20
5.3772258517
 30
0.0
 10
5.89693224
 20
5.3771279999
 30
0.0
 10
5.8991755641
 20
5.3768349073
 30
0.0
 10
5.9024436131
 20
5.3761303311
 30
0.0
 10
5.9055203052
 20
5.3751823288
 30
0.0
 10
5.9083061608
 20
5.3740135093
 30
0.0
 10
5.9107235468
 20
5.3726593088
 30
0.0
 10
5.9127007968
 20
5.3711414224
 30
0.0
 10
5.91418251
 20
5.3695093877
 30
0.0
 10
5.9148522273
 20
5.3682985928
 30
0.0
 10
5.9150638643
 20
5.3677000724
 30
0.0
  0
SPLINE
  5
2D6
100
AcDbEntity
  8
0
100
AcDbSpline
 62
7
  6
CONTINUOUS
 70
0
 71
3
 72
15
 73
11
 74
0
 42
0.0000001
 43
0.0000001
 44
0.0000000001
 40
0.0
 40
0.0
 40
0.0
 40
0.0
 40
0.1786355049
 40
0.3374507278
 40
0.4768931788
 40
0.5987876595
 40
0.7066898171
 40
0.8055614855
 40
0.9013420708
 40
1.0
 40
1.0
 40
1.0
 40
1.0
 10
5.9107628567
 20
5.3430260063
 30
0.0
 10
5.9103053512
 20
5.3412879818
 30
0.0
 10
5.909337157
 20
5.3380301058
 30
0.0
 10
5.9075827486
 20
5.3335566643
 30
0.0
 10
5.9056028828
 20
5.3298085315
 30
0.0
 10
5.9033863522
 20
5.3268053675
 30
0.0
 10
5.9009291003
 20
5.324553945
 30
0.0
 10
5.898226852
 20
5.3230791446
 30
0.0
 10
5.8953193142
 20
5.3223999329
 30
0.0
 10
5.8933411586
 20
5.3224664665
 30
0.0
 10
5.8923587476
 20
5.3226082257
 30
0.0
  0
SPLINE
  5
2D7
100
AcDbEntity
  8
0
100
AcDbSpline
 62
7
  6
CONTINUOUS
 70
0
 71
3
 72
10
 73
6
 74
0
 42
0.0000001
 43
0.0000001
 44
0.0000000001
 40
0.0
 40
0.0
 40
0.0
 40
0.0
 40
0.5342772445
 40
0.7763348767
 40
1.0
 40
1.0
 40
1.0
 40
1.0
 10
5.8958005219
 20
5.3772253377
 30
0.0
 10
5.8952859325
 20
5.373781418
 30
0.0
 10
5.8943900143
 20
5.3687956966
 30
0.0
 10
5.892853144
 20
5.3624605309
 30
0.0
 10
5.8920042674
 20
5.3595446869
 30
0.0
 10
5.8915577143
 20
5.3581570309
 30
0.0
  0
SPLINE
  5
2D8
100
AcDbEntity
  8
0
100
AcDbSpline
 62
7
  6
CONTINUOUS
 70
0
 71
3
 72
15
 73
11
 74
0
 42
0.0000001
 43
0.0000001
 44
0.0000000001
 40
0.0
 40
0.0
 40
0.0
 40
0.0
 40
0.1658126379
 40
0.3165089757
 40
0.4528709688
 40
0.5766992082
 40
0.6903249824
 40
0.796342607
 40
0.8979886274
 40
1.0
 40
1.0
 40
1.0
 40
1.0
 10
5.8915577409
 20
5.3581570014
 30
0.0
 10
5.8911406297
 20
5.3569394718
 30
0.0
 10
5.8902895519
 20
5.354633151
 30
0.0
 10
5.8888355268
 20
5.3514284405
 30
0.0
 10
5.8872202759
 20
5.3486689148
 30
0.0
 10
5.8854037548
 20
5.3463915259
 30
0.0
 10
5.8834147379
 20
5.3445967171
 30
0.0
 10
5.8812780647
 20
5.3432813989
 30
0.0
 10
5.8790073188
 20
5.3424450791
 30
0.0
 10
5.8774307726
 20
5.342214977
 30
0.0
 10
5.8766400175
 20
5.3421745663
 30
0.0
  0
SPLINE
  5
2D9
100
AcDbEntity
  8
0
100
AcDbSpline
 62
7
  6
CONTINUOUS
 70
0
 71
3
 72
19
 73
15
 74
0
 42
0.0000001
 43
0.0000001
 44
0.0000000001
 40
0.0
 40
0.0
 40
0.0
 40
0.0
 40
0.1886162207
 40
0.3595954896
 40
0.5108886999
 40
0.5786806567
 40
0.641064646
 40
0.6980855378
 40
0.7501001025
 40
0.8412246882
 40
0.8821865505
 40
0.9214390018
 40
0.9602654644
 40
1.0
 40
1.0
 40
1.0
 40
1.0
 10
5.8684770245
 20
5.3865278343
 30
0.0
 10
5.8682426283
 20
5.3845227853
 30
0.0
 10
5.867696494
 20
5.3807103436
 30
0.0
 10
5.8665728831
 20
5.3753551382
 30
0.0
 10
5.8653859298
 20
5.3713449719
 30
0.0
 10
5.8642848228
 20
5.3685389275
 30
0.0
 10
5.8634284178
 20
5.3667258746
 30
0.0
 10
5.8625096387
 20
5.3651341557
 30
0.0
 10
5.8612620968
 20
5.3633915849
 30
0.0
 10
5.8598419164
 20
5.3619813616
 30
0.0
 10
5.8582532275
 20
5.3610481741
 30
0.0
 10
5.8570486166
 20
5.3606100771
 30
0.0
 10
5.8557954184
 20
5.3604135694
 30
0.0
 10
5.8549495564
 20
5.3604438899
 30
0.0
 10
5.8545274497
 20
5.3604956376
 30
0.0
  0
SPLINE
  5
2DA
100
AcDbEntity
  8
0
100
AcDbSpline
 62
7
  6
CONTINUOUS
 70
0
 71
3
 72
25
 73
21
 74
0
 42
0.0000001
 43
0.0000001
 44
0.0000000001
 40
0.0
 40
0.0
 40
0.0
 40
0.0
 40
0.0161112884
 40
0.0346367258
 40
0.0788077154
 40
0.1321690267
 40
0.1939832467
 40
0.2632851848
 40
0.3385929841
 40
0.4181978103
 40
0.5000000149
 40
0.5818022188
 40
0.6614070444
 40
0.7367148444
 40
0.8060167775
 40
0.8678309845
 40
0.9211922987
 40
0.9653633136
 40
0.9838887463
 40
1.0
 40
1.0
 40
1.0
 40
1.0
 10
5.8545275064
 20
5.3604954207
 30
0.0
 10
5.8507160324
 20
5.3603018495
 30
0.0
 10
5.8425197204
 20
5.3599297017
 30
0.0
 10
5.8238653137
 20
5.3592224089
 30
0.0
 10
5.7963848658
 20
5.3584302418
 30
0.0
 10
5.7586477114
 20
5.3576293724
 30
0.0
 10
5.7149544521
 20
5.3569474713
 30
0.0
 10
5.6660603936
 20
5.3564008228
 30
0.0
 10
5.6129506384
 20
5.3559993866
 30
0.0
 10
5.5568788935
 20
5.3557554732
 30
0.0
 10
5.4992683121
 20
5.3556726007
 30
0.0
 10
5.4416577308
 20
5.3557554733
 30
0.0
 10
5.3855859861
 20
5.3559993867
 30
0.0
 10
5.332476232
 20
5.356400823
 30
0.0
 10
5.2835821776
 20
5.3569474715
 30
0.0
 10
5.2398889219
 20
5.3576293727
 30
0.0
 10
5.2021517638
 20
5.3584302423
 30
0.0
 10
5.1746713104
 20
5.3592224091
 30
0.0
 10
5.156016907
 20
5.3599297017
 30
0.0
 10
5.1478206044
 20
5.3603018495
 30
0.0
 10
5.1440091386
 20
5.3604954208
 30
0.0
  0
SPLINE
  5
2DB
100
AcDbEntity
  8
0
100
AcDbSpline
 62
7
  6
CONTINUOUS
 70
0
 71
3
 72
19
 73
15
 74
0
 42
0.0000001
 43
0.0000001
 44
0.0000000001
 40
0.0
 40
0.0
 40
0.0
 40
0.0
 40
0.0397506154
 40
0.0785932394
 40
0.1178573837
 40
0.1588238732
 40
0.2499365247
 40
0.3019382166
 40
0.3589452495
 40
0.4213161963
 40
0.4890964355
 40
0.640374275
 40
0.81135584
 40
1.0
 40
1.0
 40
1.0
 40
1.0
 10
5.1440091712
 20
5.3604955379
 30
0.0
 10
5.1435878906
 20
5.3604438606
 30
0.0
 10
5.1427437069
 20
5.3604133678
 30
0.0
 10
5.1414928821
 20
5.360608594
 30
0.0
 10
5.1402903378
 20
5.3610445051
 30
0.0
 10
5.1387041869
 20
5.3619735183
 30
0.0
 10
5.137285607
 20
5.363378366
 30
0.0
 10
5.1360391422
 20
5.3651150117
 30
0.0
 10
5.1351209684
 20
5.3667016001
 30
0.0
 10
5.1342648844
 20
5.3685091349
 30
0.0
 10
5.1331638048
 20
5.3713071147
 30
0.0
 10
5.1319762087
 20
5.3753065713
 30
0.0
 10
5.130851079
 20
5.3806484788
 30
0.0
 10
5.1303036094
 20
5.3844519115
 30
0.0
 10
5.1300684598
 20
5.3864523915
 30
0.0
  0
SPLINE
  5
2DC
100
AcDbEntity
  8
0
100
AcDbSpline
 62
7
  6
CONTINUOUS
 70
0
 71
3
 72
12
 73
8
 74
0
 42
0.0000001
 43
0.0000001
 44
0.0000000001
 40
0.0
 40
0.0
 40
0.0
 40
0.0
 40
0.175465023
 40
0.3395083116
 40
0.6266507756
 40
0.8498373266
 40
1.0
 40
1.0
 40
1.0
 40
1.0
 10
5.8684772788
 20
5.386531371
 30
0.0
 10
5.8760563593
 20
5.452781293
 30
0.0
 10
5.8903803105
 20
5.5810078647
 30
0.0
 10
5.9157431125
 20
5.8178003271
 30
0.0
 10
5.9416560299
 20
6.0727708951
 30
0.0
 10
5.9657286076
 20
6.3226214948
 30
0.0
 10
5.9788498952
 20
6.4638977146
 30
0.0
 10
5.9840525802
 20
6.5207264373
 30
0.0
  0
SPLINE
  5
2DD
100
AcDbEntity
  8
0
100
AcDbSpline
 62
7
  6
CONTINUOUS
 70
0
 71
3
 72
15
 73
11
 74
0
 42
0.0000001
 43
0.0000001
 44
0.0000000001
 40
0.0
 40
0.0
 40
0.0
 40
0.0
 40
0.1468553853
 40
0.2964325928
 40
0.4431813979
 40
0.5817275967
 40
0.7078077831
 40
0.8200146372
 40
0.91757015
 40
1.0
 40
1.0
 40
1.0
 40
1.0
 10
5.8872919693
 20
5.3779485959
 30
0.0
 10
5.8862525315
 20
5.3780426502
 30
0.0
 10
5.8841618657
 20
5.378323001
 30
0.0
 10
5.881078154
 20
5.3789778872
 30
0.0
 10
5.8781106796
 20
5.3798532749
 30
0.0
 10
5.8753852676
 20
5.380925308
 30
0.0
 10
5.8730146706
 20
5.3821848609
 30
0.0
 10
5.8710558752
 20
5.3835612336
 30
0.0
 10
5.8695364605
 20
5.3849867619
 30
0.0
 10
5.8687634137
 20
5.3860201656
 30
0.0
 10
5.8684773163
 20
5.3865313728
 30
0.0
  0
SPLINE
  5
2DE
100
AcDbEntity
  8
0
100
AcDbSpline
 62
7
  6
CONTINUOUS
 70
0
 71
3
 72
15
 73
11
 74
0
 42
0.0000001
 43
0.0000001
 44
0.0000000001
 40
0.0
 40
0.0
 40
0.0
 40
0.0
 40
0.1792040625
 40
0.3462221962
 40
0.4991487635
 40
0.6362814705
 40
0.7561703917
 40
0.8574313935
 40
0.9390132569
 40
1.0
 40
1.0
 40
1.0
 40
1.0
 10
5.8872919519
 20
5.3779484484
 30
0.0
 10
5.8952132689
 20
5.446302518
 30
0.0
 10
5.9101495093
 20
5.5784054263
 30
0.0
 10
5.9307495583
 20
5.7689609859
 30
0.0
 10
5.9489157094
 20
5.943529193
 30
0.0
 10
5.9647011757
 20
6.1001495722
 30
0.0
 10
5.9781123141
 20
6.2370693396
 30
0.0
 10
5.9892004783
 20
6.3527835859
 30
0.0
 10
5.9979665463
 20
6.4459990636
 30
0.0
 10
6.0030159677
 20
6.5005097959
 30
0.0
 10
6.0051661955
 20
6.5238288151
 30
0.0
  0
SPLINE
  5
2DF
100
AcDbEntity
  8
0
100
AcDbSpline
 62
7
  6
CONTINUOUS
 70
0
 71
3
 72
29
 73
25
 74
0
 42
0.0000001
 43
0.0000001
 44
0.0000000001
 40
0.0
 40
0.0
 40
0.0
 40
0.0
 40
0.0610735395
 40
0.0993805451
 40
0.1427335847
 40
0.1910099691
 40
0.2169540223
 40
0.2440800763
 40
0.3017975412
 40
0.3639927634
 40
0.4304934585
 40
0.4653030533
 40
0.5011224662
 40
0.5379296571
 40
0.5757004268
 40
0.6540127285
 40
0.6944928943
 40
0.735815933
 40
0.7779562252
 40
0.8208891907
 40
0.8645904099
 40
0.9090331676
 40
0.9541820908
 40
1.0
 40
1.0
 40
1.0
 40
1.0
 10
6.008172486
 20
6.5235560172
 30
0.0
 10
6.0060778926
 20
6.5002006721
 30
0.0
 10
6.0026556212
 20
6.4621974562
 30
0.0
 10
5.9977146148
 20
6.4076183337
 30
0.0
 10
5.9931993947
 20
6.357934204
 30
0.0
 10
5.9890631638
 20
6.312981943
 30
0.0
 10
5.9854499625
 20
6.2742382402
 30
0.0
 10
5.9814572549
 20
6.2318893349
 30
0.0
 10
5.9761043449
 20
6.1756884039
 30
0.0
 10
5.969342068
 20
6.1044354524
 30
0.0
 10
5.9635148093
 20
6.0419288043
 30
0.0
 10
5.9585378458
 20
5.9895138239
 30
0.0
 10
5.9545550441
 20
5.9484565605
 30
0.0
 10
5.9503361407
 20
5.9062800725
 30
0.0
 10
5.9442994023
 20
5.8478892868
 30
0.0
 10
5.9380126741
 20
5.7881067211
 30
0.0
 10
5.9317731315
 20
5.7269479872
 30
0.0
 10
5.927122243
 20
5.6795878291
 30
0.0
 10
5.9224629484
 20
5.631282379
 30
0.0
 10
5.9176852518
 20
5.5820709983
 30
0.0
 10
5.9126822413
 20
5.5319933879
 30
0.0
 10
5.9073569248
 20
5.4810934341
 30
0.0
 10
5.9017280655
 20
5.4294086252
 30
0.0
 10
5.8978080177
 20
5.3947026437
 30
0.0
 10
5.8958012559
 20
5.3772257696
 30
0.0
  0
SPLINE
  5
2E0
100
AcDbEntity
  8
0
100
AcDbSpline
 62
7
  6
CONTINUOUS
 70
0
 71
3
 72
15
 73
11
 74
0
 42
0.0000001
 43
0.0000001
 44
0.0000000001
 40
0.0
 40
0.0
 40
0.0
 40
0.0
 40
0.1288780236
 40
0.2574127266
 40
0.3846493891
 40
0.5103201989
 40
0.6344360003
 40
0.7572030242
 40
0.8789465536
 40
1.0
 40
1.0
 40
1.0
 40
1.0
 10
5.854527504
 20
5.3604954206
 30
0.0
 10
5.8545931221
 20
5.3593900375
 30
0.0
 10
5.8549030361
 20
5.3571890961
 30
0.0
 10
5.8558759308
 20
5.3540163777
 30
0.0
 10
5.8573437384
 20
5.3510689783
 30
0.0
 10
5.8592575672
 20
5.3484364797
 30
0.0
 10
5.8615631207
 20
5.3461930244
 30
0.0
 10
5.8641962832
 20
5.3444031914
 30
0.0
 10
5.8670805011
 20
5.3431186496
 30
0.0
 10
5.869121956
 20
5.342627359
 30
0.0
 10
5.8701509584
 20
5.3424758284
 30
0.0
  0
SPLINE
  5
2E1
100
AcDbEntity
  8
0
100
AcDbSpline
 62
7
  6
CONTINUOUS
 70
0
 71
3
 72
11
 73
7
 74
0
 42
0.0000001
 43
0.0000001
 44
0.0000000001
 40
0.0
 40
0.0
 40
0.0
 40
0.0
 40
0.2907025742
 40
0.5512136126
 40
0.7857042573
 40
1.0
 40
1.0
 40
1.0
 40
1.0
 10
5.9107628567
 20
5.3074821153
 30
0.0
 10
5.9102241447
 20
5.3061389539
 30
0.0
 10
5.9090903764
 20
5.3036340401
 30
0.0
 10
5.9070728726
 20
5.3002705908
 30
0.0
 10
5.9048321783
 20
5.2975236198
 30
0.0
 10
5.9031242525
 20
5.296057907
 30
0.0
 10
5.9022453208
 20
5.295453305
 30
0.0
  0
SPLINE
  5
2E2
100
AcDbEntity
  8
0
100
AcDbSpline
 62
7
  6
CONTINUOUS
 70
0
 71
3
 72
11
 73
7
 74
0
 42
0.0000001
 43
0.0000001
 44
0.0000000001
 40
0.0
 40
0.0
 40
0.0
 40
0.0
 40
0.2539312399
 40
0.5023321942
 40
0.749619169
 40
1.0
 40
1.0
 40
1.0
 40
1.0
 10
5.9022453208
 20
5.295453305
 30
0.0
 10
5.9017259931
 20
5.2950960684
 30
0.0
 10
5.9006525678
 20
5.2944531672
 30
0.0
 10
5.8989354287
 20
5.2937214133
 30
0.0
 10
5.8971423015
 20
5.2932362155
 30
0.0
 10
5.8959131613
 20
5.2930763166
 30
0.0
 10
5.8952930201
 20
5.2930349488
 30
0.0
  0
LINE
  5
2E3
100
AcDbEntity
  8
0
100
AcDbLine
 62
7
  6
CONTINUOUS
 10
5.8952930201
 20
5.2930349488
 11
5.8926650313
 21
5.2930806667
  0
SPLINE
  5
2E4
100
AcDbEntity
  8
0
100
AcDbSpline
 62
7
  6
CONTINUOUS
 70
0
 71
3
 72
9
 73
5
 74
0
 42
0.0000001
 43
0.0000001
 44
0.0000000001
 40
0.0
 40
0.0
 40
0.0
 40
0.0
 40
0.5024190318
 40
1.0
 40
1.0
 40
1.0
 40
1.0
 10
5.9107626588
 20
5.3074828392
 30
0.0
 10
5.9108932153
 20
5.3062888138
 30
0.0
 10
5.9108763324
 20
5.3038736993
 30
0.0
 10
5.9102936172
 20
5.3015279818
 30
0.0
 10
5.9098666887
 20
5.3004176568
 30
0.0
  0
SPLINE
  5
2E5
100
AcDbEntity
  8
0
100
AcDbSpline
 62
7
  6
CONTINUOUS
 70
0
 71
3
 72
10
 73
6
 74
0
 42
0.0000001
 43
0.0000001
 44
0.0000000001
 40
0.0
 40
0.0
 40
0.0
 40
0.0
 40
0.4974985903
 40
0.7478948408
 40
1.0
 40
1.0
 40
1.0
 40
1.0
 10
5.8740383155
 20
5.2733956273
 30
0.0
 10
5.8756171829
 20
5.2733956273
 30
0.0
 10
5.8780065263
 20
5.2737243234
 30
0.0
 10
5.8810060776
 20
5.2747790626
 30
0.0
 10
5.8824316054
 20
5.2755073417
 30
0.0
 10
5.8831189911
 20
5.2759167744
 30
0.0
  0
SPLINE
  5
2E6
100
AcDbEntity
  8
0
100
AcDbSpline
 62
7
  6
CONTINUOUS
 70
0
 71
3
 72
11
 73
7
 74
0
 42
0.0000001
 43
0.0000001
 44
0.0000000001
 40
0.0
 40
0.0
 40
0.0
 40
0.0
 40
0.2457351727
 40
0.4944337117
 40
0.7459831084
 40
1.0
 40
1.0
 40
1.0
 40
1.0
 10
5.8831189911
 20
5.2759167744
 30
0.0
 10
5.884195855
 20
5.2765581949
 30
0.0
 10
5.8862375695
 20
5.2780724504
 30
0.0
 10
5.8888000298
 20
5.2809169982
 30
0.0
 10
5.8907898818
 20
5.2842369166
 30
0.0
 10
5.8916711541
 20
5.2866801425
 30
0.0
 10
5.8919950308
 20
5.2879346701
 30
0.0
  0
SPLINE
  5
2E7
100
AcDbEntity
  8
0
100
AcDbSpline
 62
7
  6
CONTINUOUS
 70
0
 71
3
 72
22
 73
18
 74
0
 42
0.0000001
 43
0.0000001
 44
0.0000000001
 40
0.0
 40
0.0
 40
0.0
 40
0.0
 40
0.0010120727
 40
0.0040464182
 40
0.0091005382
 40
0.0161719436
 40
0.0252581547
 40
0.0363567014
 40
0.0645809626
 40
0.1008251588
 40
0.1450698703
 40
0.1972958302
 40
0.2574836298
 40
0.4012183443
 40
0.5743234095
 40
0.7746265993
 40
1.0
 40
1.0
 40
1.0
 40
1.0
 10
3.7884961666
 20
2.4119968768
 30
0.0
 10
3.7884929761
 20
2.4119898652
 30
0.0
 10
3.7884761533
 20
2.4119639136
 30
0.0
 10
3.7884431766
 20
2.4119030656
 30
0.0
 10
3.7883848206
 20
2.4118034623
 30
0.0
 10
3.7883045497
 20
2.4116634014
 30
0.0
 10
3.7882005624
 20
2.4114838749
 30
0.0
 10
3.7880158025
 20
2.4111650848
 30
0.0
 10
3.7877262471
 20
2.4106681032
 30
0.0
 10
3.7873080076
 20
2.4099541143
 30
0.0
 10
3.7867952378
 20
2.4090837759
 30
0.0
 10
3.7861873711
 20
2.4080579449
 30
0.0
 10
3.7851894565
 20
2.4063830162
 30
0.0
 10
3.7837087843
 20
2.403924715
 30
0.0
 10
3.7816380167
 20
2.4005770568
 30
0.0
 10
3.7791820466
 20
2.3967375427
 30
0.0
 10
3.7773875924
 20
2.3940395268
 30
0.0
 10
3.7764239219
 20
2.3926203617
 30
0.0
  0
SPLINE
  5
2E8
100
AcDbEntity
  8
0
100
AcDbSpline
 62
7
  6
CONTINUOUS
 70
0
 71
3
 72
23
 73
19
 74
0
 42
0.0000001
 43
0.0000001
 44
0.0000000001
 40
0.0
 40
0.0
 40
0.0
 40
0.0
 40
0.0010403945
 40
0.0041538199
 40
0.0093284759
 40
0.0165525763
 40
0.0258143491
 40
0.0371020363
 40
0.065708187
 40
0.1022772645
 40
0.1467157384
 40
0.1989303238
 40
0.2588279867
 40
0.3263159504
 40
0.4013015405
 40
0.5732358244
 40
0.7732757926
 40
1.0
 40
1.0
 40
1.0
 40
1.0
 10
3.4206829568
 20
2.1612077913
 30
0.0
 10
3.4206774271
 20
2.161207894
 30
0.0
 10
3.4207250559
 20
2.1611979596
 30
0.0
 10
3.4207473619
 20
2.1611883006
 30
0.0
 10
3.420841221
 20
2.1611639147
 30
0.0
 10
3.4209457816
 20
2.1611339734
 30
0.0
 10
3.4210905278
 20
2.1610942151
 30
0.0
 10
3.4213413024
 20
2.1610250485
 30
0.0
 10
3.421734224
 20
2.1609180319
 30
0.0
 10
3.4222965438
 20
2.1607665411
 30
0.0
 10
3.4229810624
 20
2.1605844693
 30
0.0
 10
3.4237859377
 20
2.1603730743
 30
0.0
 10
3.4247101454
 20
2.1601334908
 30
0.0
 10
3.4257523817
 20
2.1598669121
 30
0.0
 10
3.4273729557
 20
2.1594579784
 30
0.0
 10
3.4296799258
 20
2.1588892728
 30
0.0
 10
3.4327771388
 20
2.1581566156
 30
0.0
 10
3.4349905208
 20
2.1576586372
 30
0.0
 10
3.4361679006
 20
2.1574009501
 30
0.0
  0
LINE
  5
2E9
100
AcDbEntity
  8
0
100
AcDbLine
 62
7
  6
CONTINUOUS
 10
5.0877746737
 20
5.3074796914
 11
5.085189201
 21
5.3153010355
  0
SPLINE
  5
2EA
100
AcDbEntity
  8
0
100
AcDbSpline
 62
7
  6
CONTINUOUS
 70
0
 71
3
 72
9
 73
5
 74
0
 42
0.0000001
 43
0.0000001
 44
0.0000000001
 40
0.0
 40
0.0
 40
0.0
 40
0.0
 40
0.4691027905
 40
1.0
 40
1.0
 40
1.0
 40
1.0
 10
5.085189201
 20
5.3153010355
 30
0.0
 10
5.0843129736
 20
5.318382076
 30
0.0
 10
5.0827073516
 20
5.3250249093
 30
0.0
 10
5.0814662749
 20
5.3317421001
 30
0.0
 10
5.0808803607
 20
5.3353196089
 30
0.0
  0
SPLINE
  5
2EB
100
AcDbEntity
  8
0
100
AcDbSpline
 62
7
  6
CONTINUOUS
 70
0
 71
3
 72
9
 73
5
 74
0
 42
0.0000001
 43
0.0000001
 44
0.0000000001
 40
0.0
 40
0.0
 40
0.0
 40
0.0
 40
0.2391472074
 40
1.0
 40
1.0
 40
1.0
 40
1.0
 10
5.0808803607
 20
5.3353196089
 30
0.0
 10
5.0806719732
 20
5.3365919927
 30
0.0
 10
5.079839912
 20
5.3419189161
 30
0.0
 10
5.0791549674
 20
5.3472683634
 30
0.0
 10
5.0786996539
 20
5.3513450689
 30
0.0
  0
SPLINE
  5
2EC
100
AcDbEntity
  8
0
100
AcDbSpline
 62
7
  6
CONTINUOUS
 70
0
 71
3
 72
14
 73
10
 74
0
 42
0.0000001
 43
0.0000001
 44
0.0000000001
 40
0.0
 40
0.0
 40
0.0
 40
0.0
 40
0.1218608661
 40
0.2446581955
 40
0.3684416775
 40
0.4932691396
 40
0.6191346716
 40
0.7459670805
 40
1.0
 40
1.0
 40
1.0
 40
1.0
 10
5.8830427848
 20
5.3397881659
 30
0.0
 10
5.8837544638
 20
5.3393617414
 30
0.0
 10
5.8851262516
 20
5.3384063334
 30
0.0
 10
5.8869787628
 20
5.3367043106
 30
0.0
 10
5.8885984512
 20
5.3347525735
 30
0.0
 10
5.8899599699
 20
5.3325888225
 30
0.0
 10
5.8910396206
 20
5.3302476369
 30
0.0
 10
5.8920688342
 20
5.3269481446
 30
0.0
 10
5.892373865
 20
5.3243376672
 30
0.0
 10
5.8923587476
 20
5.3226082257
 30
0.0
  0
SPLINE
  5
2ED
100
AcDbEntity
  8
0
100
AcDbSpline
 62
7
  6
CONTINUOUS
 70
0
 71
3
 72
9
 73
5
 74
0
 42
0.0000001
 43
0.0000001
 44
0.0000000001
 40
0.0
 40
0.0
 40
0.0
 40
0.0
 40
0.4919806773
 40
1.0
 40
1.0
 40
1.0
 40
1.0
 10
5.9206196914
 20
5.3513228341
 30
0.0
 10
5.9206570551
 20
5.3516709655
 30
0.0
 10
5.9206490455
 20
5.352390033
 30
0.0
 10
5.9204762773
 20
5.3530870992
 30
0.0
 10
5.9203539834
 20
5.353427333
 30
0.0
  0
SPLINE
  5
2EE
100
AcDbEntity
  8
0
100
AcDbSpline
 62
7
  6
CONTINUOUS
 70
0
 71
3
 72
12
 73
8
 74
0
 42
0.0000001
 43
0.0000001
 44
0.0000000001
 40
0.0
 40
0.0
 40
0.0
 40
0.0
 40
0.1501994248
 40
0.3733965791
 40
0.6605254033
 40
0.8245542227
 40
1.0
 40
1.0
 40
1.0
 40
1.0
 10
5.0144937625
 20
6.5206203976
 30
0.0
 10
5.0196978278
 20
6.4637773467
 30
0.0
 10
5.0328212226
 20
6.3224821811
 30
0.0
 10
5.0568957801
 20
6.0726170105
 30
0.0
 10
5.082809066
 20
5.817651237
 30
0.0
 10
5.108170779
 20
5.5808749625
 30
0.0
 10
5.1224939895
 20
5.4526602278
 30
0.0
 10
5.1300725435
 20
5.3864171045
 30
0.0
  0
SPLINE
  5
2EF
100
AcDbEntity
  8
0
100
AcDbSpline
 62
7
  6
CONTINUOUS
 70
0
 71
3
 72
15
 73
11
 74
0
 42
0.0000001
 43
0.0000001
 44
0.0000000001
 40
0.0
 40
0.0
 40
0.0
 40
0.0
 40
0.1406393359
 40
0.2858182557
 40
0.4301512841
 40
0.5684984273
 40
0.6966438326
 40
0.812334108
 40
0.9138376713
 40
1.0
 40
1.0
 40
1.0
 40
1.0
 10
5.1112442928
 20
5.3779484747
 30
0.0
 10
5.1122376866
 20
5.3780366886
 30
0.0
 10
5.1142499331
 20
5.3782971381
 30
0.0
 10
5.1172415907
 20
5.3789051593
 30
0.0
 10
5.1201641726
 20
5.3797314271
 30
0.0
 10
5.1228932268
 20
5.3807647971
 30
0.0
 10
5.1253108507
 20
5.382002867
 30
0.0
 10
5.1273461033
 20
5.3833776039
 30
0.0
 10
5.1289490591
 20
5.3848225354
 30
0.0
 10
5.1297708327
 20
5.3858860166
 30
0.0
 10
5.1300726369
 20
5.3864172689
 30
0.0
  0
SPLINE
  5
2F0
100
AcDbEntity
  8
0
100
AcDbSpline
 62
7
  6
CONTINUOUS
 70
0
 71
3
 72
15
 73
11
 74
0
 42
0.0000001
 43
0.0000001
 44
0.0000000001
 40
0.0
 40
0.0
 40
0.0
 40
0.0
 40
0.1288792085
 40
0.2574151511
 40
0.3846528399
 40
0.5103250661
 40
0.6344440659
 40
0.7572146147
 40
0.878955891
 40
1.0
 40
1.0
 40
1.0
 40
1.0
 10
5.1440091718
 20
5.3604955498
 30
0.0
 10
5.1439435153
 20
5.3593900926
 30
0.0
 10
5.1436335176
 20
5.3571890086
 30
0.0
 10
5.1426604683
 20
5.3540160992
 30
0.0
 10
5.1411924613
 20
5.3510685427
 30
0.0
 10
5.1392783589
 20
5.3484359368
 30
0.0
 10
5.1369724349
 20
5.3461924804
 30
0.0
 10
5.1343389358
 20
5.3444027409
 30
0.0
 10
5.1314545375
 20
5.3431183242
 30
0.0
 10
5.1294130301
 20
5.3426271348
 30
0.0
 10
5.1283840346
 20
5.3424756828
 30
0.0
  0
SPLINE
  5
2F1
100
AcDbEntity
  8
0
100
AcDbSpline
 62
7
  6
CONTINUOUS
 70
0
 71
3
 72
20
 73
16
 74
0
 42
0.0000001
 43
0.0000001
 44
0.0000000001
 40
0.0
 40
0.0
 40
0.0
 40
0.0
 40
0.1927270692
 40
0.3686550385
 40
0.5248301321
 40
0.594963658
 40
0.6596047546
 40
0.7186638809
 40
0.772170044
 40
0.820316545
 40
0.8634170147
 40
0.9019534968
 40
0.9366868469
 40
0.9688467203
 40
1.0
 40
1.0
 40
1.0
 40
1.0
 10
5.1112442158
 20
5.3779494782
 30
0.0
 10
5.1114800191
 20
5.3754133134
 30
0.0
 10
5.1119887625
 20
5.370566891
 30
0.0
 10
5.1129690795
 20
5.3636981494
 30
0.0
 10
5.1140209578
 20
5.3584823854
 30
0.0
 10
5.1150072081
 20
5.3547646705
 30
0.0
 10
5.1157771073
 20
5.3523202556
 30
0.0
 10
5.1166022496
 20
5.3501269496
 30
0.0
 10
5.1174815462
 20
5.3481914339
 30
0.0
 10
5.1184134616
 20
5.3465177094
 30
0.0
 10
5.1193977908
 20
5.3451085512
 30
0.0
 10
5.1204356322
 20
5.3439665203
 30
0.0
 10
5.1215324305
 20
5.3430948461
 30
0.0
 10
5.1226944192
 20
5.3425003465
 30
0.0
 10
5.1235139099
 20
5.3422933635
 30
0.0
 10
5.123921887
 20
5.3422379335
 30
0.0
  0
SPLINE
  5
2F2
100
AcDbEntity
  8
0
100
AcDbSpline
 62
7
  6
CONTINUOUS
 70
0
 71
3
 72
10
 73
6
 74
0
 42
0.0000001
 43
0.0000001
 44
0.0000000001
 40
0.0
 40
0.0
 40
0.0
 40
0.0
 40
0.223606406
 40
0.4655979515
 40
1.0
 40
1.0
 40
1.0
 40
1.0
 10
5.1069790062
 20
5.3581570017
 30
0.0
 10
5.1065328413
 20
5.3595437409
 30
0.0
 10
5.1056894222
 20
5.3624591683
 30
0.0
 10
5.1041765372
 20
5.3687974317
 30
0.0
 10
5.1033073923
 20
5.3737862812
 30
0.0
 10
5.1028099599
 20
5.3772320721
 30
0.0
  0
SPLINE
  5
2F3
100
AcDbEntity
  8
0
100
AcDbSpline
 62
7
  6
CONTINUOUS
 70
0
 71
3
 72
15
 73
11
 74
0
 42
0.0000001
 43
0.0000001
 44
0.0000000001
 40
0.0
 40
0.0
 40
0.0
 40
0.0
 40
0.0986634452
 40
0.1944613515
 40
0.293371925
 40
0.4013423538
 40
0.5232875406
 40
0.6626880196
 40
0.8213949165
 40
1.0
 40
1.0
 40
1.0
 40
1.0
 10
5.1061778953
 20
5.3226082257
 30
0.0
 10
5.1051957757
 20
5.3224662168
 30
0.0
 10
5.1032179857
 20
5.3223992594
 30
0.0
 10
5.1003106638
 20
5.3230785884
 30
0.0
 10
5.0976089016
 20
5.3245551842
 30
0.0
 10
5.0951530304
 20
5.3268088798
 30
0.0
 10
5.0929374436
 20
5.3298120521
 30
0.0
 10
5.0909566574
 20
5.3335569757
 30
0.0
 10
5.0892006641
 20
5.3380262849
 30
0.0
 10
5.0882327722
 20
5.3412817578
 30
0.0
 10
5.087775774
 20
5.3430190223
 30
0.0
  0
SPLINE
  5
2F4
100
AcDbEntity
  8
0
100
AcDbSpline
 62
7
  6
CONTINUOUS
 70
0
 71
3
 72
14
 73
10
 74
0
 42
0.0000001
 43
0.0000001
 44
0.0000000001
 40
0.0
 40
0.0
 40
0.0
 40
0.0
 40
0.1054786161
 40
0.2209622181
 40
0.4729903232
 40
0.6066787574
 40
0.7419082295
 40
0.8745831834
 40
1.0
 40
1.0
 40
1.0
 40
1.0
 10
5.087770629
 20
5.3430281283
 30
0.0
 10
5.087921756
 20
5.3439313875
 30
0.0
 10
5.0884796584
 20
5.3457865798
 30
0.0
 10
5.0904006097
 20
5.3494333447
 30
0.0
 10
5.0934213986
 20
5.3527085839
 30
0.0
 10
5.0972360403
 20
5.3551641389
 30
0.0
 10
5.1004162671
 20
5.3566212567
 30
0.0
 10
5.1036830271
 20
5.3576429133
 30
0.0
 10
5.1058959933
 20
5.3580425423
 30
0.0
 10
5.1069789039
 20
5.3581568559
 30
0.0
  0
LINE
  5
2F5
100
AcDbEntity
  8
0
100
AcDbLine
 62
7
  6
CONTINUOUS
 10
5.1058718809
 20
5.2930818193
 11
5.1032488429
 21
5.2930422481
  0
SPLINE
  5
2F6
100
AcDbEntity
  8
0
100
AcDbSpline
 62
7
  6
CONTINUOUS
 70
0
 71
3
 72
13
 73
9
 74
0
 42
0.0000001
 43
0.0000001
 44
0.0000000001
 40
0.0
 40
0.0
 40
0.0
 40
0.0
 40
0.1128830883
 40
0.2244954368
 40
0.3374349032
 40
0.4542185358
 40
0.7076849903
 40
1.0
 40
1.0
 40
1.0
 40
1.0
 10
5.1032488429
 20
5.2930422481
 30
0.0
 10
5.1025394724
 20
5.2930927593
 30
0.0
 10
5.1011334678
 20
5.2932976336
 30
0.0
 10
5.0990955206
 20
5.2939316743
 30
0.0
 10
5.0971594949
 20
5.2948874351
 30
0.0
 10
5.0946532536
 20
5.2966331248
 30
0.0
 10
5.0917752546
 20
5.2997205742
 30
0.0
 10
5.0900083852
 20
5.3026940616
 30
0.0
 10
5.0891842271
 20
5.3043409453
 30
0.0
  0
LINE
  5
2F7
100
AcDbEntity
  8
0
100
AcDbLine
 62
7
  6
CONTINUOUS
 10
5.0891842271
 20
5.3043409453
 11
5.0877744933
 21
5.3074876586
  0
SPLINE
  5
2F8
100
AcDbEntity
  8
0
100
AcDbSpline
 62
7
  6
CONTINUOUS
 70
0
 71
3
 72
9
 73
5
 74
0
 42
0.0000001
 43
0.0000001
 44
0.0000000001
 40
0.0
 40
0.0
 40
0.0
 40
0.0
 40
0.4977830216
 40
1.0
 40
1.0
 40
1.0
 40
1.0
 10
5.8734316576
 20
5.3422932651
 30
0.0
 10
5.8746411655
 20
5.3422932651
 30
0.0
 10
5.8770769289
 20
5.3420325436
 30
0.0
 10
5.8794075394
 20
5.3412798466
 30
0.0
 10
5.8805237584
 20
5.3407867523
 30
0.0
  0
SPLINE
  5
2F9
100
AcDbEntity
  8
0
100
AcDbSpline
 62
7
  6
CONTINUOUS
 70
0
 71
3
 72
11
 73
7
 74
0
 42
0.0000001
 43
0.0000001
 44
0.0000000001
 40
0.0
 40
0.0
 40
0.0
 40
0.0
 40
0.245544725
 40
0.4946756774
 40
0.7469908607
 40
1.0
 40
1.0
 40
1.0
 40
1.0
 10
5.8846906168
 20
5.3382197164
 30
0.0
 10
5.8858144911
 20
5.3373007815
 30
0.0
 10
5.8878678371
 20
5.3351760703
 30
0.0
 10
5.8901690164
 20
5.3313649473
 30
0.0
 10
5.8915901026
 20
5.3271008626
 30
0.0
 10
5.8919164262
 20
5.3241040928
 30
0.0
 10
5.8919164262
 20
5.3226082257
 30
0.0
  0
SPLINE
  5
2FA
100
AcDbEntity
  8
0
100
AcDbSpline
 62
7
  6
CONTINUOUS
 70
0
 71
3
 72
15
 73
11
 74
0
 42
0.0000001
 43
0.0000001
 44
0.0000000001
 40
0.0
 40
0.0
 40
0.0
 40
0.0
 40
0.1282357656
 40
0.2565184566
 40
0.3837323679
 40
0.509525657
 40
0.6338159409
 40
0.7567738472
 40
0.8787568837
 40
1.0
 40
1.0
 40
1.0
 40
1.0
 10
5.1066176608
 20
5.3226082257
 30
0.0
 10
5.1066182055
 20
5.3237879234
 30
0.0
 10
5.1068230067
 20
5.3261520085
 30
0.0
 10
5.1077098887
 20
5.3295856024
 30
0.0
 10
5.1091670313
 20
5.3327960454
 30
0.0
 10
5.111137487
 20
5.3356751761
 30
0.0
 10
5.1135613524
 20
5.3381308054
 30
0.0
 10
5.1163626019
 20
5.3400866156
 30
0.0
 10
5.1194549565
 20
5.3414713274
 30
0.0
 10
5.121649241
 20
5.3419846439
 30
0.0
 10
5.1227544414
 20
5.3421349127
 30
0.0
  0
SPLINE
  5
2FB
100
AcDbEntity
  8
0
100
AcDbSpline
 62
7
  6
CONTINUOUS
 70
0
 71
3
 72
10
 73
6
 74
0
 42
0.0000001
 43
0.0000001
 44
0.0000000001
 40
0.0
 40
0.0
 40
0.0
 40
0.0
 40
0.4966665767
 40
0.7477206162
 40
1.0
 40
1.0
 40
1.0
 40
1.0
 10
5.1251049854
 20
5.2733956273
 30
0.0
 10
5.1234939794
 20
5.2733956273
 30
0.0
 10
5.1210524306
 20
5.2737447478
 30
0.0
 10
5.1179954083
 20
5.2748477514
 30
0.0
 10
5.1165452767
 20
5.2756122452
 30
0.0
 10
5.1158487266
 20
5.2760417068
 30
0.0
  0
SPLINE
  5
2FC
100
AcDbEntity
  8
0
100
AcDbSpline
 62
7
  6
CONTINUOUS
 70
0
 71
3
 72
11
 73
7
 74
0
 42
0.0000001
 43
0.0000001
 44
0.0000000001
 40
0.0
 40
0.0
 40
0.0
 40
0.0
 40
0.2455685238
 40
0.4940515532
 40
0.7456292743
 40
1.0
 40
1.0
 40
1.0
 40
1.0
 10
5.1158487266
 20
5.2760417068
 30
0.0
 10
5.1148003484
 20
5.2766880898
 30
0.0
 10
5.1128170701
 20
5.2782057845
 30
0.0
 10
5.1103371866
 20
5.2810350862
 30
0.0
 10
5.1084173011
 20
5.2843213293
 30
0.0
 10
5.1075683436
 20
5.2867313024
 30
0.0
 10
5.1072567238
 20
5.2879684339
 30
0.0
  0
SPLINE
  5
2FD
100
AcDbEntity
  8
0
100
AcDbSpline
 62
7
  6
CONTINUOUS
 70
0
 71
3
 72
14
 73
10
 74
0
 42
0.0000001
 43
0.0000001
 44
0.0000000001
 40
0.0
 40
0.0
 40
0.0
 40
0.0
 40
0.1289039524
 40
0.2567463747
 40
0.3833857161
 40
0.5087582971
 40
0.6329658485
 40
0.7562184632
 40
1.0
 40
1.0
 40
1.0
 40
1.0
 10
5.8912826105
 20
5.2879722387
 30
0.0
 10
5.8910433705
 20
5.287020609
 30
0.0
 10
5.8904327602
 20
5.2851556377
 30
0.0
 10
5.8891265725
 20
5.2825348631
 30
0.0
 10
5.8874708378
 20
5.2801515549
 30
0.0
 10
5.8854993389
 20
5.2780597322
 30
0.0
 10
5.8832530152
 20
5.2763057158
 30
0.0
 10
5.8799797582
 20
5.2744760686
 30
0.0
 10
5.8772279441
 20
5.2737122355
 30
0.0
 10
5.8753839002
 20
5.2735044671
 30
0.0
  0
SPLINE
  5
2FE
100
AcDbEntity
  8
0
100
AcDbSpline
 62
7
  6
CONTINUOUS
 70
0
 71
3
 72
9
 73
5
 74
0
 42
0.0000001
 43
0.0000001
 44
0.0000000001
 40
0.0
 40
0.0
 40
0.0
 40
0.0
 40
0.4903675566
 40
1.0
 40
1.0
 40
1.0
 40
1.0
 10
5.0782521203
 20
5.351314801
 30
0.0
 10
5.0782161051
 20
5.3516660885
 30
0.0
 10
5.0782184676
 20
5.352391953
 30
0.0
 10
5.0783645023
 20
5.3531020885
 30
0.0
 10
5.078470099
 20
5.3534535709
 30
0.0
  0
SPLINE
  5
2FF
100
AcDbEntity
  8
0
100
AcDbSpline
 62
7
  6
CONTINUOUS
 70
0
 71
3
 72
10
 73
6
 74
0
 42
0.0000001
 43
0.0000001
 44
0.0000000001
 40
0.0
 40
0.0
 40
0.0
 40
0.0
 40
0.4974890539
 40
0.7479043184
 40
1.0
 40
1.0
 40
1.0
 40
1.0
 10
5.124498173
 20
5.2733956273
 30
0.0
 10
5.1229127666
 20
5.2733956273
 30
0.0
 10
5.1205133599
 20
5.2737271234
 30
0.0
 10
5.1175026206
 20
5.2747900509
 30
0.0
 10
5.1160724302
 20
5.2755240218
 30
0.0
 10
5.1153830796
 20
5.2759365985
 30
0.0
  0
SPLINE
  5
300
100
AcDbEntity
  8
0
100
AcDbSpline
 62
7
  6
CONTINUOUS
 70
0
 71
3
 72
11
 73
7
 74
0
 42
0.0000001
 43
0.0000001
 44
0.0000000001
 40
0.0
 40
0.0
 40
0.0
 40
0.0
 40
0.2457462442
 40
0.4944502791
 40
0.7459983013
 40
1.0
 40
1.0
 40
1.0
 40
1.0
 10
5.1153830796
 20
5.2759365985
 30
0.0
 10
5.1143093173
 20
5.2765792457
 30
0.0
 10
5.1122739739
 20
5.2780949908
 30
0.0
 10
5.1097202222
 20
5.2809387478
 30
0.0
 10
5.1077376389
 20
5.2842553371
 30
0.0
 10
5.1068600795
 20
5.2866951519
 30
0.0
 10
5.1065377203
 20
5.2879477591
 30
0.0
  0
SPLINE
  5
301
100
AcDbEntity
  8
0
100
AcDbSpline
 62
7
  6
CONTINUOUS
 70
0
 71
3
 72
9
 73
5
 74
0
 42
0.0000001
 43
0.0000001
 44
0.0000000001
 40
0.0
 40
0.0
 40
0.0
 40
0.0
 40
0.4726770215
 40
1.0
 40
1.0
 40
1.0
 40
1.0
 10
5.0877733849
 20
5.3430281794
 30
0.0
 10
5.087151708
 20
5.3454675007
 30
0.0
 10
5.0860076044
 20
5.3506721167
 30
0.0
 10
5.0851173618
 20
5.355924504
 30
0.0
 10
5.0847003445
 20
5.3587016867
 30
0.0
  0
SPLINE
  5
302
100
AcDbEntity
  8
0
100
AcDbSpline
 62
7
  6
CONTINUOUS
 70
0
 71
3
 72
15
 73
11
 74
0
 42
0.0000001
 43
0.0000001
 44
0.0000000001
 40
0.0
 40
0.0
 40
0.0
 40
0.0
 40
0.1521309819
 40
0.3026691272
 40
0.4471372076
 40
0.5819689115
 40
0.7051828971
 40
0.8157177261
 40
0.913594166
 40
1.0
 40
1.0
 40
1.0
 40
1.0
 10
5.102809915
 20
5.3772319893
 30
0.0
 10
5.1016741536
 20
5.3771352408
 30
0.0
 10
5.0994217916
 20
5.3768458093
 30
0.0
 10
5.0961404393
 20
5.3761531154
 30
0.0
 10
5.0930512679
 20
5.3752273569
 30
0.0
 10
5.0902530879
 20
5.3740879641
 30
0.0
 10
5.087825878
 20
5.3727538984
 30
0.0
 10
5.0858467093
 20
5.3712306746
 30
0.0
 10
5.0843734773
 20
5.3695649624
 30
0.0
 10
5.0837234615
 20
5.3683224177
 30
0.0
 10
5.0835219827
 20
5.3677071519
 30
0.0
  0
SPLINE
  5
303
100
AcDbEntity
  8
0
100
AcDbSpline
 62
7
  6
CONTINUOUS
 70
0
 71
3
 72
15
 73
11
 74
0
 42
0.0000001
 43
0.0000001
 44
0.0000000001
 40
0.0
 40
0.0
 40
0.0
 40
0.0
 40
0.0621007041
 40
0.1444371974
 40
0.2461138256
 40
0.3660886136
 40
0.5030024595
 40
0.6554381103
 40
0.8217247775
 40
1.0
 40
1.0
 40
1.0
 40
1.0
 10
4.9937706307
 20
6.519490136
 30
0.0
 10
4.9959531943
 20
6.4958351379
 30
0.0
 10
5.0010533432
 20
6.4408192475
 30
0.0
 10
5.0098774914
 20
6.3470873698
 30
0.0
 10
5.0209802807
 20
6.2313336164
 30
0.0
 10
5.0343654081
 20
6.0948256428
 30
0.0
 10
5.0500825197
 20
5.9390368095
 30
0.0
 10
5.0681369985
 20
5.7656788767
 30
0.0
 10
5.0885825653
 20
5.5766636809
 30
0.0
 10
5.103394142
 20
5.4456920316
 30
0.0
 10
5.1112445596
 20
5.3779495094
 30
0.0
  0
ENDSEC
  0
SECTION
  2
OBJECTS
  0
DICTIONARY
  5
C
100
AcDbDictionary
280
0
281
1
  3
ACAD_GROUP
350
D
  3
ACAD_MLINESTYLE
350
17
  3
ACAD_LAYOUT
350
1A
  3
ACAD_PLOTSETTINGS
350
19
  3
ACAD_PLOTSTYLENAME
350
E
  0
DICTIONARY
  5
D
102
{ACAD_REACTORS
330
C
102
}
100
AcDbDictionary
280
0
281
1
  0
ACDBDICTIONARYWDFLT
  5
E
102
{ACAD_REACTORS
330
C
102
}
100
AcDbDictionary
281
1
  3
Normal
350
F
100
AcDbDictionaryWithDefault
340
F
  0
DICTIONARY
  5
17
102
{ACAD_REACTORS
330
C
102
}
100
AcDbDictionary
280
0
281
1
  3
Standard
350
18
  0
DICTIONARY
  5
19
102
{ACAD_REACTORS
330
C
102
}
100
AcDbDictionary
281
1
  0
DICTIONARY
  5
1A
102
{ACAD_REACTORS
330
C
102
}
100
AcDbDictionary
281
1
  3
Model
350
304
  3
Layout1
350
305
  0
ACDBPLACEHOLDER
  5
F
102
{ACAD_REACTORS
330
E
102
}
  0
MLINESTYLE
  5
18
102
{ACAD_REACTORS
330
17
102
}
100
AcDbMlineStyle
  2
STANDARD
 70
0
  3

 62
256
 51
90.0
 52
90.0
 71
2
 49
0.5
 62
256
  6
BYLAYER
 49
-0.5
 62
256
  6
BYLAYER
  0
LAYOUT
  5
304
102
{ACAD_REACTORS
330
1A
102
}
100
AcDbPlotSettings
  1

  2
none_device
  4
ANSI_A_(11.00_x_8.50_Inches)
  6

 40
0.0
 41
0.0
 42
0.0
 43
0.0
 44
279.4
 45
215.9
 46
0.0
 47
0.0
 48
0.0
 49
0.0
140
0.0
141
0.0
142
1.0
143
1.0
 70
1024
 72
0
 73
0
 74
0
  7

 75
0
147
1.0
148
0.0
149
0.0
100
AcDbLayout
  1
Model
 70
0
 71
0
 10
0.0
 20
0.0
 11
11.0
 21
8.5
 12
0.0
 22
0.0
 32
0.0
 14
0.0
 24
0.0
 34
0.0
 15
0.0
 25
0.0
 35
0.0
146
0.0
 13
0.0
 23
0.0
 33
0.0
 16
1.0
 26
0.0
 36
0.0
 17
0.0
 27
1.0
 37
0.0
 76
0
330
1FF
345
0
346
0
  0
LAYOUT
  5
305
102
{ACAD_REACTORS
330
1A
102
}
100
AcDbPlotSettings
  1

  2
none_device
  4
ANSI_A_(11.00_x_8.50_Inches)
  6

 40
0.0
 41
0.0
 42
0.0
 43
0.0
 44
279.4
 45
215.9
 46
0.0
 47
0.0
 48
0.0
 49
0.0
140
0.0
141
0.0
142
1.0
143
1.0
 70
0
 72
0
 73
0
 74
0
  7

 75
0
147
1.0
148
0.0
149
0.0
100
AcDbLayout
  1
Layout1
 70
0
 71
1
 10
0.0
 20
0.0
 11
11.0
 21
8.5
 12
0.0
 22
0.0
 32
0.0
 14
0.0
 24
0.0
 34
0.0
 15
0.0
 25
0.0
 35
0.0
146
0.0
 13
0.0
 23
0.0
 33
0.0
 16
1.0
 26
0.0
 36
0.0
 17
0.0
 27
1.0
 37
0.0
 76
0
330
200
345
0
346
0
  0
ENDSEC
  0
EOF
