  0
SECTION
  2
HEADER
  9
$ACADVER
  1
AC1021
  9
$DWGCODEPAGE
  3
ANSI_1252
  9
$EXTMAX
 10
11.0
 20
8.5
 30
0.0
  9
$EXTMIN
 10
0.0
 20
0.0
 30
0.0
  9
$LIMMIN
 10
0.0
 20
0.0
  9
$LIMMAX
 10
11.0
 20
8.5
  9
$VIEWCTR
 10
5.5
 20
4.25
  9
$VIEWSIZE
 40
8.5
  9
$CLAYER
  8
0
  9
$LTSCALE
 40
0.605
  9
$CELTYPE
  6
BYLAYER
  9
$DIMSCALE
 40
1.0
  9
$DIMASZ
 40
0.1
  9
$DIMEXO
 40
0.06875
  9
$DIMDLI
 40
0.418
  9
$DIMEXE
 40
0.198
  9
$DIMCEN
 40
0.099
  9
$DIMLFAC
 40
1.0
  9
$DIMBLK
  1
_FILLED
  9
$DIMTXT
 40
0.08
  9
$DIMTOL
 70
1
  9
$DIMLIM
 70
0
  9
$DIMTFAC
 40
1.0
  9
$DIMTP
 40
0.001
  9
$DIMTM
 40
0.001
  9
$PDMODE
 70
3
  9
$PDSIZE
 40
0.06
  9
$HANDSEED
  5
321
  9
$TILEMODE
 70
1
  9
$MEASUREMENT
 70
0
  9
$INSUNITS
 70
1
  0
ENDSEC
  0
SECTION
  2
CLASSES
  0
CLASS
  1
ACDBDICTIONARYWDFLT
  2
AcDbDictionaryWithDefault
  3
AutoCAD 2000
 90
0
 91
1
280
0
281
0
  0
CLASS
  1
ACDBPLACEHOLDER
  2
AcDbPlaceHolder
  3
AutoCAD 2000
 90
0
 91
1
280
0
281
0
  0
CLASS
  1
LAYOUT
  2
AcDbLayout
  3
AutoCAD 2000
 90
0
 91
0
280
0
281
0
  0
ENDSEC
  0
SECTION
  2
TABLES
  0
TABLE
  2
VPORT
  5
8
100
AcDbSymbolTable
 70
2
  0
VPORT
  5
1F4
100
AcDbSymbolTableRecord
100
AcDbViewportTableRecord
  2
*ACTIVE
 70
0
 10
0.0
 20
0.0
 11
1.0
 21
1.0
 12
5.5
 22
4.25
 13
0.0
 23
0.0
 14
1.0
 24
1.0
 15
0.0
 25
0.0
 16
0.0
 26
0.0
 36
1.0
 17
0.0
 27
0.0
 37
0.0
 40
8.5
 41
1.2941176471
 42
50.0
 43
0.0
 44
0.0
 50
0.0
 51
0.0
 71
0
 72
100
 73
1
 74
1
 75
0
 76
0
 77
0
 78
0
  0
ENDTAB
  0
TABLE
  2
LTYPE
  5
5
100
AcDbSymbolTable
 70
6
  0
LTYPE
  5
14
100
AcDbSymbolTableRecord
100
AcDbLinetypeTableRecord
  2
BYBLOCK
 70
0
  3

 72
65
 73
0
 40
0.0
  0
LTYPE
  5
15
100
AcDbSymbolTableRecord
100
AcDbLinetypeTableRecord
  2
BYLAYER
 70
0
  3

 72
65
 73
0
 40
0.0
  0
LTYPE
  5
16
100
AcDbSymbolTableRecord
100
AcDbLinetypeTableRecord
  2
CONTINUOUS
 70
64
  3
Solid line
 72
65
 73
0
 40
0.0
  0
LTYPE
  5
1F5
100
AcDbSymbolTableRecord
100
AcDbLinetypeTableRecord
  2
CENTER
 70
64
  3
____ _ ____ _ ____ _ ____ _ ____ _ ____ _ ____
 72
65
 73
4
 40
0.6
 49
0.375
 74
0
 49
-0.075
 74
0
 49
0.075
 74
0
 49
-0.075
 74
0
  0
LTYPE
  5
1F6
100
AcDbSymbolTableRecord
100
AcDbLinetypeTableRecord
  2
HIDDEN
 70
64
  3
- - - - - - - - - - - - - - - - - - - -
 72
65
 73
2
 40
0.2
 49
0.1
 74
0
 49
-0.1
 74
0
  0
LTYPE
  5
1F7
100
AcDbSymbolTableRecord
100
AcDbLinetypeTableRecord
  2
PHANTOM
 70
64
  3
_____ _ _ _____ _ _ _____ _ _ _____
 72
65
 73
6
 40
0.8
 49
0.45
 74
0
 49
-0.05
 74
0
 49
0.1
 74
0
 49
-0.05
 74
0
 49
0.1
 74
0
 49
-0.05
 74
0
  0
LTYPE
  5
1F8
100
AcDbSymbolTableRecord
100
AcDbLinetypeTableRecord
  2
DOT
 70
64
  3
. . . . . . . . . . . . . . . . . . . .
 72
65
 73
2
 40
0.2
 49
0.1
 74
0
 49
-0.1
 74
0
  0
LTYPE
  5
1F9
100
AcDbSymbolTableRecord
100
AcDbLinetypeTableRecord
  2
DASHED
 70
64
  3
- - - - - - - - - - - - - - - - - - - -
 72
65
 73
2
 40
0.2
 49
0.1
 74
0
 49
-0.1
 74
0
  0
ENDTAB
  0
TABLE
  2
LAYER
  5
2
100
AcDbSymbolTable
 70
36
  0
LAYER
  5
10
100
AcDbSymbolTableRecord
100
AcDbLayerTableRecord
  2
0
 70
0
 62
7
  6
CONTINUOUS
370
-3
390
F
  0
LAYER
  5
1FA
100
AcDbSymbolTableRecord
100
AcDbLayerTableRecord
  2
DEFAULT_1
 70
0
 62
7
  6
CENTER
370
-3
390
F
  0
LAYER
  5
1FB
100
AcDbSymbolTableRecord
100
AcDbLayerTableRecord
  2
DEFAULT_2
 70
0
 62
7
  6
HIDDEN
370
-3
390
F
  0
LAYER
  5
1FC
100
AcDbSymbolTableRecord
100
AcDbLayerTableRecord
  2
DEFAULT_3
 70
0
 62
7
  6
PHANTOM
370
-3
390
F
  0
LAYER
  5
1FD
100
AcDbSymbolTableRecord
100
AcDbLayerTableRecord
  2
07XX
 70
0
 62
7
  6
CONTINUOUS
370
-3
390
F
  0
LAYER
  5
1FE
100
AcDbSymbolTableRecord
100
AcDbLayerTableRecord
  2
12-BAR-ASSY_NONE
 70
0
 62
7
  6
CONTINUOUS
370
-3
390
F
  0
LAYER
  5
1FF
100
AcDbSymbolTableRecord
100
AcDbLayerTableRecord
  2
12-BAR-ASSY_NONE_1
 70
0
 62
7
  6
CONTINUOUS
370
-3
390
F
  0
LAYER
  5
200
100
AcDbSymbolTableRecord
100
AcDbLayerTableRecord
  2
12-BAR-ASSY_NONE_1_1
 70
0
 62
7
  6
CONTINUOUS
370
-3
390
F
  0
LAYER
  5
201
100
AcDbSymbolTableRecord
100
AcDbLayerTableRecord
  2
12-BAR-ASSY_NONE_1_2
 70
0
 62
7
  6
CONTINUOUS
370
-3
390
F
  0
LAYER
  5
202
100
AcDbSymbolTableRecord
100
AcDbLayerTableRecord
  2
12-BAR-ASSY_NONE_1_3
 70
0
 62
7
  6
CONTINUOUS
370
-3
390
F
  0
LAYER
  5
203
100
AcDbSymbolTableRecord
100
AcDbLayerTableRecord
  2
12-BAR-ASSY_NONE_1_4
 70
0
 62
7
  6
CONTINUOUS
370
-3
390
F
  0
LAYER
  5
204
100
AcDbSymbolTableRecord
100
AcDbLayerTableRecord
  2
12-BAR-ASSY_NONE_1_5
 70
0
 62
7
  6
CONTINUOUS
370
-3
390
F
  0
LAYER
  5
205
100
AcDbSymbolTableRecord
100
AcDbLayerTableRecord
  2
12-BAR-ASSY_NONE_2
 70
0
 62
7
  6
CONTINUOUS
370
-3
390
F
  0
LAYER
  5
206
100
AcDbSymbolTableRecord
100
AcDbLayerTableRecord
  2
12-BAR-ASSY_NONE_2_1
 70
0
 62
7
  6
CONTINUOUS
370
-3
390
F
  0
LAYER
  5
207
100
AcDbSymbolTableRecord
100
AcDbLayerTableRecord
  2
12-BAR-ASSY_NONE_2_2
 70
0
 62
7
  6
CONTINUOUS
370
-3
390
F
  0
LAYER
  5
208
100
AcDbSymbolTableRecord
100
AcDbLayerTableRecord
  2
12-BAR-ASSY_NONE_2_3
 70
0
 62
7
  6
CONTINUOUS
370
-3
390
F
  0
LAYER
  5
209
100
AcDbSymbolTableRecord
100
AcDbLayerTableRecord
  2
12-BAR-ASSY_NONE_2_4
 70
0
 62
7
  6
CONTINUOUS
370
-3
390
F
  0
LAYER
  5
20A
100
AcDbSymbolTableRecord
100
AcDbLayerTableRecord
  2
12-BAR-ASSY_NONE_2_5
 70
0
 62
7
  6
CONTINUOUS
370
-3
390
F
  0
LAYER
  5
20B
100
AcDbSymbolTableRecord
100
AcDbLayerTableRecord
  2
12-BAR-ASSY_NONE_3
 70
0
 62
7
  6
CONTINUOUS
370
-3
390
F
  0
LAYER
  5
20C
100
AcDbSymbolTableRecord
100
AcDbLayerTableRecord
  2
12-BAR-ASSY_NONE_4
 70
0
 62
7
  6
CONTINUOUS
370
-3
390
F
  0
LAYER
  5
20D
100
AcDbSymbolTableRecord
100
AcDbLayerTableRecord
  2
39-09_TOWEL_RING_ROD
 70
0
 62
7
  6
CONTINUOUS
370
-3
390
F
  0
LAYER
  5
20E
100
AcDbSymbolTableRecord
100
AcDbLayerTableRecord
  2
40482
 70
0
 62
7
  6
CONTINUOUS
370
-3
390
F
  0
LAYER
  5
20F
100
AcDbSymbolTableRecord
100
AcDbLayerTableRecord
  2
40485
 70
0
 62
7
  6
CONTINUOUS
370
-3
390
F
  0
LAYER
  5
210
100
AcDbSymbolTableRecord
100
AcDbLayerTableRecord
  2
40486
 70
0
 62
7
  6
CONTINUOUS
370
-3
390
F
  0
LAYER
  5
211
100
AcDbSymbolTableRecord
100
AcDbLayerTableRecord
  2
91578
 70
0
 62
7
  6
CONTINUOUS
370
-3
390
F
  0
LAYER
  5
212
100
AcDbSymbolTableRecord
100
AcDbLayerTableRecord
  2
92308
 70
0
 62
7
  6
CONTINUOUS
370
-3
390
F
  0
LAYER
  5
213
100
AcDbSymbolTableRecord
100
AcDbLayerTableRecord
  2
ARMA_NONE
 70
0
 62
7
  6
CONTINUOUS
370
-3
390
F
  0
LAYER
  5
214
100
AcDbSymbolTableRecord
100
AcDbLayerTableRecord
  2
ARMA_NONE_1
 70
0
 62
7
  6
CONTINUOUS
370
-3
390
F
  0
LAYER
  5
215
100
AcDbSymbolTableRecord
100
AcDbLayerTableRecord
  2
ARMA_NONE_2
 70
0
 62
7
  6
CONTINUOUS
370
-3
390
F
  0
LAYER
  5
216
100
AcDbSymbolTableRecord
100
AcDbLayerTableRecord
  2
ARMA_NONE_3
 70
0
 62
7
  6
CONTINUOUS
370
-3
390
F
  0
LAYER
  5
217
100
AcDbSymbolTableRecord
100
AcDbLayerTableRecord
  2
ARMA_NONE_4
 70
0
 62
7
  6
CONTINUOUS
370
-3
390
F
  0
LAYER
  5
218
100
AcDbSymbolTableRecord
100
AcDbLayerTableRecord
  2
ARM_NONE
 70
0
 62
7
  6
CONTINUOUS
370
-3
390
F
  0
LAYER
  5
219
100
AcDbSymbolTableRecord
100
AcDbLayerTableRecord
  2
ARM_NONE_1
 70
0
 62
7
  6
CONTINUOUS
370
-3
390
F
  0
LAYER
  5
21A
100
AcDbSymbolTableRecord
100
AcDbLayerTableRecord
  2
ARM_NONE_2
 70
0
 62
7
  6
CONTINUOUS
370
-3
390
F
  0
LAYER
  5
21B
100
AcDbSymbolTableRecord
100
AcDbLayerTableRecord
  2
ARM_NONE_3
 70
0
 62
7
  6
CONTINUOUS
370
-3
390
F
  0
LAYER
  5
21C
100
AcDbSymbolTableRecord
100
AcDbLayerTableRecord
  2
ARM_NONE_4
 70
0
 62
7
  6
CONTINUOUS
370
-3
390
F
  0
LAYER
  5
21D
100
AcDbSymbolTableRecord
100
AcDbLayerTableRecord
  2
DEFAULT_SURFACES
 70
0
 62
7
  6
CONTINUOUS
370
-3
390
F
  0
LAYER
  5
21E
100
AcDbSymbolTableRecord
100
AcDbLayerTableRecord
  2
DEFAULT_SURFACES_2
 70
0
 62
7
  6
CONTINUOUS
370
-3
390
F
  0
LAYER
  5
21F
100
AcDbSymbolTableRecord
100
AcDbLayerTableRecord
  2
DEFAULT_SURFACES_3
 70
0
 62
7
  6
CONTINUOUS
370
-3
390
F
  0
LAYER
  5
220
100
AcDbSymbolTableRecord
100
AcDbLayerTableRecord
  2
DEFAULT_SURFACES_4
 70
0
 62
7
  6
CONTINUOUS
370
-3
390
F
  0
LAYER
  5
221
100
AcDbSymbolTableRecord
100
AcDbLayerTableRecord
  2
GLASS_BAR_ASSEMBLY_W_END_CAPS__
 70
0
 62
7
  6
CONTINUOUS
370
-3
390
F
  0
LAYER
  5
222
100
AcDbSymbolTableRecord
100
AcDbLayerTableRecord
  2
HOOK-BAR-L-POST_NONE
 70
0
 62
7
  6
CONTINUOUS
370
-3
390
F
  0
LAYER
  5
223
100
AcDbSymbolTableRecord
100
AcDbLayerTableRecord
  2
HOOK-BAR-L-POST_NONE_1
 70
0
 62
7
  6
CONTINUOUS
370
-3
390
F
  0
LAYER
  5
224
100
AcDbSymbolTableRecord
100
AcDbLayerTableRecord
  2
HOOK-BAR-L-POST_NONE_2
 70
0
 62
7
  6
CONTINUOUS
370
-3
390
F
  0
LAYER
  5
225
100
AcDbSymbolTableRecord
100
AcDbLayerTableRecord
  2
HOOK-BAR-L-POST_NONE_3
 70
0
 62
7
  6
CONTINUOUS
370
-3
390
F
  0
LAYER
  5
226
100
AcDbSymbolTableRecord
100
AcDbLayerTableRecord
  2
HOOK-BAR-L-POST_NONE_4
 70
0
 62
7
  6
CONTINUOUS
370
-3
390
F
  0
LAYER
  5
227
100
AcDbSymbolTableRecord
100
AcDbLayerTableRecord
  2
HOOK-BAR-R-POST_NONE
 70
0
 62
7
  6
CONTINUOUS
370
-3
390
F
  0
LAYER
  5
228
100
AcDbSymbolTableRecord
100
AcDbLayerTableRecord
  2
HOOK-BAR-R-POST_NONE_1
 70
0
 62
7
  6
CONTINUOUS
370
-3
390
F
  0
LAYER
  5
229
100
AcDbSymbolTableRecord
100
AcDbLayerTableRecord
  2
HOOK-BAR-R-POST_NONE_2
 70
0
 62
7
  6
CONTINUOUS
370
-3
390
F
  0
LAYER
  5
22A
100
AcDbSymbolTableRecord
100
AcDbLayerTableRecord
  2
HOOK-BAR-R-POST_NONE_3
 70
0
 62
7
  6
CONTINUOUS
370
-3
390
F
  0
LAYER
  5
22B
100
AcDbSymbolTableRecord
100
AcDbLayerTableRecord
  2
HOOK-BAR-R-POST_NONE_4
 70
0
 62
7
  6
CONTINUOUS
370
-3
390
F
  0
LAYER
  5
22C
100
AcDbSymbolTableRecord
100
AcDbLayerTableRecord
  2
INTF_40482
 70
0
 62
7
  6
CONTINUOUS
370
-3
390
F
  0
LAYER
  5
22D
100
AcDbSymbolTableRecord
100
AcDbLayerTableRecord
  2
INTF_40485
 70
0
 62
7
  6
CONTINUOUS
370
-3
390
F
  0
LAYER
  5
22E
100
AcDbSymbolTableRecord
100
AcDbLayerTableRecord
  2
INTF_40486
 70
0
 62
7
  6
CONTINUOUS
370
-3
390
F
  0
LAYER
  5
22F
100
AcDbSymbolTableRecord
100
AcDbLayerTableRecord
  2
INTF_91578
 70
0
 62
7
  6
CONTINUOUS
370
-3
390
F
  0
LAYER
  5
230
100
AcDbSymbolTableRecord
100
AcDbLayerTableRecord
  2
INTF_92308
 70
0
 62
7
  6
CONTINUOUS
370
-3
390
F
  0
LAYER
  5
231
100
AcDbSymbolTableRecord
100
AcDbLayerTableRecord
  2
INTF_BLANK
 70
0
 62
7
  6
CONTINUOUS
370
-3
390
F
  0
LAYER
  5
232
100
AcDbSymbolTableRecord
100
AcDbLayerTableRecord
  2
JUNCTION_NONE
 70
0
 62
7
  6
CONTINUOUS
370
-3
390
F
  0
LAYER
  5
233
100
AcDbSymbolTableRecord
100
AcDbLayerTableRecord
  2
JUNCTION_NONE_1
 70
0
 62
7
  6
CONTINUOUS
370
-3
390
F
  0
LAYER
  5
234
100
AcDbSymbolTableRecord
100
AcDbLayerTableRecord
  2
JUNCTION_NONE_2
 70
0
 62
7
  6
CONTINUOUS
370
-3
390
F
  0
LAYER
  5
235
100
AcDbSymbolTableRecord
100
AcDbLayerTableRecord
  2
JUNCTION_NONE_3
 70
0
 62
7
  6
CONTINUOUS
370
-3
390
F
  0
LAYER
  5
236
100
AcDbSymbolTableRecord
100
AcDbLayerTableRecord
  2
JUNCTION_NONE_4
 70
0
 62
7
  6
CONTINUOUS
370
-3
390
F
  0
LAYER
  5
237
100
AcDbSymbolTableRecord
100
AcDbLayerTableRecord
  2
MOUNTING_BRACKETA_NONE
 70
0
 62
7
  6
CONTINUOUS
370
-3
390
F
  0
LAYER
  5
238
100
AcDbSymbolTableRecord
100
AcDbLayerTableRecord
  2
MOUNTING_BRACKETA_NONE_1
 70
0
 62
7
  6
CONTINUOUS
370
-3
390
F
  0
LAYER
  5
239
100
AcDbSymbolTableRecord
100
AcDbLayerTableRecord
  2
MOUNTING_BRACKETA_NONE_2
 70
0
 62
7
  6
CONTINUOUS
370
-3
390
F
  0
LAYER
  5
23A
100
AcDbSymbolTableRecord
100
AcDbLayerTableRecord
  2
MOUNTING_BRACKETA_NONE_3
 70
0
 62
7
  6
CONTINUOUS
370
-3
390
F
  0
LAYER
  5
23B
100
AcDbSymbolTableRecord
100
AcDbLayerTableRecord
  2
MOUNTING_BRACKETA_NONE_4
 70
0
 62
7
  6
CONTINUOUS
370
-3
390
F
  0
LAYER
  5
23C
100
AcDbSymbolTableRecord
100
AcDbLayerTableRecord
  2
PART1A_NONE
 70
0
 62
7
  6
CONTINUOUS
370
-3
390
F
  0
LAYER
  5
23D
100
AcDbSymbolTableRecord
100
AcDbLayerTableRecord
  2
PART1A_NONE_1
 70
0
 62
7
  6
CONTINUOUS
370
-3
390
F
  0
LAYER
  5
23E
100
AcDbSymbolTableRecord
100
AcDbLayerTableRecord
  2
PART1A_NONE_2
 70
0
 62
7
  6
CONTINUOUS
370
-3
390
F
  0
LAYER
  5
23F
100
AcDbSymbolTableRecord
100
AcDbLayerTableRecord
  2
PART1A_NONE_3
 70
0
 62
7
  6
CONTINUOUS
370
-3
390
F
  0
LAYER
  5
240
100
AcDbSymbolTableRecord
100
AcDbLayerTableRecord
  2
PART1A_NONE_4
 70
0
 62
7
  6
CONTINUOUS
370
-3
390
F
  0
LAYER
  5
241
100
AcDbSymbolTableRecord
100
AcDbLayerTableRecord
  2
PART1_NONE
 70
0
 62
7
  6
CONTINUOUS
370
-3
390
F
  0
LAYER
  5
242
100
AcDbSymbolTableRecord
100
AcDbLayerTableRecord
  2
PART1_NONE_1
 70
0
 62
7
  6
CONTINUOUS
370
-3
390
F
  0
LAYER
  5
243
100
AcDbSymbolTableRecord
100
AcDbLayerTableRecord
  2
PART1_NONE_2
 70
0
 62
7
  6
CONTINUOUS
370
-3
390
F
  0
LAYER
  5
244
100
AcDbSymbolTableRecord
100
AcDbLayerTableRecord
  2
PART1_NONE_3
 70
0
 62
7
  6
CONTINUOUS
370
-3
390
F
  0
LAYER
  5
245
100
AcDbSymbolTableRecord
100
AcDbLayerTableRecord
  2
PART1_NONE_4
 70
0
 62
7
  6
CONTINUOUS
370
-3
390
F
  0
LAYER
  5
246
100
AcDbSymbolTableRecord
100
AcDbLayerTableRecord
  2
PLATTED_SURFACE_AREA
 70
0
 62
7
  6
CONTINUOUS
370
-3
390
F
  0
LAYER
  5
247
100
AcDbSymbolTableRecord
100
AcDbLayerTableRecord
  2
RIGHT_T-BAR_POST_NONE
 70
0
 62
7
  6
CONTINUOUS
370
-3
390
F
  0
LAYER
  5
248
100
AcDbSymbolTableRecord
100
AcDbLayerTableRecord
  2
RIGHT_T-BAR_POST_NONE_1
 70
0
 62
7
  6
CONTINUOUS
370
-3
390
F
  0
LAYER
  5
249
100
AcDbSymbolTableRecord
100
AcDbLayerTableRecord
  2
ROSETTEA_NONE
 70
0
 62
7
  6
CONTINUOUS
370
-3
390
F
  0
LAYER
  5
24A
100
AcDbSymbolTableRecord
100
AcDbLayerTableRecord
  2
ROSETTEA_NONE_1
 70
0
 62
7
  6
CONTINUOUS
370
-3
390
F
  0
LAYER
  5
24B
100
AcDbSymbolTableRecord
100
AcDbLayerTableRecord
  2
ROSETTEA_NONE_1_1
 70
0
 62
7
  6
CONTINUOUS
370
-3
390
F
  0
LAYER
  5
24C
100
AcDbSymbolTableRecord
100
AcDbLayerTableRecord
  2
ROSETTEA_NONE_1_2
 70
0
 62
7
  6
CONTINUOUS
370
-3
390
F
  0
LAYER
  5
24D
100
AcDbSymbolTableRecord
100
AcDbLayerTableRecord
  2
ROSETTEA_NONE_1_3
 70
0
 62
7
  6
CONTINUOUS
370
-3
390
F
  0
LAYER
  5
24E
100
AcDbSymbolTableRecord
100
AcDbLayerTableRecord
  2
ROSETTEA_NONE_1_4
 70
0
 62
7
  6
CONTINUOUS
370
-3
390
F
  0
LAYER
  5
24F
100
AcDbSymbolTableRecord
100
AcDbLayerTableRecord
  2
ROSETTEA_NONE_1_5
 70
0
 62
7
  6
CONTINUOUS
370
-3
390
F
  0
LAYER
  5
250
100
AcDbSymbolTableRecord
100
AcDbLayerTableRecord
  2
ROSETTEA_NONE_2
 70
0
 62
7
  6
CONTINUOUS
370
-3
390
F
  0
LAYER
  5
251
100
AcDbSymbolTableRecord
100
AcDbLayerTableRecord
  2
ROSETTEA_NONE_3
 70
0
 62
7
  6
CONTINUOUS
370
-3
390
F
  0
LAYER
  5
252
100
AcDbSymbolTableRecord
100
AcDbLayerTableRecord
  2
ROSETTEA_NONE_4
 70
0
 62
7
  6
CONTINUOUS
370
-3
390
F
  0
LAYER
  5
253
100
AcDbSymbolTableRecord
100
AcDbLayerTableRecord
  2
ROSETTE_NONE
 70
0
 62
7
  6
CONTINUOUS
370
-3
390
F
  0
LAYER
  5
254
100
AcDbSymbolTableRecord
100
AcDbLayerTableRecord
  2
ROSETTE_NONE_1
 70
0
 62
7
  6
CONTINUOUS
370
-3
390
F
  0
LAYER
  5
255
100
AcDbSymbolTableRecord
100
AcDbLayerTableRecord
  2
ROSETTE_NONE_1_1
 70
0
 62
7
  6
CONTINUOUS
370
-3
390
F
  0
LAYER
  5
256
100
AcDbSymbolTableRecord
100
AcDbLayerTableRecord
  2
ROSETTE_NONE_1_2
 70
0
 62
7
  6
CONTINUOUS
370
-3
390
F
  0
LAYER
  5
257
100
AcDbSymbolTableRecord
100
AcDbLayerTableRecord
  2
TISSUE_ROLLER_ASSEMBLYA_NONE
 70
0
 62
7
  6
CONTINUOUS
370
-3
390
F
  0
LAYER
  5
258
100
AcDbSymbolTableRecord
100
AcDbLayerTableRecord
  2
TISSUE_ROLLER_ASSEMBLYA_NONE_1
 70
0
 62
7
  6
CONTINUOUS
370
-3
390
F
  0
LAYER
  5
259
100
AcDbSymbolTableRecord
100
AcDbLayerTableRecord
  2
TOWEL_RING_LEFT_CAP_NONE
 70
0
 62
7
  6
CONTINUOUS
370
-3
390
F
  0
LAYER
  5
25A
100
AcDbSymbolTableRecord
100
AcDbLayerTableRecord
  2
TOWEL_RING_LEFT_CAP_NONE_1
 70
0
 62
7
  6
CONTINUOUS
370
-3
390
F
  0
LAYER
  5
25B
100
AcDbSymbolTableRecord
100
AcDbLayerTableRecord
  2
TOWEL_RING_LEFT_CAP_NONE_2
 70
0
 62
7
  6
CONTINUOUS
370
-3
390
F
  0
LAYER
  5
25C
100
AcDbSymbolTableRecord
100
AcDbLayerTableRecord
  2
TOWEL_RING_LEFT_CAP_NONE_3
 70
0
 62
7
  6
CONTINUOUS
370
-3
390
F
  0
LAYER
  5
25D
100
AcDbSymbolTableRecord
100
AcDbLayerTableRecord
  2
TOWEL_RING_LEFT_CAP_NONE_4
 70
0
 62
7
  6
CONTINUOUS
370
-3
390
F
  0
LAYER
  5
25E
100
AcDbSymbolTableRecord
100
AcDbLayerTableRecord
  2
TOWEL_RING_PINA_NONE
 70
0
 62
7
  6
CONTINUOUS
370
-3
390
F
  0
LAYER
  5
25F
100
AcDbSymbolTableRecord
100
AcDbLayerTableRecord
  2
TOWEL_RING_PINA_NONE_1
 70
0
 62
7
  6
CONTINUOUS
370
-3
390
F
  0
LAYER
  5
260
100
AcDbSymbolTableRecord
100
AcDbLayerTableRecord
  2
TOWEL_RING_PINA_NONE_2
 70
0
 62
7
  6
CONTINUOUS
370
-3
390
F
  0
LAYER
  5
261
100
AcDbSymbolTableRecord
100
AcDbLayerTableRecord
  2
TOWEL_RING_PINA_NONE_3
 70
0
 62
7
  6
CONTINUOUS
370
-3
390
F
  0
LAYER
  5
262
100
AcDbSymbolTableRecord
100
AcDbLayerTableRecord
  2
TOWEL_RING_PINA_NONE_4
 70
0
 62
7
  6
CONTINUOUS
370
-3
390
F
  0
LAYER
  5
263
100
AcDbSymbolTableRecord
100
AcDbLayerTableRecord
  2
TOWEL_RING_RIGHT_CAPA_NONE
 70
0
 62
7
  6
CONTINUOUS
370
-3
390
F
  0
LAYER
  5
264
100
AcDbSymbolTableRecord
100
AcDbLayerTableRecord
  2
TOWEL_RING_RIGHT_CAPA_NONE_1
 70
0
 62
7
  6
CONTINUOUS
370
-3
390
F
  0
LAYER
  5
265
100
AcDbSymbolTableRecord
100
AcDbLayerTableRecord
  2
TOWEL_RING_RIGHT_CAPA_NONE_2
 70
0
 62
7
  6
CONTINUOUS
370
-3
390
F
  0
LAYER
  5
266
100
AcDbSymbolTableRecord
100
AcDbLayerTableRecord
  2
TOWEL_RING_RIGHT_CAPA_NONE_3
 70
0
 62
7
  6
CONTINUOUS
370
-3
390
F
  0
LAYER
  5
267
100
AcDbSymbolTableRecord
100
AcDbLayerTableRecord
  2
TOWEL_RING_RIGHT_CAPA_NONE_4
 70
0
 62
7
  6
CONTINUOUS
370
-3
390
F
  0
LAYER
  5
268
100
AcDbSymbolTableRecord
100
AcDbLayerTableRecord
  2
TOWEL_RING_ROD_NONE
 70
0
 62
7
  6
CONTINUOUS
370
-3
390
F
  0
LAYER
  5
269
100
AcDbSymbolTableRecord
100
AcDbLayerTableRecord
  2
TOWEL_RING_ROD_NONE_1
 70
0
 62
7
  6
CONTINUOUS
370
-3
390
F
  0
LAYER
  5
26A
100
AcDbSymbolTableRecord
100
AcDbLayerTableRecord
  2
TOWEL_RING_ROD_NONE_2
 70
0
 62
7
  6
CONTINUOUS
370
-3
390
F
  0
LAYER
  5
26B
100
AcDbSymbolTableRecord
100
AcDbLayerTableRecord
  2
TOWEL_RING_ROD_NONE_3
 70
0
 62
7
  6
CONTINUOUS
370
-3
390
F
  0
LAYER
  5
26C
100
AcDbSymbolTableRecord
100
AcDbLayerTableRecord
  2
TOWEL_RING_ROD_NONE_4
 70
0
 62
7
  6
CONTINUOUS
370
-3
390
F
  0
LAYER
  5
26D
100
AcDbSymbolTableRecord
100
AcDbLayerTableRecord
  2
_BLACK_HOLE
 70
0
 62
7
  6
CONTINUOUS
370
-3
390
F
  0
LAYER
  5
26E
100
AcDbSymbolTableRecord
100
AcDbLayerTableRecord
  2
_PART1_NONE
 70
0
 62
7
  6
CONTINUOUS
370
-3
390
F
  0
LAYER
  5
26F
100
AcDbSymbolTableRecord
100
AcDbLayerTableRecord
  2
_PART1_NONE_1
 70
0
 62
7
  6
CONTINUOUS
370
-3
390
F
  0
LAYER
  5
270
100
AcDbSymbolTableRecord
100
AcDbLayerTableRecord
  2
___SHELL
 70
0
 62
7
  6
CONTINUOUS
370
-3
390
F
  0
LAYER
  5
271
100
AcDbSymbolTableRecord
100
AcDbLayerTableRecord
  2
___SHELL_1
 70
0
 62
7
  6
CONTINUOUS
370
-3
390
F
  0
LAYER
  5
272
100
AcDbSymbolTableRecord
100
AcDbLayerTableRecord
  2
___SHELL_2
 70
0
 62
7
  6
CONTINUOUS
370
-3
390
F
  0
LAYER
  5
273
100
AcDbSymbolTableRecord
100
AcDbLayerTableRecord
  2
___SHELL_3
 70
0
 62
7
  6
CONTINUOUS
370
-3
390
F
  0
LAYER
  5
274
100
AcDbSymbolTableRecord
100
AcDbLayerTableRecord
  2
___SHELL_4
 70
0
 62
7
  6
CONTINUOUS
370
-3
390
F
  0
ENDTAB
  0
TABLE
  2
STYLE
  5
3
100
AcDbSymbolTable
 70
1
  0
STYLE
  5
11
100
AcDbSymbolTableRecord
100
AcDbTextStyleTableRecord
  2
STANDARD
 70
0
 40
0.0
 41
0.8
 50
0.0
 71
0
 42
0.2
  3
txt
  4

  0
STYLE
  5
275
100
AcDbSymbolTableRecord
100
AcDbTextStyleTableRecord
  2
TEXTSTYLE_1
 70
0
 40
0.0
 41
0.8
 50
0.0
 71
0
 42
0.2
  3
gdt
  4

  0
ENDTAB
  0
TABLE
  2
VIEW
  5
6
100
AcDbSymbolTable
 70
0
  0
ENDTAB
  0
TABLE
  2
UCS
  5
7
100
AcDbSymbolTable
 70
0
  0
ENDTAB
  0
TABLE
  2
APPID
  5
9
100
AcDbSymbolTable
 70
1
  0
APPID
  5
276
100
AcDbSymbolTableRecord
100
AcDbRegAppTableRecord
  2
ACAD
 70
0
  0
ENDTAB
  0
TABLE
  2
BLOCK_RECORD
  5
1
100
AcDbSymbolTable
 70
0
  0
BLOCK_RECORD
  5
277
100
AcDbSymbolTableRecord
100
AcDbBlockTableRecord
  2
*Model_Space
  0
BLOCK_RECORD
  5
278
100
AcDbSymbolTableRecord
100
AcDbBlockTableRecord
  2
*Paper_Space
  0
ENDTAB
  0
TABLE
  2
DIMSTYLE
  5
A
100
AcDbSymbolTable
 70
1
100
AcDbDimStyleTable
 71
0
  0
DIMSTYLE
105
279
100
AcDbSymbolTableRecord
100
AcDbDimStyleTableRecord
  2
STANDARD
 70
0
  3

  4

 40
1.0
 41
0.1
 42
0.0625
 43
0.38
 44
0.18
 45
0.0
 46
0.0
 47
0.001
 48
0.001
140
0.08
141
0.09
142
0.0
143
25.4
144
1.0
145
0.0
146
1.0
147
0.09
 71
1.0
 72
0.0
 73
1
 74
1
 75
0
 76
0
 77
0
 78
4
170
0
171
2
172
0
173
0
174
0
175
0
176
0
177
0
178
0
270
2
271
3
272
3
273
2
274
2
275
0
280
0
281
0
282
0
283
1
284
4
285
0
286
0
287
3
288
0
340
11
  0
ENDTAB
  0
ENDSEC
  0
SECTION
  2
BLOCKS
  0
BLOCK
  5
20
100
AcDbEntity
  8
0
100
AcDbBlockBegin
  2
*Model_Space
 70
0
 10
0.0
 20
0.0
 30
0.0
  3
*Model_Space
  1

  0
ENDBLK
  5
21
100
AcDbEntity
  8
0
100
AcDbBlockEnd
  0
BLOCK
  5
1C
100
AcDbEntity
  8
0
100
AcDbBlockBegin
  2
*Paper_Space
 70
0
 10
0.0
 20
0.0
 30
0.0
  3
*Paper_Space
  1

  0
ENDBLK
  5
1D
100
AcDbEntity
  8
0
100
AcDbBlockEnd
  0
ENDSEC
  0
SECTION
  2
ENTITIES
  0
LINE
  5
27A
100
AcDbEntity
  8
0
100
AcDbLine
 62
7
  6
BYLAYER
 10
1.6459741379
 20
4.6240861984
 11
1.6459741379
 21
4.111251119
  0
LINE
  5
27B
100
AcDbEntity
  8
0
100
AcDbLine
 62
6
  6
BYLAYER
 10
1.6849741379
 20
4.663251119
 11
1.6849741379
 21
4.072251119
  0
LINE
  5
27C
100
AcDbEntity
  8
0
100
AcDbLine
 62
7
  6
BYLAYER
 10
1.7439741379
 20
4.664180743
 11
1.7439741379
 21
4.071251119
  0
LINE
  5
27D
100
AcDbEntity
  8
0
100
AcDbLine
 62
6
  6
BYLAYER
 10
1.8409741379
 20
4.761251119
 11
1.8409741379
 21
3.974251119
  0
LINE
  5
27E
100
AcDbEntity
  8
0
100
AcDbLine
 62
6
  6
BYLAYER
 10
1.8459741379
 20
4.761251119
 11
1.8459741379
 21
3.974251119
  0
LINE
  5
27F
100
AcDbEntity
  8
0
100
AcDbLine
 62
7
  6
BYLAYER
 10
1.9429741379
 20
4.664251119
 11
1.9429741379
 21
4.071251119
  0
LINE
  5
280
100
AcDbEntity
  8
0
100
AcDbLine
 62
6
  6
BYLAYER
 10
2.0019741379
 20
4.663251119
 11
2.0019741379
 21
4.072251119
  0
LINE
  5
281
100
AcDbEntity
  8
0
100
AcDbLine
 62
7
  6
BYLAYER
 10
2.0409741379
 20
4.624251119
 11
2.0409741379
 21
4.111251119
  0
LINE
  5
282
100
AcDbEntity
  8
0
100
AcDbLine
 62
7
  6
BYLAYER
 10
2.1549741379
 20
4.742721161
 11
2.1549741379
 21
3.9927810769
  0
LWPOLYLINE
  5
283
100
AcDbEntity
  8
0
100
AcDbPolyline
 62
7
  6
BYLAYER
 90
4
 70
0
 10
9.0049741379
 20
4.1528319419
 10
9.0393102139
 20
4.1589729332
 10
9.1218526183
 20
4.1757808512
 10
9.1249741379
 20
4.1765209358
  0
LWPOLYLINE
  5
284
100
AcDbEntity
  8
0
100
AcDbPolyline
 62
7
  6
BYLAYER
 90
4
 70
0
 10
2.0409741379
 20
4.1765452953
 10
2.0449038721
 20
4.1756155224
 10
2.1274632225
 20
4.1588209291
 10
2.1549741379
 20
4.1539030009
  0
LINE
  5
285
100
AcDbEntity
  8
0
100
AcDbLine
 62
7
  6
BYLAYER
 10
5.3601106316
 20
3.835582216
 11
5.8054318137
 21
3.835582216
  0
LINE
  5
286
100
AcDbEntity
  8
0
100
AcDbLine
 62
7
  6
BYLAYER
 10
5.1648965662
 20
4.7519256197
 11
5.1648965662
 21
4.742751119
  0
LINE
  5
287
100
AcDbEntity
  8
0
100
AcDbLine
 62
7
  6
BYLAYER
 10
5.1648965662
 20
3.992751119
 11
5.1648965662
 21
3.9835626286
  0
LINE
  5
288
100
AcDbEntity
  8
0
100
AcDbLine
 62
7
  6
BYLAYER
 10
5.2770270519
 20
4.8130834768
 11
5.2770270519
 21
4.7858218247
  0
LINE
  5
289
100
AcDbEntity
  8
0
100
AcDbLine
 62
7
  6
BYLAYER
 10
5.2770270519
 20
3.9496666811
 11
5.2770270519
 21
3.9218561182
  0
LINE
  5
28A
100
AcDbEntity
  8
0
100
AcDbLine
 62
7
  6
BYLAYER
 10
5.1987897116
 20
3.9496666811
 11
5.2770270519
 21
3.9496666811
  0
LINE
  5
28B
100
AcDbEntity
  8
0
100
AcDbLine
 62
7
  6
BYLAYER
 10
5.8889212239
 20
3.9496666811
 11
5.967163542
 21
3.9496666811
  0
LINE
  5
28C
100
AcDbEntity
  8
0
100
AcDbLine
 62
7
  6
BYLAYER
 10
9.3249741379
 20
3.974251119
 11
9.3199741379
 21
3.974251119
  0
LINE
  5
28D
100
AcDbEntity
  8
0
100
AcDbLine
 62
7
  6
BYLAYER
 10
1.8459741379
 20
3.974251119
 11
1.8409741379
 21
3.974251119
  0
LINE
  5
28E
100
AcDbEntity
  8
0
100
AcDbLine
 62
7
  6
BYLAYER
 10
2.1549741379
 20
3.992751119
 11
9.0049741379
 21
3.992751119
  0
LINE
  5
28F
100
AcDbEntity
  8
0
100
AcDbLine
 62
7
  6
BYLAYER
 10
9.4809741379
 20
4.072251119
 11
9.4219741379
 21
4.072251119
  0
LINE
  5
290
100
AcDbEntity
  8
0
100
AcDbLine
 62
7
  6
BYLAYER
 10
9.2229741379
 20
4.072251119
 11
9.1639741379
 21
4.072251119
  0
LINE
  5
291
100
AcDbEntity
  8
0
100
AcDbLine
 62
7
  6
BYLAYER
 10
2.0019741379
 20
4.072251119
 11
1.9429741403
 21
4.072251119
  0
LINE
  5
292
100
AcDbEntity
  8
0
100
AcDbLine
 62
7
  6
BYLAYER
 10
1.7439741379
 20
4.072251119
 11
1.6849741379
 21
4.072251119
  0
LINE
  5
293
100
AcDbEntity
  8
0
100
AcDbLine
 62
7
  6
BYLAYER
 10
2.0409741379
 20
4.208251119
 11
2.1549741379
 21
4.208251119
  0
LINE
  5
294
100
AcDbEntity
  8
0
100
AcDbLine
 62
7
  6
BYLAYER
 10
9.0049741379
 20
4.210251119
 11
9.1249741379
 21
4.210251119
  0
LINE
  5
295
100
AcDbEntity
  8
0
100
AcDbLine
 62
7
  6
BYLAYER
 10
5.8889212239
 20
3.9223689069
 11
5.8889212239
 21
3.9496666811
  0
LINE
  5
296
100
AcDbEntity
  8
0
100
AcDbLine
 62
7
  6
BYLAYER
 10
5.8889212239
 20
4.7858218247
 11
5.8889212239
 21
4.8135362364
  0
LINE
  5
297
100
AcDbEntity
  8
0
100
AcDbLine
 62
7
  6
BYLAYER
 10
9.1249741379
 20
4.525251119
 11
9.0049741379
 21
4.525251119
  0
LINE
  5
298
100
AcDbEntity
  8
0
100
AcDbLine
 62
7
  6
BYLAYER
 10
9.1249741379
 20
4.5262442529
 11
9.0049741379
 21
4.5262442529
  0
LINE
  5
299
100
AcDbEntity
  8
0
100
AcDbLine
 62
7
  6
BYLAYER
 10
2.1549741379
 20
4.527251119
 11
2.0409741379
 21
4.527251119
  0
LINE
  5
29A
100
AcDbEntity
  8
0
100
AcDbLine
 62
7
  6
BYLAYER
 10
2.0409741379
 20
4.5652442529
 11
2.1549741379
 21
4.5652442529
  0
LINE
  5
29B
100
AcDbEntity
  8
0
100
AcDbLine
 62
7
  6
BYLAYER
 10
9.0049741379
 20
4.5652442529
 11
9.1249741379
 21
4.5652442529
  0
LINE
  5
29C
100
AcDbEntity
  8
0
100
AcDbLine
 62
7
  6
BYLAYER
 10
9.1249741379
 20
4.5662442529
 11
9.0049741379
 21
4.5662442529
  0
LINE
  5
29D
100
AcDbEntity
  8
0
100
AcDbLine
 62
7
  6
BYLAYER
 10
2.1549741379
 20
4.5662442529
 11
2.0409741379
 21
4.5662442529
  0
LINE
  5
29E
100
AcDbEntity
  8
0
100
AcDbLine
 62
7
  6
BYLAYER
 10
9.4809741379
 20
4.663251119
 11
9.4219741379
 21
4.663251119
  0
LINE
  5
29F
100
AcDbEntity
  8
0
100
AcDbLine
 62
7
  6
BYLAYER
 10
9.2229741379
 20
4.663251119
 11
9.0049741379
 21
4.6632442529
  0
LINE
  5
2A0
100
AcDbEntity
  8
0
100
AcDbLine
 62
7
  6
BYLAYER
 10
2.1549741379
 20
4.6632442529
 11
1.9429741379
 21
4.663251119
  0
LINE
  5
2A1
100
AcDbEntity
  8
0
100
AcDbLine
 62
7
  6
BYLAYER
 10
1.7439741379
 20
4.663251119
 11
1.6849741379
 21
4.663251119
  0
LINE
  5
2A2
100
AcDbEntity
  8
0
100
AcDbLine
 62
7
  6
BYLAYER
 10
6.0010517097
 20
3.9835253716
 11
6.0010517097
 21
3.992751119
  0
LINE
  5
2A3
100
AcDbEntity
  8
0
100
AcDbLine
 62
7
  6
BYLAYER
 10
6.0010517097
 20
4.742751119
 11
6.0010517097
 21
4.7519468325
  0
LINE
  5
2A4
100
AcDbEntity
  8
0
100
AcDbLine
 62
7
  6
BYLAYER
 10
2.1549741379
 20
4.742751119
 11
9.0049741379
 21
4.742751119
  0
LINE
  5
2A5
100
AcDbEntity
  8
0
100
AcDbLine
 62
7
  6
BYLAYER
 10
9.3249741379
 20
4.761251119
 11
9.3199741379
 21
4.761251119
  0
LINE
  5
2A6
100
AcDbEntity
  8
0
100
AcDbLine
 62
7
  6
BYLAYER
 10
1.8459741379
 20
4.761251119
 11
1.8409741379
 21
4.761251119
  0
LINE
  5
2A7
100
AcDbEntity
  8
0
100
AcDbLine
 62
7
  6
BYLAYER
 10
5.9671750875
 20
4.7858218247
 11
5.8889212239
 21
4.7858218247
  0
LINE
  5
2A8
100
AcDbEntity
  8
0
100
AcDbLine
 62
7
  6
BYLAYER
 10
5.2770270519
 20
4.7858218247
 11
5.1987715055
 21
4.7858218247
  0
LINE
  5
2A9
100
AcDbEntity
  8
0
100
AcDbLine
 62
7
  6
BYLAYER
 10
5.8058017355
 20
4.8998477078
 11
5.3604962926
 21
4.8998477078
  0
LINE
  5
2AA
100
AcDbEntity
  8
0
100
AcDbLine
 62
7
  6
BYLAYER
 10
9.0049741379
 20
4.742721161
 11
9.0049741379
 21
3.9927810769
  0
LINE
  5
2AB
100
AcDbEntity
  8
0
100
AcDbLine
 62
7
  6
BYLAYER
 10
9.1249741379
 20
4.6240861984
 11
9.1249741379
 21
4.111251119
  0
LINE
  5
2AC
100
AcDbEntity
  8
0
100
AcDbLine
 62
6
  6
BYLAYER
 10
9.1639741379
 20
4.663251119
 11
9.1639741379
 21
4.072251119
  0
LINE
  5
2AD
100
AcDbEntity
  8
0
100
AcDbLine
 62
7
  6
BYLAYER
 10
9.2229741379
 20
4.664180743
 11
9.2229741379
 21
4.071251119
  0
LINE
  5
2AE
100
AcDbEntity
  8
0
100
AcDbLine
 62
6
  6
BYLAYER
 10
9.3199741379
 20
4.761251119
 11
9.3199741379
 21
3.974251119
  0
LINE
  5
2AF
100
AcDbEntity
  8
0
100
AcDbLine
 62
6
  6
BYLAYER
 10
9.3249741379
 20
4.761251119
 11
9.3249741379
 21
3.974251119
  0
LINE
  5
2B0
100
AcDbEntity
  8
0
100
AcDbLine
 62
7
  6
BYLAYER
 10
9.4219741379
 20
4.664251119
 11
9.4219741379
 21
4.071251119
  0
LINE
  5
2B1
100
AcDbEntity
  8
0
100
AcDbLine
 62
6
  6
BYLAYER
 10
9.4809741379
 20
4.663251119
 11
9.4809741379
 21
4.072251119
  0
LINE
  5
2B2
100
AcDbEntity
  8
0
100
AcDbLine
 62
7
  6
BYLAYER
 10
9.5199741379
 20
4.624251119
 11
9.5199741379
 21
4.111251119
  0
ARC
  5
2B3
100
AcDbEntity
  8
0
100
AcDbCircle
 62
7
  6
BYLAYER
 10
-16.2798048481
 20
-16.6160611607
 40
30.2390736849
100
AcDbArc
 50
42.8518037741
 51
42.9697141638
  0
ARC
  5
2B4
100
AcDbEntity
  8
0
100
AcDbCircle
 62
7
  6
BYLAYER
 10
-11.499075062
 20
-13.840625351
 40
24.9311848638
100
AcDbArc
 50
45.5266081298
 51
45.6778077361
  0
ARC
  5
2B5
100
AcDbEntity
  8
0
100
AcDbCircle
 62
7
  6
BYLAYER
 10
-11.2928887135
 20
-13.6327070447
 40
24.6383698098
100
AcDbArc
 50
45.5300187142
 51
45.6830136725
  0
ARC
  5
2B6
100
AcDbEntity
  8
0
100
AcDbCircle
 62
7
  6
BYLAYER
 10
-3.6313549681
 20
-4.7861231903
 40
12.7822620197
100
AcDbArc
 50
42.41575739
 51
43.1363623211
  0
ARC
  5
2B7
100
AcDbEntity
  8
0
100
AcDbCircle
 62
7
  6
BYLAYER
 10
5.5829741379
 20
4.3677442529
 40
1.0825
100
AcDbArc
 50
200.3249130119
 51
339.6750869881
  0
ARC
  5
2B8
100
AcDbEntity
  8
0
100
AcDbCircle
 62
7
  6
BYLAYER
 10
5.5829741379
 20
4.3677442529
 40
1.0825
100
AcDbArc
 50
20.3256737721
 51
159.6743262279
  0
ARC
  5
2B9
100
AcDbEntity
  8
0
100
AcDbCircle
 62
7
  6
BYLAYER
 10
5.5829741379
 20
4.3677442529
 40
0.925
100
AcDbArc
 50
203.9732026847
 51
336.0269356516
  0
ARC
  5
2BA
100
AcDbEntity
  8
0
100
AcDbCircle
 62
7
  6
BYLAYER
 10
5.5829741379
 20
4.3677442529
 40
0.925
100
AcDbArc
 50
23.9741666474
 51
156.0259716603
  0
ARC
  5
2BB
100
AcDbEntity
  8
0
100
AcDbCircle
 62
6
  6
BYLAYER
 10
5.5915940999
 20
3.5282207261
 40
0.4508054178
100
AcDbArc
 50
87.9464746355
 51
89.2383216009
  0
ARC
  5
2BC
100
AcDbEntity
  8
0
100
AcDbCircle
 62
7
  6
BYLAYER
 10
5.5916279866
 20
3.5295997906
 40
0.4494260249
100
AcDbArc
 50
87.9444920618
 51
89.2403041746
  0
ARC
  5
2BD
100
AcDbEntity
  8
0
100
AcDbCircle
 62
6
  6
BYLAYER
 10
5.5829820944
 20
3.7017377337
 40
0.2776329802
100
AcDbArc
 50
86.9845923347
 51
90.0016419959
  0
ARC
  5
2BE
100
AcDbEntity
  8
0
100
AcDbCircle
 62
7
  6
BYLAYER
 10
5.5939723718
 20
3.790497161
 40
0.1881043398
100
AcDbArc
 50
78.2912860849
 51
79.1764713953
  0
ARC
  5
2BF
100
AcDbEntity
  8
0
100
AcDbCircle
 62
6
  6
BYLAYER
 10
5.5962940087
 20
3.800307414
 40
0.1780331803
100
AcDbArc
 50
78.3804665514
 51
79.3174702132
  0
ARC
  5
2C0
100
AcDbEntity
  8
0
100
AcDbCircle
 62
7
  6
BYLAYER
 10
1.8409741379
 20
4.071251119
 40
0.097
100
AcDbArc
 50
180.0
 51
270.0
  0
ARC
  5
2C1
100
AcDbEntity
  8
0
100
AcDbCircle
 62
7
  6
BYLAYER
 10
1.8459741379
 20
4.071251119
 40
0.097
100
AcDbArc
 50
270.0
 51
360.0
  0
ARC
  5
2C2
100
AcDbEntity
  8
0
100
AcDbCircle
 62
7
  6
BYLAYER
 10
2.0019741379
 20
4.111251119
 40
0.039
100
AcDbArc
 50
270.0
 51
359.9999999999
  0
ARC
  5
2C3
100
AcDbEntity
  8
0
100
AcDbCircle
 62
7
  6
BYLAYER
 10
1.6849741379
 20
4.111251119
 40
0.039
100
AcDbArc
 50
180.0
 51
270.0
  0
ARC
  5
2C4
100
AcDbEntity
  8
0
100
AcDbCircle
 62
7
  6
BYLAYER
 10
-16.1104818782
 20
25.193726015
 40
30.0076038746
100
AcDbArc
 50
317.0295012439
 51
317.149238028
  0
ARC
  5
2C5
100
AcDbEntity
  8
0
100
AcDbCircle
 62
7
  6
BYLAYER
 10
1.8409741379
 20
4.664251119
 40
0.097
100
AcDbArc
 50
90.0
 51
180.0
  0
ARC
  5
2C6
100
AcDbEntity
  8
0
100
AcDbCircle
 62
7
  6
BYLAYER
 10
1.8459741379
 20
4.664251119
 40
0.097
100
AcDbArc
 50
0.0
 51
90.0
  0
ARC
  5
2C7
100
AcDbEntity
  8
0
100
AcDbCircle
 62
7
  6
BYLAYER
 10
5.8079869724
 20
4.8166270286
 40
0.0829473389
100
AcDbArc
 50
64.8359707136
 51
72.3308889122
  0
ARC
  5
2C8
100
AcDbEntity
  8
0
100
AcDbCircle
 62
7
  6
BYLAYER
 10
5.8083808239
 20
4.8212529654
 40
0.0790590097
100
AcDbArc
 50
28.1945227148
 51
35.1208730549
  0
ARC
  5
2C9
100
AcDbEntity
  8
0
100
AcDbCircle
 62
7
  6
BYLAYER
 10
5.8106586207
 20
4.8227702835
 40
0.0763238657
100
AcDbArc
 50
35.1729329264
 51
42.128552579
  0
ARC
  5
2CA
100
AcDbEntity
  8
0
100
AcDbCircle
 62
7
  6
BYLAYER
 10
5.8113205196
 20
4.8233992692
 40
0.0754104774
100
AcDbArc
 50
42.1114380931
 51
53.7729306536
  0
ARC
  5
2CB
100
AcDbEntity
  8
0
100
AcDbCircle
 62
7
  6
BYLAYER
 10
2.0019741379
 20
4.624251119
 40
0.039
100
AcDbArc
 50
0.0000000001
 51
90.0
  0
ARC
  5
2CC
100
AcDbEntity
  8
0
100
AcDbCircle
 62
7
  6
BYLAYER
 10
1.6849741379
 20
4.624251119
 40
0.039
100
AcDbArc
 50
90.0
 51
180.0
  0
ARC
  5
2CD
100
AcDbEntity
  8
0
100
AcDbCircle
 62
7
  6
BYLAYER
 10
27.4834952607
 20
-16.6509431046
 40
30.2904663855
100
AcDbArc
 50
137.0305111909
 51
137.1483780209
  0
ARC
  5
2CE
100
AcDbEntity
  8
0
100
AcDbCircle
 62
7
  6
BYLAYER
 10
14.6842479686
 20
-4.6890354229
 40
12.6333812034
100
AcDbArc
 50
136.834422395
 51
137.5637633486
  0
ARC
  5
2CF
100
AcDbEntity
  8
0
100
AcDbCircle
 62
7
  6
BYLAYER
 10
9.3199741379
 20
4.071251119
 40
0.097
100
AcDbArc
 50
180.0
 51
270.0
  0
ARC
  5
2D0
100
AcDbEntity
  8
0
100
AcDbCircle
 62
7
  6
BYLAYER
 10
9.3249741379
 20
4.071251119
 40
0.097
100
AcDbArc
 50
270.0
 51
360.0
  0
ARC
  5
2D1
100
AcDbEntity
  8
0
100
AcDbCircle
 62
7
  6
BYLAYER
 10
9.1639741379
 20
4.111251119
 40
0.039
100
AcDbArc
 50
180.0
 51
270.0
  0
ARC
  5
2D2
100
AcDbEntity
  8
0
100
AcDbCircle
 62
7
  6
BYLAYER
 10
9.4809741379
 20
4.111251119
 40
0.039
100
AcDbArc
 50
270.0
 51
359.9999999999
  0
ARC
  5
2D3
100
AcDbEntity
  8
0
100
AcDbCircle
 62
7
  6
BYLAYER
 10
32.03691616
 20
25.5645374072
 40
33.9426118957
100
AcDbArc
 50
219.4546452985
 51
219.5755022981
  0
ARC
  5
2D4
100
AcDbEntity
  8
0
100
AcDbCircle
 62
7
  6
BYLAYER
 10
27.4439369113
 20
25.3498624397
 40
30.2365947013
100
AcDbArc
 50
222.8518005198
 51
222.9697847512
  0
ARC
  5
2D5
100
AcDbEntity
  8
0
100
AcDbCircle
 62
7
  6
BYLAYER
 10
9.3199741379
 20
4.664251119
 40
0.097
100
AcDbArc
 50
90.0
 51
180.0
  0
ARC
  5
2D6
100
AcDbEntity
  8
0
100
AcDbCircle
 62
7
  6
BYLAYER
 10
9.3249741379
 20
4.664251119
 40
0.097
100
AcDbArc
 50
0.0
 51
90.0
  0
ARC
  5
2D7
100
AcDbEntity
  8
0
100
AcDbCircle
 62
7
  6
BYLAYER
 10
9.1639741379
 20
4.624251119
 40
0.039
100
AcDbArc
 50
90.0
 51
180.0
  0
ARC
  5
2D8
100
AcDbEntity
  8
0
100
AcDbCircle
 62
7
  6
BYLAYER
 10
9.4809741379
 20
4.624251119
 40
0.039
100
AcDbArc
 50
0.0000000001
 51
90.0
  0
SPLINE
  5
2D9
100
AcDbEntity
  8
0
100
AcDbSpline
 62
7
  6
BYLAYER
 70
0
 71
3
 72
9
 73
5
 74
3
 42
0.0000001
 43
0.0000001
 44
0.0000000001
 12
0.027761435
 22
-0.0000220706
 32
0.0
 13
0.0264499274
 23
-0.008432028
 33
0.0
 40
0.0
 40
0.0
 40
0.0
 40
0.0
 40
0.4994602504
 40
1.0
 40
1.0
 40
1.0
 40
1.0
 10
5.8058017355
 20
4.8998477078
 30
0.0
 10
5.8104236466
 20
4.8998440333
 30
0.0
 10
5.8196898458
 20
4.8991575263
 30
0.0
 10
5.8287500918
 20
4.8970684261
 30
0.0
 10
5.8331631718
 20
4.8956615711
 30
0.0
 11
5.8058017355
 21
4.8998477078
 31
0.0
 11
5.8196284658
 21
4.8988083758
 31
0.0
 11
5.8331631718
 21
4.8956615711
 31
0.0
  0
SPLINE
  5
2DA
100
AcDbEntity
  8
0
100
AcDbSpline
 62
7
  6
BYLAYER
 70
0
 71
3
 72
9
 73
5
 74
3
 42
0.0000001
 43
0.0000001
 44
0.0000000001
 12
0.0132877865
 22
-0.0062555707
 32
0.0
 13
0.0118562571
 23
-0.0086675605
 33
0.0
 40
0.0
 40
0.0
 40
0.0
 40
0.0
 40
0.250268837
 40
1.0
 40
1.0
 40
1.0
 40
1.0
 10
5.8432573668
 20
4.8917028393
 30
0.0
 10
5.8443658731
 20
4.8911809812
 30
0.0
 10
5.8487467953
 20
4.8889951033
 30
0.0
 10
5.8529244564
 20
4.8863980567
 30
0.0
 10
5.8558874582
 20
4.8842319433
 30
0.0
 11
5.8432573668
 21
4.8917028393
 31
0.0
 11
5.8465459586
 21
4.8900611136
 31
0.0
 11
5.8558874582
 21
4.8842319433
 31
0.0
  0
SPLINE
  5
2DB
100
AcDbEntity
  8
0
100
AcDbSpline
 62
7
  6
BYLAYER
 70
0
 71
3
 72
9
 73
5
 74
3
 42
0.0000001
 43
0.0000001
 44
0.0000000001
 12
0.0080692017
 22
-0.0150258266
 32
0.0
 13
0.0050116046
 23
-0.0163024937
 33
0.0
 40
0.0
 40
0.0
 40
0.0
 40
0.0
 40
0.7496976849
 40
1.0
 40
1.0
 40
1.0
 40
1.0
 10
5.8780601433
 20
4.8586061243
 30
0.0
 10
5.8800766306
 20
4.8548511818
 30
0.0
 10
5.8823808985
 20
4.8496227808
 30
0.0
 10
5.8841752929
 20
4.844227849
 30
0.0
 10
5.8845934317
 20
4.842867665
 30
0.0
 11
5.8780601433
 21
4.8586061243
 31
0.0
 11
5.8832450666
 21
4.8469181435
 31
0.0
 11
5.8845934317
 21
4.842867665
 31
0.0
  0
SPLINE
  5
2DC
100
AcDbEntity
  8
0
100
AcDbSpline
 62
7
  6
BYLAYER
 70
0
 71
3
 72
9
 73
5
 74
3
 42
0.0000001
 43
0.0000001
 44
0.0000000001
 12
0.0087360891
 22
-0.0284180515
 32
0.0
 13
0.0000310065
 23
-0.0297305221
 33
0.0
 40
0.0
 40
0.0
 40
0.0
 40
0.0
 40
0.5005174371
 40
1.0
 40
1.0
 40
1.0
 40
1.0
 10
5.8845934317
 20
4.842867665
 30
0.0
 10
5.8860509533
 20
4.8381264216
 30
0.0
 10
5.8882096651
 20
4.8284086052
 30
0.0
 10
5.8889160615
 20
4.8184861955
 30
0.0
 10
5.8889212239
 20
4.8135362364
 30
0.0
 11
5.8845934317
 21
4.842867665
 31
0.0
 11
5.8878480684
 21
4.8283472942
 31
0.0
 11
5.8889212239
 21
4.8135362364
 31
0.0
  0
SPLINE
  5
2DD
100
AcDbEntity
  8
0
100
AcDbSpline
 62
7
  6
BYLAYER
 70
0
 71
3
 72
9
 73
5
 74
3
 42
0.0000001
 43
0.0000001
 44
0.0000000001
 12
0.0141179831
 22
0.000004015
 32
0.0
 13
0.0131150702
 23
-0.0052261263
 33
0.0
 40
0.0
 40
0.0
 40
0.0
 40
0.0
 40
0.4993130632
 40
1.0
 40
1.0
 40
1.0
 40
1.0
 10
5.9671750875
 20
4.7858218247
 30
0.0
 10
5.9695248519
 20
4.7858224929
 30
0.0
 10
5.9742406473
 20
4.7854169398
 30
0.0
 10
5.9788067946
 20
4.7841370742
 30
0.0
 10
5.9809956428
 20
4.7832648564
 30
0.0
 11
5.9671750875
 21
4.7858218247
 31
0.0
 11
5.9741968591
 21
4.785199519
 31
0.0
 11
5.9809956428
 21
4.7832648564
 31
0.0
  0
SPLINE
  5
2DE
100
AcDbEntity
  8
0
100
AcDbSpline
 62
7
  6
BYLAYER
 70
0
 71
3
 72
9
 73
5
 74
3
 42
0.0000001
 43
0.0000001
 44
0.0000000001
 12
0.0118278467
 22
-0.0047131902
 32
0.0
 13
0.0089971442
 23
-0.0090090796
 33
0.0
 40
0.0
 40
0.0
 40
0.0
 40
0.0
 40
0.500696278
 40
1.0
 40
1.0
 40
1.0
 40
1.0
 10
5.9809956428
 20
4.7832648564
 30
0.0
 10
5.9829696957
 20
4.7824782308
 30
0.0
 10
5.9867718847
 20
4.7805268127
 30
0.0
 10
5.9901116398
 20
4.7778498553
 30
0.0
 10
5.9916090756
 20
4.776350433
 30
0.0
 11
5.9809956428
 21
4.7832648564
 31
0.0
 11
5.9866612488
 21
4.7803422049
 31
0.0
 11
5.9916090756
 21
4.776350433
 31
0.0
  0
SPLINE
  5
2DF
100
AcDbEntity
  8
0
100
AcDbSpline
 62
7
  6
BYLAYER
 70
0
 71
3
 72
9
 73
5
 74
3
 42
0.0000001
 43
0.0000001
 44
0.0000000001
 12
0.0089730628
 22
-0.0089849662
 32
0.0
 13
0.0046982784
 23
-0.0117971036
 33
0.0
 40
0.0
 40
0.0
 40
0.0
 40
0.0
 40
0.4993059328
 40
1.0
 40
1.0
 40
1.0
 40
1.0
 10
5.9916090756
 20
4.776350433
 30
0.0
 10
5.9931025101
 20
4.7748550174
 30
0.0
 10
5.9957686898
 20
4.7715215394
 30
0.0
 10
5.9977128705
 20
4.767728696
 30
0.0
 10
5.9984970039
 20
4.7657597827
 30
0.0
 11
5.9916090756
 21
4.776350433
 31
0.0
 11
5.9955849898
 21
4.771411644
 31
0.0
 11
5.9984970039
 21
4.7657597827
 31
0.0
  0
SPLINE
  5
2E0
100
AcDbEntity
  8
0
100
AcDbSpline
 62
7
  6
BYLAYER
 70
0
 71
3
 72
9
 73
5
 74
3
 42
0.0000001
 43
0.0000001
 44
0.0000000001
 12
0.0052206131
 22
-0.0131086556
 32
0.0
 13
-0.0000034881
 23
-0.0141099837
 33
0.0
 40
0.0
 40
0.0
 40
0.0
 40
0.0
 40
0.5006858373
 40
1.0
 40
1.0
 40
1.0
 40
1.0
 10
5.9984970039
 20
4.7657597827
 30
0.0
 10
5.9993682996
 20
4.76357201
 30
0.0
 10
6.0006469607
 20
4.7590083712
 30
0.0
 10
6.0010522903
 20
4.7542952708
 30
0.0
 10
6.0010517097
 20
4.7519468325
 30
0.0
 11
5.9984970039
 21
4.7657597827
 31
0.0
 11
6.0004297823
 21
4.7589646434
 31
0.0
 11
6.0010517097
 21
4.7519468325
 31
0.0
  0
SPLINE
  5
2E1
100
AcDbEntity
  8
0
100
AcDbSpline
 62
7
  6
BYLAYER
 70
0
 71
3
 72
9
 73
5
 74
3
 42
0.0000001
 43
0.0000001
 44
0.0000000001
 12
0.0190065645
 22
-0.0039407738
 32
0.0
 13
0.0183329769
 23
-0.0063781776
 33
0.0
 40
0.0
 40
0.0
 40
0.0
 40
0.0
 40
0.5180122919
 40
1.0
 40
1.0
 40
1.0
 40
1.0
 10
5.6321455554
 20
3.9746874178
 30
0.0
 10
5.6354274334
 20
3.9740069614
 30
0.0
 10
5.6417287999
 20
3.9725206497
 30
0.0
 10
5.6479249806
 20
3.9706361168
 30
0.0
 10
5.6508704038
 20
3.9696113824
 30
0.0
 11
5.6321455554
 21
3.9746874178
 31
0.0
 11
5.6419275788
 21
3.9723602485
 31
0.0
 11
5.6508704038
 21
3.9696113824
 31
0.0
  0
LINE
  5
2E2
100
AcDbEntity
  8
0
100
AcDbLine
 62
7
  6
BYLAYER
 10
5.6077478583
 20
3.9787366312
 11
5.6148994536
 21
3.977985801
  0
SPLINE
  5
2E3
100
AcDbEntity
  8
0
100
AcDbSpline
 62
7
  6
BYLAYER
 70
0
 71
3
 72
9
 73
5
 74
3
 42
0.0000001
 43
0.0000001
 44
0.0000000001
 12
0.0137097441
 22
-0.0016169726
 32
0.0
 13
0.0135719507
 23
-0.0025246461
 33
0.0
 40
0.0
 40
0.0
 40
0.0
 40
0.0
 40
0.5072099873
 40
1.0
 40
1.0
 40
1.0
 40
1.0
 10
5.6148994536
 20
3.977985801
 30
0.0
 10
5.61721736
 20
3.9777124195
 30
0.0
 10
5.6217776054
 20
3.9770914554
 30
0.0
 10
5.6263194082
 20
3.9763460246
 30
0.0
 10
5.6285487821
 20
3.9759313178
 30
0.0
 11
5.6148994536
 21
3.977985801
 31
0.0
 11
5.6218386195
 21
3.9770504805
 31
0.0
 11
5.6285487821
 21
3.9759313178
 31
0.0
  0
LINE
  5
2E4
100
AcDbEntity
  8
0
100
AcDbLine
 62
7
  6
BYLAYER
 10
5.6285487821
 20
3.9759313178
 11
5.6292954844
 21
3.9752551659
  0
SPLINE
  5
2E5
100
AcDbEntity
  8
0
100
AcDbSpline
 62
6
  6
BYLAYER
 70
0
 71
3
 72
9
 73
5
 74
3
 42
0.0000001
 43
0.0000001
 44
0.0000000001
 12
0.01900823
 22
-0.0039100919
 32
0.0
 13
0.018322524
 23
-0.006394274
 33
0.0
 40
0.0
 40
0.0
 40
0.0
 40
0.0
 40
0.5183261362
 40
1.0
 40
1.0
 40
1.0
 40
1.0
 10
5.6321520043
 20
3.9746920964
 30
0.0
 10
5.6354361584
 20
3.9740165288
 30
0.0
 10
5.6417365697
 20
3.9725310318
 30
0.0
 10
5.6479285768
 20
3.9706380339
 30
0.0
 10
5.6508704038
 20
3.9696113824
 30
0.0
 11
5.6321520043
 21
3.9746920964
 31
0.0
 11
5.64193837
 21
3.972367105
 31
0.0
 11
5.6508704038
 21
3.9696113824
 31
0.0
  0
SPLINE
  5
2E6
100
AcDbEntity
  8
0
100
AcDbSpline
 62
6
  6
BYLAYER
 70
0
 71
3
 72
9
 73
5
 74
3
 42
0.0000001
 43
0.0000001
 44
0.0000000001
 12
0.0181826078
 22
-0.0063454455
 32
0.0
 13
0.0162546182
 23
-0.0103275986
 33
0.0
 40
0.0
 40
0.0
 40
0.0
 40
0.0
 40
0.5301882915
 40
1.0
 40
1.0
 40
1.0
 40
1.0
 10
5.6508704038
 20
3.9696113824
 30
0.0
 10
5.6540838057
 20
3.9684899554
 30
0.0
 10
5.6600593563
 20
3.9661158317
 30
0.0
 10
5.665743558
 20
3.9630883005
 30
0.0
 10
5.6682890947
 20
3.9614709583
 30
0.0
 11
5.6508704038
 21
3.9696113824
 31
0.0
 11
5.6603382416
 21
3.9657888177
 31
0.0
 11
5.6682890947
 21
3.9614709583
 31
0.0
  0
SPLINE
  5
2E7
100
AcDbEntity
  8
0
100
AcDbSpline
 62
6
  6
BYLAYER
 70
0
 71
3
 72
14
 73
10
 74
8
 42
0.0000001
 43
0.0000001
 44
0.0000000001
 12
0.0236664806
 22
-0.0150368288
 32
0.0
 13
0.0004424169
 23
-0.0280359197
 33
0.0
 40
0.0
 40
0.0
 40
0.0
 40
0.0
 40
0.2968510032
 40
0.4301661807
 40
0.5546688749
 40
0.6718744986
 40
0.7837802545
 40
0.8924796757
 40
1.0
 40
1.0
 40
1.0
 40
1.0
 10
5.6682890947
 20
3.9614709583
 30
0.0
 10
5.6706309008
 20
3.959983059
 30
0.0
 10
5.6738883519
 20
3.9575772222
 30
0.0
 10
5.6775353169
 20
3.953880441
 30
0.0
 10
5.6796955274
 20
3.9511080942
 30
0.0
 10
5.6813672183
 20
3.9482447545
 30
0.0
 10
5.6825582917
 20
3.9453083847
 30
0.0
 10
5.6832804208
 20
3.9423165647
 30
0.0
 10
5.6834582817
 20
3.9402949384
 30
0.0
 10
5.6834741379
 20
3.939290128
 30
0.0
 11
5.6682890947
 21
3.9614709583
 31
0.0
 11
5.6749223914
 21
3.9564429888
 31
0.0
 11
5.6775370881
 21
3.9537715481
 31
0.0
 11
5.6796713286
 21
3.9510089454
 31
0.0
 11
5.681320228
 21
3.9481661648
 31
0.0
 11
5.6824943767
 21
3.9452563565
 31
0.0
 11
5.6832077037
 21
3.9422931383
 31
0.0
 11
5.6834741379
 21
3.939290128
 31
0.0
  0
SPLINE
  5
2E8
100
AcDbEntity
  8
0
100
AcDbSpline
 62
6
  6
BYLAYER
 70
0
 71
3
 72
22
 73
18
 74
16
 42
0.0000001
 43
0.0000001
 44
0.0000000001
 12
0.0024366595
 22
0.1161450674
 32
0.0
 13
0.1161703469
 23
-0.0002539508
 33
0.0
 40
0.0
 40
0.0
 40
0.0
 40
0.0
 40
0.0353675538
 40
0.071603137
 40
0.1099238899
 40
0.1515349389
 40
0.1973688397
 40
0.2479727295
 40
0.3036712008
 40
0.364581865
 40
0.4305820741
 40
0.5014510717
 40
0.5768729124
 40
0.6563162807
 40
0.739170832
 40
0.8247477482
 40
1.0
 40
1.0
 40
1.0
 40
1.0
 10
5.4824741379
 20
3.939290128
 30
0.0
 10
5.4825028642
 20
3.9406593837
 30
0.0
 10
5.4828325302
 20
3.9434341017
 30
0.0
 10
5.4841810461
 20
3.9475001083
 30
0.0
 10
5.4864124493
 20
3.951437246
 30
0.0
 10
5.4895471766
 20
3.9551936085
 30
0.0
 10
5.4935643952
 20
3.9587453355
 30
0.0
 10
5.4984326886
 20
3.9620843439
 30
0.0
 10
5.5041255375
 20
3.9651890071
 30
0.0
 10
5.5106056165
 20
3.9680371633
 30
0.0
 10
5.5178244485
 20
3.9706120397
 30
0.0
 10
5.525727846
 20
3.9728906116
 30
0.0
 10
5.5342508253
 20
3.9748489521
 30
0.0
 10
5.5433140453
 20
3.9764779163
 30
0.0
 10
5.5528289951
 20
3.9777649225
 30
0.0
 10
5.5660809984
 20
3.979015679
 30
0.0
 10
5.5761877663
 20
3.9793855489
 30
0.0
 10
5.5829741379
 20
3.9793707138
 30
0.0
 11
5.4824741379
 21
3.939290128
 31
0.0
 11
5.4829624131
 21
3.9433696823
 31
0.0
 11
5.4842777007
 21
3.9473684316
 31
0.0
 11
5.4864542714
 21
3.9512518039
 31
0.0
 11
5.4895245867
 21
3.9549855074
 31
0.0
 11
5.4934887514
 21
3.9585402594
 31
0.0
 11
5.4983189493
 21
3.9618910997
 31
0.0
 11
5.5039864104
 21
3.9650132133
 31
0.0
 11
5.5104546318
 21
3.9678824139
 31
0.0
 11
5.5176699659
 21
3.9704759097
 31
0.0
 11
5.5255764626
 21
3.9727710964
 31
0.0
 11
5.5341125377
 21
3.9747471029
 31
0.0
 11
5.5431941201
 21
3.9763899777
 31
0.0
 11
5.5527315293
 21
3.9776874951
 31
0.0
 11
5.5626285642
 21
3.9786269607
 31
0.0
 11
5.5829741379
 21
3.9793707138
 31
0.0
  0
SPLINE
  5
2E9
100
AcDbEntity
  8
0
100
AcDbSpline
 62
7
  6
BYLAYER
 70
0
 71
3
 72
15
 73
11
 74
9
 42
0.0000001
 43
0.0000001
 44
0.0000000001
 12
0.000001565
 22
-0.0536547659
 32
0.0
 13
-0.0536547511
 23
0.000039872
 33
0.0
 40
0.0
 40
0.0
 40
0.0
 40
0.0
 40
0.1247885144
 40
0.2499327305
 40
0.3751413864
 40
0.5000066493
 40
0.6248676103
 40
0.7500727257
 40
0.875213778
 40
1.0
 40
1.0
 40
1.0
 40
1.0
 10
6.0010517097
 20
3.9835253716
 30
0.0
 10
6.0010517748
 20
3.9812935388
 30
0.0
 10
6.0006836129
 20
3.9768138525
 30
0.0
 10
5.9989560761
 20
3.9702906797
 30
0.0
 10
5.9959664494
 20
3.9642300945
 30
0.0
 10
5.9917700474
 20
3.9589268749
 30
0.0
 10
5.986462846
 20
3.9547355771
 30
0.0
 10
5.9803995414
 20
3.9517520074
 30
0.0
 10
5.9738751847
 20
3.9500298201
 30
0.0
 10
5.9693953333
 20
3.9496650226
 30
0.0
 10
5.967163542
 20
3.9496666811
 30
0.0
 11
6.0010517097
 21
3.9835253716
 31
0.0
 11
6.0004889971
 21
3.9768535612
 31
0.0
 11
5.9987460173
 21
3.9703691449
 31
0.0
 11
5.9957615593
 21
3.9643504169
 31
0.0
 11
5.9915850219
 21
3.9591119633
 31
0.0
 11
5.9863427318
 21
3.9549406132
 31
0.0
 11
5.9803213439
 21
3.9519619537
 31
0.0
 11
5.9738356489
 21
3.9502243941
 31
0.0
 11
5.967163542
 21
3.9496666811
 31
0.0
  0
SPLINE
  5
2EA
100
AcDbEntity
  8
0
100
AcDbSpline
 62
7
  6
BYLAYER
 70
0
 71
3
 72
20
 73
16
 74
14
 42
0.0000001
 43
0.0000001
 44
0.0000000001
 12
0.0000025512
 22
-0.1350297201
 32
0.0
 13
-0.13502972
 23
0.0000057086
 33
0.0
 40
0.0
 40
0.0
 40
0.0
 40
0.0
 40
0.1247976742
 40
0.2498247768
 40
0.3123909425
 40
0.3748854403
 40
0.4373669497
 40
0.4999158982
 40
0.5624688879
 40
0.6249688022
 40
0.6874603418
 40
0.7500151069
 40
0.8126083425
 40
0.8751925722
 40
1.0
 40
1.0
 40
1.0
 40
1.0
 10
5.8889212239
 20
3.9223689069
 30
0.0
 10
5.8889213301
 20
3.9167517752
 30
0.0
 10
5.8880475803
 20
3.9054868922
 30
0.0
 10
5.8846276925
 20
3.8917687353
 30
0.0
 10
5.8804147102
 20
3.8813140655
 30
0.0
 10
5.8764982652
 20
3.8738193649
 30
0.0
 10
5.8718094029
 20
3.8667807953
 30
0.0
 10
5.8663649617
 20
3.8603047946
 30
0.0
 10
5.860239086
 20
3.8544678442
 30
0.0
 10
5.8534924761
 20
3.8493635288
 30
0.0
 10
5.8462108471
 20
3.8450590963
 30
0.0
 10
5.8385104593
 20
3.8415539263
 30
0.0
 10
5.8304880522
 20
3.8388526302
 30
0.0
 10
5.8195119036
 20
3.8363214708
 30
0.0
 10
5.8110493844
 20
3.8355819785
 30
0.0
 10
5.8054318137
 20
3.835582216
 30
0.0
 11
5.8889212239
 21
3.9223689069
 31
0.0
 11
5.8875839376
 21
3.9055706576
 31
0.0
 11
5.883452389
 21
3.8892016356
 31
0.0
 11
5.8802871409
 21
3.8813687026
 31
0.0
 11
5.8763692129
 21
3.8738947441
 31
0.0
 11
5.8716855639
 21
3.8668773335
 31
0.0
 11
5.8662515721
 21
3.8604115705
 31
0.0
 11
5.8601334773
 21
3.8545881271
 31
0.0
 11
5.8534030318
 21
3.8494965986
 31
0.0
 11
5.8461442084
 21
3.8451939299
 31
0.0
 11
5.8384590376
 21
3.8416888227
 31
0.0
 11
5.8304509224
 21
3.838985954
 31
0.0
 11
5.8222177783
 21
3.8370806474
 31
0.0
 11
5.8054318137
 21
3.835582216
 31
0.0
  0
SPLINE
  5
2EB
100
AcDbEntity
  8
0
100
AcDbSpline
 62
7
  6
BYLAYER
 70
0
 71
3
 72
20
 73
16
 74
14
 42
0.0000001
 43
0.0000001
 44
0.0000000001
 12
-0.1341624482
 22
0.0001177359
 32
0.0
 13
-0.0001515492
 23
0.1341624143
 33
0.0
 40
0.0
 40
0.0
 40
0.0
 40
0.0
 40
0.1248026931
 40
0.1873901528
 40
0.2499842344
 40
0.3125359476
 40
0.37502558
 40
0.4375259502
 40
0.5000783352
 40
0.5626249597
 40
0.6251039778
 40
0.6875965981
 40
0.7501629195
 40
0.8752032154
 40
1.0
 40
1.0
 40
1.0
 40
1.0
 10
5.3601106316
 20
3.835582216
 30
0.0
 10
5.3545293533
 20
3.835587114
 30
0.0
 10
5.3461218855
 20
3.8363409275
 30
0.0
 10
5.3352231923
 20
3.8388850384
 30
0.0
 10
5.3272588296
 20
3.8415881152
 30
0.0
 10
5.3196148212
 20
3.8450851038
 30
0.0
 10
5.3123858647
 20
3.8493710539
 30
0.0
 10
5.3056853067
 20
3.854445542
 30
0.0
 10
5.2995964405
 20
3.8602420081
 30
0.0
 10
5.2941794971
 20
3.8666695237
 30
0.0
 10
5.2895076295
 20
3.8736535119
 30
0.0
 10
5.2855975365
 20
3.8810898504
 30
0.0
 10
5.2813804698
 20
3.8914651219
 30
0.0
 10
5.2779326249
 20
3.905082871
 30
0.0
 10
5.2770333562
 20
3.9162751056
 30
0.0
 10
5.2770270519
 20
3.9218561182
 30
0.0
 11
5.3601106316
 21
3.835582216
 31
0.0
 11
5.3434359741
 21
3.8371027481
 31
0.0
 11
5.3352602085
 21
3.8390170677
 31
0.0
 11
5.327309792
 21
3.8417214272
 31
0.0
 11
5.3196809066
 21
3.8452181906
 31
0.0
 11
5.3124743073
 21
3.8495021661
 31
0.0
 11
5.305789357
 21
3.8545640944
 31
0.0
 11
5.2997081775
 21
3.8603475202
 31
0.0
 11
5.2943015838
 21
3.8667650378
 31
0.0
 11
5.2896349304
 21
3.8737282261
 31
0.0
 11
5.285723611
 21
3.8811441429
 31
0.0
 11
5.2825554233
 21
3.8889173488
 31
0.0
 11
5.2783953589
 21
3.905169075
 31
0.0
 11
5.2770270519
 21
3.9218561182
 31
0.0
  0
SPLINE
  5
2EC
100
AcDbEntity
  8
0
100
AcDbSpline
 62
7
  6
BYLAYER
 70
0
 71
3
 72
15
 73
11
 74
9
 42
0.0000001
 43
0.0000001
 44
0.0000000001
 12
-0.0536949474
 22
-0.0000361958
 32
0.0
 13
0.0000401673
 23
0.0536949446
 33
0.0
 40
0.0
 40
0.0
 40
0.0
 40
0.0
 40
0.1247886096
 40
0.2499328732
 40
0.3751423654
 40
0.5000075575
 40
0.6248679422
 40
0.7500735814
 40
0.8752141864
 40
1.0
 40
1.0
 40
1.0
 40
1.0
 10
5.1987897116
 20
3.9496666811
 30
0.0
 10
5.1965562057
 20
3.9496651755
 30
0.0
 10
5.1920729264
 20
3.9500305691
 30
0.0
 10
5.1855436425
 20
3.9517548738
 30
0.0
 10
5.1794765439
 20
3.954742837
 30
0.0
 10
5.1741670065
 20
3.9589395634
 30
0.0
 10
5.1699707569
 20
3.9642494364
 30
0.0
 10
5.166983878
 20
3.9703168086
 30
0.0
 10
5.1652599677
 20
3.9768459709
 30
0.0
 10
5.1648948954
 20
3.9813291728
 30
0.0
 10
5.1648965662
 20
3.9835626286
 30
0.0
 11
5.1987897116
 21
3.9496666811
 31
0.0
 11
5.1921125223
 21
3.9502253417
 31
0.0
 11
5.1856220547
 21
3.9519651901
 31
0.0
 11
5.1795968771
 21
3.9549480677
 31
0.0
 11
5.1743523148
 21
3.9591249863
 31
0.0
 11
5.1701760812
 21
3.9643697641
 31
0.0
 11
5.1671940828
 21
3.9703951461
 31
0.0
 11
5.1654547584
 21
3.9768855507
 31
0.0
 11
5.1648965662
 21
3.9835626286
 31
0.0
  0
SPLINE
  5
2ED
100
AcDbEntity
  8
0
100
AcDbSpline
 62
7
  6
BYLAYER
 70
0
 71
3
 72
15
 73
11
 74
9
 42
0.0000001
 43
0.0000001
 44
0.0000000001
 12
-0.0000401728
 22
0.0536770849
 32
0.0
 13
0.0536770984
 23
-0.0000131664
 33
0.0
 40
0.0
 40
0.0
 40
0.0
 40
0.0
 40
0.124788612
 40
0.2499328426
 40
0.375142319
 40
0.5000076152
 40
0.6248680153
 40
0.7500733966
 40
0.8752140231
 40
1.0
 40
1.0
 40
1.0
 40
1.0
 10
5.1648965662
 20
4.7519256197
 30
0.0
 10
5.1648948951
 20
4.7541583827
 30
0.0
 10
5.1652597035
 20
4.7586401899
 30
0.0
 10
5.1669822804
 20
4.7651675683
 30
0.0
 10
5.1699675773
 20
4.7712334242
 30
0.0
 10
5.1741609707
 20
4.7765426734
 30
0.0
 10
5.179467213
 20
4.7807398322
 30
0.0
 10
5.1855311299
 20
4.7837286015
 30
0.0
 10
5.1920572599
 20
4.7854551686
 30
0.0
 10
5.1965387891
 20
4.7858223723
 30
0.0
 10
5.1987715055
 20
4.7858218247
 30
0.0
 11
5.1648965662
 21
4.7519256197
 31
0.0
 11
5.1654543359
 21
4.7586006473
 31
0.0
 11
5.1671924404
 21
4.7650892664
 31
0.0
 11
5.1701726926
 21
4.7711132473
 31
0.0
 11
5.1743463457
 21
4.776357566
 31
0.0
 11
5.1795875779
 21
4.7805346729
 31
0.0
 11
5.1856095321
 21
4.7835185232
 31
0.0
 11
5.1920969204
 21
4.7852604703
 31
0.0
 11
5.1987715055
 21
4.7858218247
 31
0.0
  0
SPLINE
  5
2EE
100
AcDbEntity
  8
0
100
AcDbSpline
 62
7
  6
BYLAYER
 70
0
 71
3
 72
20
 73
16
 74
14
 42
0.0000001
 43
0.0000001
 44
0.0000000001
 12
0.0000071662
 22
0.1349881048
 32
0.0
 13
0.1349881049
 23
0.0000045941
 33
0.0
 40
0.0
 40
0.0
 40
0.0
 40
0.0
 40
0.1247977474
 40
0.2498254415
 40
0.3123916257
 40
0.374886072
 40
0.4373674631
 40
0.4999162722
 40
0.5624692299
 40
0.6249691781
 40
0.6874606001
 40
0.7500151802
 40
0.812608458
 40
0.8751928545
 40
1.0
 40
1.0
 40
1.0
 40
1.0
 10
5.2770270519
 20
4.8130834768
 30
0.0
 10
5.27702735
 20
4.8186988806
 30
0.0
 10
5.2779023718
 20
4.8299602659
 30
0.0
 10
5.2813235554
 20
4.8436736261
 30
0.0
 10
5.2855367352
 20
4.8541244889
 30
0.0
 10
5.2894528664
 20
4.8616163965
 30
0.0
 10
5.2941408799
 20
4.8686523691
 30
0.0
 10
5.2995839495
 20
4.8751260841
 30
0.0
 10
5.3057079716
 20
4.8809611686
 30
0.0
 10
5.312452258
 20
4.8860641968
 30
0.0
 10
5.3197312303
 20
4.8903679527
 30
0.0
 10
5.3274287864
 20
4.8938729978
 30
0.0
 10
5.3354482964
 20
4.8965747069
 30
0.0
 10
5.3464206137
 20
4.8991069766
 30
0.0
 10
5.3548804659
 20
4.8998475167
 30
0.0
 10
5.3604962926
 20
4.8998477078
 30
0.0
 11
5.2770270519
 21
4.8130834768
 31
0.0
 11
5.2783659511
 21
4.8298763976
 31
0.0
 11
5.2824988448
 21
4.846239796
 31
0.0
 11
5.2856642304
 21
4.8540698678
 31
0.0
 11
5.2895818316
 21
4.8615410533
 31
0.0
 11
5.2942646327
 21
4.8685558845
 31
0.0
 11
5.2996972547
 21
4.8750193739
 31
0.0
 11
5.305813499
 21
4.8808409795
 31
0.0
 11
5.3125416534
 21
4.8859312331
 31
0.0
 11
5.3197978435
 21
4.8902332127
 31
0.0
 11
5.3274801864
 21
4.8937381866
 31
0.0
 11
5.3354854247
 21
4.8964414516
 31
0.0
 11
5.3437157349
 21
4.8983475512
 31
0.0
 11
5.3604962926
 21
4.8998477078
 31
0.0
  0
SPLINE
  5
2EF
100
AcDbEntity
  8
0
100
AcDbSpline
 62
7
  6
BYLAYER
 70
0
 71
3
 72
9
 73
5
 74
3
 42
0.0000001
 43
0.0000001
 44
0.0000000001
 12
-0.0000310064
 22
0.029730405
 32
0.0
 13
-0.0087366513
 23
0.0284177562
 33
0.0
 40
0.0
 40
0.0
 40
0.0
 40
0.0
 40
0.4994813293
 40
1.0
 40
1.0
 40
1.0
 40
1.0
 10
5.8889212239
 20
4.8135362364
 30
0.0
 10
5.8889160616
 20
4.8184861638
 30
0.0
 10
5.8882094206
 20
4.8284085467
 30
0.0
 10
5.8860501925
 20
4.8381261957
 30
0.0
 10
5.8845925734
 20
4.8428674015
 30
0.0
 11
5.8889212239
 21
4.8135362364
 31
0.0
 11
5.8878477599
 21
4.8283471764
 31
0.0
 11
5.8845925734
 21
4.8428674015
 31
0.0
  0
SPLINE
  5
2F0
100
AcDbEntity
  8
0
100
AcDbSpline
 62
7
  6
BYLAYER
 70
0
 71
3
 72
9
 73
5
 74
3
 42
0.0000001
 43
0.0000001
 44
0.0000000001
 12
-0.0050118915
 22
0.0163022086
 32
0.0
 13
-0.0080689666
 23
0.0150257392
 33
0.0
 40
0.0
 40
0.0
 40
0.0
 40
0.0
 40
0.2503022445
 40
1.0
 40
1.0
 40
1.0
 40
1.0
 10
5.8845925734
 20
4.8428674015
 30
0.0
 10
5.8841744109
 20
4.8442275613
 30
0.0
 10
5.8823799724
 20
4.8496224105
 30
0.0
 10
5.8800758019
 20
4.854850779
 30
0.0
 10
5.8780593732
 20
4.8586057
 30
0.0
 11
5.8845925734
 21
4.8428674015
 31
0.0
 11
5.8832441716
 21
4.8469178168
 31
0.0
 11
5.8780593732
 21
4.8586057
 31
0.0
  0
SPLINE
  5
2F1
100
AcDbEntity
  8
0
100
AcDbSpline
 62
7
  6
BYLAYER
 70
0
 71
3
 72
9
 73
5
 74
3
 42
0.0000001
 43
0.0000001
 44
0.0000000001
 12
-0.0118571368
 22
0.0086666912
 32
0.0
 13
-0.0132876918
 23
0.0062562351
 33
0.0
 40
0.0
 40
0.0
 40
0.0
 40
0.0
 40
0.2500665183
 40
1.0
 40
1.0
 40
1.0
 40
1.0
 10
5.85588712
 20
4.8842314829
 30
0.0
 10
5.8548987624
 20
4.8849538993
 30
0.0
 10
5.85087464
 20
4.8877437467
 30
0.0
 10
5.8465787341
 20
4.8901382624
 30
0.0
 10
5.8432571058
 20
4.8917021824
 30
0.0
 11
5.85588712
 21
4.8842314829
 31
0.0
 11
5.8528691703
 21
4.8863244728
 31
0.0
 11
5.8432571058
 21
4.8917021824
 31
0.0
  0
SPLINE
  5
2F2
100
AcDbEntity
  8
0
100
AcDbSpline
 62
7
  6
BYLAYER
 70
0
 71
3
 72
9
 73
5
 74
3
 42
0.0000001
 43
0.0000001
 44
0.0000000001
 12
-0.0264496939
 22
0.0084326732
 32
0.0
 13
-0.0277614084
 23
0.0000220705
 33
0.0
 40
0.0
 40
0.0
 40
0.0
 40
0.0
 40
0.5005444067
 40
1.0
 40
1.0
 40
1.0
 40
1.0
 10
5.8331631009
 20
4.8956613476
 30
0.0
 10
5.8287500188
 20
4.8970683234
 30
0.0
 10
5.8196897862
 20
4.8991574894
 30
0.0
 10
5.8104235991
 20
4.8998440334
 30
0.0
 10
5.8058017355
 20
4.8998477078
 30
0.0
 11
5.8331631009
 21
4.8956613476
 31
0.0
 11
5.8196283205
 21
4.8988083446
 31
0.0
 11
5.8058017355
 21
4.8998477078
 31
0.0
  0
SPLINE
  5
2F3
100
AcDbEntity
  8
0
100
AcDbSpline
 62
7
  6
BYLAYER
 70
0
 71
3
 72
9
 73
5
 74
3
 42
0.0000001
 43
0.0000001
 44
0.0000000001
 12
0.0000034881
 22
0.0141098727
 32
0.0
 13
-0.0052146457
 23
0.0131109111
 33
0.0
 40
0.0
 40
0.0
 40
0.0
 40
0.0
 40
0.4992967921
 40
1.0
 40
1.0
 40
1.0
 40
1.0
 10
6.0010517097
 20
4.7519468325
 30
0.0
 10
6.0010522902
 20
4.7542951706
 30
0.0
 10
6.0006459766
 20
4.7590082071
 30
0.0
 10
5.9993675719
 20
4.7635716467
 30
0.0
 10
5.998497242
 20
4.7657598718
 30
0.0
 11
6.0010517097
 21
4.7519468325
 31
0.0
 11
6.0004291381
 21
4.7589642845
 31
0.0
 11
5.998497242
 21
4.7657598718
 31
0.0
  0
SPLINE
  5
2F4
100
AcDbEntity
  8
0
100
AcDbSpline
 62
7
  6
BYLAYER
 70
0
 71
3
 72
9
 73
5
 74
3
 42
0.0000001
 43
0.0000001
 44
0.0000000001
 12
-0.0046934946
 22
0.0118006083
 32
0.0
 13
-0.0089734107
 23
0.0089867206
 33
0.0
 40
0.0
 40
0.0
 40
0.0
 40
0.0
 40
0.500736234
 40
1.0
 40
1.0
 40
1.0
 40
1.0
 10
5.998497242
 20
4.7657598718
 30
0.0
 10
5.997713841
 20
4.7677295358
 30
0.0
 10
5.9957719195
 20
4.7715240217
 30
0.0
 10
5.9931069282
 20
4.7748593313
 30
0.0
 10
5.991613562
 20
4.7763549126
 30
0.0
 11
5.998497242
 21
4.7657598718
 31
0.0
 11
5.9955877599
 21
4.7714144766
 31
0.0
 11
5.991613562
 21
4.7763549126
 31
0.0
  0
SPLINE
  5
2F5
100
AcDbEntity
  8
0
100
AcDbSpline
 62
7
  6
BYLAYER
 70
0
 71
3
 72
9
 73
5
 74
3
 42
0.0000001
 43
0.0000001
 44
0.0000000001
 12
-0.0089975185
 22
0.0090108642
 32
0.0
 13
-0.011831429
 23
0.0047083225
 33
0.0
 40
0.0
 40
0.0
 40
0.0
 40
0.0
 40
0.4992602003
 40
1.0
 40
1.0
 40
1.0
 40
1.0
 10
5.991613562
 20
4.7763549126
 30
0.0
 10
5.9901161943
 20
4.7778545012
 30
0.0
 10
5.9867745392
 20
4.7805303452
 30
0.0
 10
5.9829705169
 20
4.782479113
 30
0.0
 10
5.9809956944
 20
4.7832649945
 30
0.0
 11
5.991613562
 21
4.7763549126
 31
0.0
 11
5.9866642335
 21
4.7803451545
 31
0.0
 11
5.9809956944
 21
4.7832649945
 31
0.0
  0
SPLINE
  5
2F6
100
AcDbEntity
  8
0
100
AcDbSpline
 62
7
  6
BYLAYER
 70
0
 71
3
 72
9
 73
5
 74
3
 42
0.0000001
 43
0.0000001
 44
0.0000000001
 12
-0.0131173492
 22
0.005220055
 32
0.0
 13
-0.0141178542
 23
-0.000004015
 33
0.0
 40
0.0
 40
0.0
 40
0.0
 40
0.0
 40
0.5007019489
 40
1.0
 40
1.0
 40
1.0
 40
1.0
 10
5.9809956944
 20
4.7832649945
 30
0.0
 10
5.9788064003
 20
4.7841362251
 30
0.0
 10
5.9742404904
 20
4.7854159184
 30
0.0
 10
5.9695247598
 20
4.7858224929
 30
0.0
 10
5.9671750875
 20
4.7858218247
 30
0.0
 11
5.9809956944
 21
4.7832649945
 31
0.0
 11
5.9741965199
 21
4.7851988219
 31
0.0
 11
5.9671750875
 21
4.7858218247
 31
0.0
  0
SPLINE
  5
2F7
100
AcDbEntity
  8
0
100
AcDbSpline
 62
7
  6
BYLAYER
 70
0
 71
3
 72
9
 73
5
 74
3
 42
0.0000001
 43
0.0000001
 44
0.0000000001
 12
-0.1133025278
 22
0.0214119818
 32
0.0
 13
-0.1122978787
 23
0.0261748393
 33
0.0
 40
0.0
 40
0.0
 40
0.0
 40
0.0
 40
0.5260561002
 40
1.0
 40
1.0
 40
1.0
 40
1.0
 10
2.1496197405
 20
4.1557489912
 30
0.0
 10
2.1297519119
 20
4.1595036257
 30
0.0
 10
2.0920388705
 20
4.1669343797
 30
0.0
 10
2.0544841478
 20
4.1751376543
 30
0.0
 10
2.036743183
 20
4.1792727895
 30
0.0
 11
2.1496197405
 21
4.1557489912
 31
0.0
 11
2.0901173732
 21
4.1675353962
 31
0.0
 11
2.036743183
 21
4.1792727895
 31
0.0
  0
LINE
  5
2F8
100
AcDbEntity
  8
0
100
AcDbLine
 62
7
  6
BYLAYER
 10
5.3370118582
 20
4.740291635
 11
5.291485945
 21
4.7955409575
  0
LINE
  5
2F9
100
AcDbEntity
  8
0
100
AcDbLine
 62
7
  6
BYLAYER
 10
5.291485945
 20
4.7955409575
 11
5.2770270519
 21
4.8130270689
  0
SPLINE
  5
2FA
100
AcDbEntity
  8
0
100
AcDbSpline
 62
7
  6
BYLAYER
 70
0
 71
3
 72
9
 73
5
 74
3
 42
0.0000001
 43
0.0000001
 44
0.0000000001
 12
0.112636983
 22
-0.026782494
 32
0.0
 13
0.113713901
 23
-0.0217609891
 33
0.0
 40
0.0
 40
0.0
 40
0.0
 40
0.0
 40
0.4731768266
 40
1.0
 40
1.0
 40
1.0
 40
1.0
 10
2.0363560658
 20
4.1808342991
 30
0.0
 10
2.0541218025
 20
4.176610014
 30
0.0
 10
2.0917989209
 20
4.1682331139
 30
0.0
 10
2.1296453365
 20
4.1606695449
 30
0.0
 10
2.1496143759
 20
4.1568481471
 30
0.0
 11
2.0363560658
 21
4.1808342991
 31
0.0
 11
2.0898155862
 21
4.1688646058
 31
0.0
 11
2.1496143759
 21
4.1568481471
 31
0.0
  0
SPLINE
  5
2FB
100
AcDbEntity
  8
0
100
AcDbSpline
 62
7
  6
BYLAYER
 70
0
 71
3
 72
9
 73
5
 74
3
 42
0.0000001
 43
0.0000001
 44
0.0000000001
 12
-0.1137337866
 22
0.0217646796
 32
0.0
 13
-0.1126564158
 23
0.0267881966
 33
0.0
 40
0.0
 40
0.0
 40
0.0
 40
0.0
 40
0.5268286925
 40
1.0
 40
1.0
 40
1.0
 40
1.0
 10
2.1496179066
 20
4.1568474714
 30
0.0
 10
2.1296451659
 20
4.1606695573
 30
0.0
 10
2.0917921409
 20
4.1682344614
 30
0.0
 10
2.0541084798
 20
4.1766130112
 30
0.0
 10
2.0363398853
 20
4.1808381466
 30
0.0
 11
2.1496179066
 21
4.1568474714
 31
0.0
 11
2.0898080533
 21
4.1688662005
 31
0.0
 11
2.0363398853
 21
4.1808381466
 31
0.0
  0
SPLINE
  5
2FC
100
AcDbEntity
  8
0
100
AcDbSpline
 62
7
  6
BYLAYER
 70
0
 71
3
 72
9
 73
5
 74
3
 42
0.0000001
 43
0.0000001
 44
0.0000000001
 12
0.1122059801
 22
-0.0261495075
 32
0.0
 13
0.11320876
 23
-0.0213952185
 33
0.0
 40
0.0
 40
0.0
 40
0.0
 40
0.0
 40
0.4739672746
 40
1.0
 40
1.0
 40
1.0
 40
1.0
 10
2.0368054046
 20
4.1792582877
 30
0.0
 10
2.0545327255
 20
4.1751269507
 30
0.0
 10
2.0920565505
 20
4.1669310643
 30
0.0
 10
2.1297384155
 20
4.1595063442
 30
0.0
 10
2.1495889196
 20
4.1557548158
 30
0.0
 11
2.0368054046
 21
4.1792582877
 31
0.0
 11
2.0901383585
 21
4.1675310255
 31
0.0
 11
2.1495889196
 21
4.1557548158
 31
0.0
  0
LINE
  5
2FD
100
AcDbEntity
  8
0
100
AcDbLine
 62
7
  6
BYLAYER
 10
5.6114913558
 20
3.9793181757
 11
5.6074890314
 21
3.9787366312
  0
LINE
  5
2FE
100
AcDbEntity
  8
0
100
AcDbLine
 62
7
  6
BYLAYER
 10
5.6161945084
 20
3.9799410415
 11
5.5975868386
 21
3.9789863102
  0
SPLINE
  5
2FF
100
AcDbEntity
  8
0
100
AcDbSpline
 62
7
  6
BYLAYER
 70
0
 71
3
 72
9
 73
5
 74
3
 42
0.0000001
 43
0.0000001
 44
0.0000000001
 12
0.1192052192
 22
0.0223334006
 32
0.0
 13
0.1181155043
 23
0.027520769
 33
0.0
 40
0.0
 40
0.0
 40
0.0
 40
0.0
 40
0.5260068297
 40
1.0
 40
1.0
 40
1.0
 40
1.0
 10
9.0103628957
 20
4.1546182065
 30
0.0
 10
9.0312638155
 20
4.1585340469
 30
0.0
 10
9.0709405378
 20
4.1662957685
 30
0.0
 10
9.1104462219
 20
4.1748972223
 30
0.0
 10
9.1291082026
 20
4.1792454411
 30
0.0
 11
9.0103628957
 21
4.1546182065
 31
0.0
 11
9.0729569459
 21
4.1669318238
 31
0.0
 11
9.1291082026
 21
4.1792454411
 31
0.0
  0
LINE
  5
300
100
AcDbEntity
  8
0
100
AcDbLine
 62
7
  6
BYLAYER
 10
5.9911252525
 20
3.9936725892
 11
6.0010517097
 21
3.9835257669
  0
LINE
  5
301
100
AcDbEntity
  8
0
100
AcDbLine
 62
7
  6
BYLAYER
 10
5.5059667687
 20
3.992226421
 11
5.5022989073
 21
3.9883224621
  0
LINE
  5
302
100
AcDbEntity
  8
0
100
AcDbLine
 62
7
  6
BYLAYER
 10
5.5022989073
 20
3.9883224621
 11
5.5019097454
 21
3.9879081676
  0
LINE
  5
303
100
AcDbEntity
  8
0
100
AcDbLine
 62
7
  6
BYLAYER
 10
5.5019097454
 20
3.9879081676
 11
5.500893126
 21
3.9868258175
  0
LINE
  5
304
100
AcDbEntity
  8
0
100
AcDbLine
 62
7
  6
BYLAYER
 10
5.500893126
 20
3.9868258175
 11
5.4987771445
 21
3.984572669
  0
LINE
  5
305
100
AcDbEntity
  8
0
100
AcDbLine
 62
7
  6
BYLAYER
 10
5.4987771445
 20
3.984572669
 11
5.4697154075
 21
3.9535747331
  0
LINE
  5
306
100
AcDbEntity
  8
0
100
AcDbLine
 62
7
  6
BYLAYER
 10
5.696225861
 20
3.9535826524
 11
5.6739824173
 21
3.9773338346
  0
LINE
  5
307
100
AcDbEntity
  8
0
100
AcDbLine
 62
7
  6
BYLAYER
 10
5.6739824173
 20
3.9773338346
 11
5.6719839462
 21
3.9794646266
  0
LINE
  5
308
100
AcDbEntity
  8
0
100
AcDbLine
 62
7
  6
BYLAYER
 10
5.6719839462
 20
3.9794646266
 11
5.6715825384
 21
3.9798925515
  0
LINE
  5
309
100
AcDbEntity
  8
0
100
AcDbLine
 62
7
  6
BYLAYER
 10
5.6715825384
 20
3.9798925515
 11
5.6709750077
 21
3.9805401777
  0
LINE
  5
30A
100
AcDbEntity
  8
0
100
AcDbLine
 62
7
  6
BYLAYER
 10
5.6709750077
 20
3.9805401777
 11
5.6705710582
 21
3.9809707614
  0
LINE
  5
30B
100
AcDbEntity
  8
0
100
AcDbLine
 62
7
  6
BYLAYER
 10
5.6705710582
 20
3.9809707614
 11
5.6671758338
 21
3.9845890501
  0
LINE
  5
30C
100
AcDbEntity
  8
0
100
AcDbLine
 62
7
  6
BYLAYER
 10
5.6671758338
 20
3.9845890501
 11
5.6613570488
 21
3.9907868718
  0
LINE
  5
30D
100
AcDbEntity
  8
0
100
AcDbLine
 62
7
  6
BYLAYER
 10
5.8889212239
 20
4.8131372473
 11
5.8743065611
 21
4.7954458843
  0
LINE
  5
30E
100
AcDbEntity
  8
0
100
AcDbLine
 62
7
  6
BYLAYER
 10
5.8743065611
 20
4.7954458843
 11
5.8284498821
 21
4.7397720715
  0
SPLINE
  5
30F
100
AcDbEntity
  8
0
100
AcDbSpline
 62
7
  6
BYLAYER
 70
0
 71
3
 72
37
 73
33
 74
31
 42
0.0000001
 43
0.0000001
 44
0.0000000001
 12
-0.0
 22
-0.2396792861
 32
0.0
 13
0.0
 23
0.2396792861
 33
0.0
 40
0.0
 40
0.0
 40
0.0
 40
0.0
 40
0.0176114244
 40
0.0361662024
 40
0.0561499673
 40
0.0779249977
 40
0.1017433666
 40
0.1277575615
 40
0.1560582948
 40
0.1866966887
 40
0.219647499
 40
0.2547909771
 40
0.2919937529
 40
0.3311019473
 40
0.3718202561
 40
0.413793227
 40
0.4999912681
 40
0.586192256
 40
0.6281666886
 40
0.6688862697
 40
0.7079965236
 40
0.7452014021
 40
0.7803471419
 40
0.8133014195
 40
0.8439447128
 40
0.8722495692
 40
0.8982658875
 40
0.9220837253
 40
0.9438557239
 40
0.9638360119
 40
0.9823888187
 40
1.0
 40
1.0
 40
1.0
 40
1.0
 10
5.6834741379
 20
3.939290128
 30
0.0
 10
5.6834741379
 20
3.9378830968
 30
0.0
 10
5.6831502115
 20
3.9349860809
 30
0.0
 10
5.6817580707
 20
3.9306950872
 30
0.0
 10
5.6794813193
 20
3.9264237078
 30
0.0
 10
5.6763418103
 20
3.9222087169
 30
0.0
 10
5.6723586047
 20
3.9180838789
 30
0.0
 10
5.6675524092
 20
3.9140840558
 30
0.0
 10
5.6619429989
 20
3.9102474287
 30
0.0
 10
5.6555539787
 20
3.9066161484
 30
0.0
 10
5.6484201172
 20
3.9032348759
 30
0.0
 10
5.6405862769
 20
3.9001523891
 30
0.0
 10
5.6321046333
 20
3.8974223471
 30
0.0
 10
5.6230415295
 20
3.895102649
 30
0.0
 10
5.6134864057
 20
3.8932336755
 30
0.0
 10
5.6001146609
 20
3.8913823881
 30
0.0
 10
5.5829755785
 20
3.8904755727
 30
0.0
 10
5.5658368703
 20
3.8913876626
 30
0.0
 10
5.5524646717
 20
3.8932386634
 30
0.0
 10
5.5429089782
 20
3.8951066664
 30
0.0
 10
5.5338450918
 20
3.8974250601
 30
0.0
 10
5.5253626547
 20
3.9001543455
 30
0.0
 10
5.5175279966
 20
3.9032364747
 30
0.0
 10
5.5103931289
 20
3.9066175966
 30
0.0
 10
5.504002798
 20
3.9102485685
 30
0.0
 10
5.4983920078
 20
3.9140847514
 30
0.0
 10
5.4935848263
 20
3.9180841142
 30
0.0
 10
5.4896013539
 20
3.9222085827
 30
0.0
 10
5.4864627379
 20
3.926423607
 30
0.0
 10
5.4841877361
 20
3.9306951882
 30
0.0
 10
5.4827974167
 20
3.9349862828
 30
0.0
 10
5.4824741379
 20
3.9378831163
 30
0.0
 10
5.4824741379
 20
3.939290128
 30
0.0
 11
5.6834741379
 21
3.939290128
 31
0.0
 11
5.6830228452
 21
3.9350932284
 31
0.0
 11
5.6816777651
 21
3.9308543239
 31
0.0
 11
5.6794520949
 21
3.9266131489
 31
0.0
 11
5.676359034
 21
3.9224094383
 31
0.0
 11
5.672413725
 21
3.918283352
 31
0.0
 11
5.6676367864
 21
3.9142762488
 31
0.0
 11
5.6620497947
 21
3.9104296966
 31
0.0
 11
5.6556745283
 21
3.9067853406
 31
0.0
 11
5.6485443736
 21
3.9033892543
 31
0.0
 11
5.6407104256
 21
3.9002942671
 31
0.0
 11
5.6322252697
 21
3.8975537766
 31
0.0
 11
5.6231469358
 21
3.8952203388
 31
0.0
 11
5.6135702976
 21
3.8933408108
 31
0.0
 11
5.6036055026
 21
3.8919596877
 31
0.0
 11
5.5829759128
 21
3.8908412646
 31
0.0
 11
5.5623458785
 21
3.8919645242
 31
0.0
 11
5.5523807319
 21
3.893345663
 31
0.0
 11
5.5428036003
 21
3.8952242597
 31
0.0
 11
5.5337244613
 21
3.8975565481
 31
0.0
 11
5.5252385237
 21
3.9002962578
 31
0.0
 11
5.5174038235
 21
3.9033908162
 31
0.0
 11
5.5102726399
 21
3.9067866747
 31
0.0
 11
5.5038959022
 21
3.910430823
 31
0.0
 11
5.498307485
 21
3.9142770472
 31
0.0
 11
5.4935295798
 21
3.91828379
 31
0.0
 11
5.4895841501
 21
3.9224095847
 31
0.0
 11
5.486492115
 21
3.9266131478
 31
0.0
 11
5.4842681691
 21
3.9308542864
 31
0.0
 11
5.4829247116
 21
3.9350932098
 31
0.0
 11
5.4824741379
 21
3.939290128
 31
0.0
  0
SPLINE
  5
310
100
AcDbEntity
  8
0
100
AcDbSpline
 62
7
  6
BYLAYER
 70
0
 71
3
 72
11
 73
7
 74
5
 42
0.0000001
 43
0.0000001
 44
0.0000000001
 12
0.1472912018
 22
-0.1614382392
 32
0.0
 13
0.1496599603
 23
-0.1592447785
 33
0.0
 40
0.0
 40
0.0
 40
0.0
 40
0.0
 40
0.2900962127
 40
0.5555726112
 40
0.7932221756
 40
1.0
 40
1.0
 40
1.0
 40
1.0
 10
5.3605417021
 20
4.8998477078
 30
0.0
 10
5.3747845754
 20
4.8842368339
 30
0.0
 10
5.4021605157
 20
4.8544301021
 30
0.0
 10
5.4414739308
 20
4.8120836001
 30
0.0
 10
5.4767836904
 20
4.7743023334
 30
0.0
 10
5.4989341662
 20
4.7506921301
 30
0.0
 10
5.5092496198
 20
4.7397160338
 30
0.0
 11
5.3605417021
 21
4.8998477078
 31
0.0
 11
5.4034170577
 21
4.8531493856
 31
0.0
 11
5.442877887
 21
4.8106211883
 31
0.0
 11
5.4783321359
 21
4.7726714377
 31
0.0
 11
5.5092496198
 21
4.7397160338
 31
0.0
  0
LINE
  5
311
100
AcDbEntity
  8
0
100
AcDbLine
 62
7
  6
BYLAYER
 10
5.2770270519
 20
4.8130270689
 11
5.2914837453
 21
4.7955471418
  0
LINE
  5
312
100
AcDbEntity
  8
0
100
AcDbLine
 62
7
  6
BYLAYER
 10
5.2914837453
 20
4.7955471418
 11
5.3369995172
 21
4.7403080314
  0
LINE
  5
313
100
AcDbEntity
  8
0
100
AcDbLine
 62
7
  6
BYLAYER
 10
5.1987632886
 20
4.7858219451
 11
5.2457984769
 21
4.7398583777
  0
LINE
  5
314
100
AcDbEntity
  8
0
100
AcDbLine
 62
7
  6
BYLAYER
 10
5.2457829393
 20
3.9956733366
 11
5.1987213196
 21
3.9496829923
  0
LINE
  5
315
100
AcDbEntity
  8
0
100
AcDbLine
 62
7
  6
BYLAYER
 10
5.2770270519
 20
3.9222833842
 11
5.2915775283
 21
3.9399200805
  0
LINE
  5
316
100
AcDbEntity
  8
0
100
AcDbLine
 62
7
  6
BYLAYER
 10
5.2915775283
 20
3.9399200805
 11
5.3371059547
 21
3.9952573079
  0
LINE
  5
317
100
AcDbEntity
  8
0
100
AcDbLine
 62
7
  6
BYLAYER
 10
5.1649140488
 20
3.983489782
 11
5.1748308584
 21
3.9936375701
  0
LINE
  5
318
100
AcDbEntity
  8
0
100
AcDbLine
 62
7
  6
BYLAYER
 10
5.8744358529
 20
3.9398865086
 11
5.8889212239
 21
3.9224106081
  0
LINE
  5
319
100
AcDbEntity
  8
0
100
AcDbLine
 62
7
  6
BYLAYER
 10
6.0010517097
 20
3.9835257669
 11
5.9911211436
 21
3.9936682783
  0
LINE
  5
31A
100
AcDbEntity
  8
0
100
AcDbLine
 62
7
  6
BYLAYER
 10
6.001051829
 20
4.7519550807
 11
5.9911435219
 21
4.7418157642
  0
SPLINE
  5
31B
100
AcDbEntity
  8
0
100
AcDbSpline
 62
7
  6
BYLAYER
 70
0
 71
3
 72
10
 73
6
 74
4
 42
0.0000001
 43
0.0000001
 44
0.0000000001
 12
0.1498267452
 22
0.1591835376
 32
0.0
 13
0.1473407655
 23
0.1614873093
 33
0.0
 40
0.0
 40
0.0
 40
0.0
 40
0.0
 40
0.4445477021
 40
0.7099845009
 40
1.0
 40
1.0
 40
1.0
 40
1.0
 10
5.6566689333
 20
4.7397248175
 30
0.0
 10
5.6788706451
 20
4.7633130428
 30
0.0
 10
5.7142772522
 20
4.8010345409
 30
0.0
 10
5.7638649076
 20
4.8544275582
 30
0.0
 10
5.791244636
 20
4.8842364336
 30
0.0
 10
5.8054883379
 20
4.8998477078
 30
0.0
 11
5.6566689333
 21
4.7397248175
 31
0.0
 11
5.7231309677
 21
4.8106239105
 31
0.0
 11
5.7626086902
 21
4.8531498476
 31
0.0
 11
5.8054883379
 21
4.8998477078
 31
0.0
  0
SPLINE
  5
31C
100
AcDbEntity
  8
0
100
AcDbSpline
 62
7
  6
BYLAYER
 70
0
 71
3
 72
10
 73
6
 74
4
 42
0.0000001
 43
0.0000001
 44
0.0000000001
 12
0.1198379274
 22
0.0227125081
 32
0.0
 13
0.1186601129
 23
0.0282270169
 33
0.0
 40
0.0
 40
0.0
 40
0.0
 40
0.0
 40
0.527520792
 40
0.7706741066
 40
1.0
 40
1.0
 40
1.0
 40
1.0
 10
9.010295589
 20
4.1557001806
 30
0.0
 10
9.0313679218
 20
4.159693954
 30
0.0
 10
9.0621068406
 20
4.1657833657
 30
0.0
 10
9.1018465379
 20
4.1743750336
 30
0.0
 10
9.1205689393
 20
4.1786774803
 30
0.0
 10
9.1296395515
 20
4.180835209
 30
0.0
 11
9.010295589
 21
4.1557001806
 31
0.0
 11
9.073396313
 21
4.1682795109
 31
0.0
 11
9.1023817922
 21
4.1745582085
 31
0.0
 11
9.1296395515
 21
4.180835209
 31
0.0
  0
LINE
  5
31D
100
AcDbEntity
  8
0
100
AcDbLine
 62
7
  6
BYLAYER
 10
5.9201511061
 20
4.7398610839
 11
5.9671841938
 21
4.7858225754
  0
LINE
  5
31E
100
AcDbEntity
  8
0
100
AcDbLine
 62
7
  6
BYLAYER
 10
5.1748224683
 20
4.7418870956
 11
5.1648965662
 21
4.7519323582
  0
ENDSEC
  0
SECTION
  2
OBJECTS
  0
DICTIONARY
  5
C
100
AcDbDictionary
280
0
281
1
  3
ACAD_GROUP
350
D
  3
ACAD_MLINESTYLE
350
17
  3
ACAD_LAYOUT
350
1A
  3
ACAD_PLOTSETTINGS
350
19
  3
ACAD_PLOTSTYLENAME
350
E
  0
DICTIONARY
  5
D
102
{ACAD_REACTORS
330
C
102
}
100
AcDbDictionary
280
0
281
1
  0
ACDBDICTIONARYWDFLT
  5
E
102
{ACAD_REACTORS
330
C
102
}
100
AcDbDictionary
281
1
  3
Normal
350
F
100
AcDbDictionaryWithDefault
340
F
  0
DICTIONARY
  5
17
102
{ACAD_REACTORS
330
C
102
}
100
AcDbDictionary
280
0
281
1
  3
Standard
350
18
  0
DICTIONARY
  5
19
102
{ACAD_REACTORS
330
C
102
}
100
AcDbDictionary
281
1
  0
DICTIONARY
  5
1A
102
{ACAD_REACTORS
330
C
102
}
100
AcDbDictionary
281
1
  3
Model
350
31F
  3
Layout1
350
320
  0
ACDBPLACEHOLDER
  5
F
102
{ACAD_REACTORS
330
E
102
}
  0
MLINESTYLE
  5
18
102
{ACAD_REACTORS
330
17
102
}
100
AcDbMlineStyle
  2
STANDARD
 70
0
  3

 62
256
 51
90.0
 52
90.0
 71
2
 49
0.5
 62
256
  6
BYLAYER
 49
-0.5
 62
256
  6
BYLAYER
  0
LAYOUT
  5
31F
102
{ACAD_REACTORS
330
1A
102
}
100
AcDbPlotSettings
  1

  2
none_device
  4
ANSI_A_(11.00_x_8.50_Inches)
  6

 40
0.0
 41
0.0
 42
0.0
 43
0.0
 44
279.4
 45
215.9
 46
0.0
 47
0.0
 48
0.0
 49
0.0
140
0.0
141
0.0
142
1.0
143
1.0
 70
1024
 72
0
 73
0
 74
0
  7

 75
0
147
1.0
148
0.0
149
0.0
100
AcDbLayout
  1
Model
 70
0
 71
0
 10
0.0
 20
0.0
 11
11.0
 21
8.5
 12
0.0
 22
0.0
 32
0.0
 14
0.0
 24
0.0
 34
0.0
 15
0.0
 25
0.0
 35
0.0
146
0.0
 13
0.0
 23
0.0
 33
0.0
 16
1.0
 26
0.0
 36
0.0
 17
0.0
 27
1.0
 37
0.0
 76
0
330
277
345
0
346
0
  0
LAYOUT
  5
320
102
{ACAD_REACTORS
330
1A
102
}
100
AcDbPlotSettings
  1

  2
none_device
  4
ANSI_A_(11.00_x_8.50_Inches)
  6

 40
0.0
 41
0.0
 42
0.0
 43
0.0
 44
279.4
 45
215.9
 46
0.0
 47
0.0
 48
0.0
 49
0.0
140
0.0
141
0.0
142
1.0
143
1.0
 70
0
 72
0
 73
0
 74
0
  7

 75
0
147
1.0
148
0.0
149
0.0
100
AcDbLayout
  1
Layout1
 70
0
 71
1
 10
0.0
 20
0.0
 11
11.0
 21
8.5
 12
0.0
 22
0.0
 32
0.0
 14
0.0
 24
0.0
 34
0.0
 15
0.0
 25
0.0
 35
0.0
146
0.0
 13
0.0
 23
0.0
 33
0.0
 16
1.0
 26
0.0
 36
0.0
 17
0.0
 27
1.0
 37
0.0
 76
0
330
278
345
0
346
0
  0
ENDSEC
  0
EOF
