  0
SECTION
  2
HEADER
  9
$ACADVER
  1
AC1015
  9
$DWGCODEPAGE
  3
ANSI_1252
  9
$EXTMAX
 10
11.6929133858
 20
8.2677165354
 30
0.0
  9
$EXTMIN
 10
0.0
 20
0.0
 30
0.0
  9
$LIMMIN
 10
0.0
 20
0.0
  9
$LIMMAX
 10
11.6929133858
 20
8.2677165354
  9
$VIEWCTR
 10
5.8464566929
 20
4.1338582677
  9
$VIEWSIZE
 40
8.2677165354
  9
$CLAYER
  8
0
  9
$LTSCALE
 40
0.6431102362
  9
$CELTYPE
  6
BYLAYER
  9
$DIMSCALE
 40
1.0
  9
$DIMASZ
 40
0.1875
  9
$DIMEXO
 40
0.0730807087
  9
$DIMDLI
 40
0.4443307087
  9
$DIMEXE
 40
0.2104724409
  9
$DIMCEN
 40
0.1052362205
  9
$DIMLFAC
 40
1.0
  9
$DIMBLK
  1
_CLOSED
  9
$DIMTXT
 40
0.15625
  9
$DIMTOL
 70
0
  9
$DIMLIM
 70
0
  9
$DIMTFAC
 40
1.0
  9
$PDMODE
 70
3
  9
$PDSIZE
 40
0.3125
  9
$HANDSEED
  5
2BA
  9
$TILEMODE
 70
1
  9
$MEASUREMENT
 70
0
  9
$INSUNITS
 70
1
  0
ENDSEC
  0
SECTION
  2
CLASSES
  0
CLASS
  1
ACDBDICTIONARYWDFLT
  2
AcDbDictionaryWithDefault
  3
AutoCAD 2000
 90
0
280
0
281
0
  0
CLASS
  1
ACDBPLACEHOLDER
  2
AcDbPlaceHolder
  3
AutoCAD 2000
 90
0
280
0
281
0
  0
CLASS
  1
LAYOUT
  2
AcDbLayout
  3
AutoCAD 2000
 90
0
280
0
281
0
  0
ENDSEC
  0
SECTION
  2
TABLES
  0
TABLE
  2
VPORT
  5
8
100
AcDbSymbolTable
 70
2
  0
VPORT
  5
1F4
100
AcDbSymbolTableRecord
100
AcDbViewportTableRecord
  2
*ACTIVE
 70
0
 10
0.0
 20
0.0
 11
1.0
 21
1.0
 12
5.8464566929
 22
4.1338582677
 13
0.0
 23
0.0
 14
1.0
 24
1.0
 15
0.0
 25
0.0
 16
0.0
 26
0.0
 36
1.0
 17
0.0
 27
0.0
 37
0.0
 40
8.2677165354
 41
1.4142857143
 42
50.0
 43
0.0
 44
0.0
 50
0.0
 51
0.0
 71
0
 72
100
 73
1
 74
1
 75
0
 76
0
 77
0
 78
0
  0
ENDTAB
  0
TABLE
  2
LTYPE
  5
5
100
AcDbSymbolTable
 70
6
  0
LTYPE
  5
14
100
AcDbSymbolTableRecord
100
AcDbLinetypeTableRecord
  2
BYBLOCK
 70
0
  3

 72
65
 73
0
 40
0.0
  0
LTYPE
  5
15
100
AcDbSymbolTableRecord
100
AcDbLinetypeTableRecord
  2
BYLAYER
 70
0
  3

 72
65
 73
0
 40
0.0
  0
LTYPE
  5
16
100
AcDbSymbolTableRecord
100
AcDbLinetypeTableRecord
  2
CONTINUOUS
 70
64
  3
Solid line
 72
65
 73
0
 40
0.0
  0
LTYPE
  5
1F5
100
AcDbSymbolTableRecord
100
AcDbLinetypeTableRecord
  2
CENTER
 70
64
  3
____ _ ____ _ ____ _ ____ _ ____ _ ____ _ ____
 72
65
 73
4
 40
0.6
 49
0.375
 74
0
 49
-0.075
 74
0
 49
0.075
 74
0
 49
-0.075
 74
0
  0
LTYPE
  5
1F6
100
AcDbSymbolTableRecord
100
AcDbLinetypeTableRecord
  2
HIDDEN
 70
64
  3
- - - - - - - - - - - - - - - - - - - -
 72
65
 73
2
 40
0.2
 49
0.1
 74
0
 49
-0.1
 74
0
  0
LTYPE
  5
1F7
100
AcDbSymbolTableRecord
100
AcDbLinetypeTableRecord
  2
PHANTOM
 70
64
  3
_____ _ _ _____ _ _ _____ _ _ _____
 72
65
 73
6
 40
0.8
 49
0.45
 74
0
 49
-0.05
 74
0
 49
0.1
 74
0
 49
-0.05
 74
0
 49
0.1
 74
0
 49
-0.05
 74
0
  0
LTYPE
  5
1F8
100
AcDbSymbolTableRecord
100
AcDbLinetypeTableRecord
  2
DOT
 70
64
  3
. . . . . . . . . . . . . . . . . . . .
 72
65
 73
2
 40
0.2
 49
0.1
 74
0
 49
-0.1
 74
0
  0
LTYPE
  5
1F9
100
AcDbSymbolTableRecord
100
AcDbLinetypeTableRecord
  2
DASHED
 70
64
  3
- - - - - - - - - - - - - - - - - - - -
 72
65
 73
2
 40
0.2
 49
0.1
 74
0
 49
-0.1
 74
0
  0
ENDTAB
  0
TABLE
  2
LAYER
  5
2
100
AcDbSymbolTable
 70
36
  0
LAYER
  5
10
100
AcDbSymbolTableRecord
100
AcDbLayerTableRecord
  2
0
 70
0
 62
7
  6
CONTINUOUS
370
-3
390
F
  0
LAYER
  5
1FA
100
AcDbSymbolTableRecord
100
AcDbLayerTableRecord
  2
DEFAULT_1
 70
0
 62
7
  6
CENTER
370
-3
390
F
  0
LAYER
  5
1FB
100
AcDbSymbolTableRecord
100
AcDbLayerTableRecord
  2
DEFAULT_2
 70
0
 62
8
  6
HIDDEN
370
-3
390
F
  0
LAYER
  5
1FC
100
AcDbSymbolTableRecord
100
AcDbLayerTableRecord
  2
DEFAULT_3
 70
0
 62
7
  6
PHANTOM
370
-3
390
F
  0
LAYER
  5
1FD
100
AcDbSymbolTableRecord
100
AcDbLayerTableRecord
  2
DEFAULT_COORDINATE_SYSTEM
 70
0
 62
7
  6
CONTINUOUS
370
-3
390
F
  0
LAYER
  5
1FE
100
AcDbSymbolTableRecord
100
AcDbLayerTableRecord
  2
DEFAULT_DATUM_AXES
 70
0
 62
7
  6
CONTINUOUS
370
-3
390
F
  0
LAYER
  5
1FF
100
AcDbSymbolTableRecord
100
AcDbLayerTableRecord
  2
DEFAULT_DATUM_CURVES
 70
0
 62
7
  6
CONTINUOUS
370
-3
390
F
  0
LAYER
  5
200
100
AcDbSymbolTableRecord
100
AcDbLayerTableRecord
  2
DEFAULT_DATUM_PLANES
 70
0
 62
7
  6
CONTINUOUS
370
-3
390
F
  0
ENDTAB
  0
TABLE
  2
STYLE
  5
3
100
AcDbSymbolTable
 70
1
  0
STYLE
  5
11
100
AcDbSymbolTableRecord
100
AcDbTextStyleTableRecord
  2
STANDARD
 70
0
 40
0.0
 41
0.8
 50
0.0
 71
0
 42
0.2
  3
txt
  4

  0
STYLE
  5
201
100
AcDbSymbolTableRecord
100
AcDbTextStyleTableRecord
  2
TEXTSTYLE_1
 70
0
 40
0.0
 41
0.8
 50
0.0
 71
0
 42
0.2
  3
gdt
  4

  0
ENDTAB
  0
TABLE
  2
VIEW
  5
6
100
AcDbSymbolTable
 70
0
  0
ENDTAB
  0
TABLE
  2
UCS
  5
7
100
AcDbSymbolTable
 70
0
  0
ENDTAB
  0
TABLE
  2
APPID
  5
9
100
AcDbSymbolTable
 70
1
  0
APPID
  5
202
100
AcDbSymbolTableRecord
100
AcDbRegAppTableRecord
  2
ACAD
 70
0
  0
ENDTAB
  0
TABLE
  2
BLOCK_RECORD
  5
1
100
AcDbSymbolTable
 70
0
  0
BLOCK_RECORD
  5
203
100
AcDbSymbolTableRecord
100
AcDbBlockTableRecord
  2
*Model_Space
  0
BLOCK_RECORD
  5
204
100
AcDbSymbolTableRecord
100
AcDbBlockTableRecord
  2
*Paper_Space
  0
ENDTAB
  0
TABLE
  2
DIMSTYLE
  5
A
100
AcDbSymbolTable
 70
1
100
AcDbDimStyleTable
 71
0
  0
DIMSTYLE
105
205
100
AcDbSymbolTableRecord
100
AcDbDimStyleTableRecord
  2
STANDARD
 70
0
  3

  4

 40
1.0
 41
0.1875
 42
0.0625
 43
0.38
 44
0.18
 45
0.0
 46
0.0
 47
0.01
 48
0.01
140
0.15625
141
0.09
142
0.0
143
25.4
144
1.0
145
0.0
146
1.0
147
0.09
 71
0.0
 72
0.0
 73
1
 74
1
 75
0
 76
0
 77
0
 78
4
170
0
171
2
172
0
173
0
174
0
175
0
176
0
177
0
178
0
270
2
271
2
272
2
273
2
274
2
275
0
280
0
281
0
282
0
283
1
284
4
285
0
286
0
287
3
288
0
340
11
  0
ENDTAB
  0
ENDSEC
  0
SECTION
  2
BLOCKS
  0
BLOCK
  5
20
100
AcDbEntity
  8
0
100
AcDbBlockBegin
  2
*Model_Space
 70
0
 10
0.0
 20
0.0
 30
0.0
  3
*Model_Space
  1

  0
ENDBLK
  5
21
100
AcDbEntity
  8
0
100
AcDbBlockEnd
  0
BLOCK
  5
1C
100
AcDbEntity
  8
0
100
AcDbBlockBegin
  2
*Paper_Space
 70
0
 10
0.0
 20
0.0
 30
0.0
  3
*Paper_Space
  1

  0
ENDBLK
  5
1D
100
AcDbEntity
  8
0
100
AcDbBlockEnd
  0
ENDSEC
  0
SECTION
  2
ENTITIES
  0
LINE
  5
206
100
AcDbEntity
  8
0
100
AcDbLine
 62
7
  6
CONTINUOUS
 10
2.7352817522
 20
3.7634989726
 11
2.7352817522
 21
4.5318766069
  0
LINE
  5
207
100
AcDbEntity
  8
0
100
AcDbLine
 62
7
  6
CONTINUOUS
 10
2.8474353422
 20
3.7023872688
 11
2.8474353422
 21
3.7296388907
  0
LINE
  5
208
100
AcDbEntity
  8
0
100
AcDbLine
 62
7
  6
CONTINUOUS
 10
2.8474257756
 20
4.5657561802
 11
2.8474375573
 21
4.5929298285
  0
LINE
  5
209
100
AcDbEntity
  8
0
100
AcDbLine
 62
9
  6
CONTINUOUS
 10
2.9558590596
 20
4.5421939401
 11
2.9558590596
 21
3.9515064577
  0
LINE
  5
20A
100
AcDbEntity
  8
0
100
AcDbLine
 62
6
  6
CONTINUOUS
 10
2.9558590596
 20
3.9515064577
 11
2.9558590596
 21
3.6551875735
  0
LINE
  5
20B
100
AcDbEntity
  8
0
100
AcDbLine
 62
9
  6
CONTINUOUS
 10
2.9948590596
 20
3.6161875735
 11
2.9948590596
 21
4.5811939401
  0
LINE
  5
20C
100
AcDbEntity
  8
0
100
AcDbLine
 62
6
  6
CONTINUOUS
 10
3.05485906
 20
4.5811939398
 11
3.0548590596
 21
3.6161875735
  0
LINE
  5
20D
100
AcDbEntity
  8
0
100
AcDbLine
 62
7
  6
CONTINUOUS
 10
3.1528590596
 20
4.6791926679
 11
3.1528590596
 21
3.5181875735
  0
LINE
  5
20E
100
AcDbEntity
  8
0
100
AcDbLine
 62
7
  6
CONTINUOUS
 10
3.1538590596
 20
3.5181875735
 11
3.1538590596
 21
4.6791926679
  0
LINE
  5
20F
100
AcDbEntity
  8
0
100
AcDbLine
 62
6
  6
CONTINUOUS
 10
3.2518590596
 20
3.6161875735
 11
3.2518590596
 21
4.5811926679
  0
LINE
  5
210
100
AcDbEntity
  8
0
100
AcDbLine
 62
9
  6
CONTINUOUS
 10
3.3118590596
 20
3.6161875735
 11
3.3118590596
 21
4.5811939401
  0
LINE
  5
211
100
AcDbEntity
  8
0
100
AcDbLine
 62
6
  6
CONTINUOUS
 10
3.3508590596
 20
3.6551875735
 11
3.3508590596
 21
4.5421939401
  0
LINE
  5
212
100
AcDbEntity
  8
0
100
AcDbLine
 62
6
  6
CONTINUOUS
 10
3.4698590596
 20
3.6116875735
 11
3.496792857
 21
3.5376875735
  0
LINE
  5
213
100
AcDbEntity
  8
0
100
AcDbLine
 62
7
  6
CONTINUOUS
 10
3.459290808
 20
4.5657570998
 11
3.4592787451
 21
4.5929298284
  0
LINE
  5
214
100
AcDbEntity
  8
0
100
AcDbLine
 62
6
  6
CONTINUOUS
 10
3.4698590596
 20
3.6116875735
 11
3.4698590596
 21
4.2116875735
  0
LINE
  5
215
100
AcDbEntity
  8
0
100
AcDbLine
 62
6
  6
CONTINUOUS
 10
3.496792857
 20
3.5376875735
 11
3.496792857
 21
4.2856875735
  0
LINE
  5
216
100
AcDbEntity
  8
0
100
AcDbLine
 62
7
  6
CONTINUOUS
 10
3.5088590596
 20
3.5376875735
 11
3.5088590596
 21
4.2856875735
  0
LINE
  5
217
100
AcDbEntity
  8
0
100
AcDbLine
 62
7
  6
CONTINUOUS
 10
3.5714367521
 20
4.2856875735
 11
3.5714367677
 21
4.5319033287
  0
LINE
  5
218
100
AcDbEntity
  8
0
100
AcDbLine
 62
7
  6
CONTINUOUS
 10
3.4592802429
 20
3.7023872687
 11
3.4592892345
 21
3.7296435314
  0
LINE
  5
219
100
AcDbEntity
  8
0
100
AcDbLine
 62
6
  6
CONTINUOUS
 10
3.4698590596
 20
4.2116875735
 11
3.496792857
 21
4.2856875735
  0
LINE
  5
21A
100
AcDbEntity
  8
0
100
AcDbLine
 62
6
  6
CONTINUOUS
 10
3.496792857
 20
3.5376875735
 11
7.8509252623
 21
3.5376875735
  0
LINE
  5
21B
100
AcDbEntity
  8
0
100
AcDbLine
 62
7
  6
CONTINUOUS
 10
8.3782604601
 20
3.6155578708
 11
8.2543590599
 21
3.6155578214
  0
LINE
  5
21C
100
AcDbEntity
  8
0
100
AcDbLine
 62
7
  6
CONTINUOUS
 10
8.1563590596
 20
3.6155577823
 11
8.1553590596
 21
3.6155577819
  0
LINE
  5
21D
100
AcDbEntity
  8
0
100
AcDbLine
 62
7
  6
CONTINUOUS
 10
8.0573590599
 20
3.6155577429
 11
7.9334576601
 21
3.6155576934
  0
LINE
  5
21E
100
AcDbEntity
  8
0
100
AcDbLine
 62
7
  6
CONTINUOUS
 10
3.3757604601
 20
3.6155578708
 11
3.2518590599
 21
3.6155578214
  0
LINE
  5
21F
100
AcDbEntity
  8
0
100
AcDbLine
 62
7
  6
CONTINUOUS
 10
3.1538590596
 20
3.6155577823
 11
3.1528590596
 21
3.6155577819
  0
LINE
  5
220
100
AcDbEntity
  8
0
100
AcDbLine
 62
7
  6
CONTINUOUS
 10
3.0548590599
 20
3.6155577429
 11
2.9309576601
 21
3.6155576934
  0
LINE
  5
221
100
AcDbEntity
  8
0
100
AcDbLine
 62
6
  6
CONTINUOUS
 10
8.3143590596
 20
3.6161875735
 11
8.2543590596
 21
3.6161875735
  0
LINE
  5
222
100
AcDbEntity
  8
0
100
AcDbLine
 62
6
  6
CONTINUOUS
 10
8.0573590596
 20
3.6161875735
 11
7.9973590596
 21
3.6161875735
  0
LINE
  5
223
100
AcDbEntity
  8
0
100
AcDbLine
 62
6
  6
CONTINUOUS
 10
3.3118590596
 20
3.6161875735
 11
3.2518590596
 21
3.6161875735
  0
LINE
  5
224
100
AcDbEntity
  8
0
100
AcDbLine
 62
6
  6
CONTINUOUS
 10
3.0548590596
 20
3.6161875735
 11
2.9948590596
 21
3.6161875735
  0
LINE
  5
225
100
AcDbEntity
  8
0
100
AcDbLine
 62
7
  6
CONTINUOUS
 10
2.8474430006
 20
3.7296314022
 11
2.7691700263
 21
3.729622532
  0
LINE
  5
226
100
AcDbEntity
  8
0
100
AcDbLine
 62
6
  6
CONTINUOUS
 10
7.8778590596
 20
3.7541875735
 11
7.9583590596
 21
3.7541875735
  0
LINE
  5
227
100
AcDbEntity
  8
0
100
AcDbLine
 62
6
  6
CONTINUOUS
 10
3.3508590596
 20
3.7556875735
 11
3.4698590596
 21
3.7556875735
  0
LINE
  5
228
100
AcDbEntity
  8
0
100
AcDbLine
 62
7
  6
CONTINUOUS
 10
3.1528590596
 20
3.8521875731
 11
3.1538590596
 21
3.8521875731
  0
LINE
  5
229
100
AcDbEntity
  8
0
100
AcDbLine
 62
7
  6
CONTINUOUS
 10
8.1553590596
 20
3.8521875731
 11
8.1563590596
 21
3.8521875731
  0
LINE
  5
22A
100
AcDbEntity
  8
0
100
AcDbLine
 62
7
  6
CONTINUOUS
 10
3.4698590596
 20
3.7296199319
 11
3.4592851741
 21
3.7296213802
  0
LINE
  5
22B
100
AcDbEntity
  8
0
100
AcDbLine
 62
7
  6
CONTINUOUS
 10
8.5400492742
 20
3.7296106602
 11
8.4617851741
 21
3.7296213802
  0
LINE
  5
22C
100
AcDbEntity
  8
0
100
AcDbLine
 62
6
  6
CONTINUOUS
 10
3.3508590596
 20
4.0676875735
 11
3.4698590596
 21
4.0676875735
  0
LINE
  5
22D
100
AcDbEntity
  8
0
100
AcDbLine
 62
6
  6
CONTINUOUS
 10
7.8778590596
 20
4.0691875735
 11
7.9583590596
 21
4.0691875735
  0
LINE
  5
22E
100
AcDbEntity
  8
0
100
AcDbLine
 62
9
  6
CONTINUOUS
 10
3.2518590596
 20
3.9575607909
 11
3.3118590596
 21
3.9575540366
  0
LINE
  5
22F
100
AcDbEntity
  8
0
100
AcDbLine
 62
9
  6
CONTINUOUS
 10
2.9948590596
 20
3.9575607909
 11
3.0548590673
 21
3.9575547023
  0
LINE
  5
230
100
AcDbEntity
  8
0
100
AcDbLine
 62
9
  6
CONTINUOUS
 10
7.9973590596
 20
3.9575607909
 11
8.0573590673
 21
3.9575547023
  0
LINE
  5
231
100
AcDbEntity
  8
0
100
AcDbLine
 62
9
  6
CONTINUOUS
 10
8.2543590596
 20
3.9575607909
 11
8.3143590596
 21
3.9575540366
  0
LINE
  5
232
100
AcDbEntity
  8
0
100
AcDbLine
 62
6
  6
CONTINUOUS
 10
3.496792857
 20
4.2856875735
 11
7.8509252623
 21
4.2856875735
  0
LINE
  5
233
100
AcDbEntity
  8
0
100
AcDbLine
 62
9
  6
CONTINUOUS
 10
8.2543590309
 20
4.3978747447
 11
8.3143590596
 21
4.3978747543
  0
LINE
  5
234
100
AcDbEntity
  8
0
100
AcDbLine
 62
9
  6
CONTINUOUS
 10
8.05735911
 20
4.3978747543
 11
7.9973590596
 21
4.3978747543
  0
LINE
  5
235
100
AcDbEntity
  8
0
100
AcDbLine
 62
9
  6
CONTINUOUS
 10
3.05485911
 20
4.3978747543
 11
2.9948590596
 21
4.3978747543
  0
LINE
  5
236
100
AcDbEntity
  8
0
100
AcDbLine
 62
9
  6
CONTINUOUS
 10
3.2518590309
 20
4.3978747447
 11
3.3118590596
 21
4.3978747543
  0
LINE
  5
237
100
AcDbEntity
  8
0
100
AcDbLine
 62
7
  6
CONTINUOUS
 10
3.1528590596
 20
4.4431875742
 11
3.1538590596
 21
4.4431875742
  0
LINE
  5
238
100
AcDbEntity
  8
0
100
AcDbLine
 62
7
  6
CONTINUOUS
 10
8.1553590596
 20
4.4431875742
 11
8.1563590596
 21
4.4431875742
  0
LINE
  5
239
100
AcDbEntity
  8
0
100
AcDbLine
 62
7
  6
CONTINUOUS
 10
8.4617859958
 20
4.5657518014
 11
8.5400748495
 21
4.56575728
  0
LINE
  5
23A
100
AcDbEntity
  8
0
100
AcDbLine
 62
7
  6
CONTINUOUS
 10
3.4592859958
 20
4.5657518014
 11
3.5375748495
 21
4.56575728
  0
LINE
  5
23B
100
AcDbEntity
  8
0
100
AcDbLine
 62
6
  6
CONTINUOUS
 10
8.3143590596
 20
4.5811939401
 11
8.2543591098
 21
4.5811939401
  0
LINE
  5
23C
100
AcDbEntity
  8
0
100
AcDbLine
 62
6
  6
CONTINUOUS
 10
8.05735906
 20
4.5811939401
 11
7.9973590596
 21
4.5811939401
  0
LINE
  5
23D
100
AcDbEntity
  8
0
100
AcDbLine
 62
6
  6
CONTINUOUS
 10
3.3118590596
 20
4.5811939401
 11
3.2518591098
 21
4.5811939401
  0
LINE
  5
23E
100
AcDbEntity
  8
0
100
AcDbLine
 62
6
  6
CONTINUOUS
 10
3.05485906
 20
4.5811939401
 11
2.9948590596
 21
4.5811939401
  0
LINE
  5
23F
100
AcDbEntity
  8
0
100
AcDbLine
 62
7
  6
CONTINUOUS
 10
7.933460801
 20
4.6797586913
 11
8.3782573174
 21
4.679758998
  0
LINE
  5
240
100
AcDbEntity
  8
0
100
AcDbLine
 62
7
  6
CONTINUOUS
 10
2.930960801
 20
4.6797586913
 11
3.3757573174
 21
4.679758998
  0
LINE
  5
241
100
AcDbEntity
  8
0
100
AcDbLine
 62
7
  6
CONTINUOUS
 10
2.7691432753
 20
4.5657649624
 11
2.8474264917
 21
4.5657584246
  0
LINE
  5
242
100
AcDbEntity
  8
0
100
AcDbLine
 62
7
  6
CONTINUOUS
 10
7.7716432753
 20
4.5657649624
 11
7.8499264917
 21
4.5657584246
  0
LINE
  5
243
100
AcDbEntity
  8
0
100
AcDbLine
 62
7
  6
CONTINUOUS
 10
7.7377817522
 20
4.2856875735
 11
7.7377817522
 21
4.5318766069
  0
LINE
  5
244
100
AcDbEntity
  8
0
100
AcDbLine
 62
7
  6
CONTINUOUS
 10
7.8388590596
 20
3.5376875735
 11
7.8388590596
 21
4.2856875735
  0
LINE
  5
245
100
AcDbEntity
  8
0
100
AcDbLine
 62
6
  6
CONTINUOUS
 10
7.8509252623
 20
3.5376875735
 11
7.8509252623
 21
4.2856875735
  0
LINE
  5
246
100
AcDbEntity
  8
0
100
AcDbLine
 62
6
  6
CONTINUOUS
 10
7.8778590596
 20
3.6116900172
 11
7.8778590596
 21
4.2116851298
  0
LINE
  5
247
100
AcDbEntity
  8
0
100
AcDbLine
 62
7
  6
CONTINUOUS
 10
7.8499257756
 20
4.5657561802
 11
7.8499375573
 21
4.5929298285
  0
LINE
  5
248
100
AcDbEntity
  8
0
100
AcDbLine
 62
6
  6
CONTINUOUS
 10
7.8778590596
 20
3.6116875735
 11
7.8509252623
 21
3.5376875735
  0
LINE
  5
249
100
AcDbEntity
  8
0
100
AcDbLine
 62
6
  6
CONTINUOUS
 10
7.8778590596
 20
4.2116875735
 11
7.8509252623
 21
4.2856875735
  0
LINE
  5
24A
100
AcDbEntity
  8
0
100
AcDbLine
 62
9
  6
CONTINUOUS
 10
7.9583590596
 20
4.5421939401
 11
7.9583590596
 21
3.9515064577
  0
LINE
  5
24B
100
AcDbEntity
  8
0
100
AcDbLine
 62
6
  6
CONTINUOUS
 10
7.9583590596
 20
3.9515064577
 11
7.9583590596
 21
3.6551875735
  0
LINE
  5
24C
100
AcDbEntity
  8
0
100
AcDbLine
 62
9
  6
CONTINUOUS
 10
7.9973590596
 20
3.6161875735
 11
7.9973590596
 21
4.5811939401
  0
LINE
  5
24D
100
AcDbEntity
  8
0
100
AcDbLine
 62
6
  6
CONTINUOUS
 10
8.05735906
 20
4.5811939398
 11
8.0573590596
 21
3.6161875735
  0
LINE
  5
24E
100
AcDbEntity
  8
0
100
AcDbLine
 62
7
  6
CONTINUOUS
 10
8.1553590596
 20
4.6791926679
 11
8.1553590596
 21
3.5181875735
  0
LINE
  5
24F
100
AcDbEntity
  8
0
100
AcDbLine
 62
7
  6
CONTINUOUS
 10
8.1563590596
 20
3.5181875735
 11
8.1563590596
 21
4.6791926679
  0
LINE
  5
250
100
AcDbEntity
  8
0
100
AcDbLine
 62
6
  6
CONTINUOUS
 10
8.2543590596
 20
3.6161875735
 11
8.2543590596
 21
4.5811926679
  0
LINE
  5
251
100
AcDbEntity
  8
0
100
AcDbLine
 62
9
  6
CONTINUOUS
 10
8.3143590596
 20
3.6161875735
 11
8.3143590596
 21
4.5811939401
  0
LINE
  5
252
100
AcDbEntity
  8
0
100
AcDbLine
 62
6
  6
CONTINUOUS
 10
8.3533590596
 20
3.6551875735
 11
8.3533590596
 21
4.5421939401
  0
LINE
  5
253
100
AcDbEntity
  8
0
100
AcDbLine
 62
7
  6
CONTINUOUS
 10
8.461790808
 20
4.5657570998
 11
8.4617787451
 21
4.5929298284
  0
LINE
  5
254
100
AcDbEntity
  8
0
100
AcDbLine
 62
7
  6
CONTINUOUS
 10
8.5739367189
 20
3.7634693934
 11
8.5739367677
 21
4.5319033287
  0
LINE
  5
255
100
AcDbEntity
  8
0
100
AcDbLine
 62
7
  6
CONTINUOUS
 10
8.4617802429
 20
3.7023872687
 11
8.4617892345
 21
3.7296435314
  0
ARC
  5
256
100
AcDbEntity
  8
0
100
AcDbCircle
 62
6
  6
CONTINUOUS
 10
-16.0831033589
 20
-19.0475722956
 40
33.485121976
100
AcDbArc
 50
42.8607599189
 51
43.1378430756
  0
ARC
  5
257
100
AcDbEntity
  8
0
100
AcDbCircle
 62
9
  6
CONTINUOUS
 10
-1.7420500386
 20
-1.0359189859
 40
6.9157950555
100
AcDbArc
 50
42.2670797421
 51
42.6092919735
  0
ARC
  5
258
100
AcDbEntity
  8
0
100
AcDbCircle
 62
9
  6
CONTINUOUS
 10
3.2604499612
 20
-1.035918986
 40
6.9157950556
100
AcDbArc
 50
42.2670797421
 51
42.6092919735
  0
ARC
  5
259
100
AcDbEntity
  8
0
100
AcDbCircle
 62
6
  6
CONTINUOUS
 10
2.9948590596
 20
3.6551875735
 40
0.039
100
AcDbArc
 50
180.0000000001
 51
270.0
  0
ARC
  5
25A
100
AcDbEntity
  8
0
100
AcDbCircle
 62
7
  6
CONTINUOUS
 10
2.7755641569
 20
3.7634595603
 40
0.0402817034
100
AcDbArc
 50
179.9439766093
 51
183.6235959446
  0
ARC
  5
25B
100
AcDbEntity
  8
0
100
AcDbCircle
 62
6
  6
CONTINUOUS
 10
3.1538590596
 20
3.6161875735
 40
0.098
100
AcDbArc
 50
270.0
 51
360.0
  0
ARC
  5
25C
100
AcDbEntity
  8
0
100
AcDbCircle
 62
6
  6
CONTINUOUS
 10
3.1528590596
 20
3.6161875735
 40
0.098
100
AcDbArc
 50
180.0
 51
270.0
  0
ARC
  5
25D
100
AcDbEntity
  8
0
100
AcDbCircle
 62
6
  6
CONTINUOUS
 10
3.3118590596
 20
3.6551875735
 40
0.039
100
AcDbArc
 50
270.0
 51
359.9999999998
  0
ARC
  5
25E
100
AcDbEntity
  8
0
100
AcDbCircle
 62
6
  6
CONTINUOUS
 10
-20.4896993266
 20
26.7838720211
 40
32.6680081903
100
AcDbArc
 50
316.8639409013
 51
317.1471005777
  0
ARC
  5
25F
100
AcDbEntity
  8
0
100
AcDbCircle
 62
6
  6
CONTINUOUS
 10
-15.4871993266
 20
26.7838720211
 40
32.6680081903
100
AcDbArc
 50
316.8639409013
 51
317.1471005777
  0
ARC
  5
260
100
AcDbEntity
  8
0
100
AcDbCircle
 62
9
  6
CONTINUOUS
 10
-12.9678011342
 20
18.0547852665
 40
21.2384214608
100
AcDbArc
 50
320.1989967253
 51
320.6656662483
  0
ARC
  5
261
100
AcDbEntity
  8
0
100
AcDbCircle
 62
9
  6
CONTINUOUS
 10
-8.7858582126
 20
15.8179195476
 40
16.4913073565
100
AcDbArc
 50
317.043576863
 51
317.5151306249
  0
ARC
  5
262
100
AcDbEntity
  8
0
100
AcDbCircle
 62
7
  6
CONTINUOUS
 10
2.7755640021
 20
4.5319155443
 40
0.0402815114
100
AcDbArc
 50
176.375890618
 51
180.0554019534
  0
ARC
  5
263
100
AcDbEntity
  8
0
100
AcDbCircle
 62
6
  6
CONTINUOUS
 10
2.9948590596
 20
4.5421939401
 40
0.039
100
AcDbArc
 50
90.0
 51
180.0000000007
  0
ARC
  5
264
100
AcDbEntity
  8
0
100
AcDbCircle
 62
6
  6
CONTINUOUS
 10
3.1538590596
 20
4.1481875735
 40
1.0825
100
AcDbArc
 50
7.3004345558
 51
325.5801854837
  0
ARC
  5
265
100
AcDbEntity
  8
0
100
AcDbCircle
 62
6
  6
CONTINUOUS
 10
3.1538590596
 20
4.1481875735
 40
0.925
100
AcDbArc
 50
8.5521244687
 51
318.675309342
  0
ARC
  5
266
100
AcDbEntity
  8
0
100
AcDbCircle
 62
6
  6
CONTINUOUS
 10
3.1538590596
 20
4.5811926679
 40
0.098
100
AcDbArc
 50
0.0050628464
 51
90.0
  0
ARC
  5
267
100
AcDbEntity
  8
0
100
AcDbCircle
 62
6
  6
CONTINUOUS
 10
3.1528590596
 20
4.5811926679
 40
0.098
100
AcDbArc
 50
90.0
 51
179.9949371535
  0
ARC
  5
268
100
AcDbEntity
  8
0
100
AcDbCircle
 62
6
  6
CONTINUOUS
 10
3.3118590596
 20
4.5421939401
 40
0.039
100
AcDbArc
 50
0.0000000006
 51
90.0
  0
ARC
  5
269
100
AcDbEntity
  8
0
100
AcDbCircle
 62
9
  6
CONTINUOUS
 10
-7.965301233
 20
18.0547851469
 40
21.2384214608
100
AcDbArc
 50
320.1989971439
 51
320.6656666669
  0
ARC
  5
26A
100
AcDbEntity
  8
0
100
AcDbCircle
 62
9
  6
CONTINUOUS
 10
-3.7833582131
 20
15.8179195472
 40
16.4913073566
100
AcDbArc
 50
317.043576865
 51
317.5151306268
  0
ARC
  5
26B
100
AcDbEntity
  8
0
100
AcDbCircle
 62
9
  6
CONTINUOUS
 10
10.270410425
 20
-3.0782415003
 40
9.9335046451
100
AcDbArc
 50
137.3960267153
 51
137.6342543619
  0
ARC
  5
26C
100
AcDbEntity
  8
0
100
AcDbCircle
 62
6
  6
CONTINUOUS
 10
8.1553590596
 20
3.6161875735
 40
0.098
100
AcDbArc
 50
180.0
 51
270.0
  0
ARC
  5
26D
100
AcDbEntity
  8
0
100
AcDbCircle
 62
6
  6
CONTINUOUS
 10
7.9973590596
 20
3.6551875735
 40
0.039
100
AcDbArc
 50
180.0000000001
 51
270.0
  0
ARC
  5
26E
100
AcDbEntity
  8
0
100
AcDbCircle
 62
6
  6
CONTINUOUS
 10
8.1563590596
 20
3.6161875735
 40
0.098
100
AcDbArc
 50
270.0
 51
360.0
  0
ARC
  5
26F
100
AcDbEntity
  8
0
100
AcDbCircle
 62
6
  6
CONTINUOUS
 10
8.3143590596
 20
3.6551875735
 40
0.039
100
AcDbArc
 50
270.0
 51
359.9999999998
  0
ARC
  5
270
100
AcDbEntity
  8
0
100
AcDbCircle
 62
9
  6
CONTINUOUS
 10
15.2729104248
 20
-3.0782415001
 40
9.9335046448
100
AcDbArc
 50
137.3960267153
 51
137.6342543619
  0
ARC
  5
271
100
AcDbEntity
  8
0
100
AcDbCircle
 62
6
  6
CONTINUOUS
 10
26.2654698576
 20
-17.994508803
 40
31.9427964999
100
AcDbArc
 50
136.8600038221
 51
137.1489230746
  0
ARC
  5
272
100
AcDbEntity
  8
0
100
AcDbCircle
 62
7
  6
CONTINUOUS
 10
7.7780640021
 20
4.5319155443
 40
0.0402815114
100
AcDbArc
 50
176.3758906181
 51
180.0554019533
  0
ARC
  5
273
100
AcDbEntity
  8
0
100
AcDbCircle
 62
6
  6
CONTINUOUS
 10
7.9973590596
 20
4.5421939401
 40
0.039
100
AcDbArc
 50
90.0
 51
179.9999999999
  0
ARC
  5
274
100
AcDbEntity
  8
0
100
AcDbCircle
 62
6
  6
CONTINUOUS
 10
8.1563590596
 20
4.1471875735
 40
1.0825
100
AcDbArc
 50
214.3549770047
 51
172.6464713747
  0
ARC
  5
275
100
AcDbEntity
  8
0
100
AcDbCircle
 62
6
  6
CONTINUOUS
 10
8.1563590596
 20
4.1471875735
 40
0.925
100
AcDbArc
 50
221.2338677411
 51
171.3843612738
  0
ARC
  5
276
100
AcDbEntity
  8
0
100
AcDbCircle
 62
6
  6
CONTINUOUS
 10
8.1553590596
 20
4.5811926679
 40
0.098
100
AcDbArc
 50
90.0
 51
179.9949371535
  0
ARC
  5
277
100
AcDbEntity
  8
0
100
AcDbCircle
 62
6
  6
CONTINUOUS
 10
8.1563590596
 20
4.5811926679
 40
0.098
100
AcDbArc
 50
0.0050628464
 51
90.0
  0
ARC
  5
278
100
AcDbEntity
  8
0
100
AcDbCircle
 62
6
  6
CONTINUOUS
 10
8.3143590596
 20
4.5421939401
 40
0.039
100
AcDbArc
 50
0.0000000006
 51
90.0
  0
ARC
  5
279
100
AcDbEntity
  8
0
100
AcDbCircle
 62
9
  6
CONTINUOUS
 10
11.5114159595
 20
10.4161445664
 40
10.4838650626
100
AcDbArc
 50
219.4269579653
 51
219.8208710354
  0
ARC
  5
27A
100
AcDbEntity
  8
0
100
AcDbCircle
 62
6
  6
CONTINUOUS
 10
27.0039190772
 20
26.9754737281
 40
32.9504417115
100
AcDbArc
 50
222.8517475829
 51
223.1333589555
  0
ARC
  5
27B
100
AcDbEntity
  8
0
100
AcDbCircle
 62
6
  6
CONTINUOUS
 10
32.0064190768
 20
26.9754737278
 40
32.9504417111
100
AcDbArc
 50
222.8517475829
 51
223.1333589555
  0
SPLINE
  5
27C
100
AcDbEntity
  8
0
100
AcDbSpline
 62
7
  6
CONTINUOUS
 70
0
 71
3
 72
20
 73
16
 74
14
 42
0.0000001
 43
0.0000001
 44
0.0000000001
 12
0.000017713
 22
0.0537050325
 32
0.0
 13
-0.0537050318
 23
-0.0000196725
 33
0.0
 40
0.0
 40
0.0
 40
0.0
 40
0.0
 40
0.1247062159
 40
0.1873026596
 40
0.2499167652
 40
0.3125680196
 40
0.3752068402
 40
0.4377474348
 40
0.5001777163
 40
0.5625877229
 40
0.625090148
 40
0.6876955744
 40
0.750327707
 40
0.8753366144
 40
1.0
 40
1.0
 40
1.0
 40
1.0
 10
3.5714365196
 20
4.5318934365
 30
0.0
 10
3.5714372559
 20
4.534125887
 30
0.0
 10
3.5711614708
 20
4.5374891068
 30
0.0
 10
3.5702088885
 20
4.5418650204
 30
0.0
 10
3.5691880449
 20
4.5450752732
 30
0.0
 10
3.5678513808
 20
4.5481683363
 30
0.0
 10
3.5662049307
 20
4.5511071403
 30
0.0
 10
3.5642597509
 20
4.5538529168
 30
0.0
 10
3.5620263168
 20
4.556365557
 30
0.0
 10
3.5595155425
 20
4.558600259
 30
0.0
 10
3.5567697351
 20
4.5605427023
 30
0.0
 10
3.5538306015
 20
4.5621854543
 30
0.0
 10
3.5497109752
 20
4.5639629008
 30
0.0
 10
3.5442712725
 20
4.5653986949
 30
0.0
 10
3.5397927002
 20
4.5657634904
 30
0.0
 10
3.5375610165
 20
4.5657626729
 30
0.0
 11
3.5714365196
 21
4.5318934365
 31
0.0
 11
3.5708757981
 21
4.5385672744
 31
0.0
 11
3.5701581843
 21
4.541851533
 31
0.0
 11
3.5691356813
 21
4.5450549984
 31
0.0
 11
3.5677995352
 21
4.5481430135
 31
0.0
 11
3.5661538373
 21
4.5510770056
 31
0.0
 11
3.5642100643
 21
4.5538161503
 31
0.0
 11
3.5619797812
 21
4.5563195964
 31
0.0
 11
3.5594780883
 21
4.5585502101
 31
0.0
 11
3.5567396297
 21
4.5604914071
 31
0.0
 11
3.5538057658
 21
4.5621336648
 31
0.0
 11
3.5507178597
 21
4.5634674754
 31
0.0
 11
3.5442327161
 21
4.5652039781
 31
0.0
 11
3.5375610165
 21
4.5657626729
 31
0.0
  0
SPLINE
  5
27D
100
AcDbEntity
  8
0
100
AcDbSpline
 62
7
  6
CONTINUOUS
 70
0
 71
3
 72
30
 73
26
 74
24
 42
0.0000001
 43
0.0000001
 44
0.0000000001
 12
0.000001869
 22
0.1352227571
 32
0.0
 13
-0.1352227567
 23
-0.0000104826
 33
0.0
 40
0.0
 40
0.0
 40
0.0
 40
0.0
 40
0.062479351
 40
0.124985803
 40
0.1874784696
 40
0.2499659867
 40
0.3124552509
 40
0.3437100579
 40
0.374966042
 40
0.4062205858
 40
0.4374776031
 40
0.468736722
 40
0.499993018
 40
0.5312478684
 40
0.5625051548
 40
0.5937640367
 40
0.6250206743
 40
0.6562762845
 40
0.6875324337
 40
0.7500200756
 40
0.8125087672
 40
0.8749977404
 40
0.9062576549
 40
0.9375197146
 40
1.0
 40
1.0
 40
1.0
 40
1.0
 10
3.4593078086
 20
4.5929298281
 30
0.0
 10
3.4593078475
 20
4.5957460382
 30
0.0
 10
3.4590938055
 20
4.6013823039
 30
0.0
 10
3.4580978404
 20
4.6097830855
 30
0.0
 10
3.4563942964
 20
4.618071389
 30
0.0
 10
3.4539676314
 20
4.6261770435
 30
0.0
 10
3.4513281147
 20
4.6327184013
 30
0.0
 10
3.4488392828
 20
4.6377754023
 30
0.0
 10
3.4467826049
 20
4.6414698338
 30
0.0
 10
3.4445365223
 20
4.645052417
 30
0.0
 10
3.4421013204
 20
4.6485095835
 30
0.0
 10
3.4394796257
 20
4.6518277475
 30
0.0
 10
3.4366760352
 20
4.6549937538
 30
0.0
 10
3.4336942904
 20
4.6579925844
 30
0.0
 10
3.4305442041
 20
4.6608141332
 30
0.0
 10
3.427239067
 20
4.6634524037
 30
0.0
 10
3.4237907898
 20
4.665900367
 30
0.0
 10
3.4202123715
 20
4.6681536285
 30
0.0
 10
3.4152867654
 20
4.6708938888
 30
0.0
 10
3.4088651567
 20
4.6738185923
 30
0.0
 10
3.4008453852
 20
4.6765222761
 30
0.0
 10
3.3939723587
 20
4.6781105041
 30
0.0
 10
3.3884042497
 20
4.6789862816
 30
0.0
 10
3.3828022022
 20
4.6796029238
 30
0.0
 10
3.3785735685
 20
4.6797821938
 30
0.0
 10
3.3757573163
 20
4.6797819755
 30
0.0
 11
3.4593078086
 21
4.5929298281
 31
0.0
 11
3.4589814168
 21
4.6013721512
 31
0.0
 11
3.457979811
 21
4.6097648905
 31
0.0
 11
3.456273693
 21
4.6180412991
 31
0.0
 11
3.453844225
 21
4.6261342403
 31
0.0
 11
3.4506747908
 21
4.6339672914
 31
0.0
 11
3.4488076822
 21
4.6377588655
 31
0.0
 11
3.4467510131
 21
4.6414512342
 31
0.0
 11
3.4445050778
 21
4.6450314022
 31
0.0
 11
3.4420703019
 21
4.6484863293
 31
0.0
 11
3.439449217
 21
4.6518024975
 31
0.0
 11
3.4366462896
 21
4.6549659495
 31
0.0
 11
3.4336663277
 21
4.6579629489
 31
0.0
 11
3.4305184268
 21
4.6607835309
 31
0.0
 11
3.4272151191
 21
4.6634207538
 31
0.0
 11
3.4237690444
 21
4.6658679543
 31
0.0
 11
3.4201929711
 21
4.6681206742
 31
0.0
 11
3.4164997493
 21
4.6701758568
 31
0.0
 11
3.4088128005
 21
4.6736842914
 31
0.0
 11
3.4008075655
 21
4.6763892699
 31
0.0
 11
3.3925756521
 21
4.6782963461
 31
0.0
 11
3.3884000534
 21
4.6789538737
 31
0.0
 11
3.3841982045
 21
4.6794174305
 31
0.0
 11
3.3757573163
 21
4.6797819755
 31
0.0
  0
SPLINE
  5
27E
100
AcDbEntity
  8
0
100
AcDbSpline
 62
7
  6
CONTINUOUS
 70
0
 71
3
 72
29
 73
25
 74
23
 42
0.0000001
 43
0.0000001
 44
0.0000000001
 12
0.1351685358
 22
-0.0000040785
 32
0.0
 13
-0.0000045735
 23
0.1351685358
 33
0.0
 40
0.0
 40
0.0
 40
0.0
 40
0.0
 40
0.0624805299
 40
0.1249890684
 40
0.1562452031
 40
0.187496766
 40
0.2499852802
 40
0.3124747403
 40
0.3437316471
 40
0.374987787
 40
0.4062448505
 40
0.4375041889
 40
0.46876201
 40
0.5000174926
 40
0.5312744659
 40
0.5625341805
 40
0.593791618
 40
0.6250465325
 40
0.6875387842
 40
0.7500299159
 40
0.8125171472
 40
0.8750111786
 40
0.9375206373
 40
1.0
 40
1.0
 40
1.0
 40
1.0
 10
3.3757604601
 20
3.6155558301
 30
0.0
 10
3.378575594
 20
3.6155557451
 30
0.0
 10
3.3842101751
 20
3.615798893
 30
0.0
 10
3.3911981775
 20
3.616733512
 30
0.0
 10
3.3967165802
 20
3.6178723689
 30
0.0
 10
3.4021731194
 20
3.6192741811
 30
0.0
 10
3.4088551889
 20
3.6215265835
 30
0.0
 10
3.4152736509
 20
3.6244508377
 30
0.0
 10
3.4201972944
 20
3.6271903415
 30
0.0
 10
3.4237742272
 20
3.6294429104
 30
0.0
 10
3.4272210495
 20
3.6318901087
 30
0.0
 10
3.4305247366
 20
3.6345275805
 30
0.0
 10
3.4336734051
 20
3.637348282
 30
0.0
 10
3.4366537732
 20
3.6403462053
 30
0.0
 10
3.4394560573
 20
3.643511225
 30
0.0
 10
3.4420764803
 20
3.6468283052
 30
0.0
 10
3.4445104678
 20
3.6502844231
 30
0.0
 10
3.4475029958
 20
3.6550584931
 30
0.0
 10
3.4507716775
 20
3.6613080465
 30
0.0
 10
3.4539368539
 20
3.669152745
 30
0.0
 10
3.4563610559
 20
3.6772562717
 30
0.0
 10
3.4580626092
 20
3.6855414223
 30
0.0
 10
3.4590652619
 20
3.6939380445
 30
0.0
 10
3.4592833312
 20
3.6995721874
 30
0.0
 10
3.459283236
 20
3.7023872687
 30
0.0
 11
3.3757604601
 21
3.6155558301
 31
0.0
 11
3.3841977933
 21
3.6159249082
 31
0.0
 11
3.3925716297
 21
3.6170508014
 31
0.0
 11
3.3967091572
 21
3.6179053127
 31
0.0
 11
3.4008003152
 21
3.6189572293
 31
0.0
 11
3.4088023862
 21
3.6216609121
 31
0.0
 11
3.4164861979
 21
3.6251686518
 31
0.0
 11
3.4201779046
 21
3.6272232825
 31
0.0
 11
3.4237524927
 21
3.6294753148
 31
0.0
 11
3.4271971013
 21
3.6319217521
 31
0.0
 11
3.4304989608
 21
3.6345581714
 31
0.0
 11
3.4336454448
 21
3.6373779033
 31
0.0
 11
3.4366240377
 21
3.6403739946
 31
0.0
 11
3.4394256578
 21
3.6435364629
 31
0.0
 11
3.4420454774
 21
3.6468515734
 31
0.0
 11
3.4444790076
 21
3.6503053746
 31
0.0
 11
3.4467237439
 21
3.6538843533
 31
0.0
 11
3.4506455422
 21
3.6613657351
 31
0.0
 11
3.4538134145
 21
3.6691960354
 31
0.0
 11
3.4562405122
 21
3.67728611
 31
0.0
 11
3.4579460125
 21
3.6855593747
 31
0.0
 11
3.4589527768
 21
3.6939484926
 31
0.0
 11
3.459283236
 21
3.7023872687
 31
0.0
  0
LINE
  5
27F
100
AcDbEntity
  8
0
100
AcDbLine
 62
7
  6
CONTINUOUS
 10
2.7691700261
 20
3.7296144044
 11
2.7665849519
 21
3.7296915265
  0
SPLINE
  5
280
100
AcDbEntity
  8
0
100
AcDbSpline
 62
7
  6
CONTINUOUS
 70
0
 71
3
 72
20
 73
16
 74
14
 42
0.0000001
 43
0.0000001
 44
0.0000000001
 12
-0.0484739087
 22
0.0030829229
 32
0.0
 13
-0.0030826272
 23
0.0484739275
 33
0.0
 40
0.0
 40
0.0
 40
0.0
 40
0.0
 40
0.1247338874
 40
0.1873074233
 40
0.249902537
 40
0.3125322156
 40
0.375150522
 40
0.4376936263
 40
0.5001531738
 40
0.5625955198
 40
0.6251057338
 40
0.6876945581
 40
0.7503070513
 40
0.8753049902
 40
1.0
 40
1.0
 40
1.0
 40
1.0
 10
2.7665849519
 20
3.7296915265
 30
0.0
 10
2.7645695055
 20
3.7298197081
 30
0.0
 10
2.7615498798
 20
3.7302447999
 30
0.0
 10
2.7576395394
 20
3.7312974287
 30
0.0
 10
2.7547787237
 20
3.7323400792
 30
0.0
 10
2.7520251062
 20
3.7336414483
 30
0.0
 10
2.7494064146
 20
3.7351954406
 30
0.0
 10
2.7469518081
 20
3.7369932156
 30
0.0
 10
2.7446910787
 20
3.7390260633
 30
0.0
 10
2.7426572572
 20
3.7412853239
 30
0.0
 10
2.7408615247
 20
3.743739896
 30
0.0
 10
2.7393101658
 20
3.7463587468
 30
0.0
 10
2.7375782909
 20
3.7500264943
 30
0.0
 10
2.7360564922
 20
3.7548769445
 30
0.0
 10
2.7354911147
 20
3.7588988762
 30
0.0
 10
2.7353629853
 20
3.7609136951
 30
0.0
 11
2.7665849519
 21
3.7296915265
 31
0.0
 11
2.7605871316
 21
3.7305472384
 31
0.0
 11
2.757652828
 21
3.731339249
 31
0.0
 11
2.7547972198
 21
3.7323829405
 31
0.0
 11
2.7520473138
 21
3.7336837168
 31
0.0
 11
2.7494323679
 21
3.7352370035
 31
0.0
 11
2.7469826969
 21
3.7370335412
 31
0.0
 11
2.7447286216
 21
3.7390640432
 31
0.0
 11
2.7426978417
 21
3.7413167435
 31
0.0
 11
2.7409032126
 21
3.7437658328
 31
0.0
 11
2.7393523696
 21
3.7463805639
 31
0.0
 11
2.738052942
 21
3.7491301842
 31
0.0
 11
2.7362182424
 21
3.7549177174
 31
0.0
 11
2.7353629853
 21
3.7609136951
 31
0.0
  0
SPLINE
  5
281
100
AcDbEntity
  8
0
100
AcDbSpline
 62
7
  6
CONTINUOUS
 70
0
 71
3
 72
20
 73
16
 74
14
 42
0.0000001
 43
0.0000001
 44
0.0000000001
 12
0.0032458619
 22
0.0510337656
 32
0.0
 13
0.0511368807
 23
-0.0000167073
 33
0.0
 40
0.0
 40
0.0
 40
0.0
 40
0.0
 40
0.1247224594
 40
0.1873062093
 40
0.2499076305
 40
0.3125480154
 40
0.3751798312
 40
0.4377317165
 40
0.5001878435
 40
0.5626169417
 40
0.6251232118
 40
0.6877228333
 40
0.7503485349
 40
0.8753422585
 40
1.0
 40
1.0
 40
1.0
 40
1.0
 10
2.7353630449
 20
4.5344617577
 30
0.0
 10
2.7354979889
 20
4.5365834432
 30
0.0
 10
2.7359582226
 20
4.5397626959
 30
0.0
 10
2.7371117857
 20
4.543867648
 30
0.0
 10
2.73825931
 20
4.5468620846
 30
0.0
 10
2.7396957246
 20
4.549730135
 30
0.0
 10
2.7414109501
 20
4.5524399481
 30
0.0
 10
2.7433918772
 20
4.55495837
 30
0.0
 10
2.7456258758
 20
4.5572514032
 30
0.0
 10
2.7480996724
 20
4.5592822038
 30
0.0
 10
2.7507749508
 20
4.5610420326
 30
0.0
 10
2.7536155443
 20
4.5625268732
 30
0.0
 10
2.7575731024
 20
4.5641325094
 30
0.0
 10
2.7627652936
 20
4.5654335069
 30
0.0
 10
2.7670285637
 20
4.5657653688
 30
0.0
 10
2.769153433
 20
4.5657646746
 30
0.0
 11
2.7353630449
 21
4.5344617577
 31
0.0
 11
2.7362901953
 21
4.5407719263
 31
0.0
 11
2.7371584339
 21
4.5438522387
 31
0.0
 11
2.7383071387
 21
4.5468402858
 31
0.0
 11
2.739742349
 21
4.5497040036
 31
0.0
 11
2.7414563333
 21
4.5524095829
 31
0.0
 11
2.7434355056
 21
4.5549224722
 31
0.0
 11
2.7456662586
 21
4.5572081174
 31
0.0
 11
2.7481318537
 21
4.5592360343
 31
0.0
 11
2.7508006533
 21
4.5609951044
 31
0.0
 11
2.7536365929
 21
4.562479963
 31
0.0
 11
2.7566036089
 21
4.563685249
 31
0.0
 11
2.7627990426
 21
4.5652573731
 31
0.0
 11
2.769153433
 21
4.5657646746
 31
0.0
  0
SPLINE
  5
282
100
AcDbEntity
  8
0
100
AcDbSpline
 62
7
  6
CONTINUOUS
 70
0
 71
3
 72
28
 73
24
 74
22
 42
0.0000001
 43
0.0000001
 44
0.0000000001
 12
-0.1351698697
 22
0.0000016963
 32
0.0
 13
0.0000041481
 23
-0.1351698697
 33
0.0
 40
0.0
 40
0.0
 40
0.0
 40
0.0
 40
0.0624814517
 40
0.1249905581
 40
0.187481335
 40
0.2499714985
 40
0.3124621592
 40
0.3437193986
 40
0.3749758685
 40
0.4062334421
 40
0.4374934391
 40
0.4687519578
 40
0.5000081191
 40
0.531265727
 40
0.562526
 40
0.593783915
 40
0.6250393078
 40
0.6875326005
 40
0.7500251925
 40
0.8125140106
 40
0.875009389
 40
0.9375197522
 40
1.0
 40
1.0
 40
1.0
 40
1.0
 10
2.930960801
 20
4.6797620179
 30
0.0
 10
2.9281455978
 20
4.6797620532
 30
0.0
 10
2.9225106441
 20
4.6795190711
 30
0.0
 10
2.9141266199
 20
4.6783980515
 30
0.0
 10
2.9058827219
 20
4.6764939885
 30
0.0
 10
2.8978654341
 20
4.6737914699
 30
0.0
 10
2.8914464669
 20
4.6708671492
 30
0.0
 10
2.8865226855
 20
4.6681276797
 30
0.0
 10
2.8829456194
 20
4.6658751319
 30
0.0
 10
2.8794986579
 20
4.6634279447
 30
0.0
 10
2.8761947929
 20
4.6607904943
 30
0.0
 10
2.8730459285
 20
4.6579698114
 30
0.0
 10
2.8700653763
 20
4.6549718845
 30
0.0
 10
2.8672628918
 20
4.6518068747
 30
0.0
 10
2.8646422629
 20
4.6484898081
 30
0.0
 10
2.8622080771
 20
4.6450336953
 30
0.0
 10
2.859215283
 20
4.6402596201
 30
0.0
 10
2.855946272
 20
4.6340100081
 30
0.0
 10
2.8527807132
 20
4.6261651741
 30
0.0
 10
2.8503561853
 20
4.6180614488
 30
0.0
 10
2.8486543908
 20
4.6097760844
 30
0.0
 10
2.8476515531
 20
4.6013792566
 30
0.0
 10
2.8474334248
 20
4.5957449774
 30
0.0
 10
2.8474335112
 20
4.5929298284
 30
0.0
 11
2.930960801
 21
4.6797620179
 31
0.0
 11
2.9225232533
 21
4.6793930851
 31
0.0
 11
2.9141492276
 21
4.6782673982
 31
0.0
 11
2.9059203285
 21
4.676360874
 31
0.0
 11
2.8979179724
 21
4.6736570779
 31
0.0
 11
2.8902338892
 21
4.6701493413
 31
0.0
 11
2.8865420687
 21
4.6680947371
 31
0.0
 11
2.8829673617
 21
4.6658427317
 31
0.0
 11
2.8795226072
 21
4.6633963087
 31
0.0
 11
2.8762205681
 21
4.6607599049
 31
0.0
 11
2.8730738901
 21
4.6579401857
 31
0.0
 11
2.8700951071
 21
4.6549440953
 31
0.0
 11
2.8672932872
 21
4.6517816336
 31
0.0
 11
2.8646732641
 21
4.6484665346
 31
0.0
 11
2.862239537
 21
4.6450127423
 31
0.0
 11
2.8599946038
 21
4.6414337615
 31
0.0
 11
2.8560724189
 21
4.6339523294
 31
0.0
 11
2.8529041649
 21
4.6261218807
 31
0.0
 11
2.8504767396
 21
4.6180315933
 31
0.0
 11
2.8487709927
 21
4.6097581085
 31
0.0
 11
2.8477640538
 21
4.6013688044
 31
0.0
 11
2.8474335112
 21
4.5929298284
 31
0.0
  0
LINE
  5
283
100
AcDbEntity
  8
0
100
AcDbLine
 62
6
  6
CONTINUOUS
 10
3.2518590148
 20
4.4051705349
 11
3.2518589955
 21
4.3978747503
  0
LINE
  5
284
100
AcDbEntity
  8
0
100
AcDbLine
 62
6
  6
CONTINUOUS
 10
3.0548591304
 20
4.3978747543
 11
3.0548591005
 21
4.1999518933
  0
LINE
  5
285
100
AcDbEntity
  8
0
100
AcDbLine
 62
6
  6
CONTINUOUS
 10
3.0548591005
 20
4.1999518933
 11
3.0548590999
 21
3.9575486137
  0
SPLINE
  5
286
100
AcDbEntity
  8
0
100
AcDbSpline
 62
7
  6
CONTINUOUS
 70
0
 71
3
 72
30
 73
26
 74
24
 42
0.0000001
 43
0.0000001
 44
0.0000000001
 12
-0.13521987
 22
-0.0000100081
 32
0.0
 13
0.0000039909
 23
0.1352198703
 33
0.0
 40
0.0
 40
0.0
 40
0.0
 40
0.0
 40
0.0623689078
 40
0.1248908475
 40
0.1874545593
 40
0.2187482133
 40
0.2500424307
 40
0.3125761684
 40
0.3438292995
 40
0.3750709009
 40
0.4063134457
 40
0.4375725689
 40
0.4688505343
 40
0.500142126
 40
0.5314382919
 40
0.56272725
 40
0.5939955849
 40
0.6252342067
 40
0.6564590335
 40
0.6876876113
 40
0.7501667352
 40
0.8126787368
 40
0.8751838249
 40
0.9376531332
 40
1.0
 40
1.0
 40
1.0
 40
1.0
 10
2.9309576612
 20
3.6155327267
 30
0.0
 10
2.9281464893
 20
3.6155325186
 30
0.0
 10
2.9225139357
 20
3.6157770606
 30
0.0
 10
2.9141282996
 20
3.6168964532
 30
0.0
 10
2.9072473031
 20
3.6184780572
 30
0.0
 10
2.9018556945
 20
3.6201440261
 30
0.0
 10
2.8965565838
 20
3.622079414
 30
0.0
 10
2.8914140106
 20
3.6244200215
 30
0.0
 10
2.8864870768
 20
3.6271600852
 30
0.0
 10
2.8829110914
 20
3.6294145971
 30
0.0
 10
2.8794679832
 20
3.6318677081
 30
0.0
 10
2.8761714136
 20
3.6345171661
 30
0.0
 10
2.8730289021
 20
3.6373507703
 30
0.0
 10
2.8700485576
 20
3.6403567606
 30
0.0
 10
2.8672385209
 20
3.6435231404
 30
0.0
 10
2.8646070075
 20
3.6468379937
 30
0.0
 10
2.8621619271
 20
3.6502895068
 30
0.0
 10
2.8599112393
 20
3.6538673119
 30
0.0
 10
2.8578549019
 20
3.6575581239
 30
0.0
 10
2.8553693423
 20
3.6626132608
 30
0.0
 10
2.8527364559
 20
3.669156702
 30
0.0
 10
2.8503197167
 20
3.6772663945
 30
0.0
 10
2.8486234372
 20
3.685555746
 30
0.0
 10
2.847624702
 20
3.6939486228
 30
0.0
 10
2.8474072126
 20
3.699577091
 30
0.0
 10
2.8474072955
 20
3.7023872694
 30
0.0
 11
2.9309576612
 21
3.6155327267
 31
0.0
 11
2.9225322237
 21
3.6159017662
 31
0.0
 11
2.9141530521
 21
3.6170256545
 31
0.0
 11
2.9059097825
 21
3.6189276764
 31
0.0
 11
2.9018671243
 21
3.6201777599
 31
0.0
 11
2.8978925492
 21
3.6216300655
 31
0.0
 11
2.8901991337
 21
3.6251389083
 31
0.0
 11
2.886506276
 21
3.6271937204
 31
0.0
 11
2.882933307
 21
3.6294476432
 31
0.0
 11
2.8794932176
 21
3.6318998135
 31
0.0
 11
2.8761980176
 21
3.634547068
 31
0.0
 11
2.8730565779
 21
3.6373788875
 31
0.0
 11
2.870077143
 21
3.6403832845
 31
0.0
 11
2.8672679575
 21
3.643548272
 31
0.0
 11
2.864637266
 21
3.6468618626
 31
0.0
 11
2.862193313
 21
3.6503120691
 31
0.0
 11
2.859943156
 21
3.6538869349
 31
0.0
 11
2.8578870287
 21
3.6575746791
 31
0.0
 11
2.8560227315
 21
3.6613635835
 31
0.0
 11
2.8528608175
 21
3.6691980001
 31
0.0
 11
2.8504397215
 21
3.6772967171
 31
0.0
 11
2.8487392753
 21
3.6855758234
 31
0.0
 11
2.8477362664
 21
3.6939631551
 31
0.0
 11
2.8474072955
 21
3.7023872694
 31
0.0
  0
LINE
  5
287
100
AcDbEntity
  8
0
100
AcDbLine
 62
6
  6
CONTINUOUS
 10
3.05485906
 20
4.4051705295
 11
3.05485911
 21
4.3978747543
  0
SPLINE
  5
288
100
AcDbEntity
  8
0
100
AcDbSpline
 62
7
  6
CONTINUOUS
 70
0
 71
3
 72
21
 73
17
 74
15
 42
0.0000001
 43
0.0000001
 44
0.0000000001
 12
0.0510609083
 22
0.0032415349
 32
0.0
 13
-0.000037873
 23
0.0511636831
 33
0.0
 40
0.0
 40
0.0
 40
0.0
 40
0.0
 40
0.1247215396
 40
0.187307357
 40
0.2499036585
 40
0.3125273209
 40
0.3751366132
 40
0.4376643497
 40
0.5000987594
 40
0.5625120223
 40
0.6250055412
 40
0.6875926943
 40
0.7502064167
 40
0.8127829365
 40
0.8753324616
 40
1.0
 40
1.0
 40
1.0
 40
1.0
 10
8.5426297336
 20
3.7296903048
 30
0.0
 10
8.5447525319
 20
3.7298250679
 30
0.0
 10
8.5479334756
 20
3.7302857505
 30
0.0
 10
8.5520404681
 20
3.7314400129
 30
0.0
 10
8.5550362221
 20
3.7325878244
 30
0.0
 10
8.5579052904
 20
3.7340242841
 30
0.0
 10
8.5606155629
 20
3.7357399338
 30
0.0
 10
8.5631341093
 20
3.7377215572
 30
0.0
 10
8.5654268778
 20
3.7399567398
 30
0.0
 10
8.5674575349
 20
3.7424316752
 30
0.0
 10
8.5692177512
 20
3.7451078869
 30
0.0
 10
8.5707029065
 20
3.7479493783
 30
0.0
 10
8.5719078979
 20
3.7509216345
 30
0.0
 10
8.5728296585
 20
3.7539928342
 30
0.0
 10
8.5736905741
 20
3.7581689298
 30
0.0
 10
8.5739394984
 20
3.7613706706
 30
0.0
 10
8.5739379245
 20
3.7634968207
 30
0.0
 11
8.5426297336
 21
3.7296903048
 31
0.0
 11
8.5489431694
 21
3.7306179009
 31
0.0
 11
8.5520251837
 21
3.7314866767
 31
0.0
 11
8.5550146181
 21
3.7326357204
 31
0.0
 11
8.5578792
 21
3.7340710458
 31
0.0
 11
8.5605851775
 21
3.7357853863
 31
0.0
 11
8.5630981024
 21
3.7377652273
 31
0.0
 11
8.5653835225
 21
3.7399970175
 31
0.0
 11
8.5674114061
 21
3.7424637583
 31
0.0
 11
8.5691708021
 21
3.745133569
 31
0.0
 11
8.5706559067
 21
3.7479705544
 31
0.0
 11
8.5718609323
 21
3.7509388271
 31
0.0
 11
8.572783998
 21
3.7540045224
 31
0.0
 11
8.573432245
 21
3.7571384451
 31
0.0
 11
8.5739379245
 21
3.7634968207
 31
0.0
  0
LINE
  5
289
100
AcDbEntity
  8
0
100
AcDbLine
 62
7
  6
CONTINUOUS
 10
8.5400482231
 20
3.7296116757
 11
8.5426297336
 21
3.7296903048
  0
SPLINE
  5
28A
100
AcDbEntity
  8
0
100
AcDbSpline
 62
7
  6
CONTINUOUS
 70
0
 71
3
 72
20
 73
16
 74
14
 42
0.0000001
 43
0.0000001
 44
0.0000000001
 12
0.000017713
 22
0.0537050325
 32
0.0
 13
-0.0537050318
 23
-0.0000196725
 33
0.0
 40
0.0
 40
0.0
 40
0.0
 40
0.0
 40
0.1247062159
 40
0.1873026596
 40
0.2499167652
 40
0.3125680196
 40
0.3752068402
 40
0.4377474348
 40
0.5001777163
 40
0.5625877229
 40
0.625090148
 40
0.6876955744
 40
0.750327707
 40
0.8753366144
 40
1.0
 40
1.0
 40
1.0
 40
1.0
 10
8.5739365196
 20
4.5318934365
 30
0.0
 10
8.5739372559
 20
4.534125887
 30
0.0
 10
8.5736614708
 20
4.5374891068
 30
0.0
 10
8.5727088885
 20
4.5418650204
 30
0.0
 10
8.5716880449
 20
4.5450752732
 30
0.0
 10
8.5703513808
 20
4.5481683363
 30
0.0
 10
8.5687049307
 20
4.5511071403
 30
0.0
 10
8.5667597509
 20
4.5538529168
 30
0.0
 10
8.5645263168
 20
4.556365557
 30
0.0
 10
8.5620155425
 20
4.558600259
 30
0.0
 10
8.5592697351
 20
4.5605427023
 30
0.0
 10
8.5563306015
 20
4.5621854543
 30
0.0
 10
8.5522109752
 20
4.5639629008
 30
0.0
 10
8.5467712725
 20
4.5653986949
 30
0.0
 10
8.5422927002
 20
4.5657634904
 30
0.0
 10
8.5400610165
 20
4.5657626729
 30
0.0
 11
8.5739365196
 21
4.5318934365
 31
0.0
 11
8.5733757981
 21
4.5385672744
 31
0.0
 11
8.5726581843
 21
4.541851533
 31
0.0
 11
8.5716356813
 21
4.5450549984
 31
0.0
 11
8.5702995352
 21
4.5481430135
 31
0.0
 11
8.5686538373
 21
4.5510770056
 31
0.0
 11
8.5667100643
 21
4.5538161503
 31
0.0
 11
8.5644797812
 21
4.5563195964
 31
0.0
 11
8.5619780883
 21
4.5585502101
 31
0.0
 11
8.5592396297
 21
4.5604914071
 31
0.0
 11
8.5563057658
 21
4.5621336648
 31
0.0
 11
8.5532178597
 21
4.5634674754
 31
0.0
 11
8.5467327161
 21
4.5652039781
 31
0.0
 11
8.5400610165
 21
4.5657626729
 31
0.0
  0
SPLINE
  5
28B
100
AcDbEntity
  8
0
100
AcDbSpline
 62
7
  6
CONTINUOUS
 70
0
 71
3
 72
30
 73
26
 74
24
 42
0.0000001
 43
0.0000001
 44
0.0000000001
 12
0.000001869
 22
0.1352227571
 32
0.0
 13
-0.1352227567
 23
-0.0000104826
 33
0.0
 40
0.0
 40
0.0
 40
0.0
 40
0.0
 40
0.062479351
 40
0.124985803
 40
0.1874784696
 40
0.2499659867
 40
0.3124552509
 40
0.3437100579
 40
0.374966042
 40
0.4062205858
 40
0.4374776031
 40
0.468736722
 40
0.499993018
 40
0.5312478684
 40
0.5625051548
 40
0.5937640367
 40
0.6250206743
 40
0.6562762845
 40
0.6875324337
 40
0.7500200756
 40
0.8125087672
 40
0.8749977404
 40
0.9062576549
 40
0.9375197146
 40
1.0
 40
1.0
 40
1.0
 40
1.0
 10
8.4618078086
 20
4.5929298281
 30
0.0
 10
8.4618078475
 20
4.5957460382
 30
0.0
 10
8.4615938055
 20
4.6013823039
 30
0.0
 10
8.4605978404
 20
4.6097830855
 30
0.0
 10
8.4588942964
 20
4.618071389
 30
0.0
 10
8.4564676314
 20
4.6261770435
 30
0.0
 10
8.4538281147
 20
4.6327184013
 30
0.0
 10
8.4513392828
 20
4.6377754023
 30
0.0
 10
8.4492826049
 20
4.6414698338
 30
0.0
 10
8.4470365223
 20
4.645052417
 30
0.0
 10
8.4446013204
 20
4.6485095835
 30
0.0
 10
8.4419796257
 20
4.6518277475
 30
0.0
 10
8.4391760352
 20
4.6549937538
 30
0.0
 10
8.4361942904
 20
4.6579925844
 30
0.0
 10
8.4330442041
 20
4.6608141332
 30
0.0
 10
8.429739067
 20
4.6634524037
 30
0.0
 10
8.4262907898
 20
4.665900367
 30
0.0
 10
8.4227123715
 20
4.6681536285
 30
0.0
 10
8.4177867654
 20
4.6708938888
 30
0.0
 10
8.4113651567
 20
4.6738185923
 30
0.0
 10
8.4033453852
 20
4.6765222761
 30
0.0
 10
8.3964723587
 20
4.6781105041
 30
0.0
 10
8.3909042497
 20
4.6789862816
 30
0.0
 10
8.3853022022
 20
4.6796029238
 30
0.0
 10
8.3810735685
 20
4.6797821938
 30
0.0
 10
8.3782573163
 20
4.6797819755
 30
0.0
 11
8.4618078086
 21
4.5929298281
 31
0.0
 11
8.4614814168
 21
4.6013721512
 31
0.0
 11
8.460479811
 21
4.6097648905
 31
0.0
 11
8.458773693
 21
4.6180412991
 31
0.0
 11
8.456344225
 21
4.6261342403
 31
0.0
 11
8.4531747908
 21
4.6339672914
 31
0.0
 11
8.4513076822
 21
4.6377588655
 31
0.0
 11
8.4492510131
 21
4.6414512342
 31
0.0
 11
8.4470050778
 21
4.6450314022
 31
0.0
 11
8.4445703019
 21
4.6484863293
 31
0.0
 11
8.441949217
 21
4.6518024975
 31
0.0
 11
8.4391462896
 21
4.6549659495
 31
0.0
 11
8.4361663277
 21
4.6579629489
 31
0.0
 11
8.4330184268
 21
4.6607835309
 31
0.0
 11
8.4297151191
 21
4.6634207538
 31
0.0
 11
8.4262690444
 21
4.6658679543
 31
0.0
 11
8.4226929711
 21
4.6681206742
 31
0.0
 11
8.4189997493
 21
4.6701758568
 31
0.0
 11
8.4113128005
 21
4.6736842914
 31
0.0
 11
8.4033075655
 21
4.6763892699
 31
0.0
 11
8.3950756521
 21
4.6782963461
 31
0.0
 11
8.3909000534
 21
4.6789538737
 31
0.0
 11
8.3866982045
 21
4.6794174305
 31
0.0
 11
8.3782573163
 21
4.6797819755
 31
0.0
  0
SPLINE
  5
28C
100
AcDbEntity
  8
0
100
AcDbSpline
 62
7
  6
CONTINUOUS
 70
0
 71
3
 72
29
 73
25
 74
23
 42
0.0000001
 43
0.0000001
 44
0.0000000001
 12
0.1351685358
 22
-0.0000040785
 32
0.0
 13
-0.0000045735
 23
0.1351685358
 33
0.0
 40
0.0
 40
0.0
 40
0.0
 40
0.0
 40
0.0624805299
 40
0.1249890684
 40
0.1562452031
 40
0.187496766
 40
0.2499852802
 40
0.3124747403
 40
0.3437316471
 40
0.374987787
 40
0.4062448505
 40
0.4375041889
 40
0.46876201
 40
0.5000174926
 40
0.5312744659
 40
0.5625341805
 40
0.593791618
 40
0.6250465325
 40
0.6875387842
 40
0.7500299159
 40
0.8125171472
 40
0.8750111786
 40
0.9375206373
 40
1.0
 40
1.0
 40
1.0
 40
1.0
 10
8.3782604601
 20
3.6155558301
 30
0.0
 10
8.381075594
 20
3.6155557451
 30
0.0
 10
8.3867101751
 20
3.615798893
 30
0.0
 10
8.3936981775
 20
3.616733512
 30
0.0
 10
8.3992165802
 20
3.6178723689
 30
0.0
 10
8.4046731194
 20
3.6192741811
 30
0.0
 10
8.4113551889
 20
3.6215265835
 30
0.0
 10
8.4177736509
 20
3.6244508377
 30
0.0
 10
8.4226972944
 20
3.6271903415
 30
0.0
 10
8.4262742272
 20
3.6294429104
 30
0.0
 10
8.4297210495
 20
3.6318901087
 30
0.0
 10
8.4330247366
 20
3.6345275805
 30
0.0
 10
8.4361734051
 20
3.637348282
 30
0.0
 10
8.4391537732
 20
3.6403462053
 30
0.0
 10
8.4419560573
 20
3.643511225
 30
0.0
 10
8.4445764803
 20
3.6468283052
 30
0.0
 10
8.4470104678
 20
3.6502844231
 30
0.0
 10
8.4500029958
 20
3.6550584931
 30
0.0
 10
8.4532716775
 20
3.6613080465
 30
0.0
 10
8.4564368539
 20
3.669152745
 30
0.0
 10
8.4588610559
 20
3.6772562717
 30
0.0
 10
8.4605626092
 20
3.6855414223
 30
0.0
 10
8.4615652619
 20
3.6939380445
 30
0.0
 10
8.4617833312
 20
3.6995721874
 30
0.0
 10
8.461783236
 20
3.7023872687
 30
0.0
 11
8.3782604601
 21
3.6155558301
 31
0.0
 11
8.3866977933
 21
3.6159249082
 31
0.0
 11
8.3950716297
 21
3.6170508014
 31
0.0
 11
8.3992091572
 21
3.6179053127
 31
0.0
 11
8.4033003152
 21
3.6189572293
 31
0.0
 11
8.4113023862
 21
3.6216609121
 31
0.0
 11
8.4189861979
 21
3.6251686518
 31
0.0
 11
8.4226779046
 21
3.6272232825
 31
0.0
 11
8.4262524927
 21
3.6294753148
 31
0.0
 11
8.4296971013
 21
3.6319217521
 31
0.0
 11
8.4329989608
 21
3.6345581714
 31
0.0
 11
8.4361454448
 21
3.6373779033
 31
0.0
 11
8.4391240377
 21
3.6403739946
 31
0.0
 11
8.4419256578
 21
3.6435364629
 31
0.0
 11
8.4445454774
 21
3.6468515734
 31
0.0
 11
8.4469790076
 21
3.6503053746
 31
0.0
 11
8.4492237439
 21
3.6538843533
 31
0.0
 11
8.4531455422
 21
3.6613657351
 31
0.0
 11
8.4563134145
 21
3.6691960354
 31
0.0
 11
8.4587405122
 21
3.67728611
 31
0.0
 11
8.4604460125
 21
3.6855593747
 31
0.0
 11
8.4614527768
 21
3.6939484926
 31
0.0
 11
8.461783236
 21
3.7023872687
 31
0.0
  0
SPLINE
  5
28D
100
AcDbEntity
  8
0
100
AcDbSpline
 62
7
  6
CONTINUOUS
 70
0
 71
3
 72
20
 73
16
 74
14
 42
0.0000001
 43
0.0000001
 44
0.0000000001
 12
0.0032458619
 22
0.0510337656
 32
0.0
 13
0.0511368807
 23
-0.0000167073
 33
0.0
 40
0.0
 40
0.0
 40
0.0
 40
0.0
 40
0.1247224594
 40
0.1873062093
 40
0.2499076305
 40
0.3125480154
 40
0.3751798312
 40
0.4377317165
 40
0.5001878435
 40
0.5626169417
 40
0.6251232118
 40
0.6877228333
 40
0.7503485349
 40
0.8753422585
 40
1.0
 40
1.0
 40
1.0
 40
1.0
 10
7.7378630449
 20
4.5344617577
 30
0.0
 10
7.7379979889
 20
4.5365834432
 30
0.0
 10
7.7384582226
 20
4.5397626959
 30
0.0
 10
7.7396117857
 20
4.543867648
 30
0.0
 10
7.74075931
 20
4.5468620846
 30
0.0
 10
7.7421957246
 20
4.549730135
 30
0.0
 10
7.7439109501
 20
4.5524399481
 30
0.0
 10
7.7458918772
 20
4.55495837
 30
0.0
 10
7.7481258758
 20
4.5572514032
 30
0.0
 10
7.7505996724
 20
4.5592822038
 30
0.0
 10
7.7532749508
 20
4.5610420326
 30
0.0
 10
7.7561155443
 20
4.5625268732
 30
0.0
 10
7.7600731024
 20
4.5641325094
 30
0.0
 10
7.7652652936
 20
4.5654335069
 30
0.0
 10
7.7695285637
 20
4.5657653688
 30
0.0
 10
7.771653433
 20
4.5657646746
 30
0.0
 11
7.7378630449
 21
4.5344617577
 31
0.0
 11
7.7387901953
 21
4.5407719263
 31
0.0
 11
7.7396584339
 21
4.5438522387
 31
0.0
 11
7.7408071387
 21
4.5468402858
 31
0.0
 11
7.742242349
 21
4.5497040036
 31
0.0
 11
7.7439563333
 21
4.5524095829
 31
0.0
 11
7.7459355056
 21
4.5549224722
 31
0.0
 11
7.7481662586
 21
4.5572081174
 31
0.0
 11
7.7506318537
 21
4.5592360343
 31
0.0
 11
7.7533006533
 21
4.5609951044
 31
0.0
 11
7.7561365929
 21
4.562479963
 31
0.0
 11
7.7591036089
 21
4.563685249
 31
0.0
 11
7.7652990426
 21
4.5652573731
 31
0.0
 11
7.771653433
 21
4.5657646746
 31
0.0
  0
SPLINE
  5
28E
100
AcDbEntity
  8
0
100
AcDbSpline
 62
7
  6
CONTINUOUS
 70
0
 71
3
 72
28
 73
24
 74
22
 42
0.0000001
 43
0.0000001
 44
0.0000000001
 12
-0.1351698697
 22
0.0000016963
 32
0.0
 13
0.0000041481
 23
-0.1351698697
 33
0.0
 40
0.0
 40
0.0
 40
0.0
 40
0.0
 40
0.0624814517
 40
0.1249905581
 40
0.187481335
 40
0.2499714985
 40
0.3124621592
 40
0.3437193986
 40
0.3749758685
 40
0.4062334421
 40
0.4374934391
 40
0.4687519578
 40
0.5000081191
 40
0.531265727
 40
0.562526
 40
0.593783915
 40
0.6250393078
 40
0.6875326005
 40
0.7500251925
 40
0.8125140106
 40
0.875009389
 40
0.9375197522
 40
1.0
 40
1.0
 40
1.0
 40
1.0
 10
7.933460801
 20
4.6797620179
 30
0.0
 10
7.9306455978
 20
4.6797620532
 30
0.0
 10
7.9250106441
 20
4.6795190711
 30
0.0
 10
7.9166266199
 20
4.6783980515
 30
0.0
 10
7.9083827219
 20
4.6764939885
 30
0.0
 10
7.9003654341
 20
4.6737914699
 30
0.0
 10
7.8939464669
 20
4.6708671492
 30
0.0
 10
7.8890226855
 20
4.6681276797
 30
0.0
 10
7.8854456194
 20
4.6658751319
 30
0.0
 10
7.8819986579
 20
4.6634279447
 30
0.0
 10
7.8786947929
 20
4.6607904943
 30
0.0
 10
7.8755459285
 20
4.6579698114
 30
0.0
 10
7.8725653763
 20
4.6549718845
 30
0.0
 10
7.8697628918
 20
4.6518068747
 30
0.0
 10
7.8671422629
 20
4.6484898081
 30
0.0
 10
7.8647080771
 20
4.6450336953
 30
0.0
 10
7.861715283
 20
4.6402596201
 30
0.0
 10
7.858446272
 20
4.6340100081
 30
0.0
 10
7.8552807132
 20
4.6261651741
 30
0.0
 10
7.8528561853
 20
4.6180614488
 30
0.0
 10
7.8511543908
 20
4.6097760844
 30
0.0
 10
7.8501515531
 20
4.6013792566
 30
0.0
 10
7.8499334248
 20
4.5957449774
 30
0.0
 10
7.8499335112
 20
4.5929298284
 30
0.0
 11
7.933460801
 21
4.6797620179
 31
0.0
 11
7.9250232533
 21
4.6793930851
 31
0.0
 11
7.9166492276
 21
4.6782673982
 31
0.0
 11
7.9084203285
 21
4.676360874
 31
0.0
 11
7.9004179724
 21
4.6736570779
 31
0.0
 11
7.8927338892
 21
4.6701493413
 31
0.0
 11
7.8890420687
 21
4.6680947371
 31
0.0
 11
7.8854673617
 21
4.6658427317
 31
0.0
 11
7.8820226072
 21
4.6633963087
 31
0.0
 11
7.8787205681
 21
4.6607599049
 31
0.0
 11
7.8755738901
 21
4.6579401857
 31
0.0
 11
7.8725951071
 21
4.6549440953
 31
0.0
 11
7.8697932872
 21
4.6517816336
 31
0.0
 11
7.8671732641
 21
4.6484665346
 31
0.0
 11
7.864739537
 21
4.6450127423
 31
0.0
 11
7.8624946038
 21
4.6414337615
 31
0.0
 11
7.8585724189
 21
4.6339523294
 31
0.0
 11
7.8554041649
 21
4.6261218807
 31
0.0
 11
7.8529767396
 21
4.6180315933
 31
0.0
 11
7.8512709927
 21
4.6097581085
 31
0.0
 11
7.8502640538
 21
4.6013688044
 31
0.0
 11
7.8499335112
 21
4.5929298284
 31
0.0
  0
LINE
  5
28F
100
AcDbEntity
  8
0
100
AcDbLine
 62
6
  6
CONTINUOUS
 10
8.2543590148
 20
4.4051705349
 11
8.2543589955
 21
4.3978747503
  0
LINE
  5
290
100
AcDbEntity
  8
0
100
AcDbLine
 62
6
  6
CONTINUOUS
 10
8.0573591304
 20
4.3978747543
 11
8.0573591005
 21
4.1999518933
  0
LINE
  5
291
100
AcDbEntity
  8
0
100
AcDbLine
 62
6
  6
CONTINUOUS
 10
8.0573591005
 20
4.1999518933
 11
8.0573590999
 21
3.9575486137
  0
SPLINE
  5
292
100
AcDbEntity
  8
0
100
AcDbSpline
 62
7
  6
CONTINUOUS
 70
0
 71
3
 72
17
 73
13
 74
11
 42
0.0000001
 43
0.0000001
 44
0.0000000001
 12
-0.0610222119
 22
-0.0000045165
 32
0.0
 13
-0.0454652036
 23
0.0407016661
 33
0.0
 40
0.0
 40
0.0
 40
0.0
 40
0.0
 40
0.1247027525
 40
0.2497064181
 40
0.3748131782
 40
0.4999355408
 40
0.6250377673
 40
0.7500322022
 40
0.8125089855
 40
0.8749798932
 40
0.9374722697
 40
1.0
 40
1.0
 40
1.0
 40
1.0
 10
7.9334576612
 20
3.6155327267
 30
0.0
 10
7.9309211152
 20
3.6155325389
 30
0.0
 10
7.925839533
 20
3.6157315803
 30
0.0
 10
7.918261886
 20
3.6166414807
 30
0.0
 10
7.9107767209
 20
3.6181809366
 30
0.0
 10
7.9034516347
 20
3.6203686303
 30
0.0
 10
7.8963588003
 20
3.6232157385
 30
0.0
 10
7.890698635
 20
3.6261354285
 30
0.0
 10
7.8863638328
 20
3.6287952438
 30
0.0
 10
7.8832175891
 20
3.6309518825
 30
0.0
 10
7.8801871212
 20
3.6332698732
 30
0.0
 10
7.8782489603
 20
3.6349182394
 30
0.0
 10
7.8773013484
 20
3.635766567
 30
0.0
 11
7.9334576612
 21
3.6155327267
 31
0.0
 11
7.9258539453
 21
3.6158328824
 31
0.0
 11
7.9182807809
 21
3.6167458815
 31
0.0
 11
7.9108040371
 21
3.6182888349
 31
0.0
 11
7.9034896032
 21
3.6204788115
 31
0.0
 11
7.8964065067
 21
3.623326253
 31
0.0
 11
7.8896303066
 21
3.6268278105
 31
0.0
 11
7.8863811594
 21
3.6288222984
 31
0.0
 11
7.8832373765
 21
3.630978414
 31
0.0
 11
7.8802083242
 21
3.6332951007
 31
0.0
 11
7.8773013484
 21
3.635766567
 31
0.0
  0
LINE
  5
293
100
AcDbEntity
  8
0
100
AcDbLine
 62
6
  6
CONTINUOUS
 10
8.05735906
 20
4.4051705295
 11
8.05735911
 21
4.3978747543
  0
SPLINE
  5
294
100
AcDbEntity
  8
0
100
AcDbSpline
 62
6
  6
CONTINUOUS
 70
0
 71
3
 72
27
 73
23
 74
21
 42
0.0000001
 43
0.0000001
 44
0.0000000001
 12
-0.1451133409
 22
0.0000041913
 32
0.0
 13
-0.0000003308
 23
-0.145113341
 33
0.0
 40
0.0
 40
0.0
 40
0.0
 40
0.0
 40
0.0661715792
 40
0.132333322
 40
0.1653386012
 40
0.198248502
 40
0.2637041805
 40
0.3286289386
 40
0.3608780164
 40
0.3929689562
 40
0.4566259678
 40
0.5195589385
 40
0.581738818
 40
0.6431720001
 40
0.6736256378
 40
0.7039049592
 40
0.7639675433
 40
0.8234946234
 40
0.8531104926
 40
0.8826416856
 40
0.9414539158
 40
1.0
 40
1.0
 40
1.0
 40
1.0
 10
8.1553590596
 20
4.4918357926
 30
0.0
 10
8.1521582667
 20
4.4918358851
 30
0.0
 10
8.14575399
 20
4.4915558617
 30
0.0
 10
8.1378137029
 20
4.4905167705
 30
0.0
 10
8.1315449393
 20
4.4892750477
 30
0.0
 10
8.1253704085
 20
4.4877655875
 30
0.0
 10
8.1178287713
 20
4.4853812504
 30
0.0
 10
8.1105593643
 20
4.4823450914
 30
0.0
 10
8.1049668208
 20
4.4795443404
 30
0.0
 10
8.0995631917
 20
4.4765183074
 30
0.0
 10
8.0931323682
 20
4.4723058132
 30
0.0
 10
8.0859912924
 20
4.4665930203
 30
0.0
 10
8.0795199604
 20
4.4602839355
 30
0.0
 10
8.0747183863
 20
4.4545666456
 30
0.0
 10
8.0712746044
 20
4.449761695
 30
0.0
 10
8.0681202891
 20
4.4448405281
 30
0.0
 10
8.0646912391
 20
4.4384373499
 30
0.0
 10
8.0619743154
 20
4.4317349276
 30
0.0
 10
8.0602593084
 20
4.4262540372
 30
0.0
 10
8.0588562432
 20
4.4207207897
 30
0.0
 10
8.0576776806
 20
4.4136990623
 30
0.0
 10
8.0573590661
 20
4.4080177365
 30
0.0
 10
8.0573590597
 20
4.4051857972
 30
0.0
 11
8.1553590596
 21
4.4918357926
 31
0.0
 11
8.1457657779
 21
4.4914179099
 31
0.0
 11
8.1362461658
 21
4.4901708107
 31
0.0
 11
8.1315480511
 21
4.4892396345
 31
0.0
 11
8.1269090621
 21
4.4881052785
 31
0.0
 11
8.1178530907
 21
4.4852398404
 31
0.0
 11
8.1091610329
 21
4.4816050329
 31
0.0
 11
8.1049769097
 21
4.4795089954
 31
0.0
 11
8.100913989
 21
4.4772333239
 31
0.0
 11
8.0931893648
 21
4.4721676307
 31
0.0
 11
8.0860621795
 21
4.4664576211
 31
0.0
 11
8.0796043024
 21
4.4601558199
 31
0.0
 11
8.073875133
 21
4.4533257527
 31
0.0
 11
8.0713013996
 21
4.4497333325
 31
0.0
 11
8.0689308202
 21
4.4460337373
 31
0.0
 11
8.0648198923
 21
4.4383482395
 31
0.0
 11
8.0615790313
 21
4.430341064
 31
0.0
 11
8.0602960015
 21
4.426239394
 31
0.0
 11
8.0592427393
 21
4.4220854759
 31
0.0
 11
8.0578320038
 21
4.4136684409
 31
0.0
 11
8.0573590597
 21
4.4051857972
 31
0.0
  0
LINE
  5
295
100
AcDbEntity
  8
0
100
AcDbLine
 62
9
  6
CONTINUOUS
 10
3.5375588657
 20
4.5657605711
 11
3.3500833758
 21
4.3825566258
  0
SPLINE
  5
296
100
AcDbEntity
  8
0
100
AcDbSpline
 62
9
  6
CONTINUOUS
 70
0
 71
3
 72
13
 73
9
 74
7
 42
0.0000001
 43
0.0000001
 44
0.0000000001
 12
0.1109997693
 22
-0.1329823695
 32
0.0
 13
0.1105174851
 23
-0.1333834506
 33
0.0
 40
0.0
 40
0.0
 40
0.0
 40
0.0
 40
0.276019918
 40
0.4082081498
 40
0.5361519623
 40
0.7782145121
 40
0.8917829457
 40
1.0
 40
1.0
 40
1.0
 40
1.0
 10
7.8499375573
 20
4.5929298285
 30
0.0
 10
7.8601502731
 20
4.5806945676
 30
0.0
 10
7.8751974083
 20
4.5625525191
 30
0.0
 10
7.8948892357
 20
4.5386653636
 30
0.0
 10
7.9133054832
 20
4.516267724
 30
0.0
 10
7.9310212481
 20
4.4946860044
 30
0.0
 10
7.9480492073
 20
4.4740133628
 30
0.0
 10
7.9562075186
 20
4.4641425143
 30
0.0
 10
7.9601941441
 20
4.4593310596
 30
0.0
 11
7.8499375573
 21
4.5929298285
 31
0.0
 11
7.8804743602
 21
4.5561396909
 31
0.0
 11
7.8950413275
 21
4.5384731342
 31
0.0
 11
7.9091189575
 21
4.5213560375
 31
0.0
 11
7.9357410217
 21
4.4889615594
 31
0.0
 11
7.9482499891
 21
4.4737784358
 31
0.0
 11
7.9601941441
 21
4.4593310596
 31
0.0
  0
SPLINE
  5
297
100
AcDbEntity
  8
0
100
AcDbSpline
 62
9
  6
CONTINUOUS
 70
0
 71
3
 72
53
 73
49
 74
47
 42
0.0000001
 43
0.0000001
 44
0.0000000001
 12
0.2214972366
 22
-0.2248134423
 32
0.0
 13
0.0000001996
 23
0.3155980192
 33
0.0
 40
0.0
 40
0.0
 40
0.0
 40
0.0
 40
0.1109101603
 40
0.2169150037
 40
0.3176494231
 40
0.3659260698
 40
0.4127487615
 40
0.5018656731
 40
0.5846716332
 40
0.6608390407
 40
0.6963306219
 40
0.7300387506
 40
0.7619217722
 40
0.7919380349
 40
0.8200458922
 40
0.8462037062
 40
0.8703746665
 40
0.8925407169
 40
0.9126883479
 40
0.9308040431
 40
0.9468743055
 40
0.9608857034
 40
0.9671149531
 40
0.9728218034
 40
0.9780007573
 40
0.9826462819
 40
0.9867528301
 40
0.9903148468
 40
0.9918899204
 40
0.993326781
 40
0.9946247392
 40
0.9957831111
 40
0.9968012213
 40
0.9976784097
 40
0.9980639604
 40
0.9984140477
 40
0.9987286019
 40
0.9990075609
 40
0.9992508745
 40
0.9994585128
 40
0.9996304832
 40
0.99976687
 40
0.9998679421
 40
0.9999345452
 40
0.9999558958
 40
0.9999709468
 40
0.9999837082
 40
1.0
 40
1.0
 40
1.0
 40
1.0
 10
2.7352817522
 20
4.5318766069
 30
0.0
 10
2.7434705169
 20
4.5235652419
 30
0.0
 10
2.7594691274
 20
4.5072935987
 30
0.0
 10
2.7828569738
 20
4.4834257862
 30
0.0
 10
2.8016092775
 20
4.4642407295
 30
0.0
 10
2.8160013753
 20
4.4494998781
 30
0.0
 10
2.8295366534
 20
4.4356305422
 30
0.0
 10
2.8456042332
 20
4.4191569291
 30
0.0
 10
2.8638216089
 20
4.4004678528
 30
0.0
 10
2.8780982116
 20
4.3858155026
 30
0.0
 10
2.8887699083
 20
4.3748621376
 30
0.0
 10
2.89619136
 20
4.3672463293
 30
0.0
 10
2.9032124267
 20
4.3600446139
 30
0.0
 10
2.9098247761
 20
4.3532672274
 30
0.0
 10
2.9160200726
 20
4.3469244025
 30
0.0
 10
2.9217903041
 20
4.3410259787
 30
0.0
 10
2.9271292887
 20
4.335580122
 30
0.0
 10
2.9320292412
 20
4.3305892834
 30
0.0
 10
2.9364840108
 20
4.326054073
 30
0.0
 10
2.9404878495
 20
4.3219748189
 30
0.0
 10
2.9440349355
 20
4.318351776
 30
0.0
 10
2.9467006096
 20
4.3156157633
 30
0.0
 10
2.9485986061
 20
4.3136539617
 30
0.0
 10
2.9498475105
 20
4.3123570363
 30
0.0
 10
2.9509786192
 20
4.3111779783
 30
0.0
 10
2.9519916441
 20
4.3101189345
 30
0.0
 10
2.952886332
 20
4.3091820872
 30
0.0
 10
2.9535579872
 20
4.3084788879
 30
0.0
 10
2.9540362497
 20
4.3079793466
 30
0.0
 10
2.9543502273
 20
4.3076522565
 30
0.0
 10
2.9546344298
 20
4.3073573506
 30
0.0
 10
2.9548888213
 20
4.3070948963
 30
0.0
 10
2.9551133665
 20
4.3068651619
 30
0.0
 10
2.9552821132
 20
4.3066945779
 30
0.0
 10
2.9554022914
 20
4.3065748083
 30
0.0
 10
2.955480994
 20
4.3064972725
 30
0.0
 10
2.9555522104
 20
4.3064281192
 30
0.0
 10
2.9556159354
 20
4.3063673784
 30
0.0
 10
2.9556721607
 20
4.3063150822
 30
0.0
 10
2.9557208818
 20
4.3062712427
 30
0.0
 10
2.9557620764
 20
4.3062359087
 30
0.0
 10
2.9557957639
 20
4.3062089773
 30
0.0
 10
2.9558218628
 20
4.3061906095
 30
0.0
 10
2.9558393893
 20
4.3061807031
 30
0.0
 10
2.9558498414
 20
4.3061778632
 30
0.0
 10
2.9558553096
 20
4.3061781811
 30
0.0
 10
2.9558587879
 20
4.3061818321
 30
0.0
 10
2.9558590596
 20
4.3061850349
 30
0.0
 10
2.9558590596
 20
4.3061867488
 30
0.0
 11
2.7352817522
 21
4.5318766069
 31
0.0
 11
2.7598236983
 21
4.5069185466
 31
0.0
 11
2.7832399146
 21
4.4830247736
 31
0.0
 11
2.8054638088
 21
4.4602914657
 31
0.0
 11
2.8161078251
 21
4.4493900417
 31
0.0
 11
2.8264287388
 21
4.438814463
 31
0.0
 11
2.8460667376
 21
4.4186806253
 31
0.0
 11
2.8643084059
 21
4.3999671015
 31
0.0
 11
2.881084276
 21
4.3827505621
 31
0.0
 11
2.8889009724
 21
4.3747278888
 31
0.0
 11
2.8963256504
 21
4.3671091059
 31
0.0
 11
2.9033499794
 21
4.3599044517
 31
0.0
 11
2.9099656291
 21
4.3531241646
 31
0.0
 11
2.9161642687
 21
4.3467784829
 31
0.0
 11
2.921937568
 21
4.3408776448
 31
0.0
 11
2.9272776252
 21
4.3354301812
 31
0.0
 11
2.9321782098
 21
4.330437972
 31
0.0
 11
2.9366334981
 21
4.3259012777
 31
0.0
 11
2.9406376663
 21
4.3218203588
 31
0.0
 11
2.9441848905
 21
4.3181954757
 31
0.0
 11
2.947269347
 21
4.315026889
 31
0.0
 11
2.9486362447
 21
4.3136139112
 31
0.0
 11
2.9498856022
 21
4.3123166212
 31
0.0
 11
2.9510171662
 21
4.3111371946
 31
0.0
 11
2.9520306852
 21
4.3100778163
 31
0.0
 11
2.9529259079
 21
4.3091406716
 31
0.0
 11
2.953702583
 21
4.3083279455
 31
0.0
 11
2.9540463867
 21
4.3079689224
 31
0.0
 11
2.9543604592
 21
4.3076418233
 31
0.0
 11
2.9546447691
 21
4.3073469215
 31
0.0
 11
2.9548992851
 21
4.30708449
 31
0.0
 11
2.9551239757
 21
4.3068548021
 31
0.0
 11
2.9553188095
 21
4.3066581308
 31
0.0
 11
2.9554050202
 21
4.3065722618
 31
0.0
 11
2.955483755
 21
4.3064947493
 31
0.0
 11
2.9555550099
 21
4.3064256276
 31
0.0
 11
2.9556187809
 21
4.3063649308
 31
0.0
 11
2.9556750641
 21
4.306312693
 31
0.0
 11
2.9557238557
 21
4.3062689483
 31
0.0
 11
2.9557651516
 21
4.306233731
 31
0.0
 11
2.955798948
 21
4.3062070751
 31
0.0
 11
2.955825241
 21
4.3061890148
 31
0.0
 11
2.9558440265
 21
4.3061795842
 31
0.0
 11
2.9558506028
 21
4.3061781157
 31
0.0
 11
2.9558553007
 21
4.3061788175
 31
0.0
 11
2.9558581198
 21
4.3061816938
 31
0.0
 11
2.9558590596
 21
4.3061867488
 31
0.0
  0
SPLINE
  5
298
100
AcDbEntity
  8
0
100
AcDbSpline
 62
9
  6
CONTINUOUS
 70
0
 71
3
 72
53
 73
49
 74
47
 42
0.0000001
 43
0.0000001
 44
0.0000000001
 12
-0.0000001888
 22
0.3155965524
 32
0.0
 13
-0.2214751095
 23
-0.2248331819
 33
0.0
 40
0.0
 40
0.0
 40
0.0
 40
0.0
 40
0.0000157339
 40
0.000028115
 40
0.0000430993
 40
0.0000645625
 40
0.0001315766
 40
0.0002331074
 40
0.0003699356
 40
0.0005423086
 40
0.0007503017
 40
0.000993919
 40
0.0012731294
 40
0.001587883
 40
0.0019381186
 40
0.002323768
 40
0.0032010123
 40
0.004219003
 40
0.0053770978
 40
0.0066746398
 40
0.0081109641
 40
0.0096854008
 40
0.0132459192
 40
0.0173508006
 40
0.0219946462
 40
0.0271720644
 40
0.032877677
 40
0.0391061347
 40
0.0458533015
 40
0.0531172271
 40
0.0691884308
 40
0.0873058354
 40
0.1074554649
 40
0.1296233241
 40
0.1537954239
 40
0.1799536134
 40
0.2080614232
 40
0.2380773548
 40
0.2699599019
 40
0.3036675532
 40
0.3391587945
 40
0.4153262943
 40
0.4981328309
 40
0.5872498302
 40
0.6823479089
 40
0.7830806393
 40
0.8890856171
 40
1.0
 40
1.0
 40
1.0
 40
1.0
 10
2.9558590596
 20
3.9891881233
 30
0.0
 10
2.9558590596
 20
3.9891897785
 30
0.0
 10
2.9558587914
 20
3.9891928995
 30
0.0
 10
2.9558552495
 20
3.9891963498
 30
0.0
 10
2.9558498171
 20
3.9891964521
 30
0.0
 10
2.9558393906
 20
3.9891934039
 30
0.0
 10
2.955821881
 20
3.9891832664
 30
0.0
 10
2.9557957797
 20
3.9891646683
 30
0.0
 10
2.9557620893
 20
3.9891375229
 30
0.0
 10
2.9557208907
 20
3.9891020014
 30
0.0
 10
2.955672166
 20
3.9890579999
 30
0.0
 10
2.9556159373
 20
3.9890055678
 30
0.0
 10
2.9555522089
 20
3.9889447161
 30
0.0
 10
2.9554809893
 20
3.9888754766
 30
0.0
 10
2.9554022834
 20
3.988797878
 30
0.0
 10
2.9552821089
 20
3.9886780606
 30
0.0
 10
2.9551133623
 20
3.9885074732
 30
0.0
 10
2.9548888073
 20
3.9882778007
 30
0.0
 10
2.9546344064
 20
3.988015477
 30
0.0
 10
2.9543501948
 20
3.9877207621
 30
0.0
 10
2.9540362087
 20
3.9873939151
 30
0.0
 10
2.9535579374
 20
3.9868947758
 30
0.0
 10
2.9528862615
 20
3.9861921557
 30
0.0
 10
2.9519915499
 20
3.9852560441
 30
0.0
 10
2.9509785051
 20
3.9841977396
 30
0.0
 10
2.9498473831
 20
3.9830193542
 30
0.0
 10
2.9485984632
 20
3.9817229763
 30
0.0
 10
2.947231839
 20
3.9803106973
 30
0.0
 10
2.9457477735
 20
3.9787839517
 30
0.0
 10
2.943538261
 20
3.9765183614
 30
0.0
 10
2.9404876818
 20
3.9734022403
 30
0.0
 10
2.936483897
 20
3.9693222863
 30
0.0
 10
2.9320291417
 20
3.9647862894
 30
0.0
 10
2.9271292198
 20
3.9597947373
 30
0.0
 10
2.921790238
 20
3.9543484379
 30
0.0
 10
2.9160199561
 20
3.9484499011
 30
0.0
 10
2.9098246182
 20
3.9421071747
 30
0.0
 10
2.9032122151
 20
3.9353300275
 30
0.0
 10
2.8961910955
 20
3.9281286175
 30
0.0
 10
2.8887696001
 20
3.9205131105
 30
0.0
 10
2.8780978317
 20
3.9095600212
 30
0.0
 10
2.8638212992
 20
3.894907687
 30
0.0
 10
2.8456041388
 20
3.876218459
 30
0.0
 10
2.8259904176
 20
3.8561094887
 30
0.0
 10
2.8050518365
 20
3.8346584429
 30
0.0
 10
2.7828561409
 20
3.8119518287
 30
0.0
 10
2.7594680051
 20
3.7880841248
 30
0.0
 10
2.7434700106
 20
3.7718113838
 30
0.0
 10
2.7352817522
 20
3.7634989726
 30
0.0
 11
2.9558590596
 21
3.9891881233
 31
0.0
 11
2.9558581198
 21
3.9891929992
 31
0.0
 11
2.9558553006
 21
3.9891957047
 31
0.0
 11
2.9558506024
 21
3.9891962441
 31
0.0
 11
2.9558440259
 21
3.9891946215
 31
0.0
 11
2.9558252397
 21
3.9891849068
 31
0.0
 11
2.9557989458
 21
3.9891665937
 31
0.0
 11
2.9557651482
 21
3.9891397152
 31
0.0
 11
2.9557238509
 21
3.9891043044
 31
0.0
 11
2.9556750577
 21
3.9890603945
 31
0.0
 11
2.9556187726
 21
3.9890080184
 31
0.0
 11
2.9555549996
 21
3.9889472092
 31
0.0
 11
2.9554837426
 21
3.988878
 31
0.0
 11
2.9554050055
 21
3.9888004239
 31
0.0
 11
2.9553187923
 21
3.988714514
 31
0.0
 11
2.9551239533
 21
3.9885178249
 31
0.0
 11
2.9548992571
 21
3.9882881973
 31
0.0
 11
2.9546447353
 21
3.9880258957
 31
0.0
 11
2.9543604193
 21
3.9877311848
 31
0.0
 11
2.9540463408
 21
3.987404329
 31
0.0
 11
2.9537025313
 21
3.9870455931
 31
0.0
 11
2.9529258453
 21
3.9862335389
 31
0.0
 11
2.9520306135
 21
3.9852971388
 31
0.0
 11
2.9510170883
 21
3.9842385093
 31
0.0
 11
2.949885522
 21
3.9830597672
 31
0.0
 11
2.9486361668
 21
3.981763029
 31
0.0
 11
2.9472692765
 21
3.9803504045
 31
0.0
 11
2.9457852623
 21
3.9788233249
 31
0.0
 11
2.9441848224
 21
3.9771819808
 31
0.0
 11
2.9406375821
 21
3.973556731
 31
0.0
 11
2.9366333879
 21
3.9694751189
 31
0.0
 11
2.9321780725
 21
3.9649376087
 31
0.0
 11
2.9272774683
 21
3.9599446644
 31
0.0
 11
2.9219374077
 21
3.9544967502
 31
0.0
 11
2.9161641042
 21
3.9485958041
 31
0.0
 11
2.9099654405
 21
3.9422502245
 31
0.0
 11
2.9033497562
 21
3.9354701788
 31
0.0
 11
2.8963253911
 21
3.9282658341
 31
0.0
 11
2.8889006851
 21
3.9206473579
 31
0.0
 11
2.881083978
 21
3.9126249176
 31
0.0
 11
2.8643081507
 21
3.8954084518
 31
0.0
 11
2.8460665409
 21
3.8766947864
 31
0.0
 11
2.8264285222
 21
3.8565611121
 31
0.0
 11
2.805463412
 21
3.8350850356
 31
0.0
 11
2.7832392998
 21
3.8123528928
 31
0.0
 11
2.7598231176
 21
3.7884592447
 31
0.0
 11
2.7352817522
 21
3.7634989726
 31
0.0
  0
LINE
  5
299
100
AcDbEntity
  8
0
100
AcDbLine
 62
9
  6
CONTINUOUS
 10
7.959112695
 20
4.3825765032
 11
7.7716517169
 21
4.5657663516
  0
SPLINE
  5
29A
100
AcDbEntity
  8
0
100
AcDbSpline
 62
9
  6
CONTINUOUS
 70
0
 71
3
 72
13
 73
9
 74
7
 42
0.0000001
 43
0.0000001
 44
0.0000000001
 12
-0.0924433728
 22
0.0990652545
 32
0.0
 13
-0.0911256941
 23
0.1002786603
 33
0.0
 40
0.0
 40
0.0
 40
0.0
 40
0.0
 40
0.1132842172
 40
0.2301771047
 40
0.3505508434
 40
0.474272851
 40
0.7312323053
 40
1.0
 40
1.0
 40
1.0
 40
1.0
 10
8.0254176304
 20
4.5802429906
 30
0.0
 10
8.0219268387
 20
4.5839838339
 30
0.0
 10
8.0148356953
 20
4.5915862147
 30
0.0
 10
8.0040409901
 20
4.6031688534
 30
0.0
 10
7.9929355197
 20
4.6151062916
 30
0.0
 10
7.9775426031
 20
4.6316955937
 30
0.0
 10
7.95764639
 20
4.6532495013
 30
0.0
 10
7.9416246819
 20
4.6707748032
 30
0.0
 10
7.933460801
 20
4.6797586913
 30
0.0
 11
8.0254176304
 21
4.5802429906
 31
0.0
 11
8.0149476374
 21
4.5914677428
 31
0.0
 11
8.0041498771
 21
4.6030554246
 31
0.0
 11
7.9930410812
 21
4.6149979427
 31
0.0
 11
7.9816392277
 21
4.6272874576
 31
0.0
 11
7.9580282607
 21
4.6528761188
 31
0.0
 11
7.933460801
 21
4.6797586913
 31
0.0
  0
LINE
  5
29B
100
AcDbEntity
  8
0
100
AcDbLine
 62
9
  6
CONTINUOUS
 10
3.3508590244
 20
4.306173161
 11
3.5714381129
 21
4.531895067
  0
SPLINE
  5
29C
100
AcDbEntity
  8
0
100
AcDbSpline
 62
9
  6
CONTINUOUS
 70
0
 71
3
 72
24
 73
20
 74
18
 42
0.0000001
 43
0.0000001
 44
0.0000000001
 12
0.0574994279
 22
0.0
 32
0.0
 13
0.0
 23
-0.0574994279
 33
0.0
 40
0.0
 40
0.0
 40
0.0
 40
0.0
 40
0.0663981037
 40
0.1328273717
 40
0.1990215467
 40
0.2647432319
 40
0.3298714343
 40
0.3943328916
 40
0.4580705104
 40
0.5210420597
 40
0.5832096471
 40
0.6445586234
 40
0.705133481
 40
0.7650289509
 40
0.8243642558
 40
0.853874272
 40
0.8832840986
 40
0.9418049333
 40
1.0
 40
1.0
 40
1.0
 40
1.0
 10
8.3143590596
 20
4.3978747543
 30
0.0
 10
8.3156316773
 20
4.3978747543
 30
0.0
 10
8.3181788346
 20
4.397763876
 30
0.0
 10
8.321965993
 20
4.3972721887
 30
0.0
 10
8.3256848115
 20
4.3964601238
 30
0.0
 10
8.3292938218
 20
4.3953306773
 30
0.0
 10
8.3327572038
 20
4.3938968881
 30
0.0
 10
8.3360436469
 20
4.3921741716
 30
0.0
 10
8.3391213443
 20
4.390175941
 30
0.0
 10
8.3419614739
 20
4.3879223402
 30
0.0
 10
8.3445384017
 20
4.3854371438
 30
0.0
 10
8.346825126
 20
4.3827420929
 30
0.0
 10
8.3487981137
 20
4.379861916
 30
0.0
 10
8.3504409584
 20
4.376825301
 30
0.0
 10
8.3515225173
 20
4.37418091
 30
0.0
 10
8.3522041407
 20
4.3720182516
 30
0.0
 10
8.3527622506
 20
4.3698365791
 30
0.0
 10
8.3532317246
 20
4.3670695298
 30
0.0
 10
8.3533590596
 20
4.3648306688
 30
0.0
 10
8.3533590596
 20
4.3637152745
 30
0.0
 11
8.3143590596
 21
4.3978747543
 31
0.0
 11
8.3181733392
 21
4.3977096088
 31
0.0
 11
8.3219611614
 21
4.3972175824
 31
0.0
 11
8.3256792721
 21
4.3964037905
 31
0.0
 11
8.3292854427
 21
4.3952741594
 31
0.0
 11
8.3327450267
 21
4.3938406101
 31
0.0
 11
8.3360267751
 21
4.3921177502
 31
0.0
 11
8.3390996194
 21
4.3901205149
 31
0.0
 11
8.3419349429
 21
4.3878685521
 31
0.0
 11
8.3445060169
 21
4.3853851374
 31
0.0
 11
8.3467862675
 21
4.3826936819
 31
0.0
 11
8.3487532628
 21
4.3798192506
 31
0.0
 11
8.3503899512
 21
4.3767890561
 31
0.0
 11
8.351679655
 21
4.3736304685
 31
0.0
 11
8.3521897647
 21
4.3720121518
 31
0.0
 11
8.3526087641
 21
4.3703738345
 31
0.0
 11
8.3531705124
 21
4.3670561412
 31
0.0
 11
8.3533590596
 21
4.3637152745
 31
0.0
  0
SPLINE
  5
29D
100
AcDbEntity
  8
0
100
AcDbSpline
 62
9
  6
CONTINUOUS
 70
0
 71
3
 72
30
 73
26
 74
24
 42
0.0000001
 43
0.0000001
 44
0.0000000001
 12
-0.0
 22
0.0402965521
 32
0.0
 13
-0.0402965521
 23
-0.0
 33
0.0
 40
0.0
 40
0.0
 40
0.0
 40
0.0
 40
0.0036857061
 40
0.0074648362
 40
0.0156035962
 40
0.0249557495
 40
0.0358558013
 40
0.0485065155
 40
0.0630293168
 40
0.0794961538
 40
0.0979339196
 40
0.1183375364
 40
0.1406883735
 40
0.1649591296
 40
0.1911166421
 40
0.248928363
 40
0.3136603975
 40
0.3847155791
 40
0.4614756495
 40
0.5432673608
 40
0.6293516828
 40
0.7189803004
 40
0.811318404
 40
0.9053419802
 40
1.0
 40
1.0
 40
1.0
 40
1.0
 10
8.3533590596
 20
3.9515064577
 30
0.0
 10
8.3533590596
 20
3.9515559648
 30
0.0
 10
8.3533509135
 20
3.9516564104
 30
0.0
 10
8.3533014261
 20
3.9518608286
 30
0.0
 10
8.353172702
 20
3.9521199595
 30
0.0
 10
8.3529294165
 20
3.9524164172
 30
0.0
 10
8.3525959859
 20
3.9527087316
 30
0.0
 10
8.352172705
 20
3.9529973563
 30
0.0
 10
8.3516597257
 20
3.9532823081
 30
0.0
 10
8.3510574984
 20
3.9535628174
 30
0.0
 10
8.3503672555
 20
3.9538383835
 30
0.0
 10
8.3495907301
 20
3.9541085198
 30
0.0
 10
8.3487298482
 20
3.9543725706
 30
0.0
 10
8.3477866054
 20
3.9546299176
 30
0.0
 10
8.3463740649
 20
3.9549748362
 30
0.0
 10
8.3444173082
 20
3.9553788383
 30
0.0
 10
8.3418530233
 20
3.9558134541
 30
0.0
 10
8.3390251383
 20
3.9562083667
 30
0.0
 10
8.3359607273
 20
3.9565589051
 30
0.0
 10
8.3326884511
 20
3.9568613705
 30
0.0
 10
8.329238598
 20
3.9571133642
 30
0.0
 10
8.3256433904
 20
3.9573119475
 30
0.0
 10
8.3219388285
 20
3.9574547786
 30
0.0
 10
8.3181649715
 20
3.9575413031
 30
0.0
 10
8.3156305236
 20
3.9575607909
 30
0.0
 10
8.3143590596
 20
3.9575607909
 30
0.0
 11
8.3533590596
 21
3.9515064577
 31
0.0
 11
8.3533472298
 21
3.951654507
 31
0.0
 11
8.3533118012
 21
3.9518026145
 31
0.0
 11
8.3531705124
 21
3.9520985838
 31
0.0
 11
8.3529359234
 21
3.9523935264
 31
0.0
 11
8.3526087641
 21
3.9526866027
 31
0.0
 11
8.3521897647
 21
3.9529769736
 31
0.0
 11
8.351679655
 21
3.9532637997
 31
0.0
 11
8.351079214
 21
3.95354625
 31
0.0
 11
8.3503899512
 21
3.9538236192
 31
0.0
 11
8.3496139386
 21
3.9540952987
 31
0.0
 11
8.3487532628
 21
3.9543606826
 31
0.0
 11
8.3478100102
 21
3.9546191647
 31
0.0
 11
8.3467862675
 21
3.954870139
 31
0.0
 11
8.3445060169
 21
3.9553471652
 31
0.0
 11
8.3419349429
 21
3.9557873189
 31
0.0
 11
8.3390996194
 21
3.9561864506
 31
0.0
 11
8.3360267751
 21
3.9565404352
 31
0.0
 11
8.3327450267
 21
3.9568457902
 31
0.0
 11
8.3292854427
 21
3.9570998686
 31
0.0
 11
8.3256792721
 21
3.9573000813
 31
0.0
 11
8.3219611614
 21
3.9574443156
 31
0.0
 11
8.3181733392
 21
3.957531521
 31
0.0
 11
8.3143590596
 21
3.9575607909
 31
0.0
  0
SPLINE
  5
29E
100
AcDbEntity
  8
0
100
AcDbSpline
 62
9
  6
CONTINUOUS
 70
0
 71
3
 72
24
 73
20
 74
18
 42
0.0000001
 43
0.0000001
 44
0.0000000001
 12
-0.0574994279
 22
0.0
 32
0.0
 13
0.0
 23
-0.0574994279
 33
0.0
 40
0.0
 40
0.0
 40
0.0
 40
0.0
 40
0.0663981037
 40
0.1328273717
 40
0.1990215467
 40
0.2647432319
 40
0.3298714343
 40
0.3943328916
 40
0.4580705104
 40
0.5210420597
 40
0.5832096471
 40
0.6445586234
 40
0.705133481
 40
0.7650289509
 40
0.8243642558
 40
0.853874272
 40
0.8832840986
 40
0.9418049333
 40
1.0
 40
1.0
 40
1.0
 40
1.0
 10
2.9948590596
 20
4.3978747543
 30
0.0
 10
2.993586442
 20
4.3978747543
 30
0.0
 10
2.9910392847
 20
4.397763876
 30
0.0
 10
2.9872521263
 20
4.3972721887
 30
0.0
 10
2.9835333078
 20
4.3964601238
 30
0.0
 10
2.9799242975
 20
4.3953306773
 30
0.0
 10
2.9764609155
 20
4.3938968881
 30
0.0
 10
2.9731744724
 20
4.3921741716
 30
0.0
 10
2.970096775
 20
4.390175941
 30
0.0
 10
2.9672566454
 20
4.3879223402
 30
0.0
 10
2.9646797176
 20
4.3854371438
 30
0.0
 10
2.9623929933
 20
4.3827420929
 30
0.0
 10
2.9604200056
 20
4.379861916
 30
0.0
 10
2.9587771609
 20
4.376825301
 30
0.0
 10
2.957695602
 20
4.37418091
 30
0.0
 10
2.9570139786
 20
4.3720182516
 30
0.0
 10
2.9564558687
 20
4.3698365791
 30
0.0
 10
2.9559863947
 20
4.3670695298
 30
0.0
 10
2.9558590596
 20
4.3648306688
 30
0.0
 10
2.9558590596
 20
4.3637152745
 30
0.0
 11
2.9948590596
 21
4.3978747543
 31
0.0
 11
2.9910447801
 21
4.3977096088
 31
0.0
 11
2.9872569579
 21
4.3972175824
 31
0.0
 11
2.9835388472
 21
4.3964037905
 31
0.0
 11
2.9799326766
 21
4.3952741594
 31
0.0
 11
2.9764730926
 21
4.3938406101
 31
0.0
 11
2.9731913442
 21
4.3921177502
 31
0.0
 11
2.9701184999
 21
4.3901205149
 31
0.0
 11
2.9672831764
 21
4.3878685521
 31
0.0
 11
2.9647121024
 21
4.3853851374
 31
0.0
 11
2.9624318518
 21
4.3826936819
 31
0.0
 11
2.9604648565
 21
4.3798192506
 31
0.0
 11
2.9588281681
 21
4.3767890561
 31
0.0
 11
2.9575384643
 21
4.3736304685
 31
0.0
 11
2.9570283546
 21
4.3720121518
 31
0.0
 11
2.9566093552
 21
4.3703738345
 31
0.0
 11
2.9560476069
 21
4.3670561412
 31
0.0
 11
2.9558590596
 21
4.3637152745
 31
0.0
  0
SPLINE
  5
29F
100
AcDbEntity
  8
0
100
AcDbSpline
 62
6
  6
CONTINUOUS
 70
0
 71
3
 72
27
 73
23
 74
21
 42
0.0000001
 43
0.0000001
 44
0.0000000001
 12
0.1451133725
 22
0.0000046802
 32
0.0
 13
0.0000002768
 23
-0.1451133726
 33
0.0
 40
0.0
 40
0.0
 40
0.0
 40
0.0
 40
0.0661715751
 40
0.1323333656
 40
0.1653386814
 40
0.19824861
 40
0.2637042937
 40
0.3286289983
 40
0.3608780426
 40
0.3929689545
 40
0.4566259416
 40
0.5195589599
 40
0.5817389621
 40
0.6431721528
 40
0.6736256632
 40
0.7039047252
 40
0.7639667269
 40
0.8234941086
 40
0.8531108573
 40
0.8826433608
 40
0.9414573235
 40
1.0
 40
1.0
 40
1.0
 40
1.0
 10
3.1538590596
 20
4.4918359435
 30
0.0
 10
3.1570598531
 20
4.4918360467
 30
0.0
 10
3.1634641346
 20
4.4915560034
 30
0.0
 10
3.1714044185
 20
4.4905168428
 30
0.0
 10
3.1776731793
 20
4.4892750721
 30
0.0
 10
3.1838477074
 20
4.487765582
 30
0.0
 10
3.1913893433
 20
4.485381242
 30
0.0
 10
3.1986587546
 20
4.4823450998
 30
0.0
 10
3.2042513004
 20
4.4795443623
 30
0.0
 10
3.209654932
 20
4.4765183397
 30
0.0
 10
3.2160857607
 20
4.47230585
 30
0.0
 10
3.2232268392
 20
4.4665930451
 30
0.0
 10
3.2296981625
 20
4.4602839361
 30
0.0
 10
3.2344997351
 20
4.4545666438
 30
0.0
 10
3.2379435203
 20
4.4497617168
 30
0.0
 10
3.2410978386
 20
4.4448406064
 30
0.0
 10
3.244526919
 20
4.4384374714
 30
0.0
 10
3.24724384
 20
4.4317350115
 30
0.0
 10
3.2489588258
 20
4.4262539865
 30
0.0
 10
3.2503618664
 20
4.4207205355
 30
0.0
 10
3.2515403909
 20
4.4136988224
 30
0.0
 10
3.2518590542
 20
4.4080175798
 30
0.0
 10
3.2518590596
 20
4.4051858047
 30
0.0
 11
3.1538590596
 21
4.4918359435
 31
0.0
 11
3.1634523421
 21
4.4914180429
 31
0.0
 11
3.1729719539
 21
4.4901708717
 31
0.0
 11
3.1776700682
 21
4.4892396609
 31
0.0
 11
3.1823090568
 21
4.4881052821
 31
0.0
 11
3.1913650283
 21
4.4852398347
 31
0.0
 11
3.2000570871
 21
4.4816050445
 31
0.0
 11
3.2042412111
 21
4.4795090172
 31
0.0
 11
3.2083041329
 21
4.4772333538
 31
0.0
 11
3.2160287596
 21
4.4721676674
 31
0.0
 11
3.2231559471
 21
4.4664576464
 31
0.0
 11
3.2296138263
 21
4.4601558189
 31
0.0
 11
3.2353429973
 21
4.4533257488
 31
0.0
 11
3.2379167308
 21
4.4497333503
 31
0.0
 11
3.2402873097
 21
4.4460337983
 31
0.0
 11
3.2443982367
 21
4.4383483938
 31
0.0
 11
3.2476390958
 21
4.4303411682
 31
0.0
 11
3.2489221238
 21
4.426239363
 31
0.0
 11
3.2499753845
 21
4.4220852473
 31
0.0
 11
3.2513861179
 21
4.4136679552
 31
0.0
 11
3.2518590596
 21
4.4051858047
 31
0.0
  0
SPLINE
  5
2A0
100
AcDbEntity
  8
0
100
AcDbSpline
 62
6
  6
CONTINUOUS
 70
0
 71
3
 72
27
 73
23
 74
21
 42
0.0000001
 43
0.0000001
 44
0.0000000001
 12
-0.1451133409
 22
0.0000041913
 32
0.0
 13
-0.0000003308
 23
-0.145113341
 33
0.0
 40
0.0
 40
0.0
 40
0.0
 40
0.0
 40
0.0661715792
 40
0.132333322
 40
0.1653386012
 40
0.198248502
 40
0.2637041805
 40
0.3286289386
 40
0.3608780164
 40
0.3929689562
 40
0.4566259678
 40
0.5195589385
 40
0.581738818
 40
0.6431720001
 40
0.6736256378
 40
0.7039049592
 40
0.7639675433
 40
0.8234946234
 40
0.8531104926
 40
0.8826416856
 40
0.9414539158
 40
1.0
 40
1.0
 40
1.0
 40
1.0
 10
3.1528590596
 20
4.4918357926
 30
0.0
 10
3.1496582667
 20
4.4918358851
 30
0.0
 10
3.14325399
 20
4.4915558617
 30
0.0
 10
3.1353137029
 20
4.4905167705
 30
0.0
 10
3.1290449393
 20
4.4892750477
 30
0.0
 10
3.1228704085
 20
4.4877655875
 30
0.0
 10
3.1153287713
 20
4.4853812504
 30
0.0
 10
3.1080593643
 20
4.4823450914
 30
0.0
 10
3.1024668208
 20
4.4795443404
 30
0.0
 10
3.0970631917
 20
4.4765183074
 30
0.0
 10
3.0906323682
 20
4.4723058132
 30
0.0
 10
3.0834912924
 20
4.4665930203
 30
0.0
 10
3.0770199604
 20
4.4602839355
 30
0.0
 10
3.0722183863
 20
4.4545666456
 30
0.0
 10
3.0687746044
 20
4.449761695
 30
0.0
 10
3.0656202891
 20
4.4448405281
 30
0.0
 10
3.0621912391
 20
4.4384373499
 30
0.0
 10
3.0594743154
 20
4.4317349276
 30
0.0
 10
3.0577593084
 20
4.4262540372
 30
0.0
 10
3.0563562432
 20
4.4207207897
 30
0.0
 10
3.0551776806
 20
4.4136990623
 30
0.0
 10
3.0548590661
 20
4.4080177365
 30
0.0
 10
3.0548590597
 20
4.4051857972
 30
0.0
 11
3.1528590596
 21
4.4918357926
 31
0.0
 11
3.1432657779
 21
4.4914179099
 31
0.0
 11
3.1337461658
 21
4.4901708107
 31
0.0
 11
3.1290480511
 21
4.4892396345
 31
0.0
 11
3.1244090621
 21
4.4881052785
 31
0.0
 11
3.1153530907
 21
4.4852398404
 31
0.0
 11
3.1066610329
 21
4.4816050329
 31
0.0
 11
3.1024769097
 21
4.4795089954
 31
0.0
 11
3.098413989
 21
4.4772333239
 31
0.0
 11
3.0906893648
 21
4.4721676307
 31
0.0
 11
3.0835621795
 21
4.4664576211
 31
0.0
 11
3.0771043024
 21
4.4601558199
 31
0.0
 11
3.071375133
 21
4.4533257527
 31
0.0
 11
3.0688013996
 21
4.4497333325
 31
0.0
 11
3.0664308202
 21
4.4460337373
 31
0.0
 11
3.0623198923
 21
4.4383482395
 31
0.0
 11
3.0590790313
 21
4.430341064
 31
0.0
 11
3.0577960015
 21
4.426239394
 31
0.0
 11
3.0567427393
 21
4.4220854759
 31
0.0
 11
3.0553320038
 21
4.4136684409
 31
0.0
 11
3.0548590597
 21
4.4051857972
 31
0.0
  0
SPLINE
  5
2A1
100
AcDbEntity
  8
0
100
AcDbSpline
 62
9
  6
CONTINUOUS
 70
0
 71
3
 72
35
 73
31
 74
29
 42
0.0000001
 43
0.0000001
 44
0.0000000001
 12
-0.1012519419
 22
0.0000020979
 32
0.0
 13
-0.0000000006
 23
-0.1012519419
 33
0.0
 40
0.0
 40
0.0
 40
0.0
 40
0.0
 40
0.0947483393
 40
0.1887911159
 40
0.2810759839
 40
0.3706526398
 40
0.4567282213
 40
0.5385294345
 40
0.6153227406
 40
0.6864039539
 40
0.7195903207
 40
0.7511127247
 40
0.7809096591
 40
0.8089212905
 40
0.8350900737
 40
0.8593628456
 40
0.8817046902
 40
0.9020953969
 40
0.9205232297
 40
0.9369891046
 40
0.9515140094
 40
0.9580674166
 40
0.9641638649
 40
0.9698207783
 40
0.9750605527
 40
0.9799120042
 40
0.9844121108
 40
0.9925410953
 40
0.9963167799
 40
1.0
 40
1.0
 40
1.0
 40
1.0
 10
3.1528590596
 20
3.9727241398
 30
0.0
 10
3.1496612419
 20
3.972724206
 30
0.0
 10
3.1432893137
 20
3.9726756123
 30
0.0
 10
3.1338049338
 20
3.972459065
 30
0.0
 10
3.1244994868
 20
3.9721003569
 30
0.0
 10
3.1154697379
 20
3.9716020508
 30
0.0
 10
3.1068030008
 20
3.9709706619
 30
0.0
 10
3.0985796148
 20
3.970211444
 30
0.0
 10
3.0908772769
 20
3.9693323919
 30
0.0
 10
3.0848238396
 20
3.9684900025
 30
0.0
 10
3.0802999242
 20
3.9677553997
 30
0.0
 10
3.0771601644
 20
3.9671926773
 30
0.0
 10
3.0742024132
 20
3.9666070954
 30
0.0
 10
3.0714336529
 20
3.966000121
 30
0.0
 10
3.0688607908
 20
3.9653732952
 30
0.0
 10
3.0664902482
 20
3.9647279036
 30
0.0
 10
3.0643274815
 20
3.9640655761
 30
0.0
 10
3.0623770324
 20
3.9633881038
 30
0.0
 10
3.060642956
 20
3.9626971072
 30
0.0
 10
3.059129333
 20
3.9619942091
 30
0.0
 10
3.0580190527
 20
3.9613801877
 30
0.0
 10
3.057250045
 20
3.9608797003
 30
0.0
 10
3.0567507301
 20
3.9605151997
 30
0.0
 10
3.0563089461
 20
3.9601487847
 30
0.0
 10
3.0559248775
 20
3.9597806662
 30
0.0
 10
3.0555986035
 20
3.9594107012
 30
0.0
 10
3.05525291
 20
3.9589320936
 30
0.0
 10
3.055003517
 20
3.9584293886
 30
0.0
 10
3.0548794695
 20
3.9579162999
 30
0.0
 10
3.0548590596
 20
3.9576641033
 30
0.0
 10
3.0548590596
 20
3.9575397923
 30
0.0
 11
3.1528590596
 21
3.9727241398
 31
0.0
 11
3.1432658848
 21
3.9726510356
 31
0.0
 11
3.1337463776
 21
3.9724325687
 31
0.0
 11
3.1244093681
 21
3.9720706268
 31
0.0
 11
3.1153534697
 21
3.9715684666
 31
0.0
 11
3.1066614602
 21
3.9709314665
 31
0.0
 11
3.0984144373
 21
3.9701653431
 31
0.0
 11
3.0906898074
 21
3.9692776225
 31
0.0
 11
3.0835625951
 21
3.9682769979
 31
0.0
 11
3.0802460638
 21
3.9677371301
 31
0.0
 11
3.0771046692
 21
3.9671726671
 31
0.0
 11
3.0741454475
 21
3.9665850616
 31
0.0
 11
3.0713754346
 21
3.9659757662
 31
0.0
 11
3.0688016666
 21
3.9653462335
 31
0.0
 11
3.0664310525
 21
3.9646979224
 31
0.0
 11
3.0642690219
 21
3.9640323627
 31
0.0
 11
3.0623200503
 21
3.9633511306
 31
0.0
 11
3.0605885971
 21
3.9626558029
 31
0.0
 11
3.059079122
 21
3.9619479563
 31
0.0
 11
3.0577960663
 21
3.9612291709
 31
0.0
 11
3.0572405893
 21
3.9608662143
 31
0.0
 11
3.0567427802
 21
3.9605012248
 31
0.0
 11
3.0563028284
 21
3.9601344663
 31
0.0
 11
3.0559209229
 21
3.9597662027
 31
0.0
 11
3.055597253
 21
3.9593966979
 31
0.0
 11
3.055332008
 21
3.9590262158
 31
0.0
 11
3.054977549
 21
3.9582833752
 31
0.0
 11
3.0548887135
 21
3.9579115446
 31
0.0
 11
3.0548590596
 21
3.9575397923
 31
0.0
  0
SPLINE
  5
2A2
100
AcDbEntity
  8
0
100
AcDbSpline
 62
9
  6
CONTINUOUS
 70
0
 71
3
 72
13
 73
9
 74
7
 42
0.0000001
 43
0.0000001
 44
0.0000000001
 12
-0.0924433728
 22
0.0990652545
 32
0.0
 13
-0.0911256941
 23
0.1002786603
 33
0.0
 40
0.0
 40
0.0
 40
0.0
 40
0.0
 40
0.1132842172
 40
0.2301771047
 40
0.3505508434
 40
0.474272851
 40
0.7312323053
 40
1.0
 40
1.0
 40
1.0
 40
1.0
 10
3.0229176304
 20
4.5802429906
 30
0.0
 10
3.0194268387
 20
4.5839838339
 30
0.0
 10
3.0123356953
 20
4.5915862147
 30
0.0
 10
3.0015409901
 20
4.6031688534
 30
0.0
 10
2.9904355197
 20
4.6151062916
 30
0.0
 10
2.9750426031
 20
4.6316955937
 30
0.0
 10
2.95514639
 20
4.6532495013
 30
0.0
 10
2.9391246819
 20
4.6707748032
 30
0.0
 10
2.930960801
 20
4.6797586913
 30
0.0
 11
3.0229176304
 21
4.5802429906
 31
0.0
 11
3.0124476374
 21
4.5914677428
 31
0.0
 11
3.0016498771
 21
4.6030554246
 31
0.0
 11
2.9905410812
 21
4.6149979427
 31
0.0
 11
2.9791392277
 21
4.6272874576
 31
0.0
 11
2.9555282607
 21
4.6528761188
 31
0.0
 11
2.930960801
 21
4.6797586913
 31
0.0
  0
SPLINE
  5
2A3
100
AcDbEntity
  8
0
100
AcDbSpline
 62
9
  6
CONTINUOUS
 70
0
 71
3
 72
13
 73
9
 74
7
 42
0.0000001
 43
0.0000001
 44
0.0000000001
 12
0.1109997693
 22
-0.1329823695
 32
0.0
 13
0.1105174851
 23
-0.1333834506
 33
0.0
 40
0.0
 40
0.0
 40
0.0
 40
0.0
 40
0.276019918
 40
0.4082081498
 40
0.5361519623
 40
0.7782145121
 40
0.8917829457
 40
1.0
 40
1.0
 40
1.0
 40
1.0
 10
2.8474375573
 20
4.5929298285
 30
0.0
 10
2.8576502731
 20
4.5806945676
 30
0.0
 10
2.8726974083
 20
4.5625525191
 30
0.0
 10
2.8923892357
 20
4.5386653636
 30
0.0
 10
2.9108054832
 20
4.516267724
 30
0.0
 10
2.9285212481
 20
4.4946860044
 30
0.0
 10
2.9455492073
 20
4.4740133628
 30
0.0
 10
2.9537075186
 20
4.4641425143
 30
0.0
 10
2.9576941441
 20
4.4593310596
 30
0.0
 11
2.8474375573
 21
4.5929298285
 31
0.0
 11
2.8779743602
 21
4.5561396909
 31
0.0
 11
2.8925413275
 21
4.5384731342
 31
0.0
 11
2.9066189575
 21
4.5213560375
 31
0.0
 11
2.9332410217
 21
4.4889615594
 31
0.0
 11
2.9457499891
 21
4.4737784358
 31
0.0
 11
2.9576941441
 21
4.4593310596
 31
0.0
  0
LINE
  5
2A4
100
AcDbEntity
  8
0
100
AcDbLine
 62
9
  6
CONTINUOUS
 10
8.3526189255
 20
3.9127697758
 11
8.5400492742
 21
3.7296106485
  0
SPLINE
  5
2A5
100
AcDbEntity
  8
0
100
AcDbSpline
 62
9
  6
CONTINUOUS
 70
0
 71
3
 72
24
 73
20
 74
18
 42
0.0000001
 43
0.0000001
 44
0.0000000001
 12
0.0574994279
 22
0.0
 32
0.0
 13
0.0
 23
-0.0574994279
 33
0.0
 40
0.0
 40
0.0
 40
0.0
 40
0.0
 40
0.0663981037
 40
0.1328273717
 40
0.1990215467
 40
0.2647432319
 40
0.3298714343
 40
0.3943328916
 40
0.4580705104
 40
0.5210420597
 40
0.5832096471
 40
0.6445586234
 40
0.705133481
 40
0.7650289509
 40
0.8243642558
 40
0.853874272
 40
0.8832840986
 40
0.9418049333
 40
1.0
 40
1.0
 40
1.0
 40
1.0
 10
3.3118590596
 20
4.3978747543
 30
0.0
 10
3.3131316773
 20
4.3978747543
 30
0.0
 10
3.3156788346
 20
4.397763876
 30
0.0
 10
3.319465993
 20
4.3972721887
 30
0.0
 10
3.3231848115
 20
4.3964601238
 30
0.0
 10
3.3267938218
 20
4.3953306773
 30
0.0
 10
3.3302572038
 20
4.3938968881
 30
0.0
 10
3.3335436469
 20
4.3921741716
 30
0.0
 10
3.3366213443
 20
4.390175941
 30
0.0
 10
3.3394614739
 20
4.3879223402
 30
0.0
 10
3.3420384017
 20
4.3854371438
 30
0.0
 10
3.344325126
 20
4.3827420929
 30
0.0
 10
3.3462981137
 20
4.379861916
 30
0.0
 10
3.3479409584
 20
4.376825301
 30
0.0
 10
3.3490225173
 20
4.37418091
 30
0.0
 10
3.3497041407
 20
4.3720182516
 30
0.0
 10
3.3502622506
 20
4.3698365791
 30
0.0
 10
3.3507317246
 20
4.3670695298
 30
0.0
 10
3.3508590596
 20
4.3648306688
 30
0.0
 10
3.3508590596
 20
4.3637152745
 30
0.0
 11
3.3118590596
 21
4.3978747543
 31
0.0
 11
3.3156733392
 21
4.3977096088
 31
0.0
 11
3.3194611614
 21
4.3972175824
 31
0.0
 11
3.3231792721
 21
4.3964037905
 31
0.0
 11
3.3267854427
 21
4.3952741594
 31
0.0
 11
3.3302450267
 21
4.3938406101
 31
0.0
 11
3.3335267751
 21
4.3921177502
 31
0.0
 11
3.3365996194
 21
4.3901205149
 31
0.0
 11
3.3394349429
 21
4.3878685521
 31
0.0
 11
3.3420060169
 21
4.3853851374
 31
0.0
 11
3.3442862675
 21
4.3826936819
 31
0.0
 11
3.3462532628
 21
4.3798192506
 31
0.0
 11
3.3478899512
 21
4.3767890561
 31
0.0
 11
3.349179655
 21
4.3736304685
 31
0.0
 11
3.3496897647
 21
4.3720121518
 31
0.0
 11
3.3501087641
 21
4.3703738345
 31
0.0
 11
3.3506705124
 21
4.3670561412
 31
0.0
 11
3.3508590596
 21
4.3637152745
 31
0.0
  0
SPLINE
  5
2A6
100
AcDbEntity
  8
0
100
AcDbSpline
 62
9
  6
CONTINUOUS
 70
0
 71
3
 72
13
 73
9
 74
7
 42
0.0000001
 43
0.0000001
 44
0.0000000001
 12
-0.1110029462
 22
0.1330124783
 32
0.0
 13
-0.1105345092
 23
0.1334020079
 33
0.0
 40
0.0
 40
0.0
 40
0.0
 40
0.0
 40
0.2760294884
 40
0.4082230694
 40
0.536170712
 40
0.7782307017
 40
0.8917916434
 40
1.0
 40
1.0
 40
1.0
 40
1.0
 10
8.4617802429
 20
3.7023872687
 30
0.0
 10
8.4515668808
 20
3.7146257241
 30
0.0
 10
8.436519041
 20
3.7327727546
 30
0.0
 10
8.4168262855
 20
3.7566663732
 30
0.0
 10
8.3984093341
 20
3.7790693791
 30
0.0
 10
8.3806926998
 20
3.8006551661
 30
0.0
 10
8.3636629846
 20
3.8213299974
 30
0.0
 10
8.3555039458
 20
3.8312014439
 30
0.0
 10
8.3515170266
 20
3.8360131812
 30
0.0
 11
8.4617802429
 21
3.7023872687
 31
0.0
 11
8.4312418671
 21
3.7391872772
 31
0.0
 11
8.4166741045
 21
3.7568586882
 31
0.0
 11
8.4025956706
 21
3.7739801492
 31
0.0
 11
8.3759719595
 21
3.80638058
 31
0.0
 11
8.3634620901
 21
3.8215649797
 31
0.0
 11
8.3515170266
 21
3.8360131812
 31
0.0
  0
SPLINE
  5
2A7
100
AcDbEntity
  8
0
100
AcDbSpline
 62
9
  6
CONTINUOUS
 70
0
 71
3
 72
30
 73
26
 74
24
 42
0.0000001
 43
0.0000001
 44
0.0000000001
 12
-0.0
 22
0.0402965521
 32
0.0
 13
-0.0402965521
 23
-0.0
 33
0.0
 40
0.0
 40
0.0
 40
0.0
 40
0.0
 40
0.0036857061
 40
0.0074648362
 40
0.0156035962
 40
0.0249557495
 40
0.0358558013
 40
0.0485065155
 40
0.0630293168
 40
0.0794961538
 40
0.0979339196
 40
0.1183375364
 40
0.1406883735
 40
0.1649591296
 40
0.1911166421
 40
0.248928363
 40
0.3136603975
 40
0.3847155791
 40
0.4614756495
 40
0.5432673608
 40
0.6293516828
 40
0.7189803004
 40
0.811318404
 40
0.9053419802
 40
1.0
 40
1.0
 40
1.0
 40
1.0
 10
3.3508590596
 20
3.9515064577
 30
0.0
 10
3.3508590596
 20
3.9515559648
 30
0.0
 10
3.3508509135
 20
3.9516564104
 30
0.0
 10
3.3508014261
 20
3.9518608286
 30
0.0
 10
3.350672702
 20
3.9521199595
 30
0.0
 10
3.3504294165
 20
3.9524164172
 30
0.0
 10
3.3500959859
 20
3.9527087316
 30
0.0
 10
3.349672705
 20
3.9529973563
 30
0.0
 10
3.3491597257
 20
3.9532823081
 30
0.0
 10
3.3485574984
 20
3.9535628174
 30
0.0
 10
3.3478672555
 20
3.9538383835
 30
0.0
 10
3.3470907301
 20
3.9541085198
 30
0.0
 10
3.3462298482
 20
3.9543725706
 30
0.0
 10
3.3452866054
 20
3.9546299176
 30
0.0
 10
3.3438740649
 20
3.9549748362
 30
0.0
 10
3.3419173082
 20
3.9553788383
 30
0.0
 10
3.3393530233
 20
3.9558134541
 30
0.0
 10
3.3365251383
 20
3.9562083667
 30
0.0
 10
3.3334607273
 20
3.9565589051
 30
0.0
 10
3.3301884511
 20
3.9568613705
 30
0.0
 10
3.326738598
 20
3.9571133642
 30
0.0
 10
3.3231433904
 20
3.9573119475
 30
0.0
 10
3.3194388285
 20
3.9574547786
 30
0.0
 10
3.3156649715
 20
3.9575413031
 30
0.0
 10
3.3131305236
 20
3.9575607909
 30
0.0
 10
3.3118590596
 20
3.9575607909
 30
0.0
 11
3.3508590596
 21
3.9515064577
 31
0.0
 11
3.3508472298
 21
3.951654507
 31
0.0
 11
3.3508118012
 21
3.9518026145
 31
0.0
 11
3.3506705124
 21
3.9520985838
 31
0.0
 11
3.3504359234
 21
3.9523935264
 31
0.0
 11
3.3501087641
 21
3.9526866027
 31
0.0
 11
3.3496897647
 21
3.9529769736
 31
0.0
 11
3.349179655
 21
3.9532637997
 31
0.0
 11
3.348579214
 21
3.95354625
 31
0.0
 11
3.3478899512
 21
3.9538236192
 31
0.0
 11
3.3471139386
 21
3.9540952987
 31
0.0
 11
3.3462532628
 21
3.9543606826
 31
0.0
 11
3.3453100102
 21
3.9546191647
 31
0.0
 11
3.3442862675
 21
3.954870139
 31
0.0
 11
3.3420060169
 21
3.9553471652
 31
0.0
 11
3.3394349429
 21
3.9557873189
 31
0.0
 11
3.3365996194
 21
3.9561864506
 31
0.0
 11
3.3335267751
 21
3.9565404352
 31
0.0
 11
3.3302450267
 21
3.9568457902
 31
0.0
 11
3.3267854427
 21
3.9570998686
 31
0.0
 11
3.3231792721
 21
3.9573000813
 31
0.0
 11
3.3194611614
 21
3.9574443156
 31
0.0
 11
3.3156733392
 21
3.957531521
 31
0.0
 11
3.3118590596
 21
3.9575607909
 31
0.0
  0
LINE
  5
2A8
100
AcDbEntity
  8
0
100
AcDbLine
 62
9
  6
CONTINUOUS
 10
7.8941393473
 20
3.7560315384
 11
7.8792798845
 21
3.737979252
  0
SPLINE
  5
2A9
100
AcDbEntity
  8
0
100
AcDbSpline
 62
9
  6
CONTINUOUS
 70
0
 71
3
 72
53
 73
49
 74
47
 42
0.0000001
 43
0.0000001
 44
0.0000000001
 12
0.2214972366
 22
-0.2248134423
 32
0.0
 13
0.0000001997
 23
0.3155980192
 33
0.0
 40
0.0
 40
0.0
 40
0.0
 40
0.0
 40
0.1109101603
 40
0.2169150037
 40
0.3176494231
 40
0.3659260698
 40
0.4127487615
 40
0.5018656731
 40
0.5846716332
 40
0.6608390407
 40
0.6963306219
 40
0.7300387506
 40
0.7619217722
 40
0.7919380349
 40
0.8200458922
 40
0.8462037062
 40
0.8703746665
 40
0.8925407169
 40
0.9126883479
 40
0.9308040431
 40
0.9468743055
 40
0.9608857034
 40
0.9671149531
 40
0.9728218034
 40
0.9780007573
 40
0.9826462819
 40
0.9867528301
 40
0.9903148468
 40
0.9918899204
 40
0.993326781
 40
0.9946247392
 40
0.9957831111
 40
0.9968012213
 40
0.9976784097
 40
0.9980639604
 40
0.9984140477
 40
0.9987286019
 40
0.9990075609
 40
0.9992508745
 40
0.9994585128
 40
0.9996304832
 40
0.99976687
 40
0.9998679421
 40
0.9999345452
 40
0.9999558958
 40
0.9999709468
 40
0.9999837082
 40
1.0
 40
1.0
 40
1.0
 40
1.0
 10
7.7377817522
 20
4.5318766069
 30
0.0
 10
7.7459705169
 20
4.5235652419
 30
0.0
 10
7.7619691274
 20
4.5072935987
 30
0.0
 10
7.7853569738
 20
4.4834257862
 30
0.0
 10
7.8041092775
 20
4.4642407295
 30
0.0
 10
7.8185013753
 20
4.4494998781
 30
0.0
 10
7.8320366534
 20
4.4356305422
 30
0.0
 10
7.8481042332
 20
4.4191569291
 30
0.0
 10
7.8663216089
 20
4.4004678528
 30
0.0
 10
7.8805982116
 20
4.3858155026
 30
0.0
 10
7.8912699083
 20
4.3748621376
 30
0.0
 10
7.89869136
 20
4.3672463293
 30
0.0
 10
7.9057124267
 20
4.3600446139
 30
0.0
 10
7.9123247761
 20
4.3532672274
 30
0.0
 10
7.9185200726
 20
4.3469244025
 30
0.0
 10
7.9242903041
 20
4.3410259787
 30
0.0
 10
7.9296292887
 20
4.335580122
 30
0.0
 10
7.9345292412
 20
4.3305892834
 30
0.0
 10
7.9389840108
 20
4.326054073
 30
0.0
 10
7.9429878495
 20
4.3219748189
 30
0.0
 10
7.9465349355
 20
4.318351776
 30
0.0
 10
7.9492006096
 20
4.3156157633
 30
0.0
 10
7.9510986061
 20
4.3136539617
 30
0.0
 10
7.9523475105
 20
4.3123570363
 30
0.0
 10
7.9534786192
 20
4.3111779783
 30
0.0
 10
7.9544916441
 20
4.3101189345
 30
0.0
 10
7.955386332
 20
4.3091820872
 30
0.0
 10
7.9560579872
 20
4.3084788879
 30
0.0
 10
7.9565362497
 20
4.3079793466
 30
0.0
 10
7.9568502273
 20
4.3076522565
 30
0.0
 10
7.9571344298
 20
4.3073573506
 30
0.0
 10
7.9573888213
 20
4.3070948963
 30
0.0
 10
7.9576133665
 20
4.3068651619
 30
0.0
 10
7.9577821132
 20
4.3066945779
 30
0.0
 10
7.9579022914
 20
4.3065748083
 30
0.0
 10
7.957980994
 20
4.3064972725
 30
0.0
 10
7.9580522104
 20
4.3064281192
 30
0.0
 10
7.9581159354
 20
4.3063673784
 30
0.0
 10
7.9581721607
 20
4.3063150822
 30
0.0
 10
7.9582208818
 20
4.3062712427
 30
0.0
 10
7.9582620764
 20
4.3062359087
 30
0.0
 10
7.9582957639
 20
4.3062089773
 30
0.0
 10
7.9583218628
 20
4.3061906095
 30
0.0
 10
7.9583393893
 20
4.3061807031
 30
0.0
 10
7.9583498414
 20
4.3061778632
 30
0.0
 10
7.9583553096
 20
4.3061781811
 30
0.0
 10
7.9583587879
 20
4.3061818321
 30
0.0
 10
7.9583590596
 20
4.3061850349
 30
0.0
 10
7.9583590596
 20
4.3061867488
 30
0.0
 11
7.7377817522
 21
4.5318766069
 31
0.0
 11
7.7623236983
 21
4.5069185466
 31
0.0
 11
7.7857399146
 21
4.4830247736
 31
0.0
 11
7.8079638088
 21
4.4602914657
 31
0.0
 11
7.8186078251
 21
4.4493900417
 31
0.0
 11
7.8289287388
 21
4.438814463
 31
0.0
 11
7.8485667376
 21
4.4186806253
 31
0.0
 11
7.8668084059
 21
4.3999671015
 31
0.0
 11
7.883584276
 21
4.3827505621
 31
0.0
 11
7.8914009724
 21
4.3747278888
 31
0.0
 11
7.8988256504
 21
4.3671091059
 31
0.0
 11
7.9058499794
 21
4.3599044517
 31
0.0
 11
7.9124656291
 21
4.3531241646
 31
0.0
 11
7.9186642687
 21
4.3467784829
 31
0.0
 11
7.924437568
 21
4.3408776448
 31
0.0
 11
7.9297776252
 21
4.3354301812
 31
0.0
 11
7.9346782098
 21
4.330437972
 31
0.0
 11
7.9391334981
 21
4.3259012777
 31
0.0
 11
7.9431376663
 21
4.3218203588
 31
0.0
 11
7.9466848905
 21
4.3181954757
 31
0.0
 11
7.949769347
 21
4.315026889
 31
0.0
 11
7.9511362447
 21
4.3136139112
 31
0.0
 11
7.9523856022
 21
4.3123166212
 31
0.0
 11
7.9535171662
 21
4.3111371946
 31
0.0
 11
7.9545306852
 21
4.3100778163
 31
0.0
 11
7.9554259079
 21
4.3091406716
 31
0.0
 11
7.956202583
 21
4.3083279455
 31
0.0
 11
7.9565463867
 21
4.3079689224
 31
0.0
 11
7.9568604592
 21
4.3076418233
 31
0.0
 11
7.9571447691
 21
4.3073469215
 31
0.0
 11
7.9573992851
 21
4.30708449
 31
0.0
 11
7.9576239757
 21
4.3068548021
 31
0.0
 11
7.9578188095
 21
4.3066581308
 31
0.0
 11
7.9579050202
 21
4.3065722618
 31
0.0
 11
7.957983755
 21
4.3064947493
 31
0.0
 11
7.9580550099
 21
4.3064256276
 31
0.0
 11
7.9581187809
 21
4.3063649308
 31
0.0
 11
7.9581750641
 21
4.306312693
 31
0.0
 11
7.9582238557
 21
4.3062689483
 31
0.0
 11
7.9582651516
 21
4.306233731
 31
0.0
 11
7.958298948
 21
4.3062070751
 31
0.0
 11
7.958325241
 21
4.3061890148
 31
0.0
 11
7.9583440265
 21
4.3061795842
 31
0.0
 11
7.9583506028
 21
4.3061781157
 31
0.0
 11
7.9583553007
 21
4.3061788175
 31
0.0
 11
7.9583581198
 21
4.3061816938
 31
0.0
 11
7.9583590596
 21
4.3061867488
 31
0.0
  0
SPLINE
  5
2AA
100
AcDbEntity
  8
0
100
AcDbSpline
 62
6
  6
CONTINUOUS
 70
0
 71
3
 72
27
 73
23
 74
21
 42
0.0000001
 43
0.0000001
 44
0.0000000001
 12
0.1451133725
 22
0.0000046802
 32
0.0
 13
0.0000002768
 23
-0.1451133726
 33
0.0
 40
0.0
 40
0.0
 40
0.0
 40
0.0
 40
0.0661715751
 40
0.1323333656
 40
0.1653386814
 40
0.19824861
 40
0.2637042937
 40
0.3286289983
 40
0.3608780426
 40
0.3929689545
 40
0.4566259416
 40
0.5195589599
 40
0.5817389621
 40
0.6431721528
 40
0.6736256632
 40
0.7039047252
 40
0.7639667269
 40
0.8234941086
 40
0.8531108573
 40
0.8826433608
 40
0.9414573235
 40
1.0
 40
1.0
 40
1.0
 40
1.0
 10
8.1563590596
 20
4.4918359435
 30
0.0
 10
8.1595598531
 20
4.4918360467
 30
0.0
 10
8.1659641346
 20
4.4915560034
 30
0.0
 10
8.1739044185
 20
4.4905168428
 30
0.0
 10
8.1801731793
 20
4.4892750721
 30
0.0
 10
8.1863477074
 20
4.487765582
 30
0.0
 10
8.1938893433
 20
4.485381242
 30
0.0
 10
8.2011587546
 20
4.4823450998
 30
0.0
 10
8.2067513004
 20
4.4795443623
 30
0.0
 10
8.212154932
 20
4.4765183397
 30
0.0
 10
8.2185857607
 20
4.47230585
 30
0.0
 10
8.2257268392
 20
4.4665930451
 30
0.0
 10
8.2321981625
 20
4.4602839361
 30
0.0
 10
8.2369997351
 20
4.4545666438
 30
0.0
 10
8.2404435203
 20
4.4497617168
 30
0.0
 10
8.2435978386
 20
4.4448406064
 30
0.0
 10
8.247026919
 20
4.4384374714
 30
0.0
 10
8.24974384
 20
4.4317350115
 30
0.0
 10
8.2514588258
 20
4.4262539865
 30
0.0
 10
8.2528618664
 20
4.4207205355
 30
0.0
 10
8.2540403909
 20
4.4136988224
 30
0.0
 10
8.2543590542
 20
4.4080175798
 30
0.0
 10
8.2543590596
 20
4.4051858047
 30
0.0
 11
8.1563590596
 21
4.4918359435
 31
0.0
 11
8.1659523421
 21
4.4914180429
 31
0.0
 11
8.1754719539
 21
4.4901708717
 31
0.0
 11
8.1801700682
 21
4.4892396609
 31
0.0
 11
8.1848090568
 21
4.4881052821
 31
0.0
 11
8.1938650283
 21
4.4852398347
 31
0.0
 11
8.2025570871
 21
4.4816050445
 31
0.0
 11
8.2067412111
 21
4.4795090172
 31
0.0
 11
8.2108041329
 21
4.4772333538
 31
0.0
 11
8.2185287596
 21
4.4721676674
 31
0.0
 11
8.2256559471
 21
4.4664576464
 31
0.0
 11
8.2321138263
 21
4.4601558189
 31
0.0
 11
8.2378429973
 21
4.4533257488
 31
0.0
 11
8.2404167308
 21
4.4497333503
 31
0.0
 11
8.2427873097
 21
4.4460337983
 31
0.0
 11
8.2468982367
 21
4.4383483938
 31
0.0
 11
8.2501390958
 21
4.4303411682
 31
0.0
 11
8.2514221238
 21
4.426239363
 31
0.0
 11
8.2524753845
 21
4.4220852473
 31
0.0
 11
8.2538861179
 21
4.4136679552
 31
0.0
 11
8.2543590596
 21
4.4051858047
 31
0.0
  0
SPLINE
  5
2AB
100
AcDbEntity
  8
0
100
AcDbSpline
 62
9
  6
CONTINUOUS
 70
0
 71
3
 72
35
 73
31
 74
29
 42
0.0000001
 43
0.0000001
 44
0.0000000001
 12
-0.1012519419
 22
0.0000020979
 32
0.0
 13
-0.0000000006
 23
-0.1012519419
 33
0.0
 40
0.0
 40
0.0
 40
0.0
 40
0.0
 40
0.0947483393
 40
0.1887911159
 40
0.2810759839
 40
0.3706526398
 40
0.4567282213
 40
0.5385294345
 40
0.6153227406
 40
0.6864039539
 40
0.7195903207
 40
0.7511127247
 40
0.7809096591
 40
0.8089212905
 40
0.8350900737
 40
0.8593628456
 40
0.8817046902
 40
0.9020953969
 40
0.9205232297
 40
0.9369891046
 40
0.9515140094
 40
0.9580674166
 40
0.9641638649
 40
0.9698207783
 40
0.9750605527
 40
0.9799120042
 40
0.9844121108
 40
0.9925410953
 40
0.9963167799
 40
1.0
 40
1.0
 40
1.0
 40
1.0
 10
8.1553590596
 20
3.9727241398
 30
0.0
 10
8.1521612419
 20
3.972724206
 30
0.0
 10
8.1457893137
 20
3.9726756123
 30
0.0
 10
8.1363049338
 20
3.972459065
 30
0.0
 10
8.1269994868
 20
3.9721003569
 30
0.0
 10
8.1179697379
 20
3.9716020508
 30
0.0
 10
8.1093030008
 20
3.9709706619
 30
0.0
 10
8.1010796148
 20
3.970211444
 30
0.0
 10
8.0933772769
 20
3.9693323919
 30
0.0
 10
8.0873238396
 20
3.9684900025
 30
0.0
 10
8.0827999242
 20
3.9677553997
 30
0.0
 10
8.0796601644
 20
3.9671926773
 30
0.0
 10
8.0767024132
 20
3.9666070954
 30
0.0
 10
8.0739336529
 20
3.966000121
 30
0.0
 10
8.0713607908
 20
3.9653732952
 30
0.0
 10
8.0689902482
 20
3.9647279036
 30
0.0
 10
8.0668274815
 20
3.9640655761
 30
0.0
 10
8.0648770324
 20
3.9633881038
 30
0.0
 10
8.063142956
 20
3.9626971072
 30
0.0
 10
8.061629333
 20
3.9619942091
 30
0.0
 10
8.0605190527
 20
3.9613801877
 30
0.0
 10
8.059750045
 20
3.9608797003
 30
0.0
 10
8.0592507301
 20
3.9605151997
 30
0.0
 10
8.0588089461
 20
3.9601487847
 30
0.0
 10
8.0584248775
 20
3.9597806662
 30
0.0
 10
8.0580986035
 20
3.9594107012
 30
0.0
 10
8.05775291
 20
3.9589320936
 30
0.0
 10
8.057503517
 20
3.9584293886
 30
0.0
 10
8.0573794695
 20
3.9579162999
 30
0.0
 10
8.0573590596
 20
3.9576641033
 30
0.0
 10
8.0573590596
 20
3.9575397923
 30
0.0
 11
8.1553590596
 21
3.9727241398
 31
0.0
 11
8.1457658848
 21
3.9726510356
 31
0.0
 11
8.1362463776
 21
3.9724325687
 31
0.0
 11
8.1269093681
 21
3.9720706268
 31
0.0
 11
8.1178534697
 21
3.9715684666
 31
0.0
 11
8.1091614602
 21
3.9709314665
 31
0.0
 11
8.1009144373
 21
3.9701653431
 31
0.0
 11
8.0931898074
 21
3.9692776225
 31
0.0
 11
8.0860625951
 21
3.9682769979
 31
0.0
 11
8.0827460638
 21
3.9677371301
 31
0.0
 11
8.0796046692
 21
3.9671726671
 31
0.0
 11
8.0766454475
 21
3.9665850616
 31
0.0
 11
8.0738754346
 21
3.9659757662
 31
0.0
 11
8.0713016666
 21
3.9653462335
 31
0.0
 11
8.0689310525
 21
3.9646979224
 31
0.0
 11
8.0667690219
 21
3.9640323627
 31
0.0
 11
8.0648200503
 21
3.9633511306
 31
0.0
 11
8.0630885971
 21
3.9626558029
 31
0.0
 11
8.061579122
 21
3.9619479563
 31
0.0
 11
8.0602960663
 21
3.9612291709
 31
0.0
 11
8.0597405893
 21
3.9608662143
 31
0.0
 11
8.0592427802
 21
3.9605012248
 31
0.0
 11
8.0588028284
 21
3.9601344663
 31
0.0
 11
8.0584209229
 21
3.9597662027
 31
0.0
 11
8.058097253
 21
3.9593966979
 31
0.0
 11
8.057832008
 21
3.9590262158
 31
0.0
 11
8.057477549
 21
3.9582833752
 31
0.0
 11
8.0573887135
 21
3.9579115446
 31
0.0
 11
8.0573590596
 21
3.9575397923
 31
0.0
  0
LINE
  5
2AC
100
AcDbEntity
  8
0
100
AcDbLine
 62
9
  6
CONTINUOUS
 10
2.956612695
 20
4.3825765032
 11
2.7691517169
 21
4.5657663516
  0
SPLINE
  5
2AD
100
AcDbEntity
  8
0
100
AcDbSpline
 62
9
  6
CONTINUOUS
 70
0
 71
3
 72
35
 73
31
 74
29
 42
0.0000001
 43
0.0000001
 44
0.0000000001
 12
-0.0000000004
 22
0.1012356772
 32
0.0
 13
-0.1012356698
 23
-0.0000385652
 33
0.0
 40
0.0
 40
0.0
 40
0.0
 40
0.0
 40
0.0036521943
 40
0.0073992867
 40
0.0154806242
 40
0.0199620424
 40
0.0247981161
 40
0.0300256043
 40
0.0356730707
 40
0.0417626587
 40
0.0483115562
 40
0.0628336164
 40
0.0793024556
 40
0.097736558
 40
0.1181350785
 40
0.1404850331
 40
0.1647653286
 40
0.1909407822
 40
0.2189585522
 40
0.24876138
 40
0.2802896507
 40
0.3134820241
 40
0.3845759728
 40
0.46138286
 40
0.543198311
 40
0.6292884926
 40
0.7188797755
 40
0.8111792028
 40
0.9052366561
 40
1.0
 40
1.0
 40
1.0
 40
1.0
 10
3.2518590596
 20
3.9575554657
 30
0.0
 10
3.2518590596
 20
3.9576787099
 30
0.0
 10
3.2518386268
 20
3.9579288562
 30
0.0
 10
3.2517144413
 20
3.958438115
 30
0.0
 10
3.2514648872
 20
3.9589370664
 30
0.0
 10
3.2511193712
 20
3.9594122627
 30
0.0
 10
3.2507930954
 20
3.9597800262
 30
0.0
 10
3.2504090353
 20
3.9601462071
 30
0.0
 10
3.2499672627
 20
3.9605109684
 30
0.0
 10
3.2494679613
 20
3.960874116
 30
0.0
 10
3.2486988351
 20
3.9613732577
 30
0.0
 10
3.247588534
 20
3.9619864462
 30
0.0
 10
3.2460750423
 20
3.9626894651
 30
0.0
 10
3.244341054
 20
3.9633814035
 30
0.0
 10
3.2423906638
 20
3.9640603094
 30
0.0
 10
3.2402279369
 20
3.9647242326
 30
0.0
 10
3.2378574017
 20
3.9653710292
 30
0.0
 10
3.2352845164
 20
3.9659988753
 30
0.0
 10
3.23251574
 20
3.966606605
 30
0.0
 10
3.229557976
 20
3.9671927444
 30
0.0
 10
3.2264182068
 20
3.9677559114
 30
0.0
 10
3.2218942871
 20
3.9684910756
 30
0.0
 10
3.2158408548
 20
3.9693342862
 30
0.0
 10
3.2081385184
 20
3.9702144353
 30
0.0
 10
3.1999151398
 20
3.9709748739
 30
0.0
 10
3.1912484124
 20
3.9716074019
 30
0.0
 10
3.1822186603
 20
3.9721062066
 30
0.0
 10
3.1729131941
 20
3.9724641934
 30
0.0
 10
3.1634287947
 20
3.9726787655
 30
0.0
 10
3.1570568698
 20
3.972725358
 30
0.0
 10
3.1538590596
 20
3.9727241398
 30
0.0
 11
3.2518590596
 21
3.9575554657
 31
0.0
 11
3.2518294058
 21
3.957924007
 31
0.0
 11
3.2517405704
 21
3.9582927979
 31
0.0
 11
3.2513861118
 21
3.9590301437
 31
0.0
 11
3.251120867
 21
3.9593982064
 31
0.0
 11
3.2507971973
 21
3.9597655342
 31
0.0
 11
3.2504152921
 21
3.9601318808
 31
0.0
 11
3.2499753406
 21
3.9604970002
 31
0.0
 11
3.2494775318
 21
3.9608606462
 31
0.0
 11
3.248922055
 21
3.9612225727
 31
0.0
 11
3.2476389997
 21
3.9619402857
 31
0.0
 11
3.246129525
 21
3.962648209
 31
0.0
 11
3.2443980721
 21
3.9633444358
 31
0.0
 11
3.2424491006
 21
3.9640270594
 31
0.0
 11
3.2402870702
 21
3.9646941733
 31
0.0
 11
3.2379164562
 21
3.9653438742
 31
0.0
 11
3.2353426883
 21
3.9659744571
 31
0.0
 11
3.2325726755
 21
3.9665845244
 31
0.0
 11
3.2296134537
 21
3.9671727047
 31
0.0
 11
3.2264720592
 21
3.9677376268
 31
0.0
 11
3.2231555278
 21
3.9682779195
 31
0.0
 11
3.2160283153
 21
3.9692795001
 31
0.0
 11
3.2083036851
 21
3.9701683196
 31
0.0
 11
3.2000566618
 21
3.9709356362
 31
0.0
 11
3.1913646517
 21
3.9715736958
 31
0.0
 11
3.1823087527
 21
3.9720762752
 31
0.0
 11
3.1729717425
 21
3.9724375003
 31
0.0
 11
3.1634522347
 21
3.9726540262
 31
0.0
 11
3.1538590596
 21
3.9727241398
 31
0.0
  0
SPLINE
  5
2AE
100
AcDbEntity
  8
0
100
AcDbSpline
 62
9
  6
CONTINUOUS
 70
0
 71
3
 72
30
 73
26
 74
24
 42
0.0000001
 43
0.0000001
 44
0.0000000001
 12
0.0
 22
0.0402965521
 32
0.0
 13
0.0402965521
 23
0.0
 33
0.0
 40
0.0
 40
0.0
 40
0.0
 40
0.0
 40
0.0036857061
 40
0.0074648362
 40
0.0156035962
 40
0.0249557495
 40
0.0358558013
 40
0.0485065155
 40
0.0630293168
 40
0.0794961538
 40
0.0979339196
 40
0.1183375364
 40
0.1406883735
 40
0.1649591296
 40
0.1911166421
 40
0.248928363
 40
0.3136603975
 40
0.3847155791
 40
0.4614756495
 40
0.5432673608
 40
0.6293516828
 40
0.7189803004
 40
0.811318404
 40
0.9053419802
 40
1.0
 40
1.0
 40
1.0
 40
1.0
 10
2.9558590596
 20
3.9515064577
 30
0.0
 10
2.9558590596
 20
3.9515559648
 30
0.0
 10
2.9558672058
 20
3.9516564104
 30
0.0
 10
2.9559166932
 20
3.9518608286
 30
0.0
 10
2.9560454173
 20
3.9521199595
 30
0.0
 10
2.9562887028
 20
3.9524164172
 30
0.0
 10
2.9566221334
 20
3.9527087316
 30
0.0
 10
2.9570454143
 20
3.9529973563
 30
0.0
 10
2.9575583936
 20
3.9532823081
 30
0.0
 10
2.9581606209
 20
3.9535628174
 30
0.0
 10
2.9588508638
 20
3.9538383835
 30
0.0
 10
2.9596273892
 20
3.9541085198
 30
0.0
 10
2.9604882711
 20
3.9543725706
 30
0.0
 10
2.9614315139
 20
3.9546299176
 30
0.0
 10
2.9628440544
 20
3.9549748362
 30
0.0
 10
2.9648008111
 20
3.9553788383
 30
0.0
 10
2.967365096
 20
3.9558134541
 30
0.0
 10
2.970192981
 20
3.9562083667
 30
0.0
 10
2.973257392
 20
3.9565589051
 30
0.0
 10
2.9765296682
 20
3.9568613705
 30
0.0
 10
2.9799795213
 20
3.9571133642
 30
0.0
 10
2.9835747289
 20
3.9573119475
 30
0.0
 10
2.9872792908
 20
3.9574547786
 30
0.0
 10
2.9910531478
 20
3.9575413031
 30
0.0
 10
2.9935875957
 20
3.9575607909
 30
0.0
 10
2.9948590596
 20
3.9575607909
 30
0.0
 11
2.9558590596
 21
3.9515064577
 31
0.0
 11
2.9558708895
 21
3.951654507
 31
0.0
 11
2.9559063181
 21
3.9518026145
 31
0.0
 11
2.9560476069
 21
3.9520985838
 31
0.0
 11
2.9562821959
 21
3.9523935264
 31
0.0
 11
2.9566093552
 21
3.9526866027
 31
0.0
 11
2.9570283546
 21
3.9529769736
 31
0.0
 11
2.9575384643
 21
3.9532637997
 31
0.0
 11
2.9581389053
 21
3.95354625
 31
0.0
 11
2.9588281681
 21
3.9538236192
 31
0.0
 11
2.9596041807
 21
3.9540952987
 31
0.0
 11
2.9604648565
 21
3.9543606826
 31
0.0
 11
2.961408109
 21
3.9546191647
 31
0.0
 11
2.9624318518
 21
3.954870139
 31
0.0
 11
2.9647121024
 21
3.9553471652
 31
0.0
 11
2.9672831764
 21
3.9557873189
 31
0.0
 11
2.9701184999
 21
3.9561864506
 31
0.0
 11
2.9731913442
 21
3.9565404352
 31
0.0
 11
2.9764730926
 21
3.9568457902
 31
0.0
 11
2.9799326766
 21
3.9570998686
 31
0.0
 11
2.9835388472
 21
3.9573000813
 31
0.0
 11
2.9872569579
 21
3.9574443156
 31
0.0
 11
2.9910447801
 21
3.957531521
 31
0.0
 11
2.9948590596
 21
3.9575607909
 31
0.0
  0
SPLINE
  5
2AF
100
AcDbEntity
  8
0
100
AcDbSpline
 62
9
  6
CONTINUOUS
 70
0
 71
3
 72
30
 73
26
 74
24
 42
0.0000001
 43
0.0000001
 44
0.0000000001
 12
0.0
 22
0.0402965521
 32
0.0
 13
0.0402965521
 23
0.0
 33
0.0
 40
0.0
 40
0.0
 40
0.0
 40
0.0
 40
0.0036857061
 40
0.0074648362
 40
0.0156035962
 40
0.0249557495
 40
0.0358558013
 40
0.0485065155
 40
0.0630293168
 40
0.0794961538
 40
0.0979339196
 40
0.1183375364
 40
0.1406883735
 40
0.1649591296
 40
0.1911166421
 40
0.248928363
 40
0.3136603975
 40
0.3847155791
 40
0.4614756495
 40
0.5432673608
 40
0.6293516828
 40
0.7189803004
 40
0.811318404
 40
0.9053419802
 40
1.0
 40
1.0
 40
1.0
 40
1.0
 10
7.9583590596
 20
3.9515064577
 30
0.0
 10
7.9583590596
 20
3.9515559648
 30
0.0
 10
7.9583672058
 20
3.9516564104
 30
0.0
 10
7.9584166932
 20
3.9518608286
 30
0.0
 10
7.9585454173
 20
3.9521199595
 30
0.0
 10
7.9587887028
 20
3.9524164172
 30
0.0
 10
7.9591221334
 20
3.9527087316
 30
0.0
 10
7.9595454143
 20
3.9529973563
 30
0.0
 10
7.9600583936
 20
3.9532823081
 30
0.0
 10
7.9606606209
 20
3.9535628174
 30
0.0
 10
7.9613508638
 20
3.9538383835
 30
0.0
 10
7.9621273892
 20
3.9541085198
 30
0.0
 10
7.9629882711
 20
3.9543725706
 30
0.0
 10
7.9639315139
 20
3.9546299176
 30
0.0
 10
7.9653440544
 20
3.9549748362
 30
0.0
 10
7.9673008111
 20
3.9553788383
 30
0.0
 10
7.969865096
 20
3.9558134541
 30
0.0
 10
7.972692981
 20
3.9562083667
 30
0.0
 10
7.975757392
 20
3.9565589051
 30
0.0
 10
7.9790296682
 20
3.9568613705
 30
0.0
 10
7.9824795213
 20
3.9571133642
 30
0.0
 10
7.9860747289
 20
3.9573119475
 30
0.0
 10
7.9897792908
 20
3.9574547786
 30
0.0
 10
7.9935531478
 20
3.9575413031
 30
0.0
 10
7.9960875957
 20
3.9575607909
 30
0.0
 10
7.9973590596
 20
3.9575607909
 30
0.0
 11
7.9583590596
 21
3.9515064577
 31
0.0
 11
7.9583708895
 21
3.951654507
 31
0.0
 11
7.9584063181
 21
3.9518026145
 31
0.0
 11
7.9585476069
 21
3.9520985838
 31
0.0
 11
7.9587821959
 21
3.9523935264
 31
0.0
 11
7.9591093552
 21
3.9526866027
 31
0.0
 11
7.9595283546
 21
3.9529769736
 31
0.0
 11
7.9600384643
 21
3.9532637997
 31
0.0
 11
7.9606389053
 21
3.95354625
 31
0.0
 11
7.9613281681
 21
3.9538236192
 31
0.0
 11
7.9621041807
 21
3.9540952987
 31
0.0
 11
7.9629648565
 21
3.9543606826
 31
0.0
 11
7.963908109
 21
3.9546191647
 31
0.0
 11
7.9649318518
 21
3.954870139
 31
0.0
 11
7.9672121024
 21
3.9553471652
 31
0.0
 11
7.9697831764
 21
3.9557873189
 31
0.0
 11
7.9726184999
 21
3.9561864506
 31
0.0
 11
7.9756913442
 21
3.9565404352
 31
0.0
 11
7.9789730926
 21
3.9568457902
 31
0.0
 11
7.9824326766
 21
3.9570998686
 31
0.0
 11
7.9860388472
 21
3.9573000813
 31
0.0
 11
7.9897569579
 21
3.9574443156
 31
0.0
 11
7.9935447801
 21
3.957531521
 31
0.0
 11
7.9973590596
 21
3.9575607909
 31
0.0
  0
LINE
  5
2B0
100
AcDbEntity
  8
0
100
AcDbLine
 62
6
  6
CONTINUOUS
 10
3.4333735173
 20
3.7575438054
 11
3.4592892345
 21
3.7296435314
  0
SPLINE
  5
2B1
100
AcDbEntity
  8
0
100
AcDbSpline
 62
9
  6
CONTINUOUS
 70
0
 71
3
 72
35
 73
31
 74
29
 42
0.0000001
 43
0.0000001
 44
0.0000000001
 12
-0.0000000004
 22
0.1012356772
 32
0.0
 13
-0.1012356698
 23
-0.0000385652
 33
0.0
 40
0.0
 40
0.0
 40
0.0
 40
0.0
 40
0.0036521943
 40
0.0073992867
 40
0.0154806242
 40
0.0199620424
 40
0.0247981161
 40
0.0300256043
 40
0.0356730707
 40
0.0417626587
 40
0.0483115562
 40
0.0628336164
 40
0.0793024556
 40
0.097736558
 40
0.1181350785
 40
0.1404850331
 40
0.1647653286
 40
0.1909407822
 40
0.2189585522
 40
0.24876138
 40
0.2802896507
 40
0.3134820241
 40
0.3845759728
 40
0.46138286
 40
0.543198311
 40
0.6292884926
 40
0.7188797755
 40
0.8111792028
 40
0.9052366561
 40
1.0
 40
1.0
 40
1.0
 40
1.0
 10
8.2543590596
 20
3.9575554657
 30
0.0
 10
8.2543590596
 20
3.9576787099
 30
0.0
 10
8.2543386268
 20
3.9579288562
 30
0.0
 10
8.2542144413
 20
3.958438115
 30
0.0
 10
8.2539648872
 20
3.9589370664
 30
0.0
 10
8.2536193712
 20
3.9594122627
 30
0.0
 10
8.2532930954
 20
3.9597800262
 30
0.0
 10
8.2529090353
 20
3.9601462071
 30
0.0
 10
8.2524672627
 20
3.9605109684
 30
0.0
 10
8.2519679613
 20
3.960874116
 30
0.0
 10
8.2511988351
 20
3.9613732577
 30
0.0
 10
8.250088534
 20
3.9619864462
 30
0.0
 10
8.2485750423
 20
3.9626894651
 30
0.0
 10
8.246841054
 20
3.9633814035
 30
0.0
 10
8.2448906638
 20
3.9640603094
 30
0.0
 10
8.2427279369
 20
3.9647242326
 30
0.0
 10
8.2403574017
 20
3.9653710292
 30
0.0
 10
8.2377845164
 20
3.9659988753
 30
0.0
 10
8.23501574
 20
3.966606605
 30
0.0
 10
8.232057976
 20
3.9671927444
 30
0.0
 10
8.2289182068
 20
3.9677559114
 30
0.0
 10
8.2243942871
 20
3.9684910756
 30
0.0
 10
8.2183408548
 20
3.9693342862
 30
0.0
 10
8.2106385184
 20
3.9702144353
 30
0.0
 10
8.2024151398
 20
3.9709748739
 30
0.0
 10
8.1937484124
 20
3.9716074019
 30
0.0
 10
8.1847186603
 20
3.9721062066
 30
0.0
 10
8.1754131941
 20
3.9724641934
 30
0.0
 10
8.1659287947
 20
3.9726787655
 30
0.0
 10
8.1595568698
 20
3.972725358
 30
0.0
 10
8.1563590596
 20
3.9727241398
 30
0.0
 11
8.2543590596
 21
3.9575554657
 31
0.0
 11
8.2543294058
 21
3.957924007
 31
0.0
 11
8.2542405704
 21
3.9582927979
 31
0.0
 11
8.2538861118
 21
3.9590301437
 31
0.0
 11
8.253620867
 21
3.9593982064
 31
0.0
 11
8.2532971973
 21
3.9597655342
 31
0.0
 11
8.2529152921
 21
3.9601318808
 31
0.0
 11
8.2524753406
 21
3.9604970002
 31
0.0
 11
8.2519775318
 21
3.9608606462
 31
0.0
 11
8.251422055
 21
3.9612225727
 31
0.0
 11
8.2501389997
 21
3.9619402857
 31
0.0
 11
8.248629525
 21
3.962648209
 31
0.0
 11
8.2468980721
 21
3.9633444358
 31
0.0
 11
8.2449491006
 21
3.9640270594
 31
0.0
 11
8.2427870702
 21
3.9646941733
 31
0.0
 11
8.2404164562
 21
3.9653438742
 31
0.0
 11
8.2378426883
 21
3.9659744571
 31
0.0
 11
8.2350726755
 21
3.9665845244
 31
0.0
 11
8.2321134537
 21
3.9671727047
 31
0.0
 11
8.2289720592
 21
3.9677376268
 31
0.0
 11
8.2256555278
 21
3.9682779195
 31
0.0
 11
8.2185283153
 21
3.9692795001
 31
0.0
 11
8.2108036851
 21
3.9701683196
 31
0.0
 11
8.2025566618
 21
3.9709356362
 31
0.0
 11
8.1938646517
 21
3.9715736958
 31
0.0
 11
8.1848087527
 21
3.9720762752
 31
0.0
 11
8.1754717425
 21
3.9724375003
 31
0.0
 11
8.1659522347
 21
3.9726540262
 31
0.0
 11
8.1563590596
 21
3.9727241398
 31
0.0
  0
SPLINE
  5
2B2
100
AcDbEntity
  8
0
100
AcDbSpline
 62
9
  6
CONTINUOUS
 70
0
 71
3
 72
14
 73
10
 74
8
 42
0.0000001
 43
0.0000001
 44
0.0000000001
 12
-0.1105342404
 22
-0.132562416
 32
0.0
 13
-0.1099316369
 23
-0.1330625704
 33
0.0
 40
0.0
 40
0.0
 40
0.0
 40
0.0
 40
0.1079829348
 40
0.2212562282
 40
0.3396401543
 40
0.4629353102
 40
0.5908854512
 40
0.7232240191
 40
1.0
 40
1.0
 40
1.0
 40
1.0
 10
2.9573666692
 20
3.8354497035
 30
0.0
 10
2.9533880653
 20
3.8306782106
 30
0.0
 10
2.9452421366
 20
3.8208962843
 30
0.0
 10
2.9327589666
 20
3.805862819
 30
0.0
 10
2.9197382775
 20
3.790130639
 30
0.0
 10
2.9062065763
 20
3.7737253381
 30
0.0
 10
2.8921788821
 20
3.7566884388
 30
0.0
 10
2.8725442695
 20
3.7328298385
 30
0.0
 10
2.8575774877
 20
3.7146634433
 30
0.0
 10
2.8474353422
 20
3.7023872688
 30
0.0
 11
2.9573666692
 21
3.8354497035
 31
0.0
 11
2.9454402101
 21
3.8211274315
 31
0.0
 11
2.9329507462
 21
3.8060857613
 31
0.0
 11
2.9199227309
 21
3.7903447664
 31
0.0
 11
2.9063793356
 21
3.773930009
 31
0.0
 11
2.8923400569
 21
3.7568827841
 31
0.0
 11
2.8778237369
 21
3.7392471881
 31
0.0
 11
2.8474353422
 21
3.7023872688
 31
0.0
  0
LINE
  5
2B3
100
AcDbEntity
  8
0
100
AcDbLine
 62
9
  6
CONTINUOUS
 10
8.3533590244
 20
4.306173161
 11
8.5739381129
 21
4.531895067
  0
LINE
  5
2B4
100
AcDbEntity
  8
0
100
AcDbLine
 62
9
  6
CONTINUOUS
 10
8.5739424706
 20
3.7634921687
 11
8.3533588771
 21
3.9892196653
  0
SPLINE
  5
2B5
100
AcDbEntity
  8
0
100
AcDbSpline
 62
9
  6
CONTINUOUS
 70
0
 71
3
 72
24
 73
20
 74
18
 42
0.0000001
 43
0.0000001
 44
0.0000000001
 12
-0.0574994279
 22
0.0
 32
0.0
 13
0.0
 23
-0.0574994279
 33
0.0
 40
0.0
 40
0.0
 40
0.0
 40
0.0
 40
0.0663981037
 40
0.1328273717
 40
0.1990215467
 40
0.2647432319
 40
0.3298714343
 40
0.3943328916
 40
0.4580705104
 40
0.5210420597
 40
0.5832096471
 40
0.6445586234
 40
0.705133481
 40
0.7650289509
 40
0.8243642558
 40
0.853874272
 40
0.8832840986
 40
0.9418049333
 40
1.0
 40
1.0
 40
1.0
 40
1.0
 10
7.9973590596
 20
4.3978747543
 30
0.0
 10
7.996086442
 20
4.3978747543
 30
0.0
 10
7.9935392847
 20
4.397763876
 30
0.0
 10
7.9897521263
 20
4.3972721887
 30
0.0
 10
7.9860333078
 20
4.3964601238
 30
0.0
 10
7.9824242975
 20
4.3953306773
 30
0.0
 10
7.9789609155
 20
4.3938968881
 30
0.0
 10
7.9756744724
 20
4.3921741716
 30
0.0
 10
7.972596775
 20
4.390175941
 30
0.0
 10
7.9697566454
 20
4.3879223402
 30
0.0
 10
7.9671797176
 20
4.3854371438
 30
0.0
 10
7.9648929933
 20
4.3827420929
 30
0.0
 10
7.9629200056
 20
4.379861916
 30
0.0
 10
7.9612771609
 20
4.376825301
 30
0.0
 10
7.960195602
 20
4.37418091
 30
0.0
 10
7.9595139786
 20
4.3720182516
 30
0.0
 10
7.9589558687
 20
4.3698365791
 30
0.0
 10
7.9584863947
 20
4.3670695298
 30
0.0
 10
7.9583590596
 20
4.3648306688
 30
0.0
 10
7.9583590596
 20
4.3637152745
 30
0.0
 11
7.9973590596
 21
4.3978747543
 31
0.0
 11
7.9935447801
 21
4.3977096088
 31
0.0
 11
7.9897569579
 21
4.3972175824
 31
0.0
 11
7.9860388472
 21
4.3964037905
 31
0.0
 11
7.9824326766
 21
4.3952741594
 31
0.0
 11
7.9789730926
 21
4.3938406101
 31
0.0
 11
7.9756913442
 21
4.3921177502
 31
0.0
 11
7.9726184999
 21
4.3901205149
 31
0.0
 11
7.9697831764
 21
4.3878685521
 31
0.0
 11
7.9672121024
 21
4.3853851374
 31
0.0
 11
7.9649318518
 21
4.3826936819
 31
0.0
 11
7.9629648565
 21
4.3798192506
 31
0.0
 11
7.9613281681
 21
4.3767890561
 31
0.0
 11
7.9600384643
 21
4.3736304685
 31
0.0
 11
7.9595283546
 21
4.3720121518
 31
0.0
 11
7.9591093552
 21
4.3703738345
 31
0.0
 11
7.9585476069
 21
4.3670561412
 31
0.0
 11
7.9583590596
 21
4.3637152745
 31
0.0
  0
LINE
  5
2B6
100
AcDbEntity
  8
0
100
AcDbLine
 62
9
  6
CONTINUOUS
 10
8.5400588657
 20
4.5657605711
 11
8.3525833758
 21
4.3825566258
  0
SPLINE
  5
2B7
100
AcDbEntity
  8
0
100
AcDbSpline
 62
9
  6
CONTINUOUS
 70
0
 71
3
 72
15
 73
11
 74
9
 42
0.0000001
 43
0.0000001
 44
0.0000000001
 12
0.1867341547
 22
0.183892184
 32
0.0
 13
0.1873540847
 23
0.1832605435
 33
0.0
 40
0.0
 40
0.0
 40
0.0
 40
0.0
 40
0.161115507
 40
0.3134137354
 40
0.456110372
 40
0.5884396208
 40
0.7096938625
 40
0.8191764823
 40
0.9161833532
 40
1.0
 40
1.0
 40
1.0
 40
1.0
 10
2.7691700263
 20
3.729622532
 30
0.0
 10
2.7791986156
 20
3.7394984928
 30
0.0
 10
2.7987302524
 20
3.7586863007
 30
0.0
 10
2.8272069708
 20
3.7865568365
 30
0.0
 10
2.8539172564
 20
3.8126368698
 30
0.0
 10
2.8786967654
 20
3.8368123584
 30
0.0
 10
2.9014067848
 20
3.8589540118
 30
0.0
 10
2.9219127003
 20
3.8789360515
 30
0.0
 10
2.9400762704
 20
3.8966355652
 30
0.0
 10
2.9513810609
 20
3.9076691141
 30
0.0
 10
2.9566155246
 20
3.9127892089
 30
0.0
 11
2.7691700263
 21
3.729622532
 31
0.0
 11
2.7992892458
 21
3.7592164075
 31
0.0
 11
2.8278121028
 21
3.7871377395
 31
0.0
 11
2.8545670836
 21
3.8132677529
 31
0.0
 11
2.8793906947
 21
3.8374865594
 31
0.0
 11
2.9021441443
 21
3.8596708424
 31
0.0
 11
2.9226932713
 21
3.8796966765
 31
0.0
 11
2.9408990139
 21
3.8974423487
 31
0.0
 11
2.9566155246
 21
3.9127892089
 31
0.0
  0
ENDSEC
  0
SECTION
  2
OBJECTS
  0
DICTIONARY
  5
C
100
AcDbDictionary
280
0
281
1
  3
ACAD_GROUP
350
D
  3
ACAD_MLINESTYLE
350
17
  3
ACAD_LAYOUT
350
1A
  3
ACAD_PLOTSETTINGS
350
19
  3
ACAD_PLOTSTYLENAME
350
E
  0
DICTIONARY
  5
D
102
{ACAD_REACTORS
330
C
102
}
100
AcDbDictionary
280
0
281
1
  0
ACDBDICTIONARYWDFLT
  5
E
102
{ACAD_REACTORS
330
C
102
}
100
AcDbDictionary
281
1
  3
Normal
350
F
100
AcDbDictionaryWithDefault
340
F
  0
DICTIONARY
  5
17
102
{ACAD_REACTORS
330
C
102
}
100
AcDbDictionary
280
0
281
1
  3
Standard
350
18
  0
DICTIONARY
  5
19
102
{ACAD_REACTORS
330
C
102
}
100
AcDbDictionary
281
1
  0
DICTIONARY
  5
1A
102
{ACAD_REACTORS
330
C
102
}
100
AcDbDictionary
281
1
  3
Model
350
2B8
  3
Layout1
350
2B9
  0
ACDBPLACEHOLDER
  5
F
102
{ACAD_REACTORS
330
E
102
}
  0
MLINESTYLE
  5
18
102
{ACAD_REACTORS
330
17
102
}
100
AcDbMlineStyle
  2
STANDARD
 70
0
  3

 62
256
 51
90.0
 52
90.0
 71
2
 49
0.5
 62
256
  6
BYLAYER
 49
-0.5
 62
256
  6
BYLAYER
  0
LAYOUT
  5
2B8
102
{ACAD_REACTORS
330
1A
102
}
100
AcDbPlotSettings
  1

  2
none_device
  4
ISO_A4_(297.00_x_210.00_MM)
  6

 40
0.0
 41
0.0
 42
0.0
 43
0.0
 44
297.0
 45
210.0
 46
0.0
 47
0.0
 48
0.0
 49
0.0
140
0.0
141
0.0
142
1.0
143
1.0
 70
1024
 72
0
 73
0
 74
0
  7

 75
0
147
1.0
148
0.0
149
0.0
100
AcDbLayout
  1
Model
 70
0
 71
0
 10
0.0
 20
0.0
 11
11.6929133858
 21
8.2677165354
 12
0.0
 22
0.0
 32
0.0
 14
0.0
 24
0.0
 34
0.0
 15
0.0
 25
0.0
 35
0.0
146
0.0
 13
0.0
 23
0.0
 33
0.0
 16
1.0
 26
0.0
 36
0.0
 17
0.0
 27
1.0
 37
0.0
 76
0
330
203
345
0
346
0
  0
LAYOUT
  5
2B9
102
{ACAD_REACTORS
330
1A
102
}
100
AcDbPlotSettings
  1

  2
none_device
  4
ISO_A4_(297.00_x_210.00_MM)
  6

 40
0.0
 41
0.0
 42
0.0
 43
0.0
 44
297.0
 45
210.0
 46
0.0
 47
0.0
 48
0.0
 49
0.0
140
0.0
141
0.0
142
1.0
143
1.0
 70
0
 72
0
 73
0
 74
0
  7

 75
0
147
1.0
148
0.0
149
0.0
100
AcDbLayout
  1
Layout1
 70
0
 71
1
 10
0.0
 20
0.0
 11
11.6929133858
 21
8.2677165354
 12
0.0
 22
0.0
 32
0.0
 14
0.0
 24
0.0
 34
0.0
 15
0.0
 25
0.0
 35
0.0
146
0.0
 13
0.0
 23
0.0
 33
0.0
 16
1.0
 26
0.0
 36
0.0
 17
0.0
 27
1.0
 37
0.0
 76
0
330
204
345
0
346
0
  0
ENDSEC
  0
EOF
