  0
SECTION
  2
HEADER
  9
$ACADVER
  1
AC1015
  9
$DWGCODEPAGE
  3
ANSI_1252
  9
$EXTMAX
 10
11.6929133858
 20
8.2677165354
 30
0.0
  9
$EXTMIN
 10
0.0
 20
0.0
 30
0.0
  9
$LIMMIN
 10
0.0
 20
0.0
  9
$LIMMAX
 10
11.6929133858
 20
8.2677165354
  9
$VIEWCTR
 10
5.8464566929
 20
4.1338582677
  9
$VIEWSIZE
 40
8.2677165354
  9
$CLAYER
  8
0
  9
$LTSCALE
 40
0.6431102362
  9
$CELTYPE
  6
BYLAYER
  9
$DIMSCALE
 40
1.0
  9
$DIMASZ
 40
0.1875
  9
$DIMEXO
 40
0.0730807087
  9
$DIMDLI
 40
0.4443307087
  9
$DIMEXE
 40
0.2104724409
  9
$DIMCEN
 40
0.1052362205
  9
$DIMLFAC
 40
1.0
  9
$DIMBLK
  1
_CLOSED
  9
$DIMTXT
 40
0.15625
  9
$DIMTOL
 70
0
  9
$DIMLIM
 70
0
  9
$DIMTFAC
 40
1.0
  9
$PDMODE
 70
3
  9
$PDSIZE
 40
0.3125
  9
$HANDSEED
  5
252
  9
$TILEMODE
 70
1
  9
$MEASUREMENT
 70
0
  9
$INSUNITS
 70
1
  0
ENDSEC
  0
SECTION
  2
CLASSES
  0
CLASS
  1
ACDBDICTIONARYWDFLT
  2
AcDbDictionaryWithDefault
  3
AutoCAD 2000
 90
0
280
0
281
0
  0
CLASS
  1
ACDBPLACEHOLDER
  2
AcDbPlaceHolder
  3
AutoCAD 2000
 90
0
280
0
281
0
  0
CLASS
  1
LAYOUT
  2
AcDbLayout
  3
AutoCAD 2000
 90
0
280
0
281
0
  0
ENDSEC
  0
SECTION
  2
TABLES
  0
TABLE
  2
VPORT
  5
8
100
AcDbSymbolTable
 70
2
  0
VPORT
  5
1F4
100
AcDbSymbolTableRecord
100
AcDbViewportTableRecord
  2
*ACTIVE
 70
0
 10
0.0
 20
0.0
 11
1.0
 21
1.0
 12
5.8464566929
 22
4.1338582677
 13
0.0
 23
0.0
 14
1.0
 24
1.0
 15
0.0
 25
0.0
 16
0.0
 26
0.0
 36
1.0
 17
0.0
 27
0.0
 37
0.0
 40
8.2677165354
 41
1.4142857143
 42
50.0
 43
0.0
 44
0.0
 50
0.0
 51
0.0
 71
0
 72
100
 73
1
 74
1
 75
0
 76
0
 77
0
 78
0
  0
ENDTAB
  0
TABLE
  2
LTYPE
  5
5
100
AcDbSymbolTable
 70
6
  0
LTYPE
  5
14
100
AcDbSymbolTableRecord
100
AcDbLinetypeTableRecord
  2
BYBLOCK
 70
0
  3

 72
65
 73
0
 40
0.0
  0
LTYPE
  5
15
100
AcDbSymbolTableRecord
100
AcDbLinetypeTableRecord
  2
BYLAYER
 70
0
  3

 72
65
 73
0
 40
0.0
  0
LTYPE
  5
16
100
AcDbSymbolTableRecord
100
AcDbLinetypeTableRecord
  2
CONTINUOUS
 70
64
  3
Solid line
 72
65
 73
0
 40
0.0
  0
LTYPE
  5
1F5
100
AcDbSymbolTableRecord
100
AcDbLinetypeTableRecord
  2
CENTER
 70
64
  3
____ _ ____ _ ____ _ ____ _ ____ _ ____ _ ____
 72
65
 73
4
 40
0.6
 49
0.375
 74
0
 49
-0.075
 74
0
 49
0.075
 74
0
 49
-0.075
 74
0
  0
LTYPE
  5
1F6
100
AcDbSymbolTableRecord
100
AcDbLinetypeTableRecord
  2
HIDDEN
 70
64
  3
- - - - - - - - - - - - - - - - - - - -
 72
65
 73
2
 40
0.2
 49
0.1
 74
0
 49
-0.1
 74
0
  0
LTYPE
  5
1F7
100
AcDbSymbolTableRecord
100
AcDbLinetypeTableRecord
  2
PHANTOM
 70
64
  3
_____ _ _ _____ _ _ _____ _ _ _____
 72
65
 73
6
 40
0.8
 49
0.45
 74
0
 49
-0.05
 74
0
 49
0.1
 74
0
 49
-0.05
 74
0
 49
0.1
 74
0
 49
-0.05
 74
0
  0
LTYPE
  5
1F8
100
AcDbSymbolTableRecord
100
AcDbLinetypeTableRecord
  2
DOT
 70
64
  3
. . . . . . . . . . . . . . . . . . . .
 72
65
 73
2
 40
0.2
 49
0.1
 74
0
 49
-0.1
 74
0
  0
LTYPE
  5
1F9
100
AcDbSymbolTableRecord
100
AcDbLinetypeTableRecord
  2
DASHED
 70
64
  3
- - - - - - - - - - - - - - - - - - - -
 72
65
 73
2
 40
0.2
 49
0.1
 74
0
 49
-0.1
 74
0
  0
ENDTAB
  0
TABLE
  2
LAYER
  5
2
100
AcDbSymbolTable
 70
36
  0
LAYER
  5
10
100
AcDbSymbolTableRecord
100
AcDbLayerTableRecord
  2
0
 70
0
 62
7
  6
CONTINUOUS
370
-3
390
F
  0
LAYER
  5
1FA
100
AcDbSymbolTableRecord
100
AcDbLayerTableRecord
  2
DEFAULT_1
 70
0
 62
7
  6
CENTER
370
-3
390
F
  0
LAYER
  5
1FB
100
AcDbSymbolTableRecord
100
AcDbLayerTableRecord
  2
DEFAULT_2
 70
0
 62
8
  6
HIDDEN
370
-3
390
F
  0
LAYER
  5
1FC
100
AcDbSymbolTableRecord
100
AcDbLayerTableRecord
  2
DEFAULT_3
 70
0
 62
7
  6
PHANTOM
370
-3
390
F
  0
LAYER
  5
1FD
100
AcDbSymbolTableRecord
100
AcDbLayerTableRecord
  2
DEFAULT_COORDINATE_SYSTEM
 70
0
 62
7
  6
CONTINUOUS
370
-3
390
F
  0
LAYER
  5
1FE
100
AcDbSymbolTableRecord
100
AcDbLayerTableRecord
  2
DEFAULT_DATUM_AXES
 70
0
 62
7
  6
CONTINUOUS
370
-3
390
F
  0
LAYER
  5
1FF
100
AcDbSymbolTableRecord
100
AcDbLayerTableRecord
  2
DEFAULT_DATUM_CURVES
 70
0
 62
7
  6
CONTINUOUS
370
-3
390
F
  0
LAYER
  5
200
100
AcDbSymbolTableRecord
100
AcDbLayerTableRecord
  2
DEFAULT_DATUM_PLANES
 70
0
 62
7
  6
CONTINUOUS
370
-3
390
F
  0
ENDTAB
  0
TABLE
  2
STYLE
  5
3
100
AcDbSymbolTable
 70
1
  0
STYLE
  5
11
100
AcDbSymbolTableRecord
100
AcDbTextStyleTableRecord
  2
STANDARD
 70
0
 40
0.0
 41
0.8
 50
0.0
 71
0
 42
0.2
  3
txt
  4

  0
STYLE
  5
201
100
AcDbSymbolTableRecord
100
AcDbTextStyleTableRecord
  2
TEXTSTYLE_1
 70
0
 40
0.0
 41
0.8
 50
0.0
 71
0
 42
0.2
  3
gdt
  4

  0
ENDTAB
  0
TABLE
  2
VIEW
  5
6
100
AcDbSymbolTable
 70
0
  0
ENDTAB
  0
TABLE
  2
UCS
  5
7
100
AcDbSymbolTable
 70
0
  0
ENDTAB
  0
TABLE
  2
APPID
  5
9
100
AcDbSymbolTable
 70
1
  0
APPID
  5
202
100
AcDbSymbolTableRecord
100
AcDbRegAppTableRecord
  2
ACAD
 70
0
  0
ENDTAB
  0
TABLE
  2
BLOCK_RECORD
  5
1
100
AcDbSymbolTable
 70
0
  0
BLOCK_RECORD
  5
203
100
AcDbSymbolTableRecord
100
AcDbBlockTableRecord
  2
*Model_Space
  0
BLOCK_RECORD
  5
204
100
AcDbSymbolTableRecord
100
AcDbBlockTableRecord
  2
*Paper_Space
  0
ENDTAB
  0
TABLE
  2
DIMSTYLE
  5
A
100
AcDbSymbolTable
 70
1
100
AcDbDimStyleTable
 71
0
  0
DIMSTYLE
105
205
100
AcDbSymbolTableRecord
100
AcDbDimStyleTableRecord
  2
STANDARD
 70
0
  3

  4

 40
1.0
 41
0.1875
 42
0.0625
 43
0.38
 44
0.18
 45
0.0
 46
0.0
 47
0.01
 48
0.01
140
0.15625
141
0.09
142
0.0
143
25.4
144
1.0
145
0.0
146
1.0
147
0.09
 71
0.0
 72
0.0
 73
1
 74
1
 75
0
 76
0
 77
0
 78
4
170
0
171
2
172
0
173
0
174
0
175
0
176
0
177
0
178
0
270
2
271
2
272
2
273
2
274
2
275
0
280
0
281
0
282
0
283
1
284
4
285
0
286
0
287
3
288
0
340
11
  0
ENDTAB
  0
ENDSEC
  0
SECTION
  2
BLOCKS
  0
BLOCK
  5
20
100
AcDbEntity
  8
0
100
AcDbBlockBegin
  2
*Model_Space
 70
0
 10
0.0
 20
0.0
 30
0.0
  3
*Model_Space
  1

  0
ENDBLK
  5
21
100
AcDbEntity
  8
0
100
AcDbBlockEnd
  0
BLOCK
  5
1C
100
AcDbEntity
  8
0
100
AcDbBlockBegin
  2
*Paper_Space
 70
0
 10
0.0
 20
0.0
 30
0.0
  3
*Paper_Space
  1

  0
ENDBLK
  5
1D
100
AcDbEntity
  8
0
100
AcDbBlockEnd
  0
ENDSEC
  0
SECTION
  2
ENTITIES
  0
LINE
  5
206
100
AcDbEntity
  8
0
100
AcDbLine
 62
6
  6
CONTINUOUS
 10
7.4309152593
 20
3.2524602226
 11
7.3329144682
 21
3.2524602226
  0
LINE
  5
207
100
AcDbEntity
  8
0
100
AcDbLine
 62
9
  6
CONTINUOUS
 10
4.3766697526
 20
4.5856474034
 11
4.395488093
 21
4.5514879236
  0
LINE
  5
208
100
AcDbEntity
  8
0
100
AcDbLine
 62
9
  6
CONTINUOUS
 10
4.8063469527
 20
4.5285572157
 11
4.8034737283
 21
4.567451233
  0
LINE
  5
209
100
AcDbEntity
  8
0
100
AcDbLine
 62
9
  6
CONTINUOUS
 10
4.8137087941
 20
4.4308268775
 11
4.806500474
 21
4.5285659222
  0
LINE
  5
20A
100
AcDbEntity
  8
0
100
AcDbLine
 62
6
  6
CONTINUOUS
 10
7.1749152459
 20
3.4099602226
 11
7.1159152593
 21
3.4099602226
  0
LINE
  5
20B
100
AcDbEntity
  8
0
100
AcDbLine
 62
9
  6
CONTINUOUS
 10
4.1064248363
 20
4.1392791068
 11
4.0678976375
 21
4.14533344
  0
LWPOLYLINE
  5
20C
100
AcDbEntity
  8
0
100
AcDbPolyline
 62
6
  6
CONTINUOUS
 90
3
 70
0
 10
6.2856152593
 20
4.0397492207
 10
6.3607637606
 20
4.037961173
 10
6.4374186601
 20
4.032476953
  0
LINE
  5
20D
100
AcDbEntity
  8
0
100
AcDbLine
 62
9
  6
CONTINUOUS
 10
5.6874652593
 20
4.7489627698
 11
5.6502470928
 21
4.6583052862
  0
LINE
  5
20E
100
AcDbEntity
  8
0
100
AcDbLine
 62
9
  6
CONTINUOUS
 10
5.4606359329
 20
4.2733067238
 11
5.5323904379
 21
4.3900127265
  0
LINE
  5
20F
100
AcDbEntity
  8
0
100
AcDbLine
 62
9
  6
CONTINUOUS
 10
6.2856589377
 20
4.1379602221
 11
6.2856414735
 21
4.1379602224
  0
LWPOLYLINE
  5
210
100
AcDbEntity
  8
0
100
AcDbPolyline
 62
6
  6
CONTINUOUS
 90
3
 70
0
 10
6.4374186601
 20
4.032476953
 10
6.5139073318
 20
4.0232525697
 10
6.5903170697
 20
4.0101932116
  0
LINE
  5
211
100
AcDbEntity
  8
0
100
AcDbLine
 62
6
  6
CONTINUOUS
 10
6.5125339145
 20
4.0234182011
 11
6.5892452025
 21
4.0103242766
  0
LINE
  5
212
100
AcDbEntity
  8
0
100
AcDbLine
 62
6
  6
CONTINUOUS
 10
6.5892452025
 20
4.0103242766
 11
6.6664248612
 21
3.9931903903
  0
LINE
  5
213
100
AcDbEntity
  8
0
100
AcDbLine
 62
6
  6
CONTINUOUS
 10
6.5903170697
 20
4.0101932116
 11
6.6667558812
 21
3.9931414367
  0
LINE
  5
214
100
AcDbEntity
  8
0
100
AcDbLine
 62
6
  6
CONTINUOUS
 10
4.4302192265
 20
4.3864506953
 11
4.4302255423
 21
4.3864491459
  0
LINE
  5
215
100
AcDbEntity
  8
0
100
AcDbLine
 62
6
  6
CONTINUOUS
 10
6.6664248612
 20
3.9931903903
 11
6.7437030971
 21
3.9718568083
  0
LWPOLYLINE
  5
216
100
AcDbEntity
  8
0
100
AcDbPolyline
 62
6
  6
CONTINUOUS
 90
3
 70
0
 10
6.7432627628
 20
3.9719959638
 10
6.8199211369
 20
3.9465506326
 10
6.8967928957
 20
3.9165245484
  0
LWPOLYLINE
  5
217
100
AcDbEntity
  8
0
100
AcDbPolyline
 62
6
  6
CONTINUOUS
 90
3
 70
0
 10
6.7810110132
 20
3.9594300961
 10
6.8209757483
 20
3.946118437
 10
6.8981756076
 20
3.9158357311
  0
LWPOLYLINE
  5
218
100
AcDbEntity
  8
0
100
AcDbPolyline
 62
6
  6
CONTINUOUS
 90
4
 70
0
 10
6.8967928957
 20
3.9165245484
 10
6.9738046392
 20
3.881627884
 10
7.0508950474
 20
3.8415074008
 10
7.1158624736
 20
3.8033281081
  0
LWPOLYLINE
  5
219
100
AcDbEntity
  8
0
100
AcDbPolyline
 62
6
  6
CONTINUOUS
 90
3
 70
0
 10
6.8981756076
 20
3.9158357311
 10
6.9751597247
 20
3.8808533042
 10
7.0517475481
 20
3.8409558147
  0
LINE
  5
21A
100
AcDbEntity
  8
0
100
AcDbLine
 62
6
  6
CONTINUOUS
 10
7.0517475481
 20
3.8409558147
 11
7.1158624736
 21
3.8032966219
  0
LINE
  5
21B
100
AcDbEntity
  8
0
100
AcDbLine
 62
6
  6
CONTINUOUS
 10
6.2856167243
 20
4.6309602233
 11
6.2856181894
 21
4.6309602233
  0
LINE
  5
21C
100
AcDbEntity
  8
0
100
AcDbLine
 62
7
  6
CONTINUOUS
 10
6.2856152593
 20
4.5583603427
 11
6.2856675926
 21
4.5329602434
  0
LINE
  5
21D
100
AcDbEntity
  8
0
100
AcDbLine
 62
9
  6
CONTINUOUS
 10
6.2856152593
 20
4.1379602226
 11
6.2856152593
 21
4.5329602226
  0
LINE
  5
21E
100
AcDbEntity
  8
0
100
AcDbLine
 62
7
  6
CONTINUOUS
 10
6.2856152179
 20
4.6311620582
 11
6.2856152593
 21
4.5583603427
  0
LINE
  5
21F
100
AcDbEntity
  8
0
100
AcDbLine
 62
7
  6
CONTINUOUS
 10
6.2856152593
 20
4.0973654174
 11
6.2856589283
 21
4.1379603578
  0
LINE
  5
220
100
AcDbEntity
  8
0
100
AcDbLine
 62
7
  6
CONTINUOUS
 10
6.285610791
 20
4.039749222
 11
6.2856152593
 21
4.0973654174
  0
LINE
  5
221
100
AcDbEntity
  8
0
100
AcDbLine
 62
6
  6
CONTINUOUS
 10
7.1749152459
 20
5.2599602226
 11
7.1159152593
 21
5.2599602226
  0
LINE
  5
222
100
AcDbEntity
  8
0
100
AcDbLine
 62
6
  6
CONTINUOUS
 10
7.1749152459
 20
5.2609602226
 11
7.1159152593
 21
5.2609602226
  0
LINE
  5
223
100
AcDbEntity
  8
0
100
AcDbLine
 62
6
  6
CONTINUOUS
 10
7.4309152593
 20
5.4174602226
 11
7.3329144682
 21
5.4174602226
  0
LINE
  5
224
100
AcDbEntity
  8
0
100
AcDbLine
 62
6
  6
CONTINUOUS
 10
7.4309152593
 20
5.4184602226
 11
7.3329144682
 21
5.4184602226
  0
LINE
  5
225
100
AcDbEntity
  8
0
100
AcDbLine
 62
6
  6
CONTINUOUS
 10
7.1159152593
 20
5.2609597095
 11
7.1159152593
 21
3.4099607357
  0
LINE
  5
226
100
AcDbEntity
  8
0
100
AcDbLine
 62
6
  6
CONTINUOUS
 10
7.1749152459
 20
5.2609602226
 11
7.1749152459
 21
3.4099602226
  0
LINE
  5
227
100
AcDbEntity
  8
0
100
AcDbLine
 62
9
  6
CONTINUOUS
 10
7.3329144682
 20
5.4184602226
 11
7.3329144682
 21
3.2524602226
  0
LINE
  5
228
100
AcDbEntity
  8
0
100
AcDbLine
 62
6
  6
CONTINUOUS
 10
7.4309152593
 20
3.2524691853
 11
7.4309152593
 21
5.41845126
  0
ARC
  5
229
100
AcDbEntity
  8
0
100
AcDbCircle
 62
6
  6
CONTINUOUS
 10
4.5096887561
 20
3.9802494591
 40
0.4135955187
100
AcDbArc
 50
111.2456521822
 51
115.1442545644
  0
ARC
  5
22A
100
AcDbEntity
  8
0
100
AcDbCircle
 62
7
  6
CONTINUOUS
 10
4.3598152593
 20
4.0994602226
 40
0.3935
100
AcDbArc
 50
171.0767089066
 51
47.015071602
  0
ARC
  5
22B
100
AcDbEntity
  8
0
100
AcDbCircle
 62
9
  6
CONTINUOUS
 10
4.3598152593
 20
4.0994602226
 40
0.2955
100
AcDbArc
 50
171.0706497432
 51
76.2165050209
  0
ARC
  5
22C
100
AcDbEntity
  8
0
100
AcDbCircle
 62
9
  6
CONTINUOUS
 10
4.3598152593
 20
4.0994602226
 40
0.2565
100
AcDbArc
 50
171.0693240382
 51
95.7869284186
  0
ARC
  5
22D
100
AcDbEntity
  8
0
100
AcDbCircle
 62
7
  6
CONTINUOUS
 10
4.6715152593
 20
4.0506404733
 40
0.709
100
AcDbArc
 50
117.4864441435
 51
171.0863681425
  0
ARC
  5
22E
100
AcDbEntity
  8
0
100
AcDbCircle
 62
6
  6
CONTINUOUS
 10
4.671490419
 20
4.050482219
 40
0.611
100
AcDbArc
 50
118.8502182567
 51
171.0693240382
  0
ARC
  5
22F
100
AcDbEntity
  8
0
100
AcDbCircle
 62
9
  6
CONTINUOUS
 10
4.671490419
 20
4.050482219
 40
0.572
100
AcDbArc
 50
118.8502182567
 51
171.0693240382
  0
ARC
  5
230
100
AcDbEntity
  8
0
100
AcDbCircle
 62
9
  6
CONTINUOUS
 10
4.8933540803
 20
3.3507665892
 40
1.22
100
AcDbArc
 50
58.4124853669
 51
94.2249465139
  0
ARC
  5
231
100
AcDbEntity
  8
0
100
AcDbCircle
 62
6
  6
CONTINUOUS
 10
4.8933540803
 20
3.3507665892
 40
1.181
100
AcDbArc
 50
58.4124853669
 51
94.2249465139
  0
ARC
  5
232
100
AcDbEntity
  8
0
100
AcDbCircle
 62
7
  6
CONTINUOUS
 10
4.8933644342
 20
3.3507602226
 40
1.083
100
AcDbArc
 50
58.4127473728
 51
94.2179658222
  0
ARC
  5
233
100
AcDbEntity
  8
0
100
AcDbCircle
 62
7
  6
CONTINUOUS
 10
5.0893152593
 20
3.291965317
 40
1.575
100
AcDbArc
 50
67.680081616
 51
118.2315236088
  0
ARC
  5
234
100
AcDbEntity
  8
0
100
AcDbCircle
 62
6
  6
CONTINUOUS
 10
5.0893540803
 20
3.2919665892
 40
1.477
100
AcDbArc
 50
67.8745970428
 51
118.8502182567
  0
ARC
  5
235
100
AcDbEntity
  8
0
100
AcDbCircle
 62
9
  6
CONTINUOUS
 10
5.0893540803
 20
3.2919665892
 40
1.438
100
AcDbArc
 50
67.8794854069
 51
118.8502182567
  0
ARC
  5
236
100
AcDbEntity
  8
0
100
AcDbCircle
 62
9
  6
CONTINUOUS
 10
4.8585806982
 20
3.8214839268
 40
0.748
100
AcDbArc
 50
94.2249465139
 51
134.5373882243
  0
ARC
  5
237
100
AcDbEntity
  8
0
100
AcDbCircle
 62
6
  6
CONTINUOUS
 10
4.8585806982
 20
3.8214839268
 40
0.709
100
AcDbArc
 50
94.2249465139
 51
127.1696404947
  0
ARC
  5
238
100
AcDbEntity
  8
0
100
AcDbCircle
 62
7
  6
CONTINUOUS
 10
4.8586484027
 20
3.8214817934
 40
0.611
100
AcDbArc
 50
94.2179658222
 51
112.1677731624
  0
ARC
  5
239
100
AcDbEntity
  8
0
100
AcDbCircle
 62
6
  6
CONTINUOUS
 10
6.2856152593
 20
2.4649602226
 40
1.673
100
AcDbArc
 50
60.2449255829
 51
89.9991022339
  0
ARC
  5
23A
100
AcDbEntity
  8
0
100
AcDbCircle
 62
9
  6
CONTINUOUS
 10
6.285568045
 20
2.4649602226
 40
1.575
100
AcDbArc
 50
58.1854577522
 51
89.9984440929
  0
ARC
  5
23B
100
AcDbEntity
  8
0
100
AcDbCircle
 62
6
  6
CONTINUOUS
 10
7.3329144682
 20
3.4104602226
 40
0.158
100
AcDbArc
 50
180.1797683967
 51
270.0
  0
ARC
  5
23C
100
AcDbEntity
  8
0
100
AcDbCircle
 62
7
  6
CONTINUOUS
 10
6.2856152593
 20
5.6149602226
 40
1.575
100
AcDbArc
 50
238.4127473728
 51
269.9997137373
  0
ARC
  5
23D
100
AcDbEntity
  8
0
100
AcDbCircle
 62
6
  6
CONTINUOUS
 10
6.2856152593
 20
5.6149602226
 40
1.477
100
AcDbArc
 50
238.4124853669
 51
270.0000000001
  0
ARC
  5
23E
100
AcDbEntity
  8
0
100
AcDbCircle
 62
9
  6
CONTINUOUS
 10
6.2856152593
 20
5.6149602226
 40
1.438
100
AcDbArc
 50
238.4124853669
 51
270.0000002631
  0
ARC
  5
23F
100
AcDbEntity
  8
0
100
AcDbCircle
 62
9
  6
CONTINUOUS
 10
6.2856152593
 20
6.2059602226
 40
1.712
100
AcDbArc
 50
247.5137775726
 51
270.0
  0
ARC
  5
240
100
AcDbEntity
  8
0
100
AcDbCircle
 62
6
  6
CONTINUOUS
 10
6.2856152593
 20
6.2059602226
 40
1.673
100
AcDbArc
 50
247.5095680448
 51
299.7541936376
  0
ARC
  5
241
100
AcDbEntity
  8
0
100
AcDbCircle
 62
6
  6
CONTINUOUS
 10
6.2856624736
 20
6.2059602226
 40
1.575
100
AcDbArc
 50
269.9983890151
 51
301.8105204436
  0
ARC
  5
242
100
AcDbEntity
  8
0
100
AcDbCircle
 62
7
  6
CONTINUOUS
 10
6.2856152593
 20
6.2059602226
 40
1.575
100
AcDbArc
 50
247.6800816161
 51
270.0
  0
ARC
  5
243
100
AcDbEntity
  8
0
100
AcDbCircle
 62
9
  6
CONTINUOUS
 10
6.2945231813
 20
5.8691085983
 40
1.3363837815
100
AcDbArc
 50
274.1035306638
 51
275.0736329947
  0
ARC
  5
244
100
AcDbEntity
  8
0
100
AcDbCircle
 62
6
  6
CONTINUOUS
 10
7.3329144682
 20
5.2594602226
 40
0.158
100
AcDbArc
 50
90.0
 51
179.8202316031
  0
ARC
  5
245
100
AcDbEntity
  8
0
100
AcDbCircle
 62
6
  6
CONTINUOUS
 10
7.3329144682
 20
5.2604602226
 40
0.158
100
AcDbArc
 50
90.0
 51
179.8202316031
  0
SPLINE
  5
246
100
AcDbEntity
  8
0
100
AcDbSpline
 62
6
  6
CONTINUOUS
 70
0
 71
3
 72
19
 73
15
 74
13
 42
0.0000001
 43
0.0000001
 44
0.0000000001
 12
-0.1958093684
 22
0.0359682448
 32
0.0
 13
-0.1949569975
 23
-0.0403444026
 33
0.0
 40
0.0
 40
0.0
 40
0.0
 40
0.0
 40
0.04035332
 40
0.1383042845
 40
0.2640185185
 40
0.4029173195
 40
0.4751340063
 40
0.5485354653
 40
0.622788391
 40
0.6976491102
 40
0.7729276866
 40
0.8484926378
 40
0.9242213049
 40
1.0
 40
1.0
 40
1.0
 40
1.0
 10
4.6281059085
 20
4.3873184822
 30
0.0
 10
4.6254720558
 20
4.3878022948
 30
0.0
 10
4.6164330363
 20
4.3893966693
 30
0.0
 10
4.599105741
 20
4.3920191389
 30
0.0
 10
4.5751829564
 20
4.3946655869
 30
0.0
 10
4.5528617993
 20
4.3960462985
 30
0.0
 10
4.5339831753
 20
4.3964633908
 30
0.0
 10
4.5193901903
 20
4.3963813494
 30
0.0
 10
4.504630102
 20
4.3958765687
 30
0.0
 10
4.4897667613
 20
4.3949295865
 30
0.0
 10
4.4748521159
 20
4.3935255377
 30
0.0
 10
4.4599294454
 20
4.3916646732
 30
0.0
 10
4.4450382591
 20
4.3893406898
 30
0.0
 10
4.4351571862
 20
4.3874699356
 30
0.0
 10
4.4302326572
 20
4.3864508535
 30
0.0
 11
4.6281059085
 21
4.3873184822
 31
0.0
 11
4.6201941749
 21
4.3887139017
 31
0.0
 11
4.6009126704
 21
4.3916303958
 31
0.0
 11
4.5760358144
 21
4.3943782215
 31
0.0
 11
4.5484351276
 21
4.3960790042
 31
0.0
 11
4.5340611657
 21
4.3963957874
 31
0.0
 11
4.5194480774
 21
4.3963125061
 31
0.0
 11
4.5046739224
 21
4.3958057836
 31
0.0
 11
4.4898003271
 21
4.3948566776
 31
0.0
 11
4.474879219
 21
4.39345247
 31
0.0
 11
4.4599509359
 21
4.3915897258
 31
0.0
 11
4.4450551898
 21
4.3892612186
 31
0.0
 11
4.4302326572
 21
4.3864508535
 31
0.0
  0
SPLINE
  5
247
100
AcDbEntity
  8
0
100
AcDbSpline
 62
9
  6
CONTINUOUS
 70
0
 71
3
 72
33
 73
29
 74
27
 42
0.0000001
 43
0.0000001
 44
0.0000000001
 12
-0.6345273231
 22
0.403180779
 32
0.0
 13
-0.7488744615
 23
0.0660810506
 33
0.0
 40
0.0
 40
0.0
 40
0.0
 40
0.0
 40
0.059550469
 40
0.1195523119
 40
0.1799862912
 40
0.2408415344
 40
0.2714269921
 40
0.3021170885
 40
0.3637996977
 40
0.3947893952
 40
0.4258751179
 40
0.4570557762
 40
0.4883308036
 40
0.5197001722
 40
0.5511641269
 40
0.5827221236
 40
0.6143728755
 40
0.6779425712
 40
0.7098578135
 40
0.7418547452
 40
0.7739292537
 40
0.789994256
 40
0.8060765203
 40
0.8382875926
 40
0.8705530926
 40
0.9028643954
 40
0.9352138901
 40
1.0
 40
1.0
 40
1.0
 40
1.0
 10
7.1158664123
 20
3.8901599178
 30
0.0
 10
7.1032709458
 20
3.8981631193
 30
0.0
 10
7.0778021367
 20
3.9139454441
 30
0.0
 10
7.0388977229
 20
3.936775041
 30
0.0
 10
6.9991325409
 20
3.9587555681
 30
0.0
 10
6.9653279919
 20
3.976252918
 30
0.0
 10
6.9378484725
 20
3.9897297298
 30
0.0
 10
6.9099842666
 20
4.0028849947
 30
0.0
 10
6.8817309004
 20
4.0154462014
 30
0.0
 10
6.8531028721
 20
4.0273756373
 30
0.0
 10
6.8313893091
 20
4.036018802
 30
0.0
 10
6.8094710094
 20
4.0443324535
 30
0.0
 10
6.7873509537
 20
4.0523056696
 30
0.0
 10
6.7650321063
 20
4.0599269673
 30
0.0
 10
6.7425185351
 20
4.0671866027
 30
0.0
 10
6.7198199863
 20
4.0740916745
 30
0.0
 10
6.6892786811
 20
4.0828455306
 30
0.0
 10
6.6584478438
 20
4.0908997047
 30
0.0
 10
6.6273659738
 20
4.0982844218
 30
0.0
 10
6.6038849133
 20
4.1035060129
 30
0.0
 10
6.5842219749
 20
4.1075893479
 30
0.0
 10
6.568431796
 20
4.1107004614
 30
0.0
 10
6.5525870749
 20
4.1137098201
 30
0.0
 10
6.5327146354
 20
4.1172674687
 30
0.0
 10
6.5087786369
 20
4.1211907623
 30
0.0
 10
6.4847507003
 20
4.1247515092
 30
0.0
 10
6.4525895628
 20
4.1289926194
 30
0.0
 10
6.4283782712
 20
4.1315705152
 30
0.0
 10
6.4122060502
 20
4.1329975599
 30
0.0
 11
7.1158664123
 21
3.8901599178
 31
0.0
 11
7.0778058289
 21
3.9137324674
 31
0.0
 11
7.0388957013
 21
3.9365529352
 31
0.0
 11
6.9991274566
 21
3.9585227578
 31
0.0
 11
6.9584925219
 21
3.9795433715
 31
0.0
 11
6.9378473668
 21
3.989666924
 31
0.0
 11
6.9169830511
 21
3.9995164363
 31
0.0
 11
6.8746071511
 21
4.0183485152
 31
0.0
 11
6.8531016395
 21
4.027308966
 31
0.0
 11
6.8313884686
 21
4.0359509473
 31
0.0
 11
6.8094706748
 21
4.0442634012
 31
0.0
 11
6.7873512943
 21
4.0522352698
 31
0.0
 11
6.7650333651
 21
4.0598554994
 31
0.0
 11
6.7425214089
 21
4.0671169484
 31
0.0
 11
6.7198241868
 21
4.0740236539
 31
0.0
 11
6.6969512126
 21
4.0805816365
 31
0.0
 11
6.6507160623
 21
4.0926755166
 31
0.0
 11
6.6273729136
 21
4.0982234558
 31
0.0
 11
6.6038920673
 21
4.1034467554
 31
0.0
 11
6.5802830373
 21
4.1083514363
 31
0.0
 11
6.568433425
 21
4.1106861068
 31
0.0
 11
6.5565553036
 21
4.1129417362
 31
0.0
 11
6.5327180625
 21
4.1172066972
 31
0.0
 11
6.5087803661
 21
4.1211276717
 31
0.0
 11
6.4847512656
 21
4.1246859524
 31
0.0
 11
6.460639812
 21
4.1278628321
 31
0.0
 11
6.4122060502
 21
4.1329975599
 31
0.0
  0
LINE
  5
248
100
AcDbEntity
  8
0
100
AcDbLine
 62
6
  6
CONTINUOUS
 10
4.3442842936
 20
4.6796085926
 11
4.390075369
 21
4.5929456911
  0
LINE
  5
249
100
AcDbEntity
  8
0
100
AcDbLine
 62
9
  6
CONTINUOUS
 10
4.0678968005
 20
4.145328114
 11
3.9710778317
 21
4.1604967889
  0
SPLINE
  5
24A
100
AcDbEntity
  8
0
100
AcDbSpline
 62
6
  6
CONTINUOUS
 70
0
 71
3
 72
11
 73
7
 74
5
 42
0.0000001
 43
0.0000001
 44
0.0000000001
 12
-0.0719412366
 22
-0.0148891696
 32
0.0
 13
-0.068471388
 23
-0.0266290785
 33
0.0
 40
0.0
 40
0.0
 40
0.0
 40
0.0
 40
0.1478062259
 40
0.4125251077
 40
0.7022942977
 40
1.0
 40
1.0
 40
1.0
 40
1.0
 10
4.4302192265
 20
4.3864506953
 30
0.0
 10
4.4266747722
 20
4.3857171247
 30
0.0
 10
4.4168057849
 20
4.383553342
 30
0.0
 10
4.4001325782
 20
4.3793122316
 30
0.0
 10
4.3801567767
 20
4.3732439445
 30
0.0
 10
4.3666100335
 20
4.3683776542
 30
0.0
 10
4.3598152593
 20
4.3657351114
 30
0.0
 11
4.4302192265
 21
4.3864506953
 31
0.0
 11
4.4196123834
 21
4.3841245397
 31
0.0
 11
4.4007652897
 21
4.3793267852
 31
0.0
 11
4.3803972922
 21
4.3731342888
 31
0.0
 11
4.3598152593
 21
4.3657351114
 31
0.0
  0
SPLINE
  5
24B
100
AcDbEntity
  8
0
100
AcDbSpline
 62
9
  6
CONTINUOUS
 70
0
 71
3
 72
22
 73
18
 74
16
 42
0.0000001
 43
0.0000001
 44
0.0000000001
 12
0.8705204311
 22
-0.0000007204
 32
0.0
 13
0.7513983823
 23
0.4395523768
 33
0.0
 40
0.0
 40
0.0
 40
0.0
 40
0.0
 40
0.0623767205
 40
0.1247565624
 40
0.1871426135
 40
0.2495379576
 40
0.3743516514
 40
0.4367925836
 40
0.4992539527
 40
0.5617385198
 40
0.6242493797
 40
0.6867893834
 40
0.7493608469
 40
0.811965744
 40
0.8746059147
 40
0.9372832734
 40
1.0
 40
1.0
 40
1.0
 40
1.0
 10
6.2856152624
 20
4.4939458102
 30
0.0
 10
6.3037153322
 20
4.4939457952
 30
0.0
 10
6.339919299
 20
4.4945475702
 30
0.0
 10
6.3941650008
 20
4.4972529725
 30
0.0
 10
6.4482979216
 20
4.501757346
 30
0.0
 10
6.5202450856
 20
4.510156807
 30
0.0
 10
6.5917533642
 20
4.5221413989
 30
0.0
 10
6.6625443048
 20
4.537654631
 30
0.0
 10
6.7152543099
 20
4.5510494271
 30
0.0
 10
6.7675096498
 20
4.5661908337
 30
0.0
 10
6.8192557148
 20
4.5830648096
 30
0.0
 10
6.8704396498
 20
4.6016476323
 30
0.0
 10
6.9210087292
 20
4.6219172349
 30
0.0
 10
6.9709101855
 20
4.6438510847
 30
0.0
 10
7.0200914348
 20
4.6674269727
 30
0.0
 10
7.0684991743
 20
4.692621927
 30
0.0
 10
7.100211146
 20
4.7104786207
 30
0.0
 10
7.1159195617
 20
4.7196677161
 30
0.0
 11
6.2856152624
 21
4.4939458102
 31
0.0
 11
6.339907977
 21
4.494847978
 31
0.0
 11
6.3941435077
 21
4.4975526167
 31
0.0
 11
6.4482647933
 21
4.5020561021
 31
0.0
 11
6.5022147743
 21
4.5083547712
 31
0.0
 11
6.6093737687
 21
4.5263101656
 31
0.0
 11
6.6624699604
 21
4.5379454916
 31
0.0
 11
6.715168774
 21
4.5513378711
 31
0.0
 11
6.7674138451
 21
4.566476227
 31
0.0
 11
6.8191500582
 21
4.5833454903
 31
0.0
 11
6.8703243976
 21
4.6019238803
 31
0.0
 11
6.9208840485
 21
4.6221889732
 31
0.0
 11
6.9707761964
 21
4.6441183451
 31
0.0
 11
7.0199480268
 21
4.6676895722
 31
0.0
 11
7.0683467249
 21
4.6928802308
 31
0.0
 11
7.1159195617
 21
4.7196677161
 31
0.0
  0
SPLINE
  5
24C
100
AcDbEntity
  8
0
100
AcDbSpline
 62
9
  6
CONTINUOUS
 70
0
 71
3
 72
21
 73
17
 74
15
 42
0.0000001
 43
0.0000001
 44
0.0000000001
 12
-0.7513811321
 22
0.4395674055
 32
0.0
 13
-0.8705131289
 23
0.000045168
 33
0.0
 40
0.0
 40
0.0
 40
0.0
 40
0.0
 40
0.0627179391
 40
0.1253966293
 40
0.1880379457
 40
0.250643834
 40
0.3132164837
 40
0.3757581845
 40
0.4382710891
 40
0.5007573971
 40
0.563219565
 40
0.6256605539
 40
0.6880837407
 40
0.7504921864
 40
0.8752587956
 40
1.0
 40
1.0
 40
1.0
 40
1.0
 10
7.1159254481
 20
3.9512648178
 30
0.0
 10
7.1002170894
 20
3.9604544051
 30
0.0
 10
7.0685060944
 20
3.9783136379
 30
0.0
 10
7.0201009951
 20
4.0035149721
 30
0.0
 10
6.970921995
 20
4.0270968602
 30
0.0
 10
6.9210213089
 20
4.0490338782
 30
0.0
 10
6.8704502069
 20
4.0693003971
 30
0.0
 10
6.8192628706
 20
4.0878767911
 30
0.0
 10
6.7675138581
 20
4.1047450841
 30
0.0
 10
6.715257595
 20
4.1198868246
 30
0.0
 10
6.6625484949
 20
4.1332838835
 30
0.0
 10
6.6094411472
 20
4.1449172448
 30
0.0
 10
6.5559919542
 20
4.154779429
 30
0.0
 10
6.4843607549
 20
4.1655569275
 30
0.0
 10
6.3942327135
 20
4.1745723428
 30
0.0
 10
6.3218115735
 20
4.1769904341
 30
0.0
 10
6.2856152881
 20
4.1769923122
 30
0.0
 11
7.1159254481
 21
3.9512648178
 31
0.0
 11
7.0683538666
 21
3.9780557503
 31
0.0
 11
7.0199574651
 21
4.0032523397
 31
0.0
 11
6.9707877131
 21
4.0268291509
 31
0.0
 11
6.9208962398
 21
4.0487610661
 31
0.0
 11
6.8703349107
 21
4.0690235194
 31
0.0
 11
6.8191574098
 21
4.087596191
 31
0.0
 11
6.7674182646
 21
4.1044607306
 31
0.0
 11
6.7151720073
 21
4.1195987989
 31
0.0
 11
6.66247317
 21
4.1329920562
 31
0.0
 11
6.6093765632
 21
4.144623589
 31
0.0
 11
6.5559385042
 21
4.1544841972
 31
0.0
 11
6.5022158174
 21
4.1625672782
 31
0.0
 11
6.3941438595
 21
4.1733744548
 31
0.0
 11
6.2856152881
 21
4.1769923122
 31
0.0
  0
LINE
  5
24D
100
AcDbEntity
  8
0
100
AcDbLine
 62
9
  6
CONTINUOUS
 10
6.2856798641
 20
4.5329602383
 11
6.2863366036
 21
4.5329566488
  0
SPLINE
  5
24E
100
AcDbEntity
  8
0
100
AcDbSpline
 62
9
  6
CONTINUOUS
 70
0
 71
3
 72
25
 73
21
 74
19
 42
0.0000001
 43
0.0000001
 44
0.0000000001
 12
0.8777648073
 22
-0.0045721225
 32
0.0
 13
0.7370028276
 23
0.4767796067
 33
0.0
 40
0.0
 40
0.0
 40
0.0
 40
0.0
 40
0.0646505135
 40
0.129278682
 40
0.1615571732
 40
0.1937929733
 40
0.2259744832
 40
0.2580957606
 40
0.3221337088
 40
0.385867092
 40
0.4492560395
 40
0.5122656746
 40
0.5748589807
 40
0.6370011134
 40
0.698683126
 40
0.7599012475
 40
0.8206468508
 40
0.8809146748
 40
0.9407017768
 40
1.0
 40
1.0
 40
1.0
 40
1.0
 10
6.2863366036
 20
4.5329566488
 30
0.0
 10
6.3052525854
 20
4.5328581188
 30
0.0
 10
6.3430866491
 20
4.5334999548
 30
0.0
 10
6.3902894161
 20
4.536255421
 30
0.0
 10
6.4279335427
 20
4.539549331
 30
0.0
 10
6.45606906
 20
4.5425406016
 30
0.0
 10
6.4840999349
 20
4.5460366583
 30
0.0
 10
6.5212734822
 20
4.5513630798
 30
0.0
 10
6.5673963856
 20
4.5592637786
 30
0.0
 10
6.6221540004
 20
4.5707259361
 30
0.0
 10
6.6761586955
 20
4.5841321596
 30
0.0
 10
6.729315595
 20
4.5994133273
 30
0.0
 10
6.7815351351
 20
4.616502996
 30
0.0
 10
6.8327359341
 20
4.6353403961
 30
0.0
 10
6.8828584879
 20
4.6558416874
 30
0.0
 10
6.9318572655
 20
4.6779224645
 30
0.0
 10
6.9796908509
 20
4.7015028756
 30
0.0
 10
7.0263251893
 20
4.7264990315
 30
0.0
 10
7.0717331247
 20
4.7528228745
 30
0.0
 10
7.101295935
 20
4.7712784163
 30
0.0
 10
7.1158635877
 20
4.7807024775
 30
0.0
 11
6.2863366036
 21
4.5329566488
 31
0.0
 11
6.3430776269
 21
4.5338909755
 31
0.0
 11
6.3997118025
 21
4.5371713872
 31
0.0
 11
6.42793753
 21
4.5396380952
 31
0.0
 11
6.456075015
 21
4.5426274429
 31
0.0
 11
6.4841059569
 21
4.5461240089
 31
0.0
 11
6.5120161841
 21
4.5501233451
 31
0.0
 11
6.5674196314
 21
4.5596173835
 31
0.0
 11
6.6221756328
 21
4.5710836652
 31
0.0
 11
6.6761782996
 21
4.5844878036
 31
0.0
 11
6.7293339201
 21
4.599768447
 31
0.0
 11
6.7815511934
 21
4.6168589052
 31
0.0
 11
6.8327442418
 21
4.635690739
 31
0.0
 11
6.882858473
 21
4.6561854214
 31
0.0
 11
6.931850489
 21
4.6782608157
 31
0.0
 11
6.9796773552
 21
4.7018347001
 31
0.0
 11
7.02630528
 21
4.7268232114
 31
0.0
 11
7.0717090025
 21
4.7531409549
 31
0.0
 11
7.1158635877
 21
4.7807024775
 31
0.0
  0
LINE
  5
24F
100
AcDbEntity
  8
0
100
AcDbLine
 62
6
  6
CONTINUOUS
 10
5.6308415796
 20
4.6241209678
 11
5.6456440086
 21
4.6602028684
  0
ENDSEC
  0
SECTION
  2
OBJECTS
  0
DICTIONARY
  5
C
100
AcDbDictionary
280
0
281
1
  3
ACAD_GROUP
350
D
  3
ACAD_MLINESTYLE
350
17
  3
ACAD_LAYOUT
350
1A
  3
ACAD_PLOTSETTINGS
350
19
  3
ACAD_PLOTSTYLENAME
350
E
  0
DICTIONARY
  5
D
102
{ACAD_REACTORS
330
C
102
}
100
AcDbDictionary
280
0
281
1
  0
ACDBDICTIONARYWDFLT
  5
E
102
{ACAD_REACTORS
330
C
102
}
100
AcDbDictionary
281
1
  3
Normal
350
F
100
AcDbDictionaryWithDefault
340
F
  0
DICTIONARY
  5
17
102
{ACAD_REACTORS
330
C
102
}
100
AcDbDictionary
280
0
281
1
  3
Standard
350
18
  0
DICTIONARY
  5
19
102
{ACAD_REACTORS
330
C
102
}
100
AcDbDictionary
281
1
  0
DICTIONARY
  5
1A
102
{ACAD_REACTORS
330
C
102
}
100
AcDbDictionary
281
1
  3
Model
350
250
  3
Layout1
350
251
  0
ACDBPLACEHOLDER
  5
F
102
{ACAD_REACTORS
330
E
102
}
  0
MLINESTYLE
  5
18
102
{ACAD_REACTORS
330
17
102
}
100
AcDbMlineStyle
  2
STANDARD
 70
0
  3

 62
256
 51
90.0
 52
90.0
 71
2
 49
0.5
 62
256
  6
BYLAYER
 49
-0.5
 62
256
  6
BYLAYER
  0
LAYOUT
  5
250
102
{ACAD_REACTORS
330
1A
102
}
100
AcDbPlotSettings
  1

  2
none_device
  4
ISO_A4_(297.00_x_210.00_MM)
  6

 40
0.0
 41
0.0
 42
0.0
 43
0.0
 44
297.0
 45
210.0
 46
0.0
 47
0.0
 48
0.0
 49
0.0
140
0.0
141
0.0
142
1.0
143
1.0
 70
1024
 72
0
 73
0
 74
0
  7

 75
0
147
1.0
148
0.0
149
0.0
100
AcDbLayout
  1
Model
 70
0
 71
0
 10
0.0
 20
0.0
 11
11.6929133858
 21
8.2677165354
 12
0.0
 22
0.0
 32
0.0
 14
0.0
 24
0.0
 34
0.0
 15
0.0
 25
0.0
 35
0.0
146
0.0
 13
0.0
 23
0.0
 33
0.0
 16
1.0
 26
0.0
 36
0.0
 17
0.0
 27
1.0
 37
0.0
 76
0
330
203
345
0
346
0
  0
LAYOUT
  5
251
102
{ACAD_REACTORS
330
1A
102
}
100
AcDbPlotSettings
  1

  2
none_device
  4
ISO_A4_(297.00_x_210.00_MM)
  6

 40
0.0
 41
0.0
 42
0.0
 43
0.0
 44
297.0
 45
210.0
 46
0.0
 47
0.0
 48
0.0
 49
0.0
140
0.0
141
0.0
142
1.0
143
1.0
 70
0
 72
0
 73
0
 74
0
  7

 75
0
147
1.0
148
0.0
149
0.0
100
AcDbLayout
  1
Layout1
 70
0
 71
1
 10
0.0
 20
0.0
 11
11.6929133858
 21
8.2677165354
 12
0.0
 22
0.0
 32
0.0
 14
0.0
 24
0.0
 34
0.0
 15
0.0
 25
0.0
 35
0.0
146
0.0
 13
0.0
 23
0.0
 33
0.0
 16
1.0
 26
0.0
 36
0.0
 17
0.0
 27
1.0
 37
0.0
 76
0
330
204
345
0
346
0
  0
ENDSEC
  0
EOF
