999
DXF file: E:\BT Custom\CADOUTPUT\_FRONT.dxf
999
Pro/ENGINEER 2018400 by Parametric Technology Corporation
  0
SECTION
  2
HEADER
  9
$ACADVER
  1
AC1018
  9
$DWGCODEPAGE
  3
ANSI_1252
  9
$EXTMAX
 10
22.0
 20
17.0
 30
0.0
  9
$EXTMIN
 10
0.0
 20
0.0
 30
0.0
  9
$LIMMIN
 10
0.0
 20
0.0
  9
$LIMMAX
 10
22.0
 20
17.0
  9
$VIEWCTR
 10
11.0
 20
8.5
  9
$VIEWSIZE
 40
17.0
  9
$CLAYER
  8
0
  9
$LTSCALE
 40
1.21
  9
$CELTYPE
  6
BYLAYER
  9
$DIMSCALE
 40
1.0
  9
$DIMASZ
 40
0.1
  9
$DIMEXO
 40
0.0625
  9
$DIMDLI
 40
0.836
  9
$DIMEXE
 40
0.125
  9
$DIMCEN
 40
0.198
  9
$DIMLFAC
 40
1.0
  9
$DIMBLK
  1
_FILLED
  9
$DIMALT
 70
1
  9
$DIMALTD
 70
2
  9
$DIMALTTD
 70
2
  9
$DIMALTF
 40
25.4
  9
$DIMTXT
 40
0.08
  9
$DIMTOL
 70
1
  9
$DIMLIM
 70
0
  9
$DIMTFAC
 40
1.0
  9
$DIMTP
 40
0.001
  9
$DIMTM
 40
0.001
  9
$DIMGAP
 40
0.09
  9
$DIMDSEP
 70
46
  9
$AUNITS
 70
0
  9
$PDMODE
 70
3
  9
$PDSIZE
 40
0.06
  9
$HANDSEED
  5
529
  9
$TILEMODE
 70
1
  9
$MEASUREMENT
 70
0
  9
$INSUNITS
 70
1
  0
ENDSEC
  0
SECTION
  2
CLASSES
  0
CLASS
  1
ACDBDICTIONARYWDFLT
  2
AcDbDictionaryWithDefault
  3
AutoCAD 2000
 90
0
 91
1
280
0
281
0
  0
CLASS
  1
ACDBPLACEHOLDER
  2
AcDbPlaceHolder
  3
AutoCAD 2000
 90
0
 91
1
280
0
281
0
  0
CLASS
  1
LAYOUT
  2
AcDbLayout
  3
AutoCAD 2000
 90
0
 91
0
280
0
281
0
  0
ENDSEC
  0
SECTION
  2
TABLES
  0
TABLE
  2
VPORT
  5
8
100
AcDbSymbolTable
 70
2
  0
VPORT
  5
1F4
100
AcDbSymbolTableRecord
100
AcDbViewportTableRecord
  2
*ACTIVE
 70
0
 10
0.0
 20
0.0
 11
1.0
 21
1.0
 12
11.0
 22
8.5
 13
0.0
 23
0.0
 14
1.0
 24
1.0
 15
0.0
 25
0.0
 16
0.0
 26
0.0
 36
1.0
 17
0.0
 27
0.0
 37
0.0
 40
17.0
 41
1.2941176471
 42
50.0
 43
0.0
 44
0.0
 50
0.0
 51
0.0
 71
0
 72
100
 73
1
 74
1
 75
0
 76
0
 77
0
 78
0
  0
ENDTAB
  0
TABLE
  2
LTYPE
  5
5
100
AcDbSymbolTable
 70
6
  0
LTYPE
  5
14
100
AcDbSymbolTableRecord
100
AcDbLinetypeTableRecord
  2
BYBLOCK
 70
0
  3

 72
65
 73
0
 40
0.0
  0
LTYPE
  5
15
100
AcDbSymbolTableRecord
100
AcDbLinetypeTableRecord
  2
BYLAYER
 70
0
  3

 72
65
 73
0
 40
0.0
  0
LTYPE
  5
16
100
AcDbSymbolTableRecord
100
AcDbLinetypeTableRecord
  2
CONTINUOUS
 70
64
  3
Solid line
 72
65
 73
0
 40
0.0
  0
LTYPE
  5
1F5
100
AcDbSymbolTableRecord
100
AcDbLinetypeTableRecord
  2
CENTER
 70
64
  3
____ _ ____ _ ____ _ ____ _ ____ _ ____ _ ____
 72
65
 73
4
 40
0.6
 49
0.375
 74
0
 49
-0.075
 74
0
 49
0.075
 74
0
 49
-0.075
 74
0
  0
LTYPE
  5
1F6
100
AcDbSymbolTableRecord
100
AcDbLinetypeTableRecord
  2
HIDDEN
 70
64
  3
- - - - - - - - - - - - - - - - - - - -
 72
65
 73
2
 40
0.2
 49
0.1
 74
0
 49
-0.1
 74
0
  0
LTYPE
  5
1F7
100
AcDbSymbolTableRecord
100
AcDbLinetypeTableRecord
  2
PHANTOM
 70
64
  3
_____ _ _ _____ _ _ _____ _ _ _____
 72
65
 73
6
 40
0.8
 49
0.45
 74
0
 49
-0.05
 74
0
 49
0.1
 74
0
 49
-0.05
 74
0
 49
0.1
 74
0
 49
-0.05
 74
0
  0
LTYPE
  5
1F8
100
AcDbSymbolTableRecord
100
AcDbLinetypeTableRecord
  2
DOT
 70
64
  3
. . . . . . . . . . . . . . . . . . . .
 72
65
 73
2
 40
0.2
 49
0.1
 74
0
 49
-0.1
 74
0
  0
LTYPE
  5
1F9
100
AcDbSymbolTableRecord
100
AcDbLinetypeTableRecord
  2
DASHED
 70
64
  3
- - - - - - - - - - - - - - - - - - - -
 72
65
 73
2
 40
0.2
 49
0.1
 74
0
 49
-0.1
 74
0
  0
ENDTAB
  0
TABLE
  2
LAYER
  5
2
100
AcDbSymbolTable
 70
36
  0
LAYER
  5
10
100
AcDbSymbolTableRecord
100
AcDbLayerTableRecord
  2
0
 70
0
 62
7
  6
CONTINUOUS
370
-3
390
F
  0
LAYER
  5
1FA
100
AcDbSymbolTableRecord
100
AcDbLayerTableRecord
  2
DEFAULT_1
 70
0
 62
7
  6
CENTER
370
-3
390
F
  0
LAYER
  5
1FB
100
AcDbSymbolTableRecord
100
AcDbLayerTableRecord
  2
DEFAULT_2
 70
0
 62
8
  6
HIDDEN
370
-3
390
F
  0
LAYER
  5
1FC
100
AcDbSymbolTableRecord
100
AcDbLayerTableRecord
  2
DEFAULT_3
 70
0
 62
7
  6
PHANTOM
370
-3
390
F
  0
LAYER
  5
1FD
100
AcDbSymbolTableRecord
100
AcDbLayerTableRecord
  2
ALL_FEATURES
 70
0
 62
7
  6
CONTINUOUS
370
-3
390
F
  0
LAYER
  5
1FE
100
AcDbSymbolTableRecord
100
AcDbLayerTableRecord
  2
AXES_FEATURES
 70
0
 62
7
  6
CONTINUOUS
370
-3
390
F
  0
LAYER
  5
1FF
100
AcDbSymbolTableRecord
100
AcDbLayerTableRecord
  2
DEFAULT_COORDINATE_SYSTEM
 70
0
 62
7
  6
CONTINUOUS
370
-3
390
F
  0
LAYER
  5
200
100
AcDbSymbolTableRecord
100
AcDbLayerTableRecord
  2
DEFAULT_DATUM_AXES
 70
0
 62
7
  6
CONTINUOUS
370
-3
390
F
  0
LAYER
  5
201
100
AcDbSymbolTableRecord
100
AcDbLayerTableRecord
  2
DEFAULT_DATUM_PLANES
 70
0
 62
7
  6
CONTINUOUS
370
-3
390
F
  0
LAYER
  5
202
100
AcDbSymbolTableRecord
100
AcDbLayerTableRecord
  2
DIMENSIONS
 70
0
 62
7
  6
CONTINUOUS
370
-3
390
F
  0
ENDTAB
  0
TABLE
  2
STYLE
  5
3
100
AcDbSymbolTable
 70
1
  0
STYLE
  5
11
100
AcDbSymbolTableRecord
100
AcDbTextStyleTableRecord
  2
STANDARD
 70
0
 40
0.0
 41
0.8
 50
0.0
 71
0
 42
0.2
  3
txt
  4

  0
STYLE
  5
203
100
AcDbSymbolTableRecord
100
AcDbTextStyleTableRecord
  2
TEXTSTYLE_1
 70
0
 40
0.0
 41
0.8
 50
0.0
 71
0
 42
0.2
  3
gdt
  4

  0
ENDTAB
  0
TABLE
  2
VIEW
  5
6
100
AcDbSymbolTable
 70
0
  0
ENDTAB
  0
TABLE
  2
UCS
  5
7
100
AcDbSymbolTable
 70
0
  0
ENDTAB
  0
TABLE
  2
APPID
  5
9
100
AcDbSymbolTable
 70
1
  0
APPID
  5
204
100
AcDbSymbolTableRecord
100
AcDbRegAppTableRecord
  2
ACAD
 70
0
  0
ENDTAB
  0
TABLE
  2
BLOCK_RECORD
  5
1
100
AcDbSymbolTable
 70
0
  0
BLOCK_RECORD
  5
205
100
AcDbSymbolTableRecord
100
AcDbBlockTableRecord
  2
*Model_Space
  0
BLOCK_RECORD
  5
206
100
AcDbSymbolTableRecord
100
AcDbBlockTableRecord
  2
*Paper_Space
  0
BLOCK_RECORD
  5
207
100
AcDbSymbolTableRecord
100
AcDbBlockTableRecord
  2
_FILLED
  0
ENDTAB
  0
TABLE
  2
DIMSTYLE
  5
A
100
AcDbSymbolTable
 70
1
100
AcDbDimStyleTable
 71
0
  0
DIMSTYLE
105
208
100
AcDbSymbolTableRecord
100
AcDbDimStyleTableRecord
  2
STANDARD
 70
0
  3

  4

 40
1.0
 41
0.1
 42
0.0625
 43
0.38
 44
0.125
 45
0.0
 46
0.0
 47
0.001
 48
0.001
140
0.08
141
0.09
142
0.0
143
25.4
144
1.0
145
0.0
146
1.0
147
0.09
 71
1.0
 72
0.0
 73
1
 74
1
 75
0
 76
0
 77
0
 78
4
 79
1
170
1
171
2
172
0
173
0
174
0
175
0
176
0
177
0
178
0
270
2
179
3
271
3
272
3
273
2
274
2
275
0
280
0
281
0
282
0
283
1
284
4
285
0
286
0
287
3
288
0
340
11
278
46
341
207
342
207
343
207
344
207
  0
ENDTAB
  0
ENDSEC
  0
SECTION
  2
BLOCKS
  0
BLOCK
  5
20
100
AcDbEntity
  8
0
100
AcDbBlockBegin
  2
*Model_Space
 70
0
 10
0.0
 20
0.0
 30
0.0
  3
*Model_Space
  1

  0
ENDBLK
  5
21
100
AcDbEntity
  8
0
100
AcDbBlockEnd
  0
BLOCK
  5
1C
100
AcDbEntity
  8
0
100
AcDbBlockBegin
  2
*Paper_Space
 70
0
 10
0.0
 20
0.0
 30
0.0
  3
*Paper_Space
  1

  0
ENDBLK
  5
1D
100
AcDbEntity
  8
0
100
AcDbBlockEnd
  0
BLOCK
  5
209
100
AcDbEntity
  8
0
100
AcDbBlockBegin
  2
_FILLED
 70
64
 10
0.0
 20
0.0
  3
_FILLED
  1

  0
SOLID
  5
20A
100
AcDbEntity
  8
0
  6
BYBLOCK
 62
0
100
AcDbTrace
 10
0.0
 20
0.0
 11
-1.0
 21
0.2
 12
-1.0
 22
-0.2
 13
-1.0
 23
-0.2
  0
ENDBLK
  5
20B
100
AcDbEntity
  8
0
  6
BYBLOCK
 62
0
100
AcDbBlockEnd
  0
ENDSEC
  0
SECTION
  2
ENTITIES
  0
LINE
  5
20C
100
AcDbEntity
  8
0
100
AcDbLine
 62
7
  6
CONTINUOUS
 10
11.116378778
 20
6.9751695021
 11
11.083816841
 21
6.9751695021
  0
LINE
  5
20D
100
AcDbEntity
  8
0
100
AcDbLine
 62
7
  6
CONTINUOUS
 10
10.9446219412
 20
6.9751695021
 11
10.9120600042
 21
6.9751695021
  0
LINE
  5
20E
100
AcDbEntity
  8
0
100
AcDbLine
 62
7
  6
CONTINUOUS
 10
10.9446219412
 20
7.0700684577
 11
11.0452412305
 21
7.0700684577
  0
LINE
  5
20F
100
AcDbEntity
  8
0
100
AcDbLine
 62
7
  6
CONTINUOUS
 10
11.116378778
 20
7.0700684577
 11
11.2169980941
 21
7.0700684577
  0
LINE
  5
210
100
AcDbEntity
  8
0
100
AcDbLine
 62
7
  6
CONTINUOUS
 10
11.2169980941
 20
7.1029237344
 11
11.116378778
 21
7.1029237344
  0
LINE
  5
211
100
AcDbEntity
  8
0
100
AcDbLine
 62
7
  6
CONTINUOUS
 10
11.0452412305
 20
7.1029237344
 11
10.9446219412
 21
7.1029237344
  0
LINE
  5
212
100
AcDbEntity
  8
0
100
AcDbLine
 62
7
  6
CONTINUOUS
 10
10.9446219412
 20
7.1673142254
 11
11.0467079965
 21
7.1673142254
  0
LINE
  5
213
100
AcDbEntity
  8
0
100
AcDbLine
 62
7
  6
CONTINUOUS
 10
11.116378778
 20
7.1673142254
 11
11.2184648332
 21
7.1673142254
  0
LINE
  5
214
100
AcDbEntity
  8
0
100
AcDbLine
 62
7
  6
CONTINUOUS
 10
11.2184648332
 20
7.2001695021
 11
11.083816841
 21
7.2001695021
  0
LINE
  5
215
100
AcDbEntity
  8
0
100
AcDbLine
 62
7
  6
CONTINUOUS
 10
11.0467079965
 20
7.2001695021
 11
10.9120600042
 21
7.2001695021
  0
LINE
  5
216
100
AcDbEntity
  8
0
100
AcDbLine
 62
7
  6
CONTINUOUS
 10
12.7157640734
 20
7.6551695021
 11
12.6452131786
 21
7.6551695021
  0
LINE
  5
217
100
AcDbEntity
  8
0
100
AcDbLine
 62
7
  6
CONTINUOUS
 10
12.4970711001
 20
7.6551695021
 11
12.6144113877
 21
7.6551695021
  0
LINE
  5
218
100
AcDbEntity
  8
0
100
AcDbLine
 62
7
  6
CONTINUOUS
 10
12.7157640734
 20
7.6843578974
 11
12.6777751424
 21
7.6843578974
  0
LINE
  5
219
100
AcDbEntity
  8
0
100
AcDbLine
 62
7
  6
CONTINUOUS
 10
12.6144113877
 20
7.6880247823
 11
12.5296330371
 21
7.6880247823
  0
LINE
  5
21A
100
AcDbEntity
  8
0
100
AcDbLine
 62
7
  6
CONTINUOUS
 10
12.6777751424
 20
7.8473142254
 11
12.7276447573
 21
7.8473142254
  0
LINE
  5
21B
100
AcDbEntity
  8
0
100
AcDbLine
 62
7
  6
CONTINUOUS
 10
12.4970711001
 20
7.8801695021
 11
12.5296330371
 21
7.8801695021
  0
LINE
  5
21C
100
AcDbEntity
  8
0
100
AcDbLine
 62
7
  6
CONTINUOUS
 10
12.6452131786
 20
7.8801695021
 11
12.7266180076
 21
7.8801695021
  0
LINE
  5
21D
100
AcDbEntity
  8
0
100
AcDbLine
 62
7
  6
CONTINUOUS
 10
10.45439675
 20
9.5521681577
 11
10.4543276188
 21
9.5511285459
  0
LINE
  5
21E
100
AcDbEntity
  8
0
100
AcDbLine
 62
7
  6
CONTINUOUS
 10
10.4543276188
 20
9.5511285459
 11
10.4542507219
 21
9.5501052443
  0
LINE
  5
21F
100
AcDbEntity
  8
0
100
AcDbLine
 62
7
  6
CONTINUOUS
 10
10.4542507219
 20
9.5501052443
 11
10.4541664326
 21
9.549097909
  0
LINE
  5
220
100
AcDbEntity
  8
0
100
AcDbLine
 62
7
  6
CONTINUOUS
 10
10.4541664326
 20
9.549097909
 11
10.454075105
 21
9.5481061914
  0
LINE
  5
221
100
AcDbEntity
  8
0
100
AcDbLine
 62
7
  6
CONTINUOUS
 10
10.454075105
 20
9.5481061914
 11
10.453977075
 21
9.5471297379
  0
LINE
  5
222
100
AcDbEntity
  8
0
100
AcDbLine
 62
7
  6
CONTINUOUS
 10
10.453977075
 20
9.5471297379
 11
10.4538726602
 21
9.5461681908
  0
LINE
  5
223
100
AcDbEntity
  8
0
100
AcDbLine
 62
7
  6
CONTINUOUS
 10
10.4538726602
 20
9.5461681908
 11
10.4537621607
 21
9.5452211887
  0
LINE
  5
224
100
AcDbEntity
  8
0
100
AcDbLine
 62
7
  6
CONTINUOUS
 10
10.4537621607
 20
9.5452211887
 11
10.4536458594
 21
9.5442883668
  0
LWPOLYLINE
  5
225
100
AcDbEntity
  8
0
100
AcDbPolyline
 62
7
  6
CONTINUOUS
 90
3
 70
0
 10
10.4536458594
 20
9.5442883668
 10
10.4535240223
 20
9.5433693572
 10
10.4535208186
 20
9.543346217
  0
LINE
  5
226
100
AcDbEntity
  8
0
100
AcDbLine
 62
7
  6
CONTINUOUS
 10
10.4490504529
 20
8.9395559846
 11
10.4487367477
 21
8.93857854
  0
LINE
  5
227
100
AcDbEntity
  8
0
100
AcDbLine
 62
7
  6
CONTINUOUS
 10
10.4487367477
 20
8.93857854
 11
10.4484331532
 21
8.9376589473
  0
LINE
  5
228
100
AcDbEntity
  8
0
100
AcDbLine
 62
7
  6
CONTINUOUS
 10
10.4484331532
 20
8.9376589473
 11
10.4481433957
 21
8.9368037351
  0
LINE
  5
229
100
AcDbEntity
  8
0
100
AcDbLine
 62
7
  6
CONTINUOUS
 10
10.4481433957
 20
8.9368037351
 11
10.4478943179
 21
8.9360850284
  0
LINE
  5
22A
100
AcDbEntity
  8
0
100
AcDbLine
 62
7
  6
CONTINUOUS
 10
10.4479193901
 20
8.9361569826
 11
10.4476829003
 21
8.9354863143
  0
LINE
  5
22B
100
AcDbEntity
  8
0
100
AcDbLine
 62
7
  6
CONTINUOUS
 10
10.4478238067
 20
8.9358844427
 11
10.447511773
 21
8.9350089461
  0
LINE
  5
22C
100
AcDbEntity
  8
0
100
AcDbLine
 62
7
  6
CONTINUOUS
 10
10.4475449172
 20
8.9351009093
 11
10.4472765716
 21
8.9343629839
  0
LINE
  5
22D
100
AcDbEntity
  8
0
100
AcDbLine
 62
7
  6
CONTINUOUS
 10
10.4473231737
 20
8.9344900626
 11
10.4469628927
 21
8.9335189066
  0
LINE
  5
22E
100
AcDbEntity
  8
0
100
AcDbLine
 62
7
  6
CONTINUOUS
 10
10.4470274476
 20
8.9336910409
 11
10.446595165
 21
8.9325532912
  0
LINE
  5
22F
100
AcDbEntity
  8
0
100
AcDbLine
 62
7
  6
CONTINUOUS
 10
10.446671183
 20
8.9327508703
 11
10.4461953642
 21
8.9315308477
  0
LINE
  5
230
100
AcDbEntity
  8
0
100
AcDbLine
 62
7
  6
CONTINUOUS
 10
10.4462814615
 20
8.9317487166
 11
10.4457683747
 21
8.930468262
  0
LINE
  5
231
100
AcDbEntity
  8
0
100
AcDbLine
 62
7
  6
CONTINUOUS
 10
10.4458647144
 20
8.9307054645
 11
10.4453142003
 21
8.9293690536
  0
LWPOLYLINE
  5
232
100
AcDbEntity
  8
0
100
AcDbPolyline
 62
7
  6
CONTINUOUS
 90
3
 70
0
 10
10.4454211096
 20
8.9296250386
 10
10.4448337932
 20
8.9282387528
 10
10.4443287628
 20
8.9270839311
  0
LINE
  5
233
100
AcDbEntity
  8
0
100
AcDbLine
 62
7
  6
CONTINUOUS
 10
10.4449521438
 20
8.9285142427
 11
10.4444602644
 21
8.9273814643
  0
LINE
  5
234
100
AcDbEntity
  8
0
100
AcDbLine
 62
7
  6
CONTINUOUS
 10
10.1796314393
 20
9.2676695021
 11
10.4053371785
 21
9.6586033101
  0
LINE
  5
235
100
AcDbEntity
  8
0
100
AcDbLine
 62
7
  6
CONTINUOUS
 10
10.5088647966
 20
9.8379184045
 11
10.558661891
 21
9.9241695021
  0
LINE
  5
236
100
AcDbEntity
  8
0
100
AcDbLine
 62
7
  6
CONTINUOUS
 10
11.2776818412
 20
9.7607699937
 11
11.2768307865
 21
9.7604103388
  0
LINE
  5
237
100
AcDbEntity
  8
0
100
AcDbLine
 62
7
  6
CONTINUOUS
 10
11.2768307865
 20
9.7604103388
 11
11.2761123202
 21
9.7601048057
  0
LINE
  5
238
100
AcDbEntity
  8
0
100
AcDbLine
 62
7
  6
CONTINUOUS
 10
11.2751892128
 20
9.7597138151
 11
11.2743581428
 21
9.7593819217
  0
LINE
  5
239
100
AcDbEntity
  8
0
100
AcDbLine
 62
7
  6
CONTINUOUS
 10
11.2748923207
 20
9.7595931588
 11
11.2736722591
 21
9.7591080808
  0
LINE
  5
23A
100
AcDbEntity
  8
0
100
AcDbLine
 62
7
  6
CONTINUOUS
 10
11.2739766702
 20
9.7592237972
 11
11.2731816232
 21
9.7589108024
  0
LINE
  5
23B
100
AcDbEntity
  8
0
100
AcDbLine
 62
7
  6
CONTINUOUS
 10
11.2733325046
 20
9.7589742485
 11
11.2726591223
 21
9.7587125304
  0
LINE
  5
23C
100
AcDbEntity
  8
0
100
AcDbLine
 62
7
  6
CONTINUOUS
 10
11.2727882114
 20
9.7587583353
 11
11.2719935749
 21
9.7584584464
  0
LINE
  5
23D
100
AcDbEntity
  8
0
100
AcDbLine
 62
7
  6
CONTINUOUS
 10
11.2719935749
 20
9.7584584464
 11
11.2712427926
 21
9.7581747166
  0
LINE
  5
23E
100
AcDbEntity
  8
0
100
AcDbLine
 62
7
  6
CONTINUOUS
 10
11.2706843727
 20
9.7579718323
 11
11.2700401894
 21
9.7577387662
  0
LINE
  5
23F
100
AcDbEntity
  8
0
100
AcDbLine
 62
7
  6
CONTINUOUS
 10
11.270115079
 20
9.7577640877
 11
11.2694033237
 21
9.7575124432
  0
LINE
  5
240
100
AcDbEntity
  8
0
100
AcDbLine
 62
7
  6
CONTINUOUS
 10
11.2694033237
 20
9.7575124432
 11
11.2686723663
 21
9.7572572669
  0
LINE
  5
241
100
AcDbEntity
  8
0
100
AcDbLine
 62
7
  6
CONTINUOUS
 10
11.2689655325
 20
9.757361123
 11
11.2681534665
 21
9.7570800295
  0
LINE
  5
242
100
AcDbEntity
  8
0
100
AcDbLine
 62
7
  6
CONTINUOUS
 10
11.2683304649
 20
9.7571401755
 11
11.2675414639
 21
9.7568739299
  0
LINE
  5
243
100
AcDbEntity
  8
0
100
AcDbLine
 62
7
  6
CONTINUOUS
 10
11.2676798812
 20
9.7569205391
 11
11.2669387612
 21
9.7566745577
  0
LINE
  5
244
100
AcDbEntity
  8
0
100
AcDbLine
 62
7
  6
CONTINUOUS
 10
11.2664501961
 20
9.7565166754
 11
11.2664171361
 21
9.75650602
  0
LINE
  5
245
100
AcDbEntity
  8
0
100
AcDbLine
 62
7
  6
CONTINUOUS
 10
11.2663458928
 20
9.7564819027
 11
11.2657634174
 21
9.756295955
  0
LINE
  5
246
100
AcDbEntity
  8
0
100
AcDbLine
 62
7
  6
CONTINUOUS
 10
11.2657634174
 20
9.756295955
 11
11.2651919271
 21
9.7561167077
  0
LINE
  5
247
100
AcDbEntity
  8
0
100
AcDbLine
 62
7
  6
CONTINUOUS
 10
11.2651919271
 20
9.7561167077
 11
11.2646140233
 21
9.7559435576
  0
LINE
  5
248
100
AcDbEntity
  8
0
100
AcDbLine
 62
7
  6
CONTINUOUS
 10
11.2646320637
 20
9.7559441616
 11
11.2640854473
 21
9.7557786031
  0
LINE
  5
249
100
AcDbEntity
  8
0
100
AcDbLine
 62
7
  6
CONTINUOUS
 10
11.2640854473
 20
9.7557786031
 11
11.2635561891
 21
9.7556210272
  0
LINE
  5
24A
100
AcDbEntity
  8
0
100
AcDbLine
 62
7
  6
CONTINUOUS
 10
11.2628046612
 20
9.7554018641
 11
11.262333972
 21
9.755267334
  0
LWPOLYLINE
  5
24B
100
AcDbEntity
  8
0
100
AcDbPolyline
 62
7
  6
CONTINUOUS
 90
3
 70
0
 10
10.6130088885
 20
8.7800598012
 10
10.6136715617
 20
8.7802459064
 10
10.6138813751
 20
8.7803039638
  0
LINE
  5
24C
100
AcDbEntity
  8
0
100
AcDbLine
 62
7
  6
CONTINUOUS
 10
10.6139070647
 20
8.780311022
 11
10.614801974
 21
8.7805537445
  0
LINE
  5
24D
100
AcDbEntity
  8
0
100
AcDbLine
 62
7
  6
CONTINUOUS
 10
10.6208408239
 20
8.7819963906
 11
10.6213605338
 21
8.7821054342
  0
LINE
  5
24E
100
AcDbEntity
  8
0
100
AcDbLine
 62
7
  6
CONTINUOUS
 10
10.6213605338
 20
8.7821054342
 11
10.6221295992
 21
8.7822622635
  0
LINE
  5
24F
100
AcDbEntity
  8
0
100
AcDbLine
 62
7
  6
CONTINUOUS
 10
10.6221295992
 20
8.7822622635
 11
10.6230552658
 21
8.7824440621
  0
LWPOLYLINE
  5
250
100
AcDbEntity
  8
0
100
AcDbPolyline
 62
7
  6
CONTINUOUS
 90
49
 70
0
 10
10.6230552658
 20
8.7824440621
 10
10.6240723011
 20
8.7826351035
 10
10.6245957279
 20
8.7827298912
 10
10.6251298765
 20
8.7828241541
 10
10.6256758591
 20
8.7829179368
 10
10.6262347719
 20
8.7830112579
 10
10.6268077371
 20
8.7831041149
 10
10.627395875
 20
8.7831964786
 10
10.6280004079
 20
8.7832883076
 10
10.6286228009
 20
8.7833795641
 10
10.6292645573
 20
8.7834701773
 10
10.6299271869
 20
8.7835600363
 10
10.6306121984
 20
8.7836489861
 10
10.6313195228
 20
8.783736635
 10
10.6320450978
 20
8.783822123
 10
10.632784227
 20
8.7839046131
 10
10.6335321993
 20
8.7839833788
 10
10.6342842892
 20
8.7840578092
 10
10.6350357588
 20
8.784127411
 10
10.6357818586
 20
8.7841918094
 10
10.63651783
 20
8.7842507469
 10
10.6372389082
 20
8.7843040804
 10
10.6379416682
 20
8.7843518633
 10
10.6386268025
 20
8.7843944653
 10
10.6392957943
 20
8.7844322737
 10
10.6399501324
 20
8.7844656348
 10
10.6405913103
 20
8.7844948561
 10
10.6412208258
 20
8.7845202078
 10
10.6418401803
 20
8.7845419246
 10
10.6424508781
 20
8.7845602069
 10
10.6430544259
 20
8.7845752221
 10
10.6436523322
 20
8.7845871053
 10
10.6442457822
 20
8.7845959564
 10
10.644834968
 20
8.7846018437
 10
10.6454198928
 20
8.7846048303
 10
10.6460005605
 20
8.7846049787
 10
10.6465769757
 20
8.7846023506
 10
10.6471491435
 20
8.784597007
 10
10.6477170695
 20
8.784589008
 10
10.6482807599
 20
8.7845784133
 10
10.6488402216
 20
8.7845652816
 10
10.6493954619
 20
8.7845496709
 10
10.6499464885
 20
8.7845316385
 10
10.6504933099
 20
8.7845112411
 10
10.6510359347
 20
8.7844885346
 10
10.6515743724
 20
8.7844635741
 10
10.6521086327
 20
8.7844364141
 10
10.6526387257
 20
8.7844071082
 10
10.6531646622
 20
8.7843757096
  0
LWPOLYLINE
  5
251
100
AcDbEntity
  8
0
100
AcDbPolyline
 62
7
  6
CONTINUOUS
 90
68
 70
0
 10
11.2133887394
 20
8.7835086293
 10
11.2137098012
 20
8.7835524961
 10
11.2143986978
 20
8.7836426268
 10
11.2151049185
 20
8.7837308182
 10
11.2158228354
 20
8.7838161154
 10
11.2165481139
 20
8.7838978383
 10
11.2172801502
 20
8.7839757978
 10
11.2180190017
 20
8.7840498825
 10
11.2187647241
 20
8.7841199783
 10
11.2195173724
 20
8.7841859684
 10
11.220277
 20
8.7842477329
 10
11.2210436589
 20
8.7843051493
 10
11.2218173999
 20
8.7843580921
 10
11.2225982721
 20
8.7844064328
 10
11.2233863232
 20
8.7844500403
 10
11.2241815993
 20
8.78448878
 10
11.2249841446
 20
8.7845225148
 10
11.2257940017
 20
8.7845511043
 10
11.2266112115
 20
8.7845744051
 10
11.2274358126
 20
8.7845922708
 10
11.228267842
 20
8.7846045518
 10
11.2291073343
 20
8.7846110955
 10
11.2299543223
 20
8.7846117462
 10
11.2308088362
 20
8.7846063449
 10
11.231670904
 20
8.7845947295
 10
11.2325405485
 20
8.7845767349
 10
11.2334175944
 20
8.7845521988
 10
11.2343015429
 20
8.7845209744
 10
11.2351918637
 20
8.7844829284
 10
11.2360880247
 20
8.7844379409
 10
11.2369894923
 20
8.7843859058
 10
11.2378957319
 20
8.7843267311
 10
11.2388062075
 20
8.7842603388
 10
11.2397203829
 20
8.7841866654
 10
11.2406377211
 20
8.784105662
 10
11.2415576851
 20
8.7840172945
 10
11.242479738
 20
8.7839215436
 10
11.2434033432
 20
8.7838184051
 10
11.2443279646
 20
8.7837078899
 10
11.2452530671
 20
8.7835900239
 10
11.2461781164
 20
8.7834648485
 10
11.2471025793
 20
8.7833324203
 10
11.2480259239
 20
8.7831928112
 10
11.2489475989
 20
8.783046112
 10
11.249864275
 20
8.7828929049
 10
11.2507670865
 20
8.7827348682
 10
11.2516465603
 20
8.7825740697
 10
11.2524943278
 20
8.7824126458
 10
11.2533101283
 20
8.7822513317
 10
11.2540974566
 20
8.7820900659
 10
11.2548598135
 20
8.7819286687
 10
11.2556006842
 20
8.7817668545
 10
11.2563235353
 20
8.7816042385
 10
11.2570313301
 20
8.7814404568
 10
11.2577248782
 20
8.7812755833
 10
11.2584043996
 20
8.7811098136
 10
11.2590701175
 20
8.7809433332
 10
11.2597222565
 20
8.780776318
 10
11.2603610405
 20
8.7806089353
 10
11.2609866934
 20
8.780441344
 10
11.2615993565
 20
8.7802737171
 10
11.2621988554
 20
8.7801063103
 10
11.2627849789
 20
8.7799393905
 10
11.2633575336
 20
8.7797732208
 10
11.2639163363
 20
8.7796080617
 10
11.2644612042
 20
8.7794441736
 10
11.2649919408
 20
8.7792818213
 10
11.2655083621
 20
8.7791212654
  0
LINE
  5
252
100
AcDbEntity
  8
0
100
AcDbLine
 62
7
  6
CONTINUOUS
 10
11.3167227945
 20
8.6111695021
 11
10.558661891
 21
8.6111695021
  0
LINE
  5
253
100
AcDbEntity
  8
0
100
AcDbLine
 62
7
  6
CONTINUOUS
 10
10.6531646622
 20
8.7843757096
 11
10.6542041315
 21
8.7843068412
  0
LINE
  5
254
100
AcDbEntity
  8
0
100
AcDbLine
 62
7
  6
CONTINUOUS
 10
10.6542041315
 20
8.7843068412
 11
10.655227309
 21
8.7842302047
  0
LINE
  5
255
100
AcDbEntity
  8
0
100
AcDbLine
 62
7
  6
CONTINUOUS
 10
10.655227309
 20
8.7842302047
 11
10.6562345363
 21
8.7841461729
  0
LINE
  5
256
100
AcDbEntity
  8
0
100
AcDbLine
 62
7
  6
CONTINUOUS
 10
10.6562345363
 20
8.7841461729
 11
10.6572261602
 21
8.7840551001
  0
LINE
  5
257
100
AcDbEntity
  8
0
100
AcDbLine
 62
7
  6
CONTINUOUS
 10
10.6572261602
 20
8.7840551001
 11
10.6582025323
 21
8.7839573219
  0
LINE
  5
258
100
AcDbEntity
  8
0
100
AcDbLine
 62
7
  6
CONTINUOUS
 10
10.6582025323
 20
8.7839573219
 11
10.6591640082
 21
8.7838531559
  0
LINE
  5
259
100
AcDbEntity
  8
0
100
AcDbLine
 62
7
  6
CONTINUOUS
 10
10.6591640082
 20
8.7838531559
 11
10.6601109476
 21
8.7837429024
  0
LINE
  5
25A
100
AcDbEntity
  8
0
100
AcDbLine
 62
7
  6
CONTINUOUS
 10
10.6601109476
 20
8.7837429024
 11
10.6610437132
 21
8.7836268443
  0
LWPOLYLINE
  5
25B
100
AcDbEntity
  8
0
100
AcDbPolyline
 62
7
  6
CONTINUOUS
 90
3
 70
0
 10
10.6610437132
 20
8.7836268443
 10
10.661962671
 20
8.7835052479
 10
10.6620157476
 20
8.7834979132
  0
LINE
  5
25C
100
AcDbEntity
  8
0
100
AcDbLine
 62
7
  6
CONTINUOUS
 10
11.2655083621
 20
8.7791212654
 11
11.2664982288
 21
8.7788063542
  0
LINE
  5
25D
100
AcDbEntity
  8
0
100
AcDbLine
 62
7
  6
CONTINUOUS
 10
11.2664982288
 20
8.7788063542
 11
11.2674305986
 21
8.7785010679
  0
LINE
  5
25E
100
AcDbEntity
  8
0
100
AcDbLine
 62
7
  6
CONTINUOUS
 10
11.2674305986
 20
8.7785010679
 11
11.268306539
 21
8.7782065362
  0
LINE
  5
25F
100
AcDbEntity
  8
0
100
AcDbLine
 62
7
  6
CONTINUOUS
 10
11.268306539
 20
8.7782065362
 11
11.2690717668
 21
8.777943061
  0
LINE
  5
260
100
AcDbEntity
  8
0
100
AcDbLine
 62
7
  6
CONTINUOUS
 10
11.2690717668
 20
8.777943061
 11
11.2698768934
 21
8.7776595744
  0
LINE
  5
261
100
AcDbEntity
  8
0
100
AcDbLine
 62
7
  6
CONTINUOUS
 10
11.2694142343
 20
8.7778232433
 11
11.2703555
 21
8.7774879937
  0
LINE
  5
262
100
AcDbEntity
  8
0
100
AcDbLine
 62
7
  6
CONTINUOUS
 10
11.2702607205
 20
8.7775221541
 11
11.2710588858
 21
8.7772316977
  0
LINE
  5
263
100
AcDbEntity
  8
0
100
AcDbLine
 62
7
  6
CONTINUOUS
 10
11.2708714782
 20
8.7773004444
 11
11.2718475005
 21
8.7769383371
  0
LINE
  5
264
100
AcDbEntity
  8
0
100
AcDbLine
 62
7
  6
CONTINUOUS
 10
11.2716704532
 20
8.7770047382
 11
11.2728134119
 21
8.7765704502
  0
LINE
  5
265
100
AcDbEntity
  8
0
100
AcDbLine
 62
7
  6
CONTINUOUS
 10
11.2726105545
 20
8.7766485036
 11
11.2738357899
 21
8.7761706241
  0
LINE
  5
266
100
AcDbEntity
  8
0
100
AcDbLine
 62
7
  6
CONTINUOUS
 10
11.2736126866
 20
8.7762587949
 11
11.274898318
 21
8.7757436049
  0
LINE
  5
267
100
AcDbEntity
  8
0
100
AcDbLine
 62
7
  6
CONTINUOUS
 10
11.2746559101
 20
8.7758420642
 11
11.2759974553
 21
8.7752894054
  0
LWPOLYLINE
  5
268
100
AcDbEntity
  8
0
100
AcDbPolyline
 62
7
  6
CONTINUOUS
 90
3
 70
0
 10
11.275736304
 20
8.7753984781
 10
11.2771275657
 20
8.774809024
 10
11.2782820286
 20
8.7743040968
  0
LINE
  5
269
100
AcDbEntity
  8
0
100
AcDbLine
 62
7
  6
CONTINUOUS
 10
11.2768470759
 20
8.7749295285
 11
11.2779798457
 21
8.7744376594
  0
LINE
  5
26A
100
AcDbEntity
  8
0
100
AcDbLine
 62
7
  6
CONTINUOUS
 10
10.558661891
 20
8.6111695021
 11
10.5088647966
 21
8.6974205998
  0
LINE
  5
26B
100
AcDbEntity
  8
0
100
AcDbLine
 62
7
  6
CONTINUOUS
 10
10.4053371785
 20
8.8767356942
 11
10.1796314393
 21
9.2676695021
  0
LINE
  5
26C
100
AcDbEntity
  8
0
100
AcDbLine
 62
7
  6
CONTINUOUS
 10
10.4446963283
 20
9.6074192608
 11
10.4450610979
 21
9.6065517341
  0
LINE
  5
26D
100
AcDbEntity
  8
0
100
AcDbLine
 62
7
  6
CONTINUOUS
 10
10.4449806682
 20
9.606759453
 11
10.4453682298
 21
9.6058247358
  0
LINE
  5
26E
100
AcDbEntity
  8
0
100
AcDbLine
 62
7
  6
CONTINUOUS
 10
10.4456657602
 20
9.6051073961
 11
10.4459540781
 21
9.6043994062
  0
LINE
  5
26F
100
AcDbEntity
  8
0
100
AcDbLine
 62
7
  6
CONTINUOUS
 10
10.4459202615
 20
9.6044974419
 11
10.4462335579
 21
9.6037004517
  0
LINE
  5
270
100
AcDbEntity
  8
0
100
AcDbLine
 62
7
  6
CONTINUOUS
 10
10.4461731985
 20
9.6038653643
 11
10.4465045599
 21
9.6030102139
  0
LINE
  5
271
100
AcDbEntity
  8
0
100
AcDbLine
 62
7
  6
CONTINUOUS
 10
10.4464194146
 20
9.6032398812
 11
10.4466369904
 21
9.602668263
  0
LINE
  5
272
100
AcDbEntity
  8
0
100
AcDbLine
 62
7
  6
CONTINUOUS
 10
10.4466369904
 20
9.602668263
 11
10.4468959202
 21
9.6019904945
  0
LINE
  5
273
100
AcDbEntity
  8
0
100
AcDbLine
 62
7
  6
CONTINUOUS
 10
10.4468959202
 20
9.6019904945
 11
10.4471472113
 21
9.6013206313
  0
LWPOLYLINE
  5
274
100
AcDbEntity
  8
0
100
AcDbPolyline
 62
7
  6
CONTINUOUS
 90
3
 70
0
 10
10.4491698499
 20
9.5953858818
 10
10.4492041366
 20
9.5952933671
 10
10.450187766
 20
9.5914280649
  0
LINE
  5
275
100
AcDbEntity
  8
0
100
AcDbLine
 62
7
  6
CONTINUOUS
 10
10.4473911757
 20
9.6006583457
 11
10.4476281115
 21
9.6000033101
  0
LINE
  5
276
100
AcDbEntity
  8
0
100
AcDbLine
 62
7
  6
CONTINUOUS
 10
10.4475531879
 20
9.6002163551
 11
10.4478582391
 21
9.5993553811
  0
LINE
  5
277
100
AcDbEntity
  8
0
100
AcDbLine
 62
7
  6
CONTINUOUS
 10
10.4477606069
 20
9.5996350405
 11
10.447970752
 21
9.5990342218
  0
LINE
  5
278
100
AcDbEntity
  8
0
100
AcDbLine
 62
7
  6
CONTINUOUS
 10
10.447970752
 20
9.5990342218
 11
10.4481906539
 21
9.5983978844
  0
LINE
  5
279
100
AcDbEntity
  8
0
100
AcDbLine
 62
7
  6
CONTINUOUS
 10
10.4481506442
 20
9.5985154149
 11
10.4484036981
 21
9.5977700264
  0
LINE
  5
27A
100
AcDbEntity
  8
0
100
AcDbLine
 62
7
  6
CONTINUOUS
 10
10.4483342809
 20
9.5979755459
 11
10.4486098589
 21
9.5971512665
  0
LINE
  5
27B
100
AcDbEntity
  8
0
100
AcDbLine
 62
7
  6
CONTINUOUS
 10
10.4488208772
 20
9.596502604
 11
10.4490014462
 21
9.5959436156
  0
LINE
  5
27C
100
AcDbEntity
  8
0
100
AcDbLine
 62
7
  6
CONTINUOUS
 10
10.4490014462
 20
9.5959436156
 11
10.4491868344
 21
9.5953560795
  0
LINE
  5
27D
100
AcDbEntity
  8
0
100
AcDbLine
 62
7
  6
CONTINUOUS
 10
10.4491868344
 20
9.5953560795
 11
10.4493652565
 21
9.594780372
  0
LINE
  5
27E
100
AcDbEntity
  8
0
100
AcDbLine
 62
7
  6
CONTINUOUS
 10
10.4493652565
 20
9.594780372
 11
10.4495366797
 21
9.5942172978
  0
LINE
  5
27F
100
AcDbEntity
  8
0
100
AcDbLine
 62
7
  6
CONTINUOUS
 10
10.4495366797
 20
9.5942172978
 11
10.4497008195
 21
9.593668547
  0
LINE
  5
280
100
AcDbEntity
  8
0
100
AcDbLine
 62
7
  6
CONTINUOUS
 10
10.4500029932
 20
9.592632128
 11
10.4502041979
 21
9.5919218091
  0
LINE
  5
281
100
AcDbEntity
  8
0
100
AcDbLine
 62
7
  6
CONTINUOUS
 10
10.4502041979
 20
9.5919218091
 11
10.4503271692
 21
9.5914791467
  0
LINE
  5
282
100
AcDbEntity
  8
0
100
AcDbLine
 62
7
  6
CONTINUOUS
 10
10.4503309592
 20
9.5914653499
 11
10.4505801949
 21
9.5905463383
  0
LINE
  5
283
100
AcDbEntity
  8
0
100
AcDbLine
 62
7
  6
CONTINUOUS
 10
10.4520192154
 20
9.5845210953
 11
10.4521286789
 21
9.5839993624
  0
LINE
  5
284
100
AcDbEntity
  8
0
100
AcDbLine
 62
7
  6
CONTINUOUS
 10
10.4521286789
 20
9.5839993624
 11
10.4522859144
 21
9.5832282038
  0
LINE
  5
285
100
AcDbEntity
  8
0
100
AcDbLine
 62
7
  6
CONTINUOUS
 10
10.4522859144
 20
9.5832282038
 11
10.4524681882
 21
9.5822998931
  0
LWPOLYLINE
  5
286
100
AcDbEntity
  8
0
100
AcDbPolyline
 62
7
  6
CONTINUOUS
 90
49
 70
0
 10
10.4524681882
 20
9.5822998931
 10
10.4526596553
 20
9.5812802102
 10
10.4527545682
 20
9.5807558441
 10
10.4528489655
 20
9.5802206477
 10
10.4529428829
 20
9.5796735523
 10
10.453036338
 20
9.5791134579
 10
10.4531293271
 20
9.5785392405
 10
10.4532218198
 20
9.5779497779
 10
10.4533137752
 20
9.5773438325
 10
10.4534051547
 20
9.5767199288
 10
10.453495886
 20
9.5760765577
 10
10.453585856
 20
9.5754122044
 10
10.4536749069
 20
9.5747253601
 10
10.4537626192
 20
9.5740162975
 10
10.4538481207
 20
9.5732892036
 10
10.4539305764
 20
9.5725487975
 10
10.4540092628
 20
9.5717998134
 10
10.4540835728
 20
9.5710469994
 10
10.4541530179
 20
9.5702951166
 10
10.4542172284
 20
9.5695489371
 10
10.4542759527
 20
9.5688132424
 10
10.4543290539
 20
9.5680928161
 10
10.4543766107
 20
9.5673908068
 10
10.4544190049
 20
9.5667063392
 10
10.4544566217
 20
9.5660379268
 10
10.4544898057
 20
9.5653840771
 10
10.4545188622
 20
9.5647432931
 10
10.4545440598
 20
9.5641140737
 10
10.4545656312
 20
9.5634949139
 10
10.4545837749
 20
9.5628843063
 10
10.4545986563
 20
9.5622807406
 10
10.4546104089
 20
9.5616827059
 10
10.4546191297
 20
9.5610890866
 10
10.4546248859
 20
9.560499735
 10
10.4546277408
 20
9.5599146481
 10
10.4546277568
 20
9.5593338223
 10
10.4546249959
 20
9.5587572534
 10
10.4546195189
 20
9.5581849365
 10
10.4546113863
 20
9.5576168663
 10
10.4546006576
 20
9.5570530366
 10
10.4545873917
 20
9.5564934412
 10
10.4545716467
 20
9.5559380729
 10
10.45455348
 20
9.5553869241
 10
10.4545329483
 20
9.5548399869
 10
10.4545101077
 20
9.5542972526
 10
10.4544850134
 20
9.5537587122
 10
10.4544577198
 20
9.5532243563
 10
10.454428281
 20
9.5526941749
 10
10.45439675
 20
9.5521681577
  0
LWPOLYLINE
  5
287
100
AcDbEntity
  8
0
100
AcDbPolyline
 62
7
  6
CONTINUOUS
 90
63
 70
0
 10
10.4535311799
 20
8.9919736414
 10
10.4535881597
 20
8.9915558954
 10
10.4536955962
 20
8.9907256827
 10
10.4537999002
 20
8.9898723188
 10
10.4539002452
 20
8.9889988441
 10
10.4539958831
 20
8.9881083142
 10
10.4540861538
 20
8.9872037493
 10
10.4541705843
 20
8.9862870398
 10
10.4542488461
 20
8.9853589513
 10
10.4543206342
 20
8.9844202062
 10
10.4543856627
 20
8.9834715321
 10
10.4544436654
 20
8.9825136617
 10
10.4544943961
 20
8.9815473325
 10
10.4545376299
 20
8.980573286
 10
10.4545731627
 20
8.9795922678
 10
10.4546008126
 20
8.9786050273
 10
10.4546204196
 20
8.9776123165
 10
10.4546318464
 20
8.9766148906
 10
10.4546349787
 20
8.9756135068
 10
10.454629725
 20
8.974608924
 10
10.4546160175
 20
8.9736019026
 10
10.4545938118
 20
8.9725932038
 10
10.4545630872
 20
8.9715835889
 10
10.4545238469
 20
8.9705738193
 10
10.4544761178
 20
8.9695646557
 10
10.4544199505
 20
8.9685568575
 10
10.4543554195
 20
8.9675511829
 10
10.4542826228
 20
8.9665483876
 10
10.4542016819
 20
8.965549225
 10
10.4541127417
 20
8.9645544455
 10
10.4540159701
 20
8.9635647963
 10
10.4539115575
 20
8.9625810207
 10
10.4537997172
 20
8.961603858
 10
10.4536806842
 20
8.9606340432
 10
10.4535547153
 20
8.9596723066
 10
10.4534220886
 20
8.9587193738
 10
10.4532831394
 20
8.957776206
 10
10.4531384674
 20
8.9568452424
 10
10.4529888398
 20
8.9559294717
 10
10.4528351112
 20
8.9550318632
 10
10.4526782188
 20
8.9541553651
 10
10.4525191749
 20
8.9533028888
 10
10.4523587705
 20
8.9524758405
 10
10.4521972647
 20
8.951672892
 10
10.4520348049
 20
8.9508924245
 10
10.4518714836
 20
8.9501328242
 10
10.4517073415
 20
8.9493924827
 10
10.4515423739
 20
8.9486698154
 10
10.4513766339
 20
8.9479636793
 10
10.451210255
 20
8.9472734057
 10
10.4510433549
 20
8.9465983478
 10
10.4508760307
 20
8.9459378594
 10
10.4507083603
 20
8.9452912964
 10
10.4505404038
 20
8.9446580198
 10
10.4503722198
 20
8.9440374513
 10
10.450204015
 20
8.9434296023
 10
10.4500360816
 20
8.9428347926
 10
10.4498687103
 20
8.9422533242
 10
10.4497021909
 20
8.9416854845
 10
10.4495368137
 20
8.9411315544
 10
10.449372873
 20
8.9405918212
 10
10.4492106712
 20
8.9400665917
 10
10.4490504529
 20
8.9395559846
  0
LINE
  5
288
100
AcDbEntity
  8
0
100
AcDbLine
 62
7
  6
CONTINUOUS
 10
10.6488872576
 20
11.5801695021
 11
10.6488872576
 21
11.3551695021
  0
LINE
  5
289
100
AcDbEntity
  8
0
100
AcDbLine
 62
7
  6
CONTINUOUS
 10
10.6814491862
 20
11.3551695021
 11
10.6814491862
 21
11.4522685866
  0
LINE
  5
28A
100
AcDbEntity
  8
0
100
AcDbLine
 62
7
  6
CONTINUOUS
 10
10.6814491862
 20
11.48512387
 11
10.6814491862
 21
11.5801695021
  0
LINE
  5
28B
100
AcDbEntity
  8
0
100
AcDbLine
 62
7
  6
CONTINUOUS
 10
10.7844152944
 20
11.5801695021
 11
10.7844152944
 21
11.48512387
  0
LINE
  5
28C
100
AcDbEntity
  8
0
100
AcDbLine
 62
7
  6
CONTINUOUS
 10
10.7844152944
 20
11.4522685866
 11
10.7844152944
 21
11.3551695021
  0
LINE
  5
28D
100
AcDbEntity
  8
0
100
AcDbLine
 62
7
  6
CONTINUOUS
 10
10.816977218
 20
11.3551695021
 11
10.816977218
 21
11.5801695021
  0
LINE
  5
28E
100
AcDbEntity
  8
0
100
AcDbLine
 62
7
  6
CONTINUOUS
 10
10.9051923427
 20
9.3126695021
 11
10.9051923427
 21
9.5376695021
  0
LINE
  5
28F
100
AcDbEntity
  8
0
100
AcDbLine
 62
7
  6
CONTINUOUS
 10
10.9120600042
 20
7.2001695021
 11
10.9120600042
 21
6.9751695021
  0
LINE
  5
290
100
AcDbEntity
  8
0
100
AcDbLine
 62
7
  6
CONTINUOUS
 10
10.9208173427
 20
9.5220445021
 11
10.9208173427
 21
9.2890677518
  0
LINE
  5
291
100
AcDbEntity
  8
0
100
AcDbLine
 62
7
  6
CONTINUOUS
 10
10.9446219412
 20
6.9751695021
 11
10.9446219412
 21
7.0700684577
  0
LINE
  5
292
100
AcDbEntity
  8
0
100
AcDbLine
 62
7
  6
CONTINUOUS
 10
10.9446219412
 20
7.1029237344
 11
10.9446219412
 21
7.1673142254
  0
LINE
  5
293
100
AcDbEntity
  8
0
100
AcDbLine
 62
7
  6
CONTINUOUS
 10
10.9545673427
 20
9.2890677518
 11
10.9545673427
 21
9.5220445021
  0
LINE
  5
294
100
AcDbEntity
  8
0
100
AcDbLine
 62
7
  6
CONTINUOUS
 10
10.9701923427
 20
9.5376695021
 11
10.9701923427
 21
9.3126695021
  0
LINE
  5
295
100
AcDbEntity
  8
0
100
AcDbLine
 62
7
  6
CONTINUOUS
 10
10.4444602644
 20
8.9273814643
 11
10.443797248
 21
8.9259029655
  0
LINE
  5
296
100
AcDbEntity
  8
0
100
AcDbLine
 62
7
  6
CONTINUOUS
 10
10.4439436812
 20
8.9262249429
 11
10.4432364882
 21
8.9246926246
  0
LINE
  5
297
100
AcDbEntity
  8
0
100
AcDbLine
 62
7
  6
CONTINUOUS
 10
10.4433990962
 20
8.9250399838
 11
10.4426439593
 21
8.9234506757
  0
LINE
  5
298
100
AcDbEntity
  8
0
100
AcDbLine
 62
7
  6
CONTINUOUS
 10
10.4428236991
 20
8.9238235588
 11
10.4420169806
 21
8.9221749978
  0
LINE
  5
299
100
AcDbEntity
  8
0
100
AcDbLine
 62
7
  6
CONTINUOUS
 10
10.4422144909
 20
8.9225727605
 11
10.4413527016
 21
8.9208635808
  0
LWPOLYLINE
  5
29A
100
AcDbEntity
  8
0
100
AcDbPolyline
 62
7
  6
CONTINUOUS
 90
3
 70
0
 10
10.4415684295
 20
8.9212851185
 10
10.4406480797
 20
8.9195145106
 10
10.4398998947
 20
8.9181260296
  0
LINE
  5
29B
100
AcDbEntity
  8
0
100
AcDbLine
 62
7
  6
CONTINUOUS
 10
10.4408841064
 20
8.9199617819
 11
10.4401613214
 21
8.918606236
  0
LINE
  5
29C
100
AcDbEntity
  8
0
100
AcDbLine
 62
7
  6
CONTINUOUS
 10
10.4401613214
 20
8.918606236
 11
10.4393999956
 21
8.9172220029
  0
LINE
  5
29D
100
AcDbEntity
  8
0
100
AcDbLine
 62
7
  6
CONTINUOUS
 10
10.4398998947
 20
8.9181260296
 11
10.4391047379
 21
8.916696543
  0
LWPOLYLINE
  5
29E
100
AcDbEntity
  8
0
100
AcDbPolyline
 62
7
  6
CONTINUOUS
 90
12
 70
0
 10
10.4393999956
 20
8.9172220029
 10
10.4386001188
 20
8.9158125216
 10
10.4377612086
 20
8.9143802288
 10
10.4368824173
 20
8.9129268688
 10
10.4359629189
 20
8.9114542041
 10
10.4350019216
 20
8.9099640305
 10
10.4339986716
 20
8.9084581761
 10
10.4329524559
 20
8.9069385001
 10
10.4318626047
 20
8.9054068898
 10
10.4307279945
 20
8.9038645908
 10
10.4295462249
 20
8.9023112492
 10
10.4283145935
 20
8.9007464049
  0
LINE
  5
29F
100
AcDbEntity
  8
0
100
AcDbLine
 62
7
  6
CONTINUOUS
 10
10.4297899772
 20
8.9026212658
 11
10.4293934225
 21
8.902108123
  0
LINE
  5
2A0
100
AcDbEntity
  8
0
100
AcDbLine
 62
7
  6
CONTINUOUS
 10
10.4293934225
 20
8.902108123
 11
10.428948856
 21
8.9015396112
  0
LINE
  5
2A1
100
AcDbEntity
  8
0
100
AcDbLine
 62
7
  6
CONTINUOUS
 10
10.4286310934
 20
8.9011375457
 11
10.4282992052
 21
8.9007213535
  0
LINE
  5
2A2
100
AcDbEntity
  8
0
100
AcDbLine
 62
7
  6
CONTINUOUS
 10
10.4282992052
 20
8.9007213535
 11
10.4279538858
 21
8.9002923139
  0
LWPOLYLINE
  5
2A3
100
AcDbEntity
  8
0
100
AcDbPolyline
 62
7
  6
CONTINUOUS
 90
6
 70
0
 10
10.4283145935
 20
8.9007464049
 10
10.4270302823
 20
8.8991697688
 10
10.4256903583
 20
8.8975812347
 10
10.4242917757
 20
8.8959808926
 10
10.4228313777
 20
8.8943690423
 10
10.4213058993
 20
8.892746208
  0
LINE
  5
2A4
100
AcDbEntity
  8
0
100
AcDbLine
 62
7
  6
CONTINUOUS
 10
10.4274103999
 20
8.8996251521
 11
10.4270312694
 21
8.8991654836
  0
LINE
  5
2A5
100
AcDbEntity
  8
0
100
AcDbLine
 62
7
  6
CONTINUOUS
 10
10.4270312694
 20
8.8991654836
 11
10.426638806
 21
8.8986945135
  0
LINE
  5
2A6
100
AcDbEntity
  8
0
100
AcDbLine
 62
7
  6
CONTINUOUS
 10
10.4260251738
 20
8.8979678357
 11
10.4255980359
 21
8.8974688436
  0
LINE
  5
2A7
100
AcDbEntity
  8
0
100
AcDbLine
 62
7
  6
CONTINUOUS
 10
10.4255980359
 20
8.8974688436
 11
10.4251541965
 21
8.8969561526
  0
LINE
  5
2A8
100
AcDbEntity
  8
0
100
AcDbLine
 62
7
  6
CONTINUOUS
 10
10.4246915898
 20
8.8964279646
 11
10.4242080882
 21
8.8958825291
  0
LINE
  5
2A9
100
AcDbEntity
  8
0
100
AcDbLine
 62
7
  6
CONTINUOUS
 10
10.4242080882
 20
8.8958825291
 11
10.4237017778
 21
8.8953184561
  0
LINE
  5
2AA
100
AcDbEntity
  8
0
100
AcDbLine
 62
7
  6
CONTINUOUS
 10
10.4231719025
 20
8.894735738
 11
10.4226180251
 21
8.8941347637
  0
LINE
  5
2AB
100
AcDbEntity
  8
0
100
AcDbLine
 62
7
  6
CONTINUOUS
 10
10.4226180251
 20
8.8941347637
 11
10.4220384444
 21
8.8935146125
  0
LINE
  5
2AC
100
AcDbEntity
  8
0
100
AcDbLine
 62
7
  6
CONTINUOUS
 10
10.4217364451
 20
8.8931949382
 11
10.4211013369
 21
8.8925302563
  0
LINE
  5
2AD
100
AcDbEntity
  8
0
100
AcDbLine
 62
7
  6
CONTINUOUS
 10
10.4211013369
 20
8.8925302563
 11
10.4204148881
 21
8.8918231911
  0
LINE
  5
2AE
100
AcDbEntity
  8
0
100
AcDbLine
 62
7
  6
CONTINUOUS
 10
10.4204148881
 20
8.8918231911
 11
10.4196835739
 21
8.8910825635
  0
LINE
  5
2AF
100
AcDbEntity
  8
0
100
AcDbLine
 62
7
  6
CONTINUOUS
 10
10.0184540166
 20
8.4898525322
 11
10.4208819392
 21
8.8922804548
  0
LINE
  5
2B0
100
AcDbEntity
  8
0
100
AcDbLine
 62
7
  6
CONTINUOUS
 10
11.3135404276
 20
9.7849389433
 11
11.715509802
 21
10.1869083177
  0
LINE
  5
2B1
100
AcDbEntity
  8
0
100
AcDbLine
 62
9
  6
CONTINUOUS
 10
10.5155631019
 20
8.8455438087
 11
10.0184535272
 21
8.3484306866
  0
LINE
  5
2B2
100
AcDbEntity
  8
0
100
AcDbLine
 62
9
  6
CONTINUOUS
 10
11.3598215836
 20
9.6897951956
 11
11.8569311583
 21
10.1869083177
  0
LINE
  5
2B3
100
AcDbEntity
  8
0
100
AcDbLine
 62
7
  6
CONTINUOUS
 10
11.3135996813
 20
9.7850134043
 11
11.3110257642
 21
9.7825180558
  0
LINE
  5
2B4
100
AcDbEntity
  8
0
100
AcDbLine
 62
7
  6
CONTINUOUS
 10
11.3134656765
 20
9.7850164484
 11
11.3110611567
 21
9.7826973696
  0
LWPOLYLINE
  5
2B5
100
AcDbEntity
  8
0
100
AcDbPolyline
 62
7
  6
CONTINUOUS
 90
3
 70
0
 10
11.3119062095
 20
9.7833824819
 10
11.3072080258
 20
9.7790861118
 10
11.3036153794
 20
9.7761215029
  0
LWPOLYLINE
  5
2B6
100
AcDbEntity
  8
0
100
AcDbPolyline
 62
7
  6
CONTINUOUS
 90
6
 70
0
 10
11.3097631629
 20
9.7815078148
 10
11.3091034284
 20
9.7809165615
 10
11.3084509437
 20
9.7803404298
 10
11.3078056828
 20
9.7797789477
 10
11.3071676048
 20
9.779231652
 10
11.3065366539
 20
9.7786980883
  0
LINE
  5
2B7
100
AcDbEntity
  8
0
100
AcDbLine
 62
7
  6
CONTINUOUS
 10
11.3110611567
 20
9.7826973696
 11
11.3048708488
 21
9.777325528
  0
LWPOLYLINE
  5
2B8
100
AcDbEntity
  8
0
100
AcDbPolyline
 62
7
  6
CONTINUOUS
 90
3
 70
0
 10
11.3065366539
 20
9.7786980883
 10
11.3059127608
 20
9.7781778109
 10
11.3052958427
 20
9.777670383
  0
LWPOLYLINE
  5
2B9
100
AcDbEntity
  8
0
100
AcDbPolyline
 62
7
  6
CONTINUOUS
 90
7
 70
0
 10
11.3066912026
 20
9.7787460306
 10
11.306201321
 20
9.7783377611
 10
11.305711393
 20
9.7779338362
 10
11.3052214618
 20
9.7775342351
 10
11.3047315699
 20
9.7771389367
 10
11.3042417594
 20
9.7767479195
 10
11.303752072
 20
9.7763611616
  0
LWPOLYLINE
  5
2BA
100
AcDbEntity
  8
0
100
AcDbPolyline
 62
7
  6
CONTINUOUS
 90
4
 70
0
 10
11.3052958427
 20
9.777670383
 10
11.3046858042
 20
9.7771753764
 10
11.3040825377
 20
9.7766923716
 10
11.3034859236
 20
9.7762209575
  0
LWPOLYLINE
  5
2BB
100
AcDbEntity
  8
0
100
AcDbPolyline
 62
7
  6
CONTINUOUS
 90
7
 70
0
 10
11.3050167647
 20
9.7773703092
 10
11.3015390635
 20
9.7746654643
 10
11.2981303625
 20
9.7722053039
 10
11.2948643449
 20
9.7700125959
 10
11.2918109373
 20
9.7680989259
 10
11.2889684483
 20
9.7664292914
 10
11.2862932032
 20
9.7649517076
  0
LINE
  5
2BC
100
AcDbEntity
  8
0
100
AcDbLine
 62
7
  6
CONTINUOUS
 10
11.3028958313
 20
9.7757607317
 11
11.3022841541
 21
9.7752262196
  0
LWPOLYLINE
  5
2BD
100
AcDbEntity
  8
0
100
AcDbPolyline
 62
7
  6
CONTINUOUS
 90
3
 70
0
 10
11.3023121195
 20
9.7753113
 10
11.3017346363
 20
9.7748722765
 10
11.3011632202
 20
9.7744432838
  0
LWPOLYLINE
  5
2BE
100
AcDbEntity
  8
0
100
AcDbPolyline
 62
7
  6
CONTINUOUS
 90
10
 70
0
 10
11.3048708488
 20
9.777325528
 10
11.2987957818
 20
9.772721786
 10
11.2930308418
 20
9.7688831499
 10
11.287631003
 20
9.765703203
 10
11.2825425608
 20
9.7630413275
 10
11.2777235784
 20
9.7607977628
 10
11.2731565273
 20
9.7589054003
 10
11.268875105
 20
9.7573278027
 10
11.2649409085
 20
9.7560389723
 10
11.2614708999
 20
9.7550261093
  0
LINE
  5
2BF
100
AcDbEntity
  8
0
100
AcDbLine
 62
7
  6
CONTINUOUS
 10
11.3013069058
 20
9.7744904812
 11
11.3005977001
 21
9.7740239521
  0
LINE
  5
2C0
100
AcDbEntity
  8
0
100
AcDbLine
 62
7
  6
CONTINUOUS
 10
11.3008188118
 20
9.7741288115
 11
11.300037896
 21
9.7736139201
  0
LINE
  5
2C1
100
AcDbEntity
  8
0
100
AcDbLine
 62
7
  6
CONTINUOUS
 10
11.2994836524
 20
9.7732128582
 11
11.2988708881
 21
9.772722928
  0
LWPOLYLINE
  5
2C2
100
AcDbEntity
  8
0
100
AcDbPolyline
 62
7
  6
CONTINUOUS
 90
4
 70
0
 10
11.2989348911
 20
9.7728205041
 10
11.2983915411
 20
9.77243661
 10
11.2978535256
 20
9.7720609329
 10
11.2973207625
 20
9.7716932344
  0
LINE
  5
2C3
100
AcDbEntity
  8
0
100
AcDbLine
 62
7
  6
CONTINUOUS
 10
11.2974156953
 20
9.7717106928
 11
11.2967931645
 21
9.7713332807
  0
LINE
  5
2C4
100
AcDbEntity
  8
0
100
AcDbLine
 62
7
  6
CONTINUOUS
 10
11.2959665509
 20
9.7707338899
 11
11.2952404111
 21
9.7702976184
  0
LINE
  5
2C5
100
AcDbEntity
  8
0
100
AcDbLine
 62
7
  6
CONTINUOUS
 10
11.2954850161
 20
9.7704160486
 11
11.2947325
 21
9.7699663963
  0
LINE
  5
2C6
100
AcDbEntity
  8
0
100
AcDbLine
 62
7
  6
CONTINUOUS
 10
11.2950042973
 20
9.7701020459
 11
11.294229249
 21
9.7696418204
  0
LINE
  5
2C7
100
AcDbEntity
  8
0
100
AcDbLine
 62
7
  6
CONTINUOUS
 10
11.2945244293
 20
9.7697918567
 11
11.2937305856
 21
9.7693237107
  0
LINE
  5
2C8
100
AcDbEntity
  8
0
100
AcDbLine
 62
7
  6
CONTINUOUS
 10
11.2940454467
 20
9.7694854559
 11
11.2932364519
 21
9.7690119015
  0
LINE
  5
2C9
100
AcDbEntity
  8
0
100
AcDbLine
 62
7
  6
CONTINUOUS
 10
11.2930902746
 20
9.7688839184
 11
11.292261525
 21
9.7684065377
  0
LINE
  5
2CA
100
AcDbEntity
  8
0
100
AcDbLine
 62
7
  6
CONTINUOUS
 10
11.2926141525
 20
9.7685887308
 11
11.2917806004
 21
9.7681126671
  0
LINE
  5
2CB
100
AcDbEntity
  8
0
100
AcDbLine
 62
7
  6
CONTINUOUS
 10
11.2921390507
 20
9.7682972298
 11
11.2913039424
 21
9.7678244648
  0
LINE
  5
2CC
100
AcDbEntity
  8
0
100
AcDbLine
 62
7
  6
CONTINUOUS
 10
11.2916650019
 20
9.7680093897
 11
11.290831478
 21
9.7675417801
  0
LINE
  5
2CD
100
AcDbEntity
  8
0
100
AcDbLine
 62
7
  6
CONTINUOUS
 10
11.2911920388
 20
9.7677251848
 11
11.2903631317
 21
9.7672644652
  0
LINE
  5
2CE
100
AcDbEntity
  8
0
100
AcDbLine
 62
7
  6
CONTINUOUS
 10
11.2898988252
 20
9.7669923748
 11
11.2893116801
 21
9.7666241968
  0
LINE
  5
2CF
100
AcDbEntity
  8
0
100
AcDbLine
 62
7
  6
CONTINUOUS
 10
11.2894384778
 20
9.7667253668
 11
11.2888446207
 21
9.7663577772
  0
LINE
  5
2D0
100
AcDbEntity
  8
0
100
AcDbLine
 62
7
  6
CONTINUOUS
 10
11.2889820063
 20
9.7664633016
 11
11.2880803938
 21
9.765953481
  0
LINE
  5
2D1
100
AcDbEntity
  8
0
100
AcDbLine
 62
7
  6
CONTINUOUS
 10
11.2883788349
 20
9.7660948362
 11
11.2876351522
 21
9.7657055022
  0
LINE
  5
2D2
100
AcDbEntity
  8
0
100
AcDbLine
 62
7
  6
CONTINUOUS
 10
11.2871935576
 20
9.7654620028
 11
11.286321111
 21
9.7649880278
  0
LINE
  5
2D3
100
AcDbEntity
  8
0
100
AcDbLine
 62
7
  6
CONTINUOUS
 10
11.2865290686
 20
9.7650773521
 11
11.2856127581
 21
9.7645888778
  0
LINE
  5
2D4
100
AcDbEntity
  8
0
100
AcDbLine
 62
7
  6
CONTINUOUS
 10
11.2858901559
 20
9.7647573499
 11
11.2850385134
 21
9.7643081208
  0
LINE
  5
2D5
100
AcDbEntity
  8
0
100
AcDbLine
 62
7
  6
CONTINUOUS
 10
11.284702609
 20
9.7641136998
 11
11.2837858689
 21
9.7636631694
  0
LINE
  5
2D6
100
AcDbEntity
  8
0
100
AcDbLine
 62
7
  6
CONTINUOUS
 10
11.2837858689
 20
9.7636631694
 11
11.2829666268
 21
9.7632513957
  0
LINE
  5
2D7
100
AcDbEntity
  8
0
100
AcDbLine
 62
7
  6
CONTINUOUS
 10
11.2833496598
 20
9.7634254968
 11
11.2824563504
 21
9.7629828195
  0
LINE
  5
2D8
100
AcDbEntity
  8
0
100
AcDbLine
 62
7
  6
CONTINUOUS
 10
11.2837666571
 20
9.7636363078
 11
11.2813761439
 21
9.7624607109
  0
LINE
  5
2D9
100
AcDbEntity
  8
0
100
AcDbLine
 62
7
  6
CONTINUOUS
 10
11.2821595535
 20
9.7628533901
 11
11.2813644026
 21
9.7624686086
  0
LINE
  5
2DA
100
AcDbEntity
  8
0
100
AcDbLine
 62
7
  6
CONTINUOUS
 10
11.2815703403
 20
9.7625528355
 11
11.2805809543
 21
9.7620965437
  0
LINE
  5
2DB
100
AcDbEntity
  8
0
100
AcDbLine
 62
7
  6
CONTINUOUS
 10
11.2798089774
 20
9.7617367046
 11
11.2790482296
 21
9.7613886162
  0
LINE
  5
2DC
100
AcDbEntity
  8
0
100
AcDbLine
 62
7
  6
CONTINUOUS
 10
11.2793893154
 20
9.7615322154
 11
11.2785312871
 21
9.7611452004
  0
LINE
  5
2DD
100
AcDbEntity
  8
0
100
AcDbLine
 62
7
  6
CONTINUOUS
 10
11.2786719881
 20
9.7612188344
 11
11.2779276071
 21
9.7608875158
  0
LINE
  5
2DE
100
AcDbEntity
  8
0
100
AcDbLine
 62
7
  6
CONTINUOUS
 10
11.2791086647
 20
9.7614055953
 11
11.2769506982
 21
9.7604541064
  0
LINE
  5
2DF
100
AcDbEntity
  8
0
100
AcDbLine
 62
7
  6
CONTINUOUS
 10
10.9701923427
 20
9.3126695021
 11
11.0526923427
 21
9.3476695021
  0
LINE
  5
2E0
100
AcDbEntity
  8
0
100
AcDbLine
 62
7
  6
CONTINUOUS
 10
11.0283525176
 20
9.3203705533
 11
10.9545673427
 21
9.2890677518
  0
LINE
  5
2E1
100
AcDbEntity
  8
0
100
AcDbLine
 62
7
  6
CONTINUOUS
 10
10.9208173427
 20
9.2890677518
 11
10.8470321678
 21
9.3203705533
  0
LINE
  5
2E2
100
AcDbEntity
  8
0
100
AcDbLine
 62
7
  6
CONTINUOUS
 10
10.8226923427
 20
9.3476695021
 11
10.9051923427
 21
9.3126695021
  0
LINE
  5
2E3
100
AcDbEntity
  8
0
100
AcDbLine
 62
7
  6
CONTINUOUS
 10
11.2779798457
 20
8.7744376594
 11
11.2794626461
 21
8.7737726876
  0
LINE
  5
2E4
100
AcDbEntity
  8
0
100
AcDbLine
 62
7
  6
CONTINUOUS
 10
11.2791363543
 20
8.7739210887
 11
11.2806726182
 21
8.7732120502
  0
LINE
  5
2E5
100
AcDbEntity
  8
0
100
AcDbLine
 62
7
  6
CONTINUOUS
 10
11.2803212997
 20
8.7733765173
 11
11.2819141574
 21
8.7726196719
  0
LINE
  5
2E6
100
AcDbEntity
  8
0
100
AcDbLine
 62
7
  6
CONTINUOUS
 10
11.2815377122
 20
8.7728011339
 11
11.2831893644
 21
8.7719928842
  0
LINE
  5
2E7
100
AcDbEntity
  8
0
100
AcDbLine
 62
7
  6
CONTINUOUS
 10
11.2827885015
 20
8.7721919384
 11
11.2845002306
 21
8.7713288498
  0
LWPOLYLINE
  5
2E8
100
AcDbEntity
  8
0
100
AcDbPolyline
 62
7
  6
CONTINUOUS
 90
3
 70
0
 10
11.2840761406
 20
8.7715458873
 10
11.2858486516
 20
8.7706245403
 10
11.2872363676
 20
8.7698767518
  0
LINE
  5
2E9
100
AcDbEntity
  8
0
100
AcDbLine
 62
7
  6
CONTINUOUS
 10
11.285399483
 20
8.7708615703
 11
11.2867550417
 21
8.7701387879
  0
LINE
  5
2EA
100
AcDbEntity
  8
0
100
AcDbLine
 62
7
  6
CONTINUOUS
 10
11.2867550417
 20
8.7701387879
 11
11.2881392925
 21
8.7693774619
  0
LINE
  5
2EB
100
AcDbEntity
  8
0
100
AcDbLine
 62
7
  6
CONTINUOUS
 10
11.2872363676
 20
8.7698767518
 11
11.2886649568
 21
8.7690820924
  0
LWPOLYLINE
  5
2EC
100
AcDbEntity
  8
0
100
AcDbPolyline
 62
7
  6
CONTINUOUS
 90
12
 70
0
 10
11.2881392925
 20
8.7693774619
 10
11.2895487947
 20
8.7685775829
 10
11.2909811105
 20
8.7677386689
 10
11.2924344951
 20
8.7668598723
 10
11.2939071857
 20
8.765940367
 10
11.2953973864
 20
8.7649793615
 10
11.2969032686
 20
8.763976102
 10
11.298422973
 20
8.7629298755
 10
11.299954612
 20
8.7618400124
 10
11.3014969394
 20
8.7607053893
 10
11.3030503093
 20
8.7595236058
 10
11.3046151819
 20
8.7582919595
  0
LINE
  5
2ED
100
AcDbEntity
  8
0
100
AcDbLine
 62
7
  6
CONTINUOUS
 10
11.3027409134
 20
8.7597668796
 11
11.3032540821
 21
8.7593703019
  0
LINE
  5
2EE
100
AcDbEntity
  8
0
100
AcDbLine
 62
7
  6
CONTINUOUS
 10
11.3032540821
 20
8.7593703019
 11
11.3038225465
 21
8.7589257692
  0
LINE
  5
2EF
100
AcDbEntity
  8
0
100
AcDbLine
 62
7
  6
CONTINUOUS
 10
11.3042245647
 20
8.758608042
 11
11.3046407153
 21
8.7582761852
  0
LINE
  5
2F0
100
AcDbEntity
  8
0
100
AcDbLine
 62
7
  6
CONTINUOUS
 10
11.3046407153
 20
8.7582761852
 11
11.3050697037
 21
8.7579309054
  0
LWPOLYLINE
  5
2F1
100
AcDbEntity
  8
0
100
AcDbPolyline
 62
7
  6
CONTINUOUS
 90
6
 70
0
 10
11.3046151819
 20
8.7582919595
 10
11.3061918463
 20
8.7570076321
 10
11.3077804088
 20
8.7556676906
 10
11.3093807793
 20
8.754269089
 10
11.3109926581
 20
8.7528086703
 10
11.3126155211
 20
8.7512831696
  0
LINE
  5
2F2
100
AcDbEntity
  8
0
100
AcDbLine
 62
7
  6
CONTINUOUS
 10
11.3057367966
 20
8.7573874741
 11
11.3061964314
 21
8.7570083707
  0
LINE
  5
2F3
100
AcDbEntity
  8
0
100
AcDbLine
 62
7
  6
CONTINUOUS
 10
11.3061964314
 20
8.7570083707
 11
11.3066673833
 21
8.7566159219
  0
LINE
  5
2F4
100
AcDbEntity
  8
0
100
AcDbLine
 62
7
  6
CONTINUOUS
 10
11.3073940723
 20
8.7560022795
 11
11.3078930969
 21
8.755575113
  0
LINE
  5
2F5
100
AcDbEntity
  8
0
100
AcDbLine
 62
7
  6
CONTINUOUS
 10
11.3078930969
 20
8.755575113
 11
11.3084058374
 21
8.7551312295
  0
LINE
  5
2F6
100
AcDbEntity
  8
0
100
AcDbLine
 62
7
  6
CONTINUOUS
 10
11.3089340895
 20
8.7546685648
 11
11.3094796012
 21
8.7541849931
  0
LINE
  5
2F7
100
AcDbEntity
  8
0
100
AcDbLine
 62
7
  6
CONTINUOUS
 10
11.3094796012
 20
8.7541849931
 11
11.3100437546
 21
8.7536786068
  0
LINE
  5
2F8
100
AcDbEntity
  8
0
100
AcDbLine
 62
7
  6
CONTINUOUS
 10
11.3106265447
 20
8.7531486611
 11
11.311227574
 21
8.7525947272
  0
LINE
  5
2F9
100
AcDbEntity
  8
0
100
AcDbLine
 62
7
  6
CONTINUOUS
 10
11.311227574
 20
8.7525947272
 11
11.311847759
 21
8.7520151082
  0
LINE
  5
2FA
100
AcDbEntity
  8
0
100
AcDbLine
 62
7
  6
CONTINUOUS
 10
11.312167446
 20
8.7517130931
 11
11.3128321578
 21
8.7510779482
  0
LINE
  5
2FB
100
AcDbEntity
  8
0
100
AcDbLine
 62
7
  6
CONTINUOUS
 10
11.3128321578
 20
8.7510779482
 11
11.3135392731
 21
8.7503914412
  0
LINE
  5
2FC
100
AcDbEntity
  8
0
100
AcDbLine
 62
7
  6
CONTINUOUS
 10
11.3135392731
 20
8.7503914412
 11
11.3142799453
 21
8.749660072
  0
LINE
  5
2FD
100
AcDbEntity
  8
0
100
AcDbLine
 62
7
  6
CONTINUOUS
 10
11.7155093127
 20
8.348431176
 11
11.31308139
 21
8.7508590986
  0
LINE
  5
2FE
100
AcDbEntity
  8
0
100
AcDbLine
 62
7
  6
CONTINUOUS
 10
10.4204229016
 20
9.6435175871
 11
10.0184535272
 21
10.0454869614
  0
LINE
  5
2FF
100
AcDbEntity
  8
0
100
AcDbLine
 62
9
  6
CONTINUOUS
 10
11.3598180362
 20
8.8455402613
 11
11.8569311583
 21
8.3484306866
  0
LINE
  5
300
100
AcDbEntity
  8
0
100
AcDbLine
 62
9
  6
CONTINUOUS
 10
10.5155666493
 20
9.689798743
 11
10.0184535272
 21
10.1869083177
  0
LWPOLYLINE
  5
301
100
AcDbEntity
  8
0
100
AcDbPolyline
 62
7
  6
CONTINUOUS
 90
4
 70
0
 10
10.4203484405
 20
9.6435768408
 10
10.4227475698
 20
9.641105175
 10
10.4260940873
 20
9.637395979
 10
10.4290101131
 20
9.6338823432
  0
LINE
  5
302
100
AcDbEntity
  8
0
100
AcDbLine
 62
7
  6
CONTINUOUS
 10
10.4203454034
 20
9.6434428413
 11
10.4226630055
 21
9.6410398962
  0
LINE
  5
303
100
AcDbEntity
  8
0
100
AcDbLine
 62
7
  6
CONTINUOUS
 10
10.420392971
 20
9.6434893937
 11
10.4244066004
 21
9.6392284391
  0
LWPOLYLINE
  5
304
100
AcDbEntity
  8
0
100
AcDbPolyline
 62
7
  6
CONTINUOUS
 90
7
 70
0
 10
10.4228476304
 20
9.6408409628
 10
10.4234595956
 20
9.6401749986
 10
10.4240561462
 20
9.6395159065
 10
10.4246377442
 20
9.6388636889
 10
10.4252048437
 20
9.6382183333
 10
10.4257578903
 20
9.6375798121
 10
10.4262973217
 20
9.6369480841
  0
LINE
  5
305
100
AcDbEntity
  8
0
100
AcDbLine
 62
7
  6
CONTINUOUS
 10
10.4226630055
 20
9.6410398962
 11
10.4280325057
 21
9.63485262
  0
LWPOLYLINE
  5
306
100
AcDbEntity
  8
0
100
AcDbPolyline
 62
7
  6
CONTINUOUS
 90
4
 70
0
 10
10.4262973217
 20
9.6369480841
 10
10.4268235672
 20
9.6363230946
 10
10.4273370481
 20
9.6357047759
 10
10.4278381773
 20
9.635093048
  0
LINE
  5
307
100
AcDbEntity
  8
0
100
AcDbLine
 62
7
  6
CONTINUOUS
 10
10.4264560338
 20
9.6368586492
 11
10.4270993593
 21
9.6360875771
  0
LINE
  5
308
100
AcDbEntity
  8
0
100
AcDbLine
 62
7
  6
CONTINUOUS
 10
10.4270993593
 20
9.6360875771
 11
10.4277319274
 21
9.6353164133
  0
LWPOLYLINE
  5
309
100
AcDbEntity
  8
0
100
AcDbPolyline
 62
7
  6
CONTINUOUS
 90
4
 70
0
 10
10.4278381773
 20
9.635093048
 10
10.4283273597
 20
9.6344878192
 10
10.4288049923
 20
9.6338889863
 10
10.4292714639
 20
9.6332964351
  0
LINE
  5
30A
100
AcDbEntity
  8
0
100
AcDbLine
 62
7
  6
CONTINUOUS
 10
10.4277319274
 20
9.6353164133
 11
10.4283538206
 21
9.6345453246
  0
LWPOLYLINE
  5
30B
100
AcDbEntity
  8
0
100
AcDbPolyline
 62
7
  6
CONTINUOUS
 90
3
 70
0
 10
10.43080164
 20
9.6311997091
 10
10.4323308682
 20
9.629279821
 10
10.4327772426
 20
9.6285782028
  0
LINE
  5
30C
100
AcDbEntity
  8
0
100
AcDbLine
 62
7
  6
CONTINUOUS
 10
10.4283538206
 20
9.6345453246
 11
10.4289651228
 21
9.6337744749
  0
LINE
  5
30D
100
AcDbEntity
  8
0
100
AcDbLine
 62
7
  6
CONTINUOUS
 10
10.4289651228
 20
9.6337744749
 11
10.4297271556
 21
9.632710041
  0
LINE
  5
30E
100
AcDbEntity
  8
0
100
AcDbLine
 62
7
  6
CONTINUOUS
 10
10.4295659216
 20
9.6330040232
 11
10.4301724405
 21
9.6321296695
  0
LWPOLYLINE
  5
30F
100
AcDbEntity
  8
0
100
AcDbPolyline
 62
7
  6
CONTINUOUS
 90
10
 70
0
 10
10.4280325057
 20
9.63485262
 10
10.4326365224
 20
9.6287779319
 10
10.4364745027
 20
9.6230147107
 10
10.4396540048
 20
9.6176165301
 10
10.4423156101
 20
9.6125296749
 10
10.4445590491
 20
9.6077122064
 10
10.4464514011
 20
9.6031466059
 10
10.4480290731
 20
9.5988665846
 10
10.4493180481
 20
9.5949337041
 10
10.4503311891
 20
9.5914645628
  0
LINE
  5
310
100
AcDbEntity
  8
0
100
AcDbLine
 62
7
  6
CONTINUOUS
 10
10.4301563028
 20
9.6322341297
 11
10.4307363532
 21
9.6314649534
  0
LINE
  5
311
100
AcDbEntity
  8
0
100
AcDbLine
 62
7
  6
CONTINUOUS
 10
10.430607684
 20
9.6315551762
 11
10.4310332438
 21
9.6309864078
  0
LINE
  5
312
100
AcDbEntity
  8
0
100
AcDbLine
 62
7
  6
CONTINUOUS
 10
10.4310225318
 20
9.6310806832
 11
10.4315872512
 21
9.6303128752
  0
LWPOLYLINE
  5
313
100
AcDbEntity
  8
0
100
AcDbPolyline
 62
7
  6
CONTINUOUS
 90
3
 70
0
 10
10.43144947
 20
9.6304232018
 10
10.4318567003
 20
9.6298653942
 10
10.4322552131
 20
9.6293128857
  0
LWPOLYLINE
  5
314
100
AcDbEntity
  8
0
100
AcDbPolyline
 62
7
  6
CONTINUOUS
 90
3
 70
0
 10
10.4321418623
 20
9.6295461711
 10
10.4326452492
 20
9.6287656156
 10
10.4330270447
 20
9.6282235177
  0
LINE
  5
315
100
AcDbEntity
  8
0
100
AcDbLine
 62
7
  6
CONTINUOUS
 10
10.4329550255
 20
9.6283985133
 11
10.4334847673
 21
9.627635222
  0
LINE
  5
316
100
AcDbEntity
  8
0
100
AcDbLine
 62
7
  6
CONTINUOUS
 10
10.4334008315
 20
9.6276865208
 11
10.4337668366
 21
9.6271545486
  0
LINE
  5
317
100
AcDbEntity
  8
0
100
AcDbLine
 62
7
  6
CONTINUOUS
 10
10.4337459633
 20
9.627254175
 11
10.4342610648
 21
9.6264933675
  0
LINE
  5
318
100
AcDbEntity
  8
0
100
AcDbLine
 62
7
  6
CONTINUOUS
 10
10.4341252832
 20
9.6266275196
 11
10.4344763898
 21
9.6261053475
  0
LINE
  5
319
100
AcDbEntity
  8
0
100
AcDbLine
 62
7
  6
CONTINUOUS
 10
10.4345149943
 20
9.6261136422
 11
10.4351574368
 21
9.6250752065
  0
LWPOLYLINE
  5
31A
100
AcDbEntity
  8
0
100
AcDbPolyline
 62
7
  6
CONTINUOUS
 90
3
 70
0
 10
10.4350156708
 20
9.6253556356
 10
10.4354877936
 20
9.6245670425
 10
10.4358116365
 20
9.6240633564
  0
LINE
  5
31B
100
AcDbEntity
  8
0
100
AcDbLine
 62
7
  6
CONTINUOUS
 10
10.432942236
 20
9.6283188636
 11
10.4391522277
 21
9.6185579017
  0
LINE
  5
31C
100
AcDbEntity
  8
0
100
AcDbLine
 62
7
  6
CONTINUOUS
 10
10.4357489122
 20
9.6242224926
 11
10.4362260338
 21
9.6234698384
  0
LWPOLYLINE
  5
31D
100
AcDbEntity
  8
0
100
AcDbPolyline
 62
7
  6
CONTINUOUS
 90
3
 70
0
 10
10.4361291329
 20
9.623564089
 10
10.4364404417
 20
9.6230691868
 10
10.4367457188
 20
9.6225785933
  0
LINE
  5
31E
100
AcDbEntity
  8
0
100
AcDbLine
 62
7
  6
CONTINUOUS
 10
10.4366939063
 20
9.622719558
 11
10.4371526294
 21
9.6219717811
  0
LWPOLYLINE
  5
31F
100
AcDbEntity
  8
0
100
AcDbPolyline
 62
7
  6
CONTINUOUS
 90
3
 70
0
 10
10.4370451172
 20
9.6220922488
 10
10.4373387875
 20
9.6216100911
 10
10.4376268771
 20
9.6211320549
  0
LINE
  5
320
100
AcDbEntity
  8
0
100
AcDbLine
 62
7
  6
CONTINUOUS
 10
10.4376023036
 20
9.6212266355
 11
10.4380430299
 21
9.6204842465
  0
LINE
  5
321
100
AcDbEntity
  8
0
100
AcDbLine
 62
7
  6
CONTINUOUS
 10
10.4380430299
 20
9.6204842465
 11
10.4384749097
 21
9.6197447378
  0
LINE
  5
322
100
AcDbEntity
  8
0
100
AcDbLine
 62
7
  6
CONTINUOUS
 10
10.4384590967
 20
9.6197219856
 11
10.4387262852
 21
9.6192597329
  0
LINE
  5
323
100
AcDbEntity
  8
0
100
AcDbLine
 62
7
  6
CONTINUOUS
 10
10.4386875641
 20
9.6193761016
 11
10.4391063657
 21
9.6186411405
  0
LINE
  5
324
100
AcDbEntity
  8
0
100
AcDbLine
 62
7
  6
CONTINUOUS
 10
10.4389885904
 20
9.6188012379
 11
10.439499053
 21
9.6178952398
  0
LINE
  5
325
100
AcDbEntity
  8
0
100
AcDbLine
 62
7
  6
CONTINUOUS
 10
10.4393125386
 20
9.6182748452
 11
10.4397474267
 21
9.6174476429
  0
LINE
  5
326
100
AcDbEntity
  8
0
100
AcDbLine
 62
7
  6
CONTINUOUS
 10
10.4397184925
 20
9.6175446989
 11
10.4402309675
 21
9.616563038
  0
LINE
  5
327
100
AcDbEntity
  8
0
100
AcDbLine
 62
7
  6
CONTINUOUS
 10
10.4401160003
 20
9.6168179256
 11
10.440466333
 21
9.6161259394
  0
LINE
  5
328
100
AcDbEntity
  8
0
100
AcDbLine
 62
7
  6
CONTINUOUS
 10
10.440466333
 20
9.6161259394
 11
10.440924737
 21
9.6152619116
  0
LINE
  5
329
100
AcDbEntity
  8
0
100
AcDbLine
 62
7
  6
CONTINUOUS
 10
10.4411479634
 20
9.6148348829
 11
10.4415829227
 21
9.6139905375
  0
LINE
  5
32A
100
AcDbEntity
  8
0
100
AcDbLine
 62
7
  6
CONTINUOUS
 10
10.4414418667
 20
9.6143031877
 11
10.4417948335
 21
9.6135731132
  0
LINE
  5
32B
100
AcDbEntity
  8
0
100
AcDbLine
 62
7
  6
CONTINUOUS
 10
10.4417948335
 20
9.6135731132
 11
10.4422079508
 21
9.6127474838
  0
LINE
  5
32C
100
AcDbEntity
  8
0
100
AcDbLine
 62
7
  6
CONTINUOUS
 10
10.4391522277
 20
9.6185579017
 11
10.4394344496
 21
9.6179892924
  0
LINE
  5
32D
100
AcDbEntity
  8
0
100
AcDbLine
 62
7
  6
CONTINUOUS
 10
10.4421547613
 20
9.6128883992
 11
10.4426073404
 21
9.6119337909
  0
LINE
  5
32E
100
AcDbEntity
  8
0
100
AcDbLine
 62
7
  6
CONTINUOUS
 10
10.4424992734
 20
9.6121875886
 11
10.4428020626
 21
9.6115313324
  0
LINE
  5
32F
100
AcDbEntity
  8
0
100
AcDbLine
 62
7
  6
CONTINUOUS
 10
10.4428020626
 20
9.6115313324
 11
10.4431818774
 21
9.610735058
  0
LINE
  5
330
100
AcDbEntity
  8
0
100
AcDbLine
 62
7
  6
CONTINUOUS
 10
10.4436438768
 20
9.6097720247
 11
10.4439537891
 21
9.6090931582
  0
LINE
  5
331
100
AcDbEntity
  8
0
100
AcDbLine
 62
7
  6
CONTINUOUS
 10
10.4439046939
 20
9.6091762894
 11
10.4442486339
 21
9.6084133194
  0
LINE
  5
332
100
AcDbEntity
  8
0
100
AcDbLine
 62
7
  6
CONTINUOUS
 10
10.4441059534
 20
9.6087556935
 11
10.4444164346
 21
9.6080358289
  0
LINE
  5
333
100
AcDbEntity
  8
0
100
AcDbLine
 62
7
  6
CONTINUOUS
 10
10.4444164346
 20
9.6080358289
 11
10.4447439686
 21
9.6072886749
  0
LINE
  5
334
100
AcDbEntity
  8
0
100
AcDbLine
 62
7
  6
CONTINUOUS
 10
10.9376923427
 20
8.9576695021
 11
10.8226923427
 21
9.3476695021
  0
LINE
  5
335
100
AcDbEntity
  8
0
100
AcDbLine
 62
7
  6
CONTINUOUS
 10
10.8470321678
 20
9.3203705533
 11
10.9376923427
 21
9.012914308
  0
LINE
  5
336
100
AcDbEntity
  8
0
100
AcDbLine
 62
7
  6
CONTINUOUS
 10
11.0452412305
 20
7.1029237344
 11
11.0452412305
 21
7.0700684577
  0
LINE
  5
337
100
AcDbEntity
  8
0
100
AcDbLine
 62
7
  6
CONTINUOUS
 10
11.0467079965
 20
7.2001695021
 11
11.0467079965
 21
7.1673142254
  0
LINE
  5
338
100
AcDbEntity
  8
0
100
AcDbLine
 62
7
  6
CONTINUOUS
 10
11.0660319792
 20
11.5473142254
 11
11.0660319792
 21
11.5801695021
  0
LINE
  5
339
100
AcDbEntity
  8
0
100
AcDbLine
 62
7
  6
CONTINUOUS
 10
11.083816841
 20
7.2001695021
 11
11.083816841
 21
6.9751695021
  0
LINE
  5
33A
100
AcDbEntity
  8
0
100
AcDbLine
 62
7
  6
CONTINUOUS
 10
11.116378778
 20
6.9751695021
 11
11.116378778
 21
7.0700684577
  0
LINE
  5
33B
100
AcDbEntity
  8
0
100
AcDbLine
 62
7
  6
CONTINUOUS
 10
11.116378778
 20
7.1029237344
 11
11.116378778
 21
7.1673142254
  0
LINE
  5
33C
100
AcDbEntity
  8
0
100
AcDbLine
 62
7
  6
CONTINUOUS
 10
11.1295424239
 20
11.5473142254
 11
11.1295424239
 21
11.3551695021
  0
LINE
  5
33D
100
AcDbEntity
  8
0
100
AcDbLine
 62
7
  6
CONTINUOUS
 10
11.1621043341
 20
11.3551695021
 11
11.1621043341
 21
11.5473142254
  0
LINE
  5
33E
100
AcDbEntity
  8
0
100
AcDbLine
 62
7
  6
CONTINUOUS
 10
11.2169980941
 20
7.1029237344
 11
11.2169980941
 21
7.0700684577
  0
LINE
  5
33F
100
AcDbEntity
  8
0
100
AcDbLine
 62
7
  6
CONTINUOUS
 10
11.2184648332
 20
7.2001695021
 11
11.2184648332
 21
7.1673142254
  0
LINE
  5
340
100
AcDbEntity
  8
0
100
AcDbLine
 62
7
  6
CONTINUOUS
 10
11.225614752
 20
11.5801695021
 11
11.225614752
 21
11.5473142254
  0
LINE
  5
341
100
AcDbEntity
  8
0
100
AcDbLine
 62
7
  6
CONTINUOUS
 10
10.9376923427
 20
9.012914308
 11
11.0283525176
 21
9.3203705533
  0
LINE
  5
342
100
AcDbEntity
  8
0
100
AcDbLine
 62
7
  6
CONTINUOUS
 10
11.0526923427
 20
9.3476695021
 11
10.9376923427
 21
8.9576695021
  0
LINE
  5
343
100
AcDbEntity
  8
0
100
AcDbLine
 62
7
  6
CONTINUOUS
 10
11.4262415558
 20
9.5954886371
 11
11.4265564187
 21
9.5964782619
  0
LINE
  5
344
100
AcDbEntity
  8
0
100
AcDbLine
 62
7
  6
CONTINUOUS
 10
11.4265564187
 20
9.5964782619
 11
11.426861653
 21
9.5974103968
  0
LINE
  5
345
100
AcDbEntity
  8
0
100
AcDbLine
 62
7
  6
CONTINUOUS
 10
11.426861653
 20
9.5974103968
 11
11.4271561209
 21
9.5982860835
  0
LINE
  5
346
100
AcDbEntity
  8
0
100
AcDbLine
 62
7
  6
CONTINUOUS
 10
11.4271561209
 20
9.5982860835
 11
11.4274194502
 21
9.5990508404
  0
LINE
  5
347
100
AcDbEntity
  8
0
100
AcDbLine
 62
7
  6
CONTINUOUS
 10
11.4274194502
 20
9.5990508404
 11
11.4277022813
 21
9.5998540832
  0
LINE
  5
348
100
AcDbEntity
  8
0
100
AcDbLine
 62
7
  6
CONTINUOUS
 10
11.4275388507
 20
9.5993921051
 11
11.4278738723
 21
9.6003327178
  0
LINE
  5
349
100
AcDbEntity
  8
0
100
AcDbLine
 62
7
  6
CONTINUOUS
 10
11.427839689
 20
9.6002378749
 11
11.4281301285
 21
9.6010359945
  0
LINE
  5
34A
100
AcDbEntity
  8
0
100
AcDbLine
 62
7
  6
CONTINUOUS
 10
11.4280613979
 20
9.6008486306
 11
11.4284235458
 21
9.601824761
  0
LINE
  5
34B
100
AcDbEntity
  8
0
100
AcDbLine
 62
7
  6
CONTINUOUS
 10
11.4283571036
 20
9.6016476045
 11
11.4287914363
 21
9.6027906792
  0
LINE
  5
34C
100
AcDbEntity
  8
0
100
AcDbLine
 62
7
  6
CONTINUOUS
 10
11.4287133375
 20
9.6025877042
 11
11.429191263
 21
9.6038130557
  0
LINE
  5
34D
100
AcDbEntity
  8
0
100
AcDbLine
 62
7
  6
CONTINUOUS
 10
11.4291030459
 20
9.6035898358
 11
11.4296182828
 21
9.6048755826
  0
LINE
  5
34E
100
AcDbEntity
  8
0
100
AcDbLine
 62
7
  6
CONTINUOUS
 10
11.4295197763
 20
9.6046330587
 11
11.4300724829
 21
9.6059747183
  0
LINE
  5
34F
100
AcDbEntity
  8
0
100
AcDbLine
 62
7
  6
CONTINUOUS
 10
11.429963362
 20
9.6057134518
 11
11.4305528637
 21
9.6071048245
  0
LINE
  5
350
100
AcDbEntity
  8
0
100
AcDbLine
 62
7
  6
CONTINUOUS
 10
11.4304323112
 20
9.6068242232
 11
11.4310577886
 21
9.6082592794
  0
LINE
  5
351
100
AcDbEntity
  8
0
100
AcDbLine
 62
7
  6
CONTINUOUS
 10
11.4309241801
 20
9.6079569928
 11
11.4315891955
 21
9.6094398891
  0
LINE
  5
352
100
AcDbEntity
  8
0
100
AcDbLine
 62
7
  6
CONTINUOUS
 10
11.4314407505
 20
9.6091135011
 11
11.4321498301
 21
9.6106498531
  0
LINE
  5
353
100
AcDbEntity
  8
0
100
AcDbLine
 62
7
  6
CONTINUOUS
 10
11.4319853215
 20
9.6102984461
 11
11.4327422051
 21
9.6118913832
  0
LINE
  5
354
100
AcDbEntity
  8
0
100
AcDbLine
 62
7
  6
CONTINUOUS
 10
11.4325607047
 20
9.6115148583
 11
11.4333689886
 21
9.6131665797
  0
LINE
  5
355
100
AcDbEntity
  8
0
100
AcDbLine
 62
7
  6
CONTINUOUS
 10
11.4331698999
 20
9.6127656474
 11
11.4340330175
 21
9.6144774336
  0
LWPOLYLINE
  5
356
100
AcDbEntity
  8
0
100
AcDbPolyline
 62
7
  6
CONTINUOUS
 90
3
 70
0
 10
11.4338159507
 20
9.6140532865
 10
11.43473732
 20
9.6158258401
 10
11.4354850997
 20
9.6172135391
  0
LINE
  5
357
100
AcDbEntity
  8
0
100
AcDbLine
 62
7
  6
CONTINUOUS
 10
11.4345002675
 20
9.615376629
 11
11.4352230499
 21
9.616732188
  0
LINE
  5
358
100
AcDbEntity
  8
0
100
AcDbLine
 62
7
  6
CONTINUOUS
 10
11.4352230499
 20
9.616732188
 11
11.4359843759
 21
9.6181164392
  0
LINE
  5
359
100
AcDbEntity
  8
0
100
AcDbLine
 62
7
  6
CONTINUOUS
 10
11.4354850997
 20
9.6172135391
 11
11.436279748
 21
9.6186421083
  0
LWPOLYLINE
  5
35A
100
AcDbEntity
  8
0
100
AcDbPolyline
 62
7
  6
CONTINUOUS
 90
12
 70
0
 10
11.4359843759
 20
9.6181164392
 10
11.436784255
 20
9.6195259419
 10
11.437623169
 20
9.6209582582
 10
11.4385019658
 20
9.6224116434
 10
11.4394214712
 20
9.6238843346
 10
11.4403824769
 20
9.6253745359
 10
11.4413857367
 20
9.6268804188
 10
11.4424319634
 20
9.6284001238
 10
11.4435218268
 20
9.6299317634
 10
11.4446564502
 20
9.6314740915
 10
11.4458382339
 20
9.6330274621
 10
11.4470698806
 20
9.6345923354
  0
LINE
  5
35B
100
AcDbEntity
  8
0
100
AcDbLine
 62
7
  6
CONTINUOUS
 10
11.4455949712
 20
9.6327180806
 11
11.4459915495
 21
9.63323125
  0
LINE
  5
35C
100
AcDbEntity
  8
0
100
AcDbLine
 62
7
  6
CONTINUOUS
 10
11.4459915495
 20
9.63323125
 11
11.4464360815
 21
9.6337997133
  0
LINE
  5
35D
100
AcDbEntity
  8
0
100
AcDbLine
 62
7
  6
CONTINUOUS
 10
11.4467538078
 20
9.6342017303
 11
11.4470856639
 21
9.6346178801
  0
LINE
  5
35E
100
AcDbEntity
  8
0
100
AcDbLine
 62
7
  6
CONTINUOUS
 10
11.4470856639
 20
9.6346178801
 11
11.4474309428
 21
9.6350468673
  0
LWPOLYLINE
  5
35F
100
AcDbEntity
  8
0
100
AcDbPolyline
 62
7
  6
CONTINUOUS
 90
6
 70
0
 10
11.4470698806
 20
9.6345923354
 10
11.4483542084
 20
9.6361690004
 10
11.4496941503
 20
9.6377575635
 10
11.4510927523
 20
9.6393579347
 10
11.4525531715
 20
9.6409698142
 10
11.4540786728
 20
9.6425926779
  0
LINE
  5
360
100
AcDbEntity
  8
0
100
AcDbLine
 62
7
  6
CONTINUOUS
 10
11.4479743729
 20
9.6357139586
 11
11.4483534757
 21
9.6361735926
  0
LINE
  5
361
100
AcDbEntity
  8
0
100
AcDbLine
 62
7
  6
CONTINUOUS
 10
11.4483534757
 20
9.6361735926
 11
11.4487459241
 21
9.6366445441
  0
LINE
  5
362
100
AcDbEntity
  8
0
100
AcDbLine
 62
7
  6
CONTINUOUS
 10
11.4493595668
 20
9.6373712334
 11
11.449786734
 21
9.6378702587
  0
LINE
  5
363
100
AcDbEntity
  8
0
100
AcDbLine
 62
7
  6
CONTINUOUS
 10
11.449786734
 20
9.6378702587
 11
11.4502306185
 21
9.6383830004
  0
LINE
  5
364
100
AcDbEntity
  8
0
100
AcDbLine
 62
7
  6
CONTINUOUS
 10
11.4506932845
 20
9.6389112539
 11
11.4511768579
 21
9.6394567674
  0
LINE
  5
365
100
AcDbEntity
  8
0
100
AcDbLine
 62
7
  6
CONTINUOUS
 10
11.4511768579
 20
9.6394567674
 11
11.451683246
 21
9.6400209227
  0
LINE
  5
366
100
AcDbEntity
  8
0
100
AcDbLine
 62
7
  6
CONTINUOUS
 10
11.4522131933
 20
9.6406037145
 11
11.4527671285
 21
9.6412047451
  0
LINE
  5
367
100
AcDbEntity
  8
0
100
AcDbLine
 62
7
  6
CONTINUOUS
 10
11.4527671285
 20
9.6412047451
 11
11.4533467485
 21
9.6418249309
  0
LINE
  5
368
100
AcDbEntity
  8
0
100
AcDbLine
 62
7
  6
CONTINUOUS
 10
11.4536487639
 20
9.6421446182
 11
11.4542839097
 21
9.6428093308
  0
LINE
  5
369
100
AcDbEntity
  8
0
100
AcDbLine
 62
7
  6
CONTINUOUS
 10
11.4542839097
 20
9.6428093308
 11
11.4549704181
 21
9.6435164472
  0
LINE
  5
36A
100
AcDbEntity
  8
0
100
AcDbLine
 62
7
  6
CONTINUOUS
 10
11.4549704181
 20
9.6435164472
 11
11.4557017886
 21
9.6442571205
  0
LINE
  5
36B
100
AcDbEntity
  8
0
100
AcDbLine
 62
7
  6
CONTINUOUS
 10
11.8569306689
 20
10.0454864721
 11
11.4545027463
 21
9.6430585494
  0
LINE
  5
36C
100
AcDbEntity
  8
0
100
AcDbLine
 62
7
  6
CONTINUOUS
 10
10.5618442578
 20
8.750400061
 11
10.1598753728
 21
8.348431176
  0
LWPOLYLINE
  5
36D
100
AcDbEntity
  8
0
100
AcDbPolyline
 62
7
  6
CONTINUOUS
 90
7
 70
0
 10
10.561785004
 20
8.7503255998
 10
10.5626153084
 20
8.7511475572
 10
10.5649613723
 20
8.7533831449
 10
10.5671639752
 20
8.7553720975
 10
10.5692774719
 20
8.7571873032
 10
10.5713439215
 20
8.7588790405
 10
10.5733888537
 20
8.7604764216
  0
LINE
  5
36E
100
AcDbEntity
  8
0
100
AcDbLine
 62
7
  6
CONTINUOUS
 10
10.5619190072
 20
8.7503225581
 11
10.5643230115
 21
8.7526411535
  0
LINE
  5
36F
100
AcDbEntity
  8
0
100
AcDbLine
 62
7
  6
CONTINUOUS
 10
10.5643230115
 20
8.7526411535
 11
10.5705247795
 21
8.7580230349
  0
LWPOLYLINE
  5
370
100
AcDbEntity
  8
0
100
AcDbPolyline
 62
7
  6
CONTINUOUS
 90
5
 70
0
 10
10.571685323
 20
8.7589501079
 10
10.5722130107
 20
8.7593638776
 10
10.5727331207
 20
8.759767046
 10
10.5732457772
 20
8.7601599681
 10
10.5737511127
 20
8.7605429917
  0
LINE
  5
371
100
AcDbEntity
  8
0
100
AcDbLine
 62
7
  6
CONTINUOUS
 10
10.5705247795
 20
8.7580230349
 11
10.5765837665
 21
8.7626134063
  0
LINE
  5
372
100
AcDbEntity
  8
0
100
AcDbLine
 62
7
  6
CONTINUOUS
 10
10.5737511127
 20
8.7605429917
 11
10.5742898176
 21
8.7610061101
  0
LINE
  5
373
100
AcDbEntity
  8
0
100
AcDbLine
 62
7
  6
CONTINUOUS
 10
10.5742492681
 20
8.7609164574
 11
10.5747403924
 21
8.7612806988
  0
LINE
  5
374
100
AcDbEntity
  8
0
100
AcDbLine
 62
7
  6
CONTINUOUS
 10
10.5742898176
 20
8.7610061101
 11
10.575160582
 21
8.7616457216
  0
LWPOLYLINE
  5
375
100
AcDbEntity
  8
0
100
AcDbPolyline
 62
7
  6
CONTINUOUS
 90
6
 70
0
 10
10.5738404415
 20
8.760669661
 10
10.5772483797
 20
8.7631295671
 10
10.5805138416
 20
8.7653221977
 10
10.58356688
 20
8.7672359159
 10
10.5864089752
 20
8.7689055802
 10
10.5890838085
 20
8.7703831846
  0
LINE
  5
376
100
AcDbEntity
  8
0
100
AcDbLine
 62
7
  6
CONTINUOUS
 10
10.5758302858
 20
8.7621295024
 11
10.5768144462
 21
8.7628278305
  0
LINE
  5
377
100
AcDbEntity
  8
0
100
AcDbLine
 62
7
  6
CONTINUOUS
 10
10.5766378153
 20
8.7626518571
 11
10.5770962727
 21
8.7629747464
  0
LINE
  5
378
100
AcDbEntity
  8
0
100
AcDbLine
 62
7
  6
CONTINUOUS
 10
10.5768144462
 20
8.7628278305
 11
10.577995418
 21
8.7635987283
  0
LINE
  5
379
100
AcDbEntity
  8
0
100
AcDbLine
 62
7
  6
CONTINUOUS
 10
10.5776012451
 20
8.7633755115
 11
10.5785049449
 21
8.7639931558
  0
LWPOLYLINE
  5
37A
100
AcDbEntity
  8
0
100
AcDbPolyline
 62
7
  6
CONTINUOUS
 90
9
 70
0
 10
10.5765872697
 20
8.7626160604
 10
10.5823516468
 20
8.7664544818
 10
10.5877509427
 20
8.7696342831
 10
10.5928388653
 20
8.7722960702
 10
10.597657352
 20
8.7745395937
 10
10.6022239281
 20
8.7764319529
 10
10.6065048917
 20
8.7780095748
 10
10.6104386573
 20
8.7792984525
 10
10.6139083829
 20
8.7803114069
  0
LINE
  5
37B
100
AcDbEntity
  8
0
100
AcDbLine
 62
7
  6
CONTINUOUS
 10
10.5791033382
 20
8.7643955268
 11
10.5801489245
 21
8.7650444351
  0
LINE
  5
37C
100
AcDbEntity
  8
0
100
AcDbLine
 62
7
  6
CONTINUOUS
 10
10.5798215274
 20
8.7648716031
 11
10.5809754832
 21
8.7655815317
  0
LINE
  5
37D
100
AcDbEntity
  8
0
100
AcDbLine
 62
7
  6
CONTINUOUS
 10
10.580519349
 20
8.7653271168
 11
10.5813814274
 21
8.7658417796
  0
LINE
  5
37E
100
AcDbEntity
  8
0
100
AcDbLine
 62
7
  6
CONTINUOUS
 10
10.5811579895
 20
8.7657379809
 11
10.5819112
 21
8.7662152582
  0
LINE
  5
37F
100
AcDbEntity
  8
0
100
AcDbLine
 62
7
  6
CONTINUOUS
 10
10.5825021968
 20
8.7665842882
 11
10.5834103531
 21
8.7671421307
  0
LINE
  5
380
100
AcDbEntity
  8
0
100
AcDbLine
 62
7
  6
CONTINUOUS
 10
10.58312958
 20
8.7669708487
 11
10.5840880118
 21
8.7675189109
  0
LINE
  5
381
100
AcDbEntity
  8
0
100
AcDbLine
 62
7
  6
CONTINUOUS
 10
10.5837835331
 20
8.7673681549
 11
10.584527852
 21
8.7678134589
  0
LINE
  5
382
100
AcDbEntity
  8
0
100
AcDbLine
 62
7
  6
CONTINUOUS
 10
10.5852693459
 20
8.7682498549
 11
10.586052599
 21
8.768703104
  0
LINE
  5
383
100
AcDbEntity
  8
0
100
AcDbLine
 62
7
  6
CONTINUOUS
 10
10.5858957358
 20
8.7685844966
 11
10.5865996472
 21
8.7689879606
  0
LINE
  5
384
100
AcDbEntity
  8
0
100
AcDbLine
 62
7
  6
CONTINUOUS
 10
10.5863760219
 20
8.7688879698
 11
10.5872969023
 21
8.7693813867
  0
LINE
  5
385
100
AcDbEntity
  8
0
100
AcDbLine
 62
7
  6
CONTINUOUS
 10
10.5882046412
 20
8.769908403
 11
10.5890245863
 21
8.7703299952
  0
LINE
  5
386
100
AcDbEntity
  8
0
100
AcDbLine
 62
7
  6
CONTINUOUS
 10
10.588661811
 20
8.7701570276
 11
10.5893678863
 21
8.770514101
  0
LINE
  5
387
100
AcDbEntity
  8
0
100
AcDbLine
 62
7
  6
CONTINUOUS
 10
10.5891524208
 20
8.7704209907
 11
10.5900522706
 21
8.7708768449
  0
LINE
  5
388
100
AcDbEntity
  8
0
100
AcDbLine
 62
7
  6
CONTINUOUS
 10
10.5905819617
 20
8.77117352
 11
10.5915103453
 21
8.7716491744
  0
LINE
  5
389
100
AcDbEntity
  8
0
100
AcDbLine
 62
7
  6
CONTINUOUS
 10
10.5914122578
 20
8.7715809621
 11
10.5920879124
 21
8.7719226144
  0
LINE
  5
38A
100
AcDbEntity
  8
0
100
AcDbLine
 62
7
  6
CONTINUOUS
 10
10.5917942457
 20
8.7717926028
 11
10.5924999462
 21
8.7721450512
  0
LINE
  5
38B
100
AcDbEntity
  8
0
100
AcDbLine
 62
7
  6
CONTINUOUS
 10
10.5916099682
 20
8.7716986206
 11
10.594000113
 21
8.7728742636
  0
LINE
  5
38C
100
AcDbEntity
  8
0
100
AcDbLine
 62
7
  6
CONTINUOUS
 10
10.5932011941
 20
8.7724895624
 11
10.5940978763
 21
8.7729075565
  0
LINE
  5
38D
100
AcDbEntity
  8
0
100
AcDbLine
 62
7
  6
CONTINUOUS
 10
10.5937640172
 20
8.7727619846
 11
10.5946415069
 21
8.77317953
  0
LINE
  5
38E
100
AcDbEntity
  8
0
100
AcDbLine
 62
7
  6
CONTINUOUS
 10
10.5944304342
 20
8.7730660479
 11
10.5950935019
 21
8.7733783155
  0
LINE
  5
38F
100
AcDbEntity
  8
0
100
AcDbLine
 62
7
  6
CONTINUOUS
 10
10.5955070435
 20
8.7735828979
 11
10.5964115777
 21
8.7739844123
  0
LINE
  5
390
100
AcDbEntity
  8
0
100
AcDbLine
 62
7
  6
CONTINUOUS
 10
10.5962974669
 20
8.7739439745
 11
10.5970666653
 21
8.7742784764
  0
LINE
  5
391
100
AcDbEntity
  8
0
100
AcDbLine
 62
7
  6
CONTINUOUS
 10
10.5962672339
 20
8.7739294307
 11
10.598424849
 21
8.774880975
  0
LINE
  5
392
100
AcDbEntity
  8
0
100
AcDbLine
 62
7
  6
CONTINUOUS
 10
10.5976265821
 20
8.7745356455
 11
10.598459962
 21
8.7748968445
  0
LINE
  5
393
100
AcDbEntity
  8
0
100
AcDbLine
 62
7
  6
CONTINUOUS
 10
10.5983031055
 20
8.7748294325
 11
10.5990166302
 21
8.7751260802
  0
LINE
  5
394
100
AcDbEntity
  8
0
100
AcDbLine
 62
7
  6
CONTINUOUS
 10
10.6001083812
 20
8.7755894001
 11
10.6009445694
 21
8.7759240253
  0
LINE
  5
395
100
AcDbEntity
  8
0
100
AcDbLine
 62
7
  6
CONTINUOUS
 10
10.6004828899
 20
8.7757419851
 11
10.6015825293
 21
8.7761794386
  0
LINE
  5
396
100
AcDbEntity
  8
0
100
AcDbLine
 62
7
  6
CONTINUOUS
 10
10.6013261904
 20
8.7760826225
 11
10.6022182197
 21
8.7764297243
  0
LINE
  5
397
100
AcDbEntity
  8
0
100
AcDbLine
 62
7
  6
CONTINUOUS
 10
10.6021536912
 20
8.7764089556
 11
10.6029170077
 21
8.7767037179
  0
LINE
  5
398
100
AcDbEntity
  8
0
100
AcDbLine
 62
7
  6
CONTINUOUS
 10
10.6027726888
 20
8.7766484459
 11
10.6034829597
 21
8.7769152664
  0
LINE
  5
399
100
AcDbEntity
  8
0
100
AcDbLine
 62
7
  6
CONTINUOUS
 10
10.6033078786
 20
8.7768523471
 11
10.6041120876
 21
8.7771506909
  0
LINE
  5
39A
100
AcDbEntity
  8
0
100
AcDbLine
 62
7
  6
CONTINUOUS
 10
10.6047391004
 20
8.7773813237
 11
10.6053639577
 21
8.7776072144
  0
LINE
  5
39B
100
AcDbEntity
  8
0
100
AcDbLine
 62
7
  6
CONTINUOUS
 10
10.6051781973
 20
8.7775421072
 11
10.6059859375
 21
8.7778281725
  0
LINE
  5
39C
100
AcDbEntity
  8
0
100
AcDbLine
 62
7
  6
CONTINUOUS
 10
10.6057595459
 20
8.7777493486
 11
10.6066039241
 21
8.7780438876
  0
LINE
  5
39D
100
AcDbEntity
  8
0
100
AcDbLine
 62
7
  6
CONTINUOUS
 10
10.6063283584
 20
8.7779488679
 11
10.6070198097
 21
8.7781870961
  0
LINE
  5
39E
100
AcDbEntity
  8
0
100
AcDbLine
 62
7
  6
CONTINUOUS
 10
10.6064133627
 20
8.7779758446
 11
10.6078751951
 21
8.7784747417
  0
LINE
  5
39F
100
AcDbEntity
  8
0
100
AcDbLine
 62
7
  6
CONTINUOUS
 10
10.6073632981
 20
8.7783036902
 11
10.6081239323
 21
8.7785583754
  0
LINE
  5
3A0
100
AcDbEntity
  8
0
100
AcDbLine
 62
7
  6
CONTINUOUS
 10
10.6088769572
 20
8.7788037609
 11
10.6088875307
 21
8.7788071718
  0
LINE
  5
3A1
100
AcDbEntity
  8
0
100
AcDbLine
 62
7
  6
CONTINUOUS
 10
10.609012977
 20
8.778848784
 11
10.6095935958
 21
8.7790342897
  0
LINE
  5
3A2
100
AcDbEntity
  8
0
100
AcDbLine
 62
7
  6
CONTINUOUS
 10
10.6095935958
 20
8.7790342897
 11
10.6101630893
 21
8.7792130685
  0
LINE
  5
3A3
100
AcDbEntity
  8
0
100
AcDbLine
 62
7
  6
CONTINUOUS
 10
10.6095441215
 20
8.7790165993
 11
10.6107639675
 21
8.7793934238
  0
LINE
  5
3A4
100
AcDbEntity
  8
0
100
AcDbLine
 62
7
  6
CONTINUOUS
 10
10.6107201497
 20
8.7793849174
 11
10.6112632527
 21
8.77954959
  0
LINE
  5
3A5
100
AcDbEntity
  8
0
100
AcDbLine
 62
7
  6
CONTINUOUS
 10
10.6112632527
 20
8.77954959
 11
10.6117894867
 21
8.7797064541
  0
LINE
  5
3A6
100
AcDbEntity
  8
0
100
AcDbLine
 62
7
  6
CONTINUOUS
 10
10.6127768975
 20
8.7799936653
 11
10.6130088885
 21
8.7800598012
  0
LWPOLYLINE
  5
3A7
100
AcDbEntity
  8
0
100
AcDbPolyline
 62
7
  6
CONTINUOUS
 90
3
 70
0
 10
11.262333972
 20
9.755267334
 10
11.2616697186
 20
9.7550810531
 10
11.2614715692
 20
9.7550263047
  0
LINE
  5
3A8
100
AcDbEntity
  8
0
100
AcDbLine
 62
7
  6
CONTINUOUS
 10
11.2614715692
 20
9.7550263047
 11
11.2605695385
 21
9.7547817459
  0
LINE
  5
3A9
100
AcDbEntity
  8
0
100
AcDbLine
 62
7
  6
CONTINUOUS
 10
11.2545438243
 20
9.7533426057
 11
11.2540242157
 21
9.7532335833
  0
LINE
  5
3AA
100
AcDbEntity
  8
0
100
AcDbLine
 62
7
  6
CONTINUOUS
 10
11.2540242157
 20
9.7532335833
 11
11.2532530858
 21
9.7530763397
  0
LINE
  5
3AB
100
AcDbEntity
  8
0
100
AcDbLine
 62
7
  6
CONTINUOUS
 10
10.9545673427
 20
9.5220445021
 11
10.9208173427
 21
9.5220445021
  0
LINE
  5
3AC
100
AcDbEntity
  8
0
100
AcDbLine
 62
7
  6
CONTINUOUS
 10
10.9051923427
 20
9.5376695021
 11
10.9701923427
 21
9.5376695021
  0
LINE
  5
3AD
100
AcDbEntity
  8
0
100
AcDbLine
 62
7
  6
CONTINUOUS
 10
10.6096009869
 20
9.7563043861
 11
10.6086217858
 21
9.7566184538
  0
LINE
  5
3AE
100
AcDbEntity
  8
0
100
AcDbLine
 62
7
  6
CONTINUOUS
 10
10.6086217858
 20
9.7566184538
 11
10.6077005903
 21
9.7569224017
  0
LINE
  5
3AF
100
AcDbEntity
  8
0
100
AcDbLine
 62
7
  6
CONTINUOUS
 10
10.6077005903
 20
9.7569224017
 11
10.6068430384
 21
9.7572128035
  0
LINE
  5
3B0
100
AcDbEntity
  8
0
100
AcDbLine
 62
7
  6
CONTINUOUS
 10
10.6068430384
 20
9.7572128035
 11
10.6061616694
 21
9.7574487656
  0
LINE
  5
3B1
100
AcDbEntity
  8
0
100
AcDbLine
 62
7
  6
CONTINUOUS
 10
10.6061866465
 20
9.7574400658
 11
10.6055094059
 21
9.7576788552
  0
LINE
  5
3B2
100
AcDbEntity
  8
0
100
AcDbLine
 62
7
  6
CONTINUOUS
 10
10.60590978
 20
9.7575371555
 11
10.6050322613
 21
9.7578499006
  0
LINE
  5
3B3
100
AcDbEntity
  8
0
100
AcDbLine
 62
7
  6
CONTINUOUS
 10
10.6051237118
 20
9.7578169413
 11
10.6043865892
 21
9.7580849924
  0
LINE
  5
3B4
100
AcDbEntity
  8
0
100
AcDbLine
 62
7
  6
CONTINUOUS
 10
10.6045128494
 20
9.7580386909
 11
10.6035425927
 21
9.7583986343
  0
LINE
  5
3B5
100
AcDbEntity
  8
0
100
AcDbLine
 62
7
  6
CONTINUOUS
 10
10.6037138194
 20
9.7583344205
 11
10.6025770303
 21
9.7587663333
  0
LINE
  5
3B6
100
AcDbEntity
  8
0
100
AcDbLine
 62
7
  6
CONTINUOUS
 10
10.6027736365
 20
9.7586906904
 11
10.6015545752
 21
9.7591661292
  0
LINE
  5
3B7
100
AcDbEntity
  8
0
100
AcDbLine
 62
7
  6
CONTINUOUS
 10
10.601771479
 20
9.7590804142
 11
10.6004919787
 21
9.7595931133
  0
LINE
  5
3B8
100
AcDbEntity
  8
0
100
AcDbLine
 62
7
  6
CONTINUOUS
 10
10.6007282219
 20
9.7594971642
 11
10.5993927566
 21
9.7600472832
  0
LINE
  5
3B9
100
AcDbEntity
  8
0
100
AcDbLine
 62
7
  6
CONTINUOUS
 10
10.5996477903
 20
9.7599407723
 11
10.5982624205
 21
9.7605276951
  0
LINE
  5
3BA
100
AcDbEntity
  8
0
100
AcDbLine
 62
7
  6
CONTINUOUS
 10
10.5985369902
 20
9.760409741
 11
10.5971075326
 21
9.7610327445
  0
LINE
  5
3BB
100
AcDbEntity
  8
0
100
AcDbLine
 62
7
  6
CONTINUOUS
 10
10.5974042102
 20
9.7609016221
 11
10.5959265027
 21
9.7615642788
  0
LINE
  5
3BC
100
AcDbEntity
  8
0
100
AcDbLine
 62
7
  6
CONTINUOUS
 10
10.5962476865
 20
9.7614182076
 11
10.5947160937
 21
9.7621250612
  0
LINE
  5
3BD
100
AcDbEntity
  8
0
100
AcDbLine
 62
7
  6
CONTINUOUS
 10
10.595062725
 20
9.761962795
 11
10.593474069
 21
9.762717618
  0
LINE
  5
3BE
100
AcDbEntity
  8
0
100
AcDbLine
 62
7
  6
CONTINUOUS
 10
10.5938462979
 20
9.7625381946
 11
10.5921983042
 21
9.7633446319
  0
LINE
  5
3BF
100
AcDbEntity
  8
0
100
AcDbLine
 62
7
  6
CONTINUOUS
 10
10.592595498
 20
9.763147405
 11
10.5908867856
 21
9.7640089559
  0
LWPOLYLINE
  5
3C0
100
AcDbEntity
  8
0
100
AcDbPolyline
 62
7
  6
CONTINUOUS
 90
3
 70
0
 10
10.5913078555
 20
9.7637934681
 10
10.5895375959
 20
9.7647136355
 10
10.5881489741
 20
9.7654618934
  0
LINE
  5
3C1
100
AcDbEntity
  8
0
100
AcDbLine
 62
7
  6
CONTINUOUS
 10
10.5899845199
 20
9.7644777923
 11
10.5886289762
 21
9.7652005779
  0
LINE
  5
3C2
100
AcDbEntity
  8
0
100
AcDbLine
 62
7
  6
CONTINUOUS
 10
10.5886289762
 20
9.7652005779
 11
10.5872447463
 21
9.7659619036
  0
LINE
  5
3C3
100
AcDbEntity
  8
0
100
AcDbLine
 62
7
  6
CONTINUOUS
 10
10.5881489741
 20
9.7654618934
 11
10.5867193224
 21
9.7662571416
  0
LWPOLYLINE
  5
3C4
100
AcDbEntity
  8
0
100
AcDbPolyline
 62
7
  6
CONTINUOUS
 90
12
 70
0
 10
10.5872447463
 20
9.7659619036
 10
10.5858352687
 20
9.76676178
 10
10.5844029799
 20
9.7676006895
 10
10.5829496243
 20
9.7684794799
 10
10.5814769642
 20
9.7693989771
 10
10.5799867954
 20
9.7703599729
 10
10.5784809459
 20
9.7713632212
 10
10.5769612749
 20
9.772409435
 10
10.5754296696
 20
9.7734992841
 10
10.5738873758
 20
9.774633892
 10
10.5723340392
 20
9.7758156592
 10
10.5707691999
 20
9.7770472879
  0
LINE
  5
3C5
100
AcDbEntity
  8
0
100
AcDbLine
 62
7
  6
CONTINUOUS
 10
10.5726441647
 20
9.7755718229
 11
10.5721310263
 21
9.7759683736
  0
LINE
  5
3C6
100
AcDbEntity
  8
0
100
AcDbLine
 62
7
  6
CONTINUOUS
 10
10.5721310263
 20
9.7759683736
 11
10.571562506
 21
9.7764129463
  0
LINE
  5
3C7
100
AcDbEntity
  8
0
100
AcDbLine
 62
7
  6
CONTINUOUS
 10
10.571160432
 20
9.7767307152
 11
10.5707442323
 21
9.777062609
  0
LINE
  5
3C8
100
AcDbEntity
  8
0
100
AcDbLine
 62
7
  6
CONTINUOUS
 10
10.5707442323
 20
9.777062609
 11
10.5703151836
 21
9.7774079356
  0
LWPOLYLINE
  5
3C9
100
AcDbEntity
  8
0
100
AcDbPolyline
 62
7
  6
CONTINUOUS
 90
6
 70
0
 10
10.5707691999
 20
9.7770472879
 10
10.5691925688
 20
9.7783315963
 10
10.5676040397
 20
9.7796715172
 10
10.5660037026
 20
9.7810700964
 10
10.5643918574
 20
9.7825304908
 10
10.5627690281
 20
9.7840559652
  0
LINE
  5
3CA
100
AcDbEntity
  8
0
100
AcDbLine
 62
7
  6
CONTINUOUS
 10
10.5696480095
 20
9.7779514312
 11
10.569188335
 21
9.7783305665
  0
LINE
  5
3CB
100
AcDbEntity
  8
0
100
AcDbLine
 62
7
  6
CONTINUOUS
 10
10.569188335
 20
9.7783305665
 11
10.5687173615
 21
9.7787230326
  0
LINE
  5
3CC
100
AcDbEntity
  8
0
100
AcDbLine
 62
7
  6
CONTINUOUS
 10
10.5679906856
 20
9.7793366631
 11
10.5674916992
 21
9.7797637961
  0
LINE
  5
3CD
100
AcDbEntity
  8
0
100
AcDbLine
 62
7
  6
CONTINUOUS
 10
10.5674916992
 20
9.7797637961
 11
10.5669790168
 21
9.7802076278
  0
LINE
  5
3CE
100
AcDbEntity
  8
0
100
AcDbLine
 62
7
  6
CONTINUOUS
 10
10.5664508401
 20
9.7806702244
 11
10.5659054178
 21
9.7811537137
  0
LINE
  5
3CF
100
AcDbEntity
  8
0
100
AcDbLine
 62
7
  6
CONTINUOUS
 10
10.5659054178
 20
9.7811537137
 11
10.565341359
 21
9.7816600108
  0
LINE
  5
3D0
100
AcDbEntity
  8
0
100
AcDbLine
 62
7
  6
CONTINUOUS
 10
10.5647586535
 20
9.7821898738
 11
10.5641576888
 21
9.7827437413
  0
LINE
  5
3D1
100
AcDbEntity
  8
0
100
AcDbLine
 62
7
  6
CONTINUOUS
 10
10.5641576888
 20
9.7827437413
 11
10.5635375434
 21
9.7833233155
  0
LINE
  5
3D2
100
AcDbEntity
  8
0
100
AcDbLine
 62
7
  6
CONTINUOUS
 10
10.5632178712
 20
9.7836253121
 11
10.5625531944
 21
9.7842604141
  0
LINE
  5
3D3
100
AcDbEntity
  8
0
100
AcDbLine
 62
7
  6
CONTINUOUS
 10
10.5625531944
 20
9.7842604141
 11
10.5618461378
 21
9.784946853
  0
LINE
  5
3D4
100
AcDbEntity
  8
0
100
AcDbLine
 62
7
  6
CONTINUOUS
 10
10.5618461378
 20
9.784946853
 11
10.5611055178
 21
9.7856781577
  0
LINE
  5
3D5
100
AcDbEntity
  8
0
100
AcDbLine
 62
7
  6
CONTINUOUS
 10
10.1598753728
 20
10.1869078283
 11
10.5623032954
 21
9.7844799057
  0
LINE
  5
3D6
100
AcDbEntity
  8
0
100
AcDbLine
 62
7
  6
CONTINUOUS
 10
11.4549617839
 20
8.8918214172
 11
11.8569311583
 21
8.4898520428
  0
LWPOLYLINE
  5
3D7
100
AcDbEntity
  8
0
100
AcDbPolyline
 62
7
  6
CONTINUOUS
 90
12
 70
0
 10
11.4550392892
 20
8.8918961685
 10
11.4527201688
 20
8.8943007327
 10
11.4473378712
 20
8.9005030991
 10
11.4427445271
 20
8.9065662036
 10
11.4389058725
 20
8.9123311919
 10
11.4357259131
 20
8.9177310775
 10
11.4330640299
 20
8.9228195644
 10
11.4308204617
 20
8.9276385893
 10
11.4289280989
 20
8.9322056813
 10
11.4273505034
 20
8.936487143
 10
11.4260616772
 20
8.9404213765
 10
11.425048822
 20
8.9438914095
  0
LINE
  5
3D8
100
AcDbEntity
  8
0
100
AcDbLine
 62
7
  6
CONTINUOUS
 10
11.4536642537
 20
8.8931794228
 11
11.4524000714
 21
8.8945336206
  0
LWPOLYLINE
  5
3D9
100
AcDbEntity
  8
0
100
AcDbPolyline
 62
7
  6
CONTINUOUS
 90
9
 70
0
 10
11.4534051475
 20
8.8934558211
 10
11.4503116354
 20
8.896868235
 10
11.4473928534
 20
8.9003454472
 10
11.4446879708
 20
8.9038232277
 10
11.4422277883
 20
8.9072319946
 10
11.4400350735
 20
8.9104980604
 10
11.4381214074
 20
8.9135515001
 10
11.4364517753
 20
8.9163940233
 10
11.4349741933
 20
8.9190693041
  0
LINE
  5
3DA
100
AcDbEntity
  8
0
100
AcDbLine
 62
7
  6
CONTINUOUS
 10
11.4513531403
 20
8.8956875451
 11
11.450920271
 21
8.8961735674
  0
LWPOLYLINE
  5
3DB
100
AcDbEntity
  8
0
100
AcDbPolyline
 62
7
  6
CONTINUOUS
 90
3
 70
0
 10
11.4512409699
 20
8.8958129803
 10
11.4501727439
 20
8.8970255549
 10
11.4491827689
 20
8.8981793594
  0
LINE
  5
3DC
100
AcDbEntity
  8
0
100
AcDbLine
 62
7
  6
CONTINUOUS
 10
11.4504918203
 20
8.8966599031
 11
11.4500677694
 21
8.8971465076
  0
LINE
  5
3DD
100
AcDbEntity
  8
0
100
AcDbLine
 62
7
  6
CONTINUOUS
 10
11.4484151744
 20
8.899094735
 11
11.4480128282
 21
8.8995820279
  0
LWPOLYLINE
  5
3DE
100
AcDbEntity
  8
0
100
AcDbPolyline
 62
7
  6
CONTINUOUS
 90
3
 70
0
 10
11.4482619096
 20
8.8992797425
 10
11.4474021945
 20
8.9003317007
 10
11.4465970157
 20
8.9013394217
  0
LINE
  5
3DF
100
AcDbEntity
  8
0
100
AcDbLine
 62
7
  6
CONTINUOUS
 10
11.4476147624
 20
8.90006933
 11
11.4472209561
 21
8.9005565994
  0
LINE
  5
3E0
100
AcDbEntity
  8
0
100
AcDbLine
 62
7
  6
CONTINUOUS
 10
11.4468313884
 20
8.9010437944
 11
11.4464460379
 21
8.901530874
  0
LWPOLYLINE
  5
3E1
100
AcDbEntity
  8
0
100
AcDbPolyline
 62
7
  6
CONTINUOUS
 90
3
 70
0
 10
11.4458408351
 20
8.9023064475
 10
11.4451285023
 20
8.9032364086
 10
11.4444559349
 20
8.904132042
  0
LINE
  5
3E2
100
AcDbEntity
  8
0
100
AcDbLine
 62
7
  6
CONTINUOUS
 10
11.4453150681
 20
8.9029910209
 11
11.4449463667
 21
8.9034772378
  0
LINE
  5
3E3
100
AcDbEntity
  8
0
100
AcDbLine
 62
7
  6
CONTINUOUS
 10
11.4445817731
 20
8.9039631386
 11
11.4438196161
 21
8.9049957278
  0
LINE
  5
3E4
100
AcDbEntity
  8
0
100
AcDbLine
 62
7
  6
CONTINUOUS
 10
11.4442212651
 20
8.9044486841
 11
11.4438648201
 21
8.9049338353
  0
LINE
  5
3E5
100
AcDbEntity
  8
0
100
AcDbLine
 62
7
  6
CONTINUOUS
 10
11.443216205
 20
8.9058299528
 11
11.4424792151
 21
8.9068697295
  0
LINE
  5
3E6
100
AcDbEntity
  8
0
100
AcDbLine
 62
7
  6
CONTINUOUS
 10
11.4426429096
 20
8.9066367516
 11
11.4420974019
 21
8.907417756
  0
LINE
  5
3E7
100
AcDbEntity
  8
0
100
AcDbLine
 62
7
  6
CONTINUOUS
 10
11.4421427417
 20
8.9073523372
 11
11.441577457
 21
8.9081746636
  0
LINE
  5
3E8
100
AcDbEntity
  8
0
100
AcDbLine
 62
7
  6
CONTINUOUS
 10
11.4418101926
 20
8.9078343245
 11
11.4414815438
 21
8.9083156552
  0
LINE
  5
3E9
100
AcDbEntity
  8
0
100
AcDbLine
 62
7
  6
CONTINUOUS
 10
11.4408358516
 20
8.9092762029
 11
11.4405187596
 21
8.9097553491
  0
LINE
  5
3EA
100
AcDbEntity
  8
0
100
AcDbLine
 62
7
  6
CONTINUOUS
 10
11.4406063447
 20
8.9096225034
 11
11.4401520572
 21
8.9103157518
  0
LINE
  5
3EB
100
AcDbEntity
  8
0
100
AcDbLine
 62
7
  6
CONTINUOUS
 10
11.4402054714
 20
8.9102336971
 11
11.43971672
 21
8.9109900361
  0
LINE
  5
3EC
100
AcDbEntity
  8
0
100
AcDbLine
 62
7
  6
CONTINUOUS
 10
11.4398959622
 20
8.9107112121
 11
11.439298983
 21
8.9116465085
  0
LINE
  5
3ED
100
AcDbEntity
  8
0
100
AcDbLine
 62
7
  6
CONTINUOUS
 10
11.4395902073
 20
8.9111878602
 11
11.4392881821
 21
8.9116636074
  0
LINE
  5
3EE
100
AcDbEntity
  8
0
100
AcDbLine
 62
7
  6
CONTINUOUS
 10
11.4388976772
 20
8.9122861449
 11
11.4384042335
 21
8.913085112
  0
LINE
  5
3EF
100
AcDbEntity
  8
0
100
AcDbLine
 62
7
  6
CONTINUOUS
 10
11.4385117838
 20
8.912909774
 11
11.4381403216
 21
8.913518246
  0
LINE
  5
3F0
100
AcDbEntity
  8
0
100
AcDbLine
 62
7
  6
CONTINUOUS
 10
11.4381168759
 20
8.9135569253
 11
11.4377823415
 21
8.9141124363
  0
LINE
  5
3F1
100
AcDbEntity
  8
0
100
AcDbLine
 62
7
  6
CONTINUOUS
 10
11.437833122
 20
8.9140276741
 11
11.4374369447
 21
8.9146932119
  0
LINE
  5
3F2
100
AcDbEntity
  8
0
100
AcDbLine
 62
7
  6
CONTINUOUS
 10
11.437103486
 20
8.9152610762
 11
11.436733633
 21
8.9158993946
  0
LINE
  5
3F3
100
AcDbEntity
  8
0
100
AcDbLine
 62
7
  6
CONTINUOUS
 10
11.4367814876
 20
8.9158162921
 11
11.4364704878
 21
8.9163591291
  0
LINE
  5
3F4
100
AcDbEntity
  8
0
100
AcDbLine
 62
7
  6
CONTINUOUS
 10
11.4364675142
 20
8.9163643513
 11
11.4361700379
 21
8.9168898675
  0
LINE
  5
3F5
100
AcDbEntity
  8
0
100
AcDbLine
 62
7
  6
CONTINUOUS
 10
11.4362048451
 20
8.9168280579
 11
11.4358797019
 21
8.9174087978
  0
LINE
  5
3F6
100
AcDbEntity
  8
0
100
AcDbLine
 62
7
  6
CONTINUOUS
 10
11.4354372804
 20
8.9182113752
 11
11.4349423807
 21
8.9191267273
  0
LINE
  5
3F7
100
AcDbEntity
  8
0
100
AcDbLine
 62
7
  6
CONTINUOUS
 10
11.4350632893
 20
8.9189013397
 11
11.4346999146
 21
8.9195822226
  0
LINE
  5
3F8
100
AcDbEntity
  8
0
100
AcDbLine
 62
7
  6
CONTINUOUS
 10
11.4348067142
 20
8.9193810073
 11
11.4344607444
 21
8.920036209
  0
LINE
  5
3F9
100
AcDbEntity
  8
0
100
AcDbLine
 62
7
  6
CONTINUOUS
 10
11.4342248499
 20
8.9204886457
 11
11.4337628051
 21
8.9213887079
  0
LINE
  5
3FA
100
AcDbEntity
  8
0
100
AcDbLine
 62
7
  6
CONTINUOUS
 10
11.4338383274
 20
8.9212403065
 11
11.4333822143
 21
8.9221444413
  0
LINE
  5
3FB
100
AcDbEntity
  8
0
100
AcDbLine
 62
7
  6
CONTINUOUS
 10
11.4335366129
 20
8.921836253
 11
11.4330937821
 21
8.9227261722
  0
LINE
  5
3FC
100
AcDbEntity
  8
0
100
AcDbLine
 62
7
  6
CONTINUOUS
 10
11.4336587965
 20
8.9215958836
 11
11.4324832036
 21
8.9239864286
  0
LINE
  5
3FD
100
AcDbEntity
  8
0
100
AcDbLine
 62
7
  6
CONTINUOUS
 10
11.4328771
 20
8.9231684675
 11
11.4324530921
 21
8.924047534
  0
LINE
  5
3FE
100
AcDbEntity
  8
0
100
AcDbLine
 62
7
  6
CONTINUOUS
 10
11.432519049
 20
8.9239095829
 11
11.4321098879
 21
8.9247727603
  0
LINE
  5
3FF
100
AcDbEntity
  8
0
100
AcDbLine
 62
7
  6
CONTINUOUS
 10
11.4317143478
 20
8.9256245085
 11
11.4313314918
 21
8.9264659871
  0
LINE
  5
400
100
AcDbEntity
  8
0
100
AcDbLine
 62
7
  6
CONTINUOUS
 10
11.4314465998
 20
8.9262111772
 11
11.431064902
 21
8.9270622929
  0
LINE
  5
401
100
AcDbEntity
  8
0
100
AcDbLine
 62
7
  6
CONTINUOUS
 10
11.4314280924
 20
8.9262539387
 11
11.4304766084
 21
8.9284119355
  0
LINE
  5
402
100
AcDbEntity
  8
0
100
AcDbLine
 62
7
  6
CONTINUOUS
 10
11.4307790528
 20
8.9277115461
 11
11.4304241053
 21
8.9285325783
  0
LINE
  5
403
100
AcDbEntity
  8
0
100
AcDbLine
 62
7
  6
CONTINUOUS
 10
11.4305141411
 20
8.9283227185
 11
11.4301612959
 21
8.9291515492
  0
LINE
  5
404
100
AcDbEntity
  8
0
100
AcDbLine
 62
7
  6
CONTINUOUS
 10
11.4297430901
 20
8.9301569598
 11
11.4294171035
 21
8.930959027
  0
LWPOLYLINE
  5
405
100
AcDbEntity
  8
0
100
AcDbPolyline
 62
7
  6
CONTINUOUS
 90
4
 70
0
 10
11.4296156662
 20
8.9304703421
 10
11.4288343754
 20
8.9324376985
 10
11.4281233818
 20
8.9343219556
 10
11.4274752221
 20
8.9361288093
  0
LINE
  5
406
100
AcDbEntity
  8
0
100
AcDbLine
 62
7
  6
CONTINUOUS
 10
11.4291011566
 20
8.9317526512
 11
11.4287954337
 21
8.9325366695
  0
LINE
  5
407
100
AcDbEntity
  8
0
100
AcDbLine
 62
7
  6
CONTINUOUS
 10
11.4288610617
 20
8.9323669918
 11
11.428562867
 21
8.933144213
  0
LINE
  5
408
100
AcDbEntity
  8
0
100
AcDbLine
 62
7
  6
CONTINUOUS
 10
11.4276769191
 20
8.9355549726
 11
11.4274243504
 21
8.9362728455
  0
LINE
  5
409
100
AcDbEntity
  8
0
100
AcDbLine
 62
7
  6
CONTINUOUS
 10
11.4274736486
 20
8.9361315774
 11
11.4271833084
 21
8.9369718861
  0
LINE
  5
40A
100
AcDbEntity
  8
0
100
AcDbLine
 62
7
  6
CONTINUOUS
 10
11.4274752221
 20
8.9361288093
 11
11.426883232
 21
8.9378639895
  0
LINE
  5
40B
100
AcDbEntity
  8
0
100
AcDbLine
 62
7
  6
CONTINUOUS
 10
11.4270072017
 20
8.9374916461
 11
11.4267624259
 21
8.9382274089
  0
LINE
  5
40C
100
AcDbEntity
  8
0
100
AcDbLine
 62
7
  6
CONTINUOUS
 10
11.4265683231
 20
8.9388224335
 11
11.4265635305
 21
8.9388372837
  0
LINE
  5
40D
100
AcDbEntity
  8
0
100
AcDbLine
 62
7
  6
CONTINUOUS
 10
11.4263414637
 20
8.9395332279
 11
11.4259662242
 21
8.9407483976
  0
LINE
  5
40E
100
AcDbEntity
  8
0
100
AcDbLine
 62
7
  6
CONTINUOUS
 10
11.4233654456
 20
8.9508180239
 11
11.4232564244
 21
8.9513376268
  0
LINE
  5
40F
100
AcDbEntity
  8
0
100
AcDbLine
 62
7
  6
CONTINUOUS
 10
11.4232564244
 20
8.9513376268
 11
11.4230991803
 21
8.9521087591
  0
LINE
  5
410
100
AcDbEntity
  8
0
100
AcDbLine
 62
7
  6
CONTINUOUS
 10
12.0941929939
 20
10.8801695021
 11
12.0485769602
 21
10.6827444699
  0
LINE
  5
411
100
AcDbEntity
  8
0
100
AcDbLine
 62
7
  6
CONTINUOUS
 10
12.0705782624
 20
10.6551695021
 11
12.1166343259
 21
10.8357268679
  0
LINE
  5
412
100
AcDbEntity
  8
0
100
AcDbLine
 62
7
  6
CONTINUOUS
 10
11.6957532462
 20
9.2676695021
 11
11.4700475069
 21
8.8767356942
  0
LINE
  5
413
100
AcDbEntity
  8
0
100
AcDbLine
 62
7
  6
CONTINUOUS
 10
11.3665198889
 20
8.6974205998
 11
11.3167227945
 21
8.6111695021
  0
LINE
  5
414
100
AcDbEntity
  8
0
100
AcDbLine
 62
7
  6
CONTINUOUS
 10
11.2532530858
 20
9.7530763397
 11
11.2523251772
 21
9.7528941264
  0
LWPOLYLINE
  5
415
100
AcDbEntity
  8
0
100
AcDbPolyline
 62
7
  6
CONTINUOUS
 90
53
 70
0
 10
11.2523251772
 20
9.7528941264
 10
11.2513118447
 20
9.7527038019
 10
11.250794196
 20
9.7526100498
 10
11.2502697978
 20
9.7525174614
 10
11.2497385784
 20
9.7524261111
 10
11.2492004522
 20
9.7523360733
 10
11.2486552818
 20
9.7522474168
 10
11.2481029145
 20
9.7521602116
 10
11.2475431969
 20
9.7520745316
 10
11.2469759797
 20
9.7519904556
 10
11.2464011193
 20
9.7519080671
 10
11.2458184777
 20
9.7518274545
 10
11.2452279228
 20
9.7517487109
 10
11.2446293181
 20
9.7516719332
 10
11.2440224094
 20
9.751597208
 10
11.2434068856
 20
9.7515246222
 10
11.2427824379
 20
9.7514542711
 10
11.2421487575
 20
9.7513862583
 10
11.2415055355
 20
9.7513206959
 10
11.2408524637
 20
9.751257705
 10
11.2401892349
 20
9.7511974156
 10
11.2395155425
 20
9.7511399671
 10
11.2388310814
 20
9.7510855085
 10
11.2381355554
 20
9.7510341992
 10
11.237428769
 20
9.750986215
 10
11.2367105983
 20
9.7509417437
 10
11.2359809227
 20
9.7509009794
 10
11.2352396237
 20
9.7508641226
 10
11.234486585
 20
9.7508313802
 10
11.2337216928
 20
9.7508029659
 10
11.2329448357
 20
9.7507790999
 10
11.2321559052
 20
9.7507600095
 10
11.2313547964
 20
9.7507459286
 10
11.2305414097
 20
9.7507370982
 10
11.2297156495
 20
9.7507337666
 10
11.2288774235
 20
9.7507361888
 10
11.2280266429
 20
9.7507446274
 10
11.2271632228
 20
9.750759352
 10
11.2262870823
 20
9.7507806397
 10
11.2253981447
 20
9.7508087752
 10
11.2244963378
 20
9.7508440505
 10
11.2235815932
 20
9.7508867656
 10
11.2226537122
 20
9.7509372359
 10
11.2217122046
 20
9.7509958086
 10
11.2207565474
 20
9.7510628554
 10
11.2197862249
 20
9.7511387718
 10
11.2188007288
 20
9.7512239774
 10
11.2177995597
 20
9.7513189166
 10
11.216782227
 20
9.7514240594
 10
11.2157482501
 20
9.751539902
 10
11.2146971554
 20
9.7516669679
 10
11.2136284276
 20
9.7518058155
 10
11.2133668784
 20
9.7518422056
  0
LWPOLYLINE
  5
416
100
AcDbEntity
  8
0
100
AcDbPolyline
 62
7
  6
CONTINUOUS
 90
63
 70
0
 10
10.6619964737
 20
9.7518306605
 10
10.6616159176
 20
9.7517786346
 10
10.6607871217
 20
9.7516711132
 10
10.6599350597
 20
9.7515666833
 10
10.6590627761
 20
9.751466175
 10
10.6581733308
 20
9.7513703397
 10
10.657269761
 20
9.7512798421
 10
10.6563540417
 20
9.7511951654
 10
10.6554269485
 20
9.7511166388
 10
10.6544891988
 20
9.7510445669
 10
10.6535415148
 20
9.7509792353
 10
10.652584624
 20
9.7509209101
 10
10.6516192586
 20
9.7508698373
 10
10.650646155
 20
9.7508262424
 10
10.6496660534
 20
9.7507903296
 10
10.6486796979
 20
9.7507622817
 10
10.6476878355
 20
9.7507422593
 10
10.6466912158
 20
9.7507304008
 10
10.6456905911
 20
9.7507268218
 10
10.6446867149
 20
9.7507316151
 10
10.6436803427
 20
9.7507448501
 10
10.6426722302
 20
9.7507665731
 10
10.641663134
 20
9.7507968065
 10
10.6406538103
 20
9.7508355497
 10
10.6396450148
 20
9.7508827778
 10
10.6386375021
 20
9.7509384429
 10
10.6376320252
 20
9.7510024731
 10
10.6366293352
 20
9.7510747733
 10
10.6356301806
 20
9.751155225
 10
10.6346353073
 20
9.7512436864
 10
10.6336454576
 20
9.7513399931
 10
10.6326613703
 20
9.7514439579
 10
10.6316837803
 20
9.7515553712
 10
10.6307134179
 20
9.7516740017
 10
10.6297510092
 20
9.7517995964
 10
10.6287972754
 20
9.751931881
 10
10.6278531304
 20
9.7520705308
 10
10.6269209474
 20
9.7522149618
 10
10.6260037423
 20
9.7523644091
 10
10.6251045136
 20
9.7525180192
 10
10.6242262385
 20
9.7526748543
 10
10.6233718646
 20
9.7528338994
 10
10.6225429868
 20
9.7529943286
 10
10.6217383425
 20
9.7531558663
 10
10.6209563047
 20
9.7533183625
 10
10.6201952508
 20
9.7534817227
 10
10.6194535639
 20
9.7536459048
 10
10.6187296459
 20
9.7538109129
 10
10.6180223125
 20
9.7539767016
 10
10.6173308872
 20
9.7541431372
 10
10.6166547235
 20
9.7543101008
 10
10.615993175
 20
9.7544774938
 10
10.6153455978
 20
9.7546452371
 10
10.6147113524
 20
9.7548132692
 10
10.6140898498
 20
9.7549815334
 10
10.6134810677
 20
9.7551498316
 10
10.6128853255
 20
9.7553178714
 10
10.6123029264
 20
9.7554853617
 10
10.6117341583
 20
9.7556520123
 10
10.6111793027
 20
9.7558175325
 10
10.6106386464
 20
9.7559816278
 10
10.6101124969
 20
9.7561439955
 10
10.6096009869
 20
9.7563043861
  0
LINE
  5
417
100
AcDbEntity
  8
0
100
AcDbLine
 62
7
  6
CONTINUOUS
 10
10.558661891
 20
9.9241695021
 11
11.3167227945
 21
9.9241695021
  0
LINE
  5
418
100
AcDbEntity
  8
0
100
AcDbLine
 62
7
  6
CONTINUOUS
 10
11.3167227945
 20
9.9241695021
 11
11.3665198889
 21
9.8379184045
  0
LINE
  5
419
100
AcDbEntity
  8
0
100
AcDbLine
 62
7
  6
CONTINUOUS
 10
11.4700475069
 20
9.6586033101
 11
11.6957532462
 21
9.2676695021
  0
LINE
  5
41A
100
AcDbEntity
  8
0
100
AcDbLine
 62
7
  6
CONTINUOUS
 10
11.4230991803
 20
8.9521087591
 11
11.4229169705
 21
8.9530366496
  0
LWPOLYLINE
  5
41B
100
AcDbEntity
  8
0
100
AcDbPolyline
 62
7
  6
CONTINUOUS
 90
53
 70
0
 10
11.4229169705
 20
8.9530366496
 10
11.4227266497
 20
8.9540499607
 10
11.4226328964
 20
8.9545676152
 10
11.422540307
 20
8.9550920185
 10
11.4224489556
 20
8.9556232434
 10
11.4223589167
 20
8.9561613756
 10
11.4222702591
 20
8.9567065524
 10
11.4221830528
 20
8.9572589263
 10
11.4220973718
 20
8.9578186507
 10
11.4220132948
 20
8.9583858749
 10
11.4219309053
 20
8.9589607426
 10
11.4218502918
 20
8.9595433915
 10
11.4217715474
 20
8.9601339539
 10
11.4216947689
 20
8.960732566
 10
11.421620043
 20
8.9613394821
 10
11.4215474566
 20
8.9619550131
 10
11.421477105
 20
8.9625794678
 10
11.4214090918
 20
8.9632131554
 10
11.4213435291
 20
8.9638563844
 10
11.4212805379
 20
8.9645094632
 10
11.4212202484
 20
8.9651726993
 10
11.4211627997
 20
8.9658463989
 10
11.4211083411
 20
8.9665308674
 10
11.4210570319
 20
8.9672264009
 10
11.4210090479
 20
8.9679331952
 10
11.4209645768
 20
8.9686513742
 10
11.4209238128
 20
8.9693810585
 10
11.4208869564
 20
8.9701223666
 10
11.4208542145
 20
8.9708754147
 10
11.4208258009
 20
8.9716403168
 10
11.4208019357
 20
8.9724171841
 10
11.4207828462
 20
8.9732061252
 10
11.4207687664
 20
8.9740072451
 10
11.4207599373
 20
8.9748206432
 10
11.420756607
 20
8.9756464152
 10
11.4207590309
 20
8.9764846536
 10
11.4207674713
 20
8.977335447
 10
11.4207821979
 20
8.9781988803
 10
11.4208034879
 20
8.9790750345
 10
11.4208316259
 20
8.9799639862
 10
11.420866904
 20
8.9808658078
 10
11.4209096222
 20
8.9817805675
 10
11.4209600958
 20
8.9827084639
 10
11.4210186721
 20
8.9836499872
 10
11.4210857229
 20
8.9846056603
 10
11.4211616436
 20
8.985575999
 10
11.4212468538
 20
8.9865615116
 10
11.421341798
 20
8.9875626976
 10
11.4214469462
 20
8.9885800476
 10
11.4215627946
 20
8.9896140421
 10
11.4216898668
 20
8.9906651549
 10
11.4218287212
 20
8.9917339012
 10
11.4218650446
 20
8.9919949636
  0
LWPOLYLINE
  5
41C
100
AcDbEntity
  8
0
100
AcDbPolyline
 62
7
  6
CONTINUOUS
 90
68
 70
0
 10
11.4218532164
 20
9.5433658973
 10
11.4218087772
 20
9.5436912342
 10
11.4217186519
 20
9.5443802847
 10
11.4216304727
 20
9.5450866239
 10
11.4215451938
 20
9.5458046229
 10
11.421463492
 20
9.5465299685
 10
11.4213855548
 20
9.5472620714
 10
11.4213114934
 20
9.548000989
 10
11.421241422
 20
9.5487467777
 10
11.4211754574
 20
9.5494994924
 10
11.4211137194
 20
9.5502591869
 10
11.4210563305
 20
9.5510259137
 10
11.4210034163
 20
9.5517997237
 10
11.4209551052
 20
9.5525806663
 10
11.4209115286
 20
9.5533687895
 10
11.4208728208
 20
9.5541641396
 10
11.4208391191
 20
9.5549667613
 10
11.420810564
 20
9.5557766974
 10
11.4207872989
 20
9.5565939888
 10
11.4207694703
 20
9.5574186749
 10
11.4207572278
 20
9.5582507926
 10
11.4207507242
 20
9.559090377
 10
11.4207501153
 20
9.5599374609
 10
11.4207555602
 20
9.560792075
 10
11.4207672211
 20
9.5616542476
 10
11.4207852632
 20
9.5625240015
 10
11.4208098488
 20
9.5634011582
 10
11.4208411248
 20
9.564285217
 10
11.4208792243
 20
9.5651756462
 10
11.4209242672
 20
9.5660719126
 10
11.4209763593
 20
9.5669734815
 10
11.4210355925
 20
9.5678798168
 10
11.4211020447
 20
9.5687903816
 10
11.4211757789
 20
9.5697046383
 10
11.4212568438
 20
9.5706220488
 10
11.4213452732
 20
9.5715420749
 10
11.421441086
 20
9.5724641786
 10
11.421544286
 20
9.573387822
 10
11.4216548619
 20
9.5743124679
 10
11.4217727871
 20
9.5752375801
 10
11.4218980199
 20
9.576162623
 10
11.422030503
 20
9.5770870625
 10
11.4221701639
 20
9.5780103654
 10
11.422316911
 20
9.5789319774
 10
11.4224701531
 20
9.5798485222
 10
11.4226282075
 20
9.5807511212
 10
11.4227890056
 20
9.5816303097
 10
11.4229504165
 20
9.582477757
 10
11.4231117177
 20
9.5832932693
 10
11.4232729719
 20
9.5840803418
 10
11.4234343595
 20
9.5848424738
 10
11.4235961668
 20
9.5855831489
 10
11.4237587789
 20
9.5863058321
 10
11.4239225576
 20
9.5870134744
 10
11.4240874264
 20
9.587706873
 10
11.4242531897
 20
9.5883862482
 10
11.4244196625
 20
9.5890518231
 10
11.4245866687
 20
9.5897038224
 10
11.4247540412
 20
9.5903424703
 10
11.4249216213
 20
9.5909679905
 10
11.4250892356
 20
9.5915805228
 10
11.4252566281
 20
9.5921798915
 10
11.4254235319
 20
9.5927658858
 10
11.4255896842
 20
9.5933383121
 10
11.4257548244
 20
9.5938969873
 10
11.4259186922
 20
9.5944417287
 10
11.4260810228
 20
9.5949723397
 10
11.4262415558
 20
9.5954886371
  0
LINE
  5
41D
100
AcDbEntity
  8
0
100
AcDbLine
 62
7
  6
CONTINUOUS
 10
12.2282542797
 20
10.8801695021
 11
12.1849850448
 21
10.6827444699
  0
LINE
  5
41E
100
AcDbEntity
  8
0
100
AcDbLine
 62
7
  6
CONTINUOUS
 10
12.2080130698
 20
10.6551695021
 11
12.2624296191
 21
10.8801695021
  0
LINE
  5
41F
100
AcDbEntity
  8
0
100
AcDbLine
 62
7
  6
CONTINUOUS
 10
12.3023253324
 20
10.6551695021
 11
12.320806423
 21
10.7183865803
  0
LINE
  5
420
100
AcDbEntity
  8
0
100
AcDbLine
 62
7
  6
CONTINUOUS
 10
12.3416343125
 20
10.8801695021
 11
12.2702034118
 21
10.6551695021
  0
LINE
  5
421
100
AcDbEntity
  8
0
100
AcDbLine
 62
7
  6
CONTINUOUS
 10
12.3307803514
 20
10.7512418638
 11
12.3683292391
 21
10.8567014473
  0
LINE
  5
422
100
AcDbEntity
  8
0
100
AcDbLine
 62
7
  6
CONTINUOUS
 10
12.2387757801
 20
7.6809843658
 11
12.2387757801
 21
7.7180932338
  0
LINE
  5
423
100
AcDbEntity
  8
0
100
AcDbLine
 62
7
  6
CONTINUOUS
 10
12.2387757801
 20
7.8131388592
 11
12.2387757801
 21
7.8577281701
  0
LINE
  5
424
100
AcDbEntity
  8
0
100
AcDbLine
 62
7
  6
CONTINUOUS
 10
12.8448774757
 20
10.8801695021
 11
12.7976480129
 21
10.6994654598
  0
LINE
  5
425
100
AcDbEntity
  8
0
100
AcDbLine
 62
7
  6
CONTINUOUS
 10
12.8137823047
 20
10.6551695021
 11
12.8705456795
 21
10.8574348169
  0
LINE
  5
426
100
AcDbEntity
  8
0
100
AcDbLine
 62
7
  6
CONTINUOUS
 10
12.9047209921
 20
10.6551695021
 11
12.8721590819
 21
10.6551695021
  0
LINE
  5
427
100
AcDbEntity
  8
0
100
AcDbLine
 62
7
  6
CONTINUOUS
 10
12.8137823047
 20
10.6551695021
 11
12.7779935362
 21
10.6551695021
  0
LINE
  5
428
100
AcDbEntity
  8
0
100
AcDbLine
 62
7
  6
CONTINUOUS
 10
12.7194700422
 20
10.6551695021
 11
12.6869081321
 21
10.6551695021
  0
LINE
  5
429
100
AcDbEntity
  8
0
100
AcDbLine
 62
7
  6
CONTINUOUS
 10
12.6477457883
 20
10.6551695021
 11
12.6100502374
 21
10.6551695021
  0
LINE
  5
42A
100
AcDbEntity
  8
0
100
AcDbLine
 62
7
  6
CONTINUOUS
 10
12.5301121475
 20
10.6551695021
 11
12.4975502374
 21
10.6551695021
  0
LINE
  5
42B
100
AcDbEntity
  8
0
100
AcDbLine
 62
7
  6
CONTINUOUS
 10
12.4677751424
 20
10.6551695021
 11
12.4349198522
 21
10.6551695021
  0
LINE
  5
42C
100
AcDbEntity
  8
0
100
AcDbLine
 62
7
  6
CONTINUOUS
 10
12.3023253324
 20
10.6551695021
 11
12.2702034118
 21
10.6551695021
  0
LINE
  5
42D
100
AcDbEntity
  8
0
100
AcDbLine
 62
7
  6
CONTINUOUS
 10
12.2080130698
 20
10.6551695021
 11
12.1629837426
 21
10.6551695021
  0
LINE
  5
42E
100
AcDbEntity
  8
0
100
AcDbLine
 62
7
  6
CONTINUOUS
 10
12.0705782624
 20
10.6551695021
 11
12.0255489284
 21
10.6551695021
  0
LINE
  5
42F
100
AcDbEntity
  8
0
100
AcDbLine
 62
7
  6
CONTINUOUS
 10
12.320806423
 20
10.7183865803
 11
12.4162920716
 21
10.7183865803
  0
LINE
  5
430
100
AcDbEntity
  8
0
100
AcDbLine
 62
7
  6
CONTINUOUS
 10
12.4064648332
 20
10.7512418638
 11
12.3307803514
 21
10.7512418638
  0
LINE
  5
431
100
AcDbEntity
  8
0
100
AcDbLine
 62
7
  6
CONTINUOUS
 10
12.5682477417
 20
10.7747099253
 11
12.5301121475
 21
10.7747099253
  0
LINE
  5
432
100
AcDbEntity
  8
0
100
AcDbLine
 62
7
  6
CONTINUOUS
 10
11.9709856934
 20
10.8801695021
 11
12.0255489284
 21
10.6551695021
  0
LINE
  5
433
100
AcDbEntity
  8
0
100
AcDbLine
 62
7
  6
CONTINUOUS
 10
12.0485769602
 20
10.6827444699
 11
12.0050143754
 21
10.8801695021
  0
LINE
  5
434
100
AcDbEntity
  8
0
100
AcDbLine
 62
7
  6
CONTINUOUS
 10
12.4970711001
 20
7.8801695021
 11
12.4970711001
 21
7.6551695021
  0
LINE
  5
435
100
AcDbEntity
  8
0
100
AcDbLine
 62
7
  6
CONTINUOUS
 10
12.4975502374
 20
10.8801695021
 11
12.4975502374
 21
10.6551695021
  0
LINE
  5
436
100
AcDbEntity
  8
0
100
AcDbLine
 62
7
  6
CONTINUOUS
 10
12.5296330371
 20
7.6880247823
 11
12.5296330371
 21
7.8801695021
  0
LINE
  5
437
100
AcDbEntity
  8
0
100
AcDbLine
 62
7
  6
CONTINUOUS
 10
12.5301121475
 20
10.6551695021
 11
12.5301121475
 21
10.7684028851
  0
LINE
  5
438
100
AcDbEntity
  8
0
100
AcDbLine
 62
7
  6
CONTINUOUS
 10
12.5301121475
 20
10.7747099253
 11
12.5301121475
 21
10.8473142254
  0
LINE
  5
439
100
AcDbEntity
  8
0
100
AcDbLine
 62
7
  6
CONTINUOUS
 10
12.6144113877
 20
7.6880247823
 11
12.6144113877
 21
7.6551695021
  0
LINE
  5
43A
100
AcDbEntity
  8
0
100
AcDbLine
 62
7
  6
CONTINUOUS
 10
12.6452131786
 20
7.8801695021
 11
12.6452131786
 21
7.6551695021
  0
LINE
  5
43B
100
AcDbEntity
  8
0
100
AcDbLine
 62
7
  6
CONTINUOUS
 10
12.6777751424
 20
7.6843578974
 11
12.6777751424
 21
7.8473142254
  0
LINE
  5
43C
100
AcDbEntity
  8
0
100
AcDbLine
 62
7
  6
CONTINUOUS
 10
12.6869081321
 20
10.8801695021
 11
12.6869081321
 21
10.6551695021
  0
LINE
  5
43D
100
AcDbEntity
  8
0
100
AcDbLine
 62
7
  6
CONTINUOUS
 10
12.7194700422
 20
10.6551695021
 11
12.7194700422
 21
10.8574348169
  0
LINE
  5
43E
100
AcDbEntity
  8
0
100
AcDbLine
 62
7
  6
CONTINUOUS
 10
12.5301121475
 20
10.8473142254
 11
12.579395056
 21
10.8473142254
  0
LINE
  5
43F
100
AcDbEntity
  8
0
100
AcDbLine
 62
7
  6
CONTINUOUS
 10
11.9709856934
 20
10.8801695021
 11
12.0050143754
 21
10.8801695021
  0
LINE
  5
440
100
AcDbEntity
  8
0
100
AcDbLine
 62
7
  6
CONTINUOUS
 10
12.0941929939
 20
10.8801695021
 11
12.1392223345
 21
10.8801695021
  0
LINE
  5
441
100
AcDbEntity
  8
0
100
AcDbLine
 62
7
  6
CONTINUOUS
 10
12.2282542797
 20
10.8801695021
 11
12.2624296191
 21
10.8801695021
  0
LINE
  5
442
100
AcDbEntity
  8
0
100
AcDbLine
 62
7
  6
CONTINUOUS
 10
12.3416343125
 20
10.8801695021
 11
12.3963442417
 21
10.8801695021
  0
LINE
  5
443
100
AcDbEntity
  8
0
100
AcDbLine
 62
7
  6
CONTINUOUS
 10
12.4975502374
 20
10.8801695021
 11
12.5827686312
 21
10.8801695021
  0
LINE
  5
444
100
AcDbEntity
  8
0
100
AcDbLine
 62
7
  6
CONTINUOUS
 10
12.6869081321
 20
10.8801695021
 11
12.7467516484
 21
10.8801695021
  0
LINE
  5
445
100
AcDbEntity
  8
0
100
AcDbLine
 62
7
  6
CONTINUOUS
 10
12.8448774757
 20
10.8801695021
 11
12.9047209921
 21
10.8801695021
  0
LINE
  5
446
100
AcDbEntity
  8
0
100
AcDbLine
 62
7
  6
CONTINUOUS
 10
12.4162920716
 20
10.7183865803
 11
12.4349198522
 21
10.6551695021
  0
LINE
  5
447
100
AcDbEntity
  8
0
100
AcDbLine
 62
7
  6
CONTINUOUS
 10
12.1166343259
 20
10.8357268679
 11
12.1629837426
 21
10.6551695021
  0
LINE
  5
448
100
AcDbEntity
  8
0
100
AcDbLine
 62
7
  6
CONTINUOUS
 10
12.1849850448
 20
10.6827444699
 11
12.1392223345
 21
10.8801695021
  0
LINE
  5
449
100
AcDbEntity
  8
0
100
AcDbLine
 62
7
  6
CONTINUOUS
 10
12.8705456795
 20
10.8574348169
 11
12.8721590819
 21
10.6551695021
  0
LINE
  5
44A
100
AcDbEntity
  8
0
100
AcDbLine
 62
7
  6
CONTINUOUS
 10
12.9047209921
 20
10.6551695021
 11
12.9047209921
 21
10.8801695021
  0
LINE
  5
44B
100
AcDbEntity
  8
0
100
AcDbLine
 62
7
  6
CONTINUOUS
 10
11.1621043341
 20
11.3551695021
 11
11.1295424239
 21
11.3551695021
  0
LINE
  5
44C
100
AcDbEntity
  8
0
100
AcDbLine
 62
7
  6
CONTINUOUS
 10
10.816977218
 20
11.3551695021
 11
10.7844152944
 21
11.3551695021
  0
LINE
  5
44D
100
AcDbEntity
  8
0
100
AcDbLine
 62
7
  6
CONTINUOUS
 10
10.6814491862
 20
11.3551695021
 11
10.6488872576
 21
11.3551695021
  0
LINE
  5
44E
100
AcDbEntity
  8
0
100
AcDbLine
 62
7
  6
CONTINUOUS
 10
10.6814491862
 20
11.4522685866
 11
10.7844152944
 21
11.4522685866
  0
LINE
  5
44F
100
AcDbEntity
  8
0
100
AcDbLine
 62
7
  6
CONTINUOUS
 10
10.7844152944
 20
11.48512387
 11
10.6814491862
 21
11.48512387
  0
LINE
  5
450
100
AcDbEntity
  8
0
100
AcDbLine
 62
7
  6
CONTINUOUS
 10
12.6477457883
 20
10.6551695021
 11
12.5782216968
 21
10.7513885404
  0
LINE
  5
451
100
AcDbEntity
  8
0
100
AcDbLine
 62
7
  6
CONTINUOUS
 10
12.5301121475
 20
10.7684028851
 11
12.6100502374
 21
10.6551695021
  0
LINE
  5
452
100
AcDbEntity
  8
0
100
AcDbLine
 62
7
  6
CONTINUOUS
 10
12.3683292391
 20
10.8567014473
 11
12.4064648332
 21
10.7512418638
  0
LINE
  5
453
100
AcDbEntity
  8
0
100
AcDbLine
 62
7
  6
CONTINUOUS
 10
12.4677751424
 20
10.6551695021
 11
12.3963442417
 21
10.8801695021
  0
LINE
  5
454
100
AcDbEntity
  8
0
100
AcDbLine
 62
7
  6
CONTINUOUS
 10
12.7194700422
 20
10.8574348169
 11
12.7779935362
 21
10.6551695021
  0
LINE
  5
455
100
AcDbEntity
  8
0
100
AcDbLine
 62
7
  6
CONTINUOUS
 10
12.7976480129
 20
10.6994654598
 11
12.7467516484
 21
10.8801695021
  0
LINE
  5
456
100
AcDbEntity
  8
0
100
AcDbLine
 62
7
  6
CONTINUOUS
 10
11.0660319792
 20
11.5473142254
 11
11.1295424239
 21
11.5473142254
  0
LINE
  5
457
100
AcDbEntity
  8
0
100
AcDbLine
 62
7
  6
CONTINUOUS
 10
11.1621043341
 20
11.5473142254
 11
11.225614752
 21
11.5473142254
  0
LINE
  5
458
100
AcDbEntity
  8
0
100
AcDbLine
 62
7
  6
CONTINUOUS
 10
11.225614752
 20
11.5801695021
 11
11.0660319792
 21
11.5801695021
  0
LINE
  5
459
100
AcDbEntity
  8
0
100
AcDbLine
 62
7
  6
CONTINUOUS
 10
10.6488872576
 20
11.5801695021
 11
10.6814491862
 21
11.5801695021
  0
LINE
  5
45A
100
AcDbEntity
  8
0
100
AcDbLine
 62
7
  6
CONTINUOUS
 10
10.7844152944
 20
11.5801695021
 11
10.816977218
 21
11.5801695021
  0
ARC
  5
45B
100
AcDbEntity
  8
0
100
AcDbCircle
 62
7
  6
CONTINUOUS
 10
10.6457533271
 20
8.6646692026
 40
0.1199535432
100
AcDbArc
 50
114.0119054487
 51
121.3401457992
  0
ARC
  5
45C
100
AcDbEntity
  8
0
100
AcDbCircle
 62
7
  6
CONTINUOUS
 10
10.6457533271
 20
8.6646692026
 40
0.1199535432
100
AcDbArc
 50
113.6010833309
 51
113.8171506108
  0
ARC
  5
45D
100
AcDbEntity
  8
0
100
AcDbCircle
 62
7
  6
CONTINUOUS
 10
10.6457533271
 20
8.6646692026
 40
0.1199535432
100
AcDbArc
 50
106.7248542608
 51
107.8695679052
  0
ARC
  5
45E
100
AcDbEntity
  8
0
100
AcDbCircle
 62
7
  6
CONTINUOUS
 10
10.6457533271
 20
8.6646692026
 40
0.1199535432
100
AcDbArc
 50
85.5776942799
 51
92.379719788
  0
ARC
  5
45F
100
AcDbEntity
  8
0
100
AcDbCircle
 62
7
  6
CONTINUOUS
 10
10.6457533271
 20
8.6646692026
 40
0.1199535432
100
AcDbArc
 50
81.9360502163
 51
85.3120103434
  0
ARC
  5
460
100
AcDbEntity
  8
0
100
AcDbCircle
 62
9
  6
CONTINUOUS
 10
10.6445933326
 20
8.6675847553
 40
0.1170733548
100
AcDbArc
 50
127.4736319515
 51
128.1785814664
  0
ARC
  5
461
100
AcDbEntity
  8
0
100
AcDbCircle
 62
9
  6
CONTINUOUS
 10
10.644506248
 20
8.6676955012
 40
0.1169324702
100
AcDbArc
 50
128.1786424709
 51
128.7326222232
  0
ARC
  5
462
100
AcDbEntity
  8
0
100
AcDbCircle
 62
9
  6
CONTINUOUS
 10
10.6443078489
 20
8.6679257727
 40
0.1166287061
100
AcDbArc
 50
128.727371489
 51
134.8899473572
  0
ARC
  5
463
100
AcDbEntity
  8
0
100
AcDbCircle
 62
7
  6
CONTINUOUS
 10
10.0891642053
 20
8.4191413647
 40
0.1
100
AcDbArc
 50
135.0
 51
315.0
  0
ARC
  5
464
100
AcDbEntity
  8
0
100
AcDbCircle
 62
9
  6
CONTINUOUS
 10
10.0975532487
 20
8.4366021655
 40
0.0935885911
100
AcDbArc
 50
145.3661377726
 51
146.0561185041
  0
ARC
  5
465
100
AcDbEntity
  8
0
100
AcDbCircle
 62
9
  6
CONTINUOUS
 10
10.1067585275
 20
8.4273413918
 40
0.0933572305
100
AcDbArc
 50
303.9406752037
 51
314.9963843699
  0
ARC
  5
466
100
AcDbEntity
  8
0
100
AcDbCircle
 62
9
  6
CONTINUOUS
 10
10.0973599706
 20
8.4367395731
 40
0.0933514689
100
AcDbArc
 50
135.0034528271
 51
145.368109967
  0
ARC
  5
467
100
AcDbEntity
  8
0
100
AcDbCircle
 62
7
  6
CONTINUOUS
 10
10.3346920432
 20
9.5596085178
 40
0.1199535432
100
AcDbArc
 50
17.0070891576
 51
36.8216202532
  0
ARC
  5
468
100
AcDbEntity
  8
0
100
AcDbCircle
 62
7
  6
CONTINUOUS
 10
10.3346920432
 20
9.5596085178
 40
0.1199535432
100
AcDbArc
 50
355.6025339729
 51
2.3181605292
  0
ARC
  5
469
100
AcDbEntity
  8
0
100
AcDbCircle
 62
9
  6
CONTINUOUS
 10
10.3377199479
 20
9.5608568773
 40
0.1169304162
100
AcDbArc
 50
38.4985249559
 51
38.6576561727
  0
ARC
  5
46A
100
AcDbEntity
  8
0
100
AcDbCircle
 62
9
  6
CONTINUOUS
 10
10.3379467965
 20
9.5610525057
 40
0.116631049
100
AcDbArc
 50
38.7643876871
 51
44.8540337095
  0
ARC
  5
46B
100
AcDbEntity
  8
0
100
AcDbCircle
 62
7
  6
CONTINUOUS
 10
10.0891642053
 20
10.1161976396
 40
0.1
100
AcDbArc
 50
45.0
 51
225.0
  0
ARC
  5
46C
100
AcDbEntity
  8
0
100
AcDbCircle
 62
9
  6
CONTINUOUS
 10
10.1066250061
 20
10.1078085961
 40
0.0935885911
100
AcDbArc
 50
55.3661377727
 51
56.0561185042
  0
ARC
  5
46D
100
AcDbEntity
  8
0
100
AcDbCircle
 62
9
  6
CONTINUOUS
 10
10.0973642324
 20
10.0986033174
 40
0.0933572305
100
AcDbArc
 50
213.9406752038
 51
224.9963843699
  0
ARC
  5
46E
100
AcDbEntity
  8
0
100
AcDbCircle
 62
9
  6
CONTINUOUS
 10
10.1067624137
 20
10.1080018743
 40
0.0933514689
100
AcDbArc
 50
45.0034528271
 51
55.368109967
  0
ARC
  5
46F
100
AcDbEntity
  8
0
100
AcDbCircle
 62
7
  6
CONTINUOUS
 10
11.5406926423
 20
8.9757304865
 40
0.1199535432
100
AcDbArc
 50
204.0127497957
 51
210.8844473525
  0
ARC
  5
470
100
AcDbEntity
  8
0
100
AcDbCircle
 62
7
  6
CONTINUOUS
 10
11.5406926423
 20
8.9757304865
 40
0.1199535432
100
AcDbArc
 50
203.602142495
 51
203.8158335754
  0
ARC
  5
471
100
AcDbEntity
  8
0
100
AcDbCircle
 62
7
  6
CONTINUOUS
 10
11.5406926423
 20
8.9757304865
 40
0.1199535432
100
AcDbArc
 50
196.7474628287
 51
197.8481095631
  0
ARC
  5
472
100
AcDbEntity
  8
0
100
AcDbCircle
 62
7
  6
CONTINUOUS
 10
11.5406926423
 20
8.9757304865
 40
0.1199535432
100
AcDbArc
 50
175.5133233206
 51
182.3532476751
  0
ARC
  5
473
100
AcDbEntity
  8
0
100
AcDbCircle
 62
7
  6
CONTINUOUS
 10
11.5406926423
 20
8.9757304865
 40
0.1199535432
100
AcDbArc
 50
171.9360502163
 51
175.2995571845
  0
ARC
  5
474
100
AcDbEntity
  8
0
100
AcDbCircle
 62
7
  6
CONTINUOUS
 10
11.7862204802
 20
8.4191413647
 40
0.1
100
AcDbArc
 50
225.0
 51
45.0
  0
ARC
  5
475
100
AcDbEntity
  8
0
100
AcDbCircle
 62
9
  6
CONTINUOUS
 10
11.7687596795
 20
8.4275304082
 40
0.0935885912
100
AcDbArc
 50
235.3661377729
 51
236.0561185039
  0
ARC
  5
476
100
AcDbEntity
  8
0
100
AcDbCircle
 62
9
  6
CONTINUOUS
 10
11.778020453
 20
8.4367356869
 40
0.0933572305
100
AcDbArc
 50
33.9406752038
 51
44.9963843699
  0
ARC
  5
477
100
AcDbEntity
  8
0
100
AcDbCircle
 62
9
  6
CONTINUOUS
 10
11.7686222718
 20
8.42733713
 40
0.0933514689
100
AcDbArc
 50
225.0034528271
 51
235.368109967
  0
CIRCLE
  5
478
100
AcDbEntity
  8
0
100
AcDbCircle
 62
7
  6
CONTINUOUS
 10
10.9376923427
 20
9.2676695021
 40
3.875
  0
CIRCLE
  5
479
100
AcDbEntity
  8
0
100
AcDbCircle
 62
9
  6
CONTINUOUS
 10
10.9376923427
 20
9.2676695021
 40
3.625
  0
CIRCLE
  5
47A
100
AcDbEntity
  8
0
100
AcDbCircle
 62
9
  6
CONTINUOUS
 10
10.9376923427
 20
9.2676695021
 40
3.4079209419
  0
CIRCLE
  5
47B
100
AcDbEntity
  8
0
100
AcDbCircle
 62
9
  6
CONTINUOUS
 10
10.9376923427
 20
9.2676695021
 40
3.1909161778
  0
CIRCLE
  5
47C
100
AcDbEntity
  8
0
100
AcDbCircle
 62
9
  6
CONTINUOUS
 10
10.9376923427
 20
9.2676695021
 40
2.9739193698
  0
CIRCLE
  5
47D
100
AcDbEntity
  8
0
100
AcDbCircle
 62
9
  6
CONTINUOUS
 10
10.9376923427
 20
9.2676695021
 40
2.7568387396
  0
ARC
  5
47E
100
AcDbEntity
  8
0
100
AcDbCircle
 62
7
  6
CONTINUOUS
 10
10.9376923427
 20
9.2676695021
 40
1.18
100
AcDbArc
 50
229.8643621123
 51
310.1356378877
  0
ARC
  5
47F
100
AcDbEntity
  8
0
100
AcDbCircle
 62
7
  6
CONTINUOUS
 10
10.9376923427
 20
9.2676695021
 40
1.18
100
AcDbArc
 50
139.861801679
 51
220.138198321
  0
ARC
  5
480
100
AcDbEntity
  8
0
100
AcDbCircle
 62
7
  6
CONTINUOUS
 10
10.9376923427
 20
9.2676695021
 40
1.18
100
AcDbArc
 50
49.8643621123
 51
130.1356378877
  0
ARC
  5
481
100
AcDbEntity
  8
0
100
AcDbCircle
 62
7
  6
CONTINUOUS
 10
10.9376923427
 20
9.2676695021
 40
1.18
100
AcDbArc
 50
319.861801679
 51
40.138198321
  0
ARC
  5
482
100
AcDbEntity
  8
0
100
AcDbCircle
 62
7
  6
CONTINUOUS
 10
10.9376923427
 20
9.2676695021
 40
1.0000026738
100
AcDbArc
 50
50.7428516063
 51
129.2571483937
  0
ARC
  5
483
100
AcDbEntity
  8
0
100
AcDbCircle
 62
7
  6
CONTINUOUS
 10
10.9376923427
 20
9.2676695021
 40
1.0000026738
100
AcDbArc
 50
320.7428516063
 51
39.2571483937
  0
ARC
  5
484
100
AcDbEntity
  8
0
100
AcDbCircle
 62
7
  6
CONTINUOUS
 10
10.9376923427
 20
9.2676695021
 40
1.0000026738
100
AcDbArc
 50
230.7428516063
 51
309.2571483937
  0
ARC
  5
485
100
AcDbEntity
  8
0
100
AcDbCircle
 62
7
  6
CONTINUOUS
 10
10.9376923427
 20
9.2676695021
 40
1.0000026738
100
AcDbArc
 50
140.7428516063
 51
219.2571483937
  0
ARC
  5
486
100
AcDbEntity
  8
0
100
AcDbCircle
 62
9
  6
CONTINUOUS
 10
10.9376923427
 20
9.2676695021
 40
0.8130026738
100
AcDbArc
 50
232.067814045
 51
307.932185955
  0
ARC
  5
487
100
AcDbEntity
  8
0
100
AcDbCircle
 62
9
  6
CONTINUOUS
 10
10.9376923427
 20
9.2676695021
 40
0.8130026738
100
AcDbArc
 50
322.0701184353
 51
37.9298815647
  0
ARC
  5
488
100
AcDbEntity
  8
0
100
AcDbCircle
 62
9
  6
CONTINUOUS
 10
10.9376923427
 20
9.2676695021
 40
0.8130026738
100
AcDbArc
 50
52.067814045
 51
127.932185955
  0
ARC
  5
489
100
AcDbEntity
  8
0
100
AcDbCircle
 62
9
  6
CONTINUOUS
 10
10.9376923427
 20
9.2676695021
 40
0.8130026738
100
AcDbArc
 50
142.0701184353
 51
217.9298815647
  0
ARC
  5
48A
100
AcDbEntity
  8
0
100
AcDbCircle
 62
7
  6
CONTINUOUS
 10
10.9376923427
 20
9.2676695021
 40
0.741
100
AcDbArc
 50
232.7584559553
 51
237.6295013938
  0
ARC
  5
48B
100
AcDbEntity
  8
0
100
AcDbCircle
 62
7
  6
CONTINUOUS
 10
10.9376923427
 20
9.2676695021
 40
0.741
100
AcDbArc
 50
182.3704986062
 51
217.2404879099
  0
ARC
  5
48C
100
AcDbEntity
  8
0
100
AcDbCircle
 62
7
  6
CONTINUOUS
 10
10.9376923427
 20
9.2676695021
 40
0.741
100
AcDbArc
 50
242.3704986062
 51
297.6295013938
  0
ARC
  5
48D
100
AcDbEntity
  8
0
100
AcDbCircle
 62
7
  6
CONTINUOUS
 10
10.9376923427
 20
9.2676695021
 40
0.741
100
AcDbArc
 50
322.7595120901
 51
357.6295013938
  0
ARC
  5
48E
100
AcDbEntity
  8
0
100
AcDbCircle
 62
7
  6
CONTINUOUS
 10
10.9376923427
 20
9.2676695021
 40
0.741
100
AcDbArc
 50
302.3704986062
 51
307.2415440447
  0
ARC
  5
48F
100
AcDbEntity
  8
0
100
AcDbCircle
 62
7
  6
CONTINUOUS
 10
10.9376923427
 20
9.2676695021
 40
0.741
100
AcDbArc
 50
2.3704986062
 51
37.2404876386
  0
ARC
  5
490
100
AcDbEntity
  8
0
100
AcDbCircle
 62
7
  6
CONTINUOUS
 10
10.9376923427
 20
9.2676695021
 40
0.741
100
AcDbArc
 50
52.7584560019
 51
57.6295013938
  0
ARC
  5
491
100
AcDbEntity
  8
0
100
AcDbCircle
 62
7
  6
CONTINUOUS
 10
10.9376923427
 20
9.2676695021
 40
0.741
100
AcDbArc
 50
62.3704986062
 51
117.6295013938
  0
ARC
  5
492
100
AcDbEntity
  8
0
100
AcDbCircle
 62
7
  6
CONTINUOUS
 10
10.9376923427
 20
9.2676695021
 40
0.741
100
AcDbArc
 50
122.3704986062
 51
127.2415439981
  0
ARC
  5
493
100
AcDbEntity
  8
0
100
AcDbCircle
 62
7
  6
CONTINUOUS
 10
10.9376923427
 20
9.2676695021
 40
0.741
100
AcDbArc
 50
142.7595123614
 51
177.6295013938
  0
ARC
  5
494
100
AcDbEntity
  8
0
100
AcDbCircle
 62
7
  6
CONTINUOUS
 10
10.9376923427
 20
9.2676695021
 40
0.6515
100
AcDbArc
 50
233.8354207585
 51
306.1645792415
  0
ARC
  5
495
100
AcDbEntity
  8
0
100
AcDbCircle
 62
7
  6
CONTINUOUS
 10
10.9376923427
 20
9.2676695021
 40
0.6515
100
AcDbArc
 50
143.8337633328
 51
216.1662366672
  0
ARC
  5
496
100
AcDbEntity
  8
0
100
AcDbCircle
 62
7
  6
CONTINUOUS
 10
10.9376923427
 20
9.2676695021
 40
0.6515
100
AcDbArc
 50
53.8354207585
 51
126.1645792415
  0
ARC
  5
497
100
AcDbEntity
  8
0
100
AcDbCircle
 62
7
  6
CONTINUOUS
 10
10.9376923427
 20
9.2676695021
 40
0.6515
100
AcDbArc
 50
323.8337633328
 51
36.1662366672
  0
ARC
  5
498
100
AcDbEntity
  8
0
100
AcDbCircle
 62
9
  6
CONTINUOUS
 10
10.9376923427
 20
9.2676695021
 40
0.6146339942
100
AcDbArc
 50
234.6827751293
 51
305.3270900142
  0
ARC
  5
499
100
AcDbEntity
  8
0
100
AcDbCircle
 62
9
  6
CONTINUOUS
 10
10.9376923427
 20
9.2676695021
 40
0.6146339942
100
AcDbArc
 50
144.6827751293
 51
215.3270768713
  0
ARC
  5
49A
100
AcDbEntity
  8
0
100
AcDbCircle
 62
9
  6
CONTINUOUS
 10
10.9376923427
 20
9.2676695021
 40
0.6146339942
100
AcDbArc
 50
54.6827751293
 51
125.316694825
  0
ARC
  5
49B
100
AcDbEntity
  8
0
100
AcDbCircle
 62
9
  6
CONTINUOUS
 10
10.9376923427
 20
9.2676695021
 40
0.6146339942
100
AcDbArc
 50
324.6827751293
 51
35.3270900225
  0
CIRCLE
  5
49C
100
AcDbEntity
  8
0
100
AcDbCircle
 62
7
  6
CONTINUOUS
 10
10.9376923427
 20
9.2676695021
 40
0.5575
  0
ARC
  5
49D
100
AcDbEntity
  8
0
100
AcDbCircle
 62
7
  6
CONTINUOUS
 10
10.9376923427
 20
9.2676695021
 40
0.5575
100
AcDbArc
 50
310.263160283
 51
130.263160283
  0
CIRCLE
  5
49E
100
AcDbEntity
  8
0
100
AcDbCircle
 62
7
  6
CONTINUOUS
 10
10.9376923427
 20
9.2676695021
 40
0.5175
  0
CIRCLE
  5
49F
100
AcDbEntity
  8
0
100
AcDbCircle
 62
9
  6
CONTINUOUS
 10
10.9376923427
 20
9.2676695021
 40
0.4249700199
  0
CIRCLE
  5
4A0
100
AcDbEntity
  8
0
100
AcDbCircle
 62
7
  6
CONTINUOUS
 10
10.9376923427
 20
9.2676695021
 40
0.4075
  0
CIRCLE
  5
4A1
100
AcDbEntity
  8
0
100
AcDbCircle
 62
7
  6
CONTINUOUS
 10
10.9376923427
 20
9.2676695021
 40
0.4
  0
CIRCLE
  5
4A2
100
AcDbEntity
  8
0
100
AcDbCircle
 62
9
  6
CONTINUOUS
 10
10.9376923427
 20
9.2676695021
 40
0.392917847
  0
ARC
  5
4A3
100
AcDbEntity
  8
0
100
AcDbCircle
 62
7
  6
CONTINUOUS
 10
11.2296313584
 20
9.8706698017
 40
0.1199535432
100
AcDbArc
 50
294.0126830638
 51
301.3398710496
  0
ARC
  5
4A4
100
AcDbEntity
  8
0
100
AcDbCircle
 62
7
  6
CONTINUOUS
 10
11.2296313584
 20
9.8706698017
 40
0.1199535432
100
AcDbArc
 50
286.7250947161
 51
293.8160663139
  0
ARC
  5
4A5
100
AcDbEntity
  8
0
100
AcDbCircle
 62
7
  6
CONTINUOUS
 10
11.2296313584
 20
9.8706698017
 40
0.1199535432
100
AcDbArc
 50
265.5131694111
 51
272.3531684936
  0
ARC
  5
4A6
100
AcDbEntity
  8
0
100
AcDbCircle
 62
7
  6
CONTINUOUS
 10
11.2296313584
 20
9.8706698017
 40
0.1199535432
100
AcDbArc
 50
261.9360502163
 51
265.2994153516
  0
ARC
  5
4A7
100
AcDbEntity
  8
0
100
AcDbCircle
 62
9
  6
CONTINUOUS
 10
11.2308765751
 20
9.8676458361
 40
0.1169354554
100
AcDbArc
 50
308.4985286904
 51
308.8485397942
  0
ARC
  5
4A8
100
AcDbEntity
  8
0
100
AcDbCircle
 62
9
  6
CONTINUOUS
 10
11.2310784153
 20
9.8674118285
 40
0.1166266021
100
AcDbArc
 50
308.8434255988
 51
314.8513148439
  0
ARC
  5
4A9
100
AcDbEntity
  8
0
100
AcDbCircle
 62
7
  6
CONTINUOUS
 10
11.7862204802
 20
10.1161976396
 40
0.1
100
AcDbArc
 50
315.0
 51
135.0
  0
ARC
  5
4AA
100
AcDbEntity
  8
0
100
AcDbCircle
 62
9
  6
CONTINUOUS
 10
11.7778314368
 20
10.0987368388
 40
0.093588591
100
AcDbArc
 50
325.3661377723
 51
326.0561185045
  0
ARC
  5
4AB
100
AcDbEntity
  8
0
100
AcDbCircle
 62
9
  6
CONTINUOUS
 10
11.768626158
 20
10.1079976124
 40
0.0933572305
100
AcDbArc
 50
123.9406752038
 51
134.9963843699
  0
ARC
  5
4AC
100
AcDbEntity
  8
0
100
AcDbCircle
 62
9
  6
CONTINUOUS
 10
11.7780247149
 20
10.0985994312
 40
0.0933514689
100
AcDbArc
 50
315.0034528271
 51
325.368109967
  0
SPLINE
  5
4AD
100
AcDbEntity
  8
0
100
AcDbSpline
 62
7
  6
CONTINUOUS
 70
0
 71
3
 72
8
 73
4
 74
0
 42
0.0000001
 43
0.0000001
 44
0.0000000001
 40
0.0
 40
0.0
 40
0.0
 40
0.0
 40
1.0
 40
1.0
 40
1.0
 40
1.0
 10
10.9514785336
 20
11.3506225661
 30
0.0
 10
10.981693645
 20
11.3506225661
 30
0.0
 10
11.00486836
 20
11.3610365167
 30
0.0
 10
11.0211493149
 20
11.3821577687
 30
0.0
  0
SPLINE
  5
4AE
100
AcDbEntity
  8
0
100
AcDbSpline
 62
7
  6
CONTINUOUS
 70
0
 71
3
 72
8
 73
4
 74
0
 42
0.0000001
 43
0.0000001
 44
0.0000000001
 40
0.0
 40
0.0
 40
0.0
 40
0.0
 40
1.0
 40
1.0
 40
1.0
 40
1.0
 10
11.0211493149
 20
11.3821577687
 30
0.0
 10
11.0374302702
 20
11.4032790213
 30
0.0
 10
11.0456441061
 20
11.4332007962
 30
0.0
 10
11.0456441061
 20
11.4722164365
 30
0.0
  0
SPLINE
  5
4AF
100
AcDbEntity
  8
0
100
AcDbSpline
 62
7
  6
CONTINUOUS
 70
0
 71
3
 72
8
 73
4
 74
0
 42
0.0000001
 43
0.0000001
 44
0.0000000001
 40
0.0
 40
0.0
 40
0.0
 40
0.0
 40
1.0
 40
1.0
 40
1.0
 40
1.0
 10
11.0456441061
 20
11.4722164365
 30
0.0
 10
11.0456441061
 20
11.5107920604
 30
0.0
 10
11.0378703134
 20
11.5388070496
 30
0.0
 10
11.0225729481
 20
11.5571053317
 30
0.0
  0
SPLINE
  5
4B0
100
AcDbEntity
  8
0
100
AcDbSpline
 62
7
  6
CONTINUOUS
 70
0
 71
3
 72
8
 73
4
 74
0
 42
0.0000001
 43
0.0000001
 44
0.0000000001
 40
0.0
 40
0.0
 40
0.0
 40
0.0
 40
1.0
 40
1.0
 40
1.0
 40
1.0
 10
11.0225729481
 20
11.5571053317
 30
0.0
 10
11.0072151588
 20
11.5754758912
 30
0.0
 10
10.9834537642
 20
11.5847164365
 30
0.0
 10
10.9514785336
 20
11.5847164365
 30
0.0
  0
SPLINE
  5
4B1
100
AcDbEntity
  8
0
100
AcDbSpline
 62
7
  6
CONTINUOUS
 70
0
 71
3
 72
8
 73
4
 74
0
 42
0.0000001
 43
0.0000001
 44
0.0000000001
 40
0.0
 40
0.0
 40
0.0
 40
0.0
 40
1.0
 40
1.0
 40
1.0
 40
1.0
 10
10.9514785336
 20
11.5847164365
 30
0.0
 10
10.9214100854
 20
11.5847164365
 30
0.0
 10
10.8982353704
 20
11.5748891848
 30
0.0
 10
10.8819113858
 20
11.5554175257
 30
0.0
  0
SPLINE
  5
4B2
100
AcDbEntity
  8
0
100
AcDbSpline
 62
7
  6
CONTINUOUS
 70
0
 71
3
 72
8
 73
4
 74
0
 42
0.0000001
 43
0.0000001
 44
0.0000000001
 40
0.0
 40
0.0
 40
0.0
 40
0.0
 40
1.0
 40
1.0
 40
1.0
 40
1.0
 10
10.8819113858
 20
11.5554175257
 30
0.0
 10
10.8655267702
 20
11.5358735445
 30
0.0
 10
10.8574596243
 20
11.5081518951
 30
0.0
 10
10.8574596243
 20
11.4722164365
 30
0.0
  0
SPLINE
  5
4B3
100
AcDbEntity
  8
0
100
AcDbSpline
 62
7
  6
CONTINUOUS
 70
0
 71
3
 72
8
 73
4
 74
0
 42
0.0000001
 43
0.0000001
 44
0.0000000001
 40
0.0
 40
0.0
 40
0.0
 40
0.0
 40
1.0
 40
1.0
 40
1.0
 40
1.0
 10
10.8574596243
 20
11.4722164365
 30
0.0
 10
10.8574596243
 20
11.4332007962
 30
0.0
 10
10.8655267702
 20
11.4032790213
 30
0.0
 10
10.8819085233
 20
11.3821223139
 30
0.0
  0
SPLINE
  5
4B4
100
AcDbEntity
  8
0
100
AcDbSpline
 62
7
  6
CONTINUOUS
 70
0
 71
3
 72
8
 73
4
 74
0
 42
0.0000001
 43
0.0000001
 44
0.0000000001
 40
0.0
 40
0.0
 40
0.0
 40
0.0
 40
1.0
 40
1.0
 40
1.0
 40
1.0
 10
10.8819085233
 20
11.3821223139
 30
0.0
 10
10.8982353704
 20
11.3610365167
 30
0.0
 10
10.9214100854
 20
11.3506225661
 30
0.0
 10
10.9514785336
 20
11.3506225661
 30
0.0
  0
SPLINE
  5
4B5
100
AcDbEntity
  8
0
100
AcDbSpline
 62
7
  6
CONTINUOUS
 70
0
 71
3
 72
8
 73
4
 74
0
 42
0.0000001
 43
0.0000001
 44
0.0000000001
 40
0.0
 40
0.0
 40
0.0
 40
0.0
 40
1.0
 40
1.0
 40
1.0
 40
1.0
 10
12.5782216968
 20
10.7513885404
 30
0.0
 10
12.6009563687
 20
10.7515352103
 30
0.0
 10
12.6182640734
 20
10.7572555507
 30
0.0
 10
12.6299613705
 20
10.7687335316
 30
0.0
  0
SPLINE
  5
4B6
100
AcDbEntity
  8
0
100
AcDbSpline
 62
7
  6
CONTINUOUS
 70
0
 71
3
 72
8
 73
4
 74
0
 42
0.0000001
 43
0.0000001
 44
0.0000000001
 40
0.0
 40
0.0
 40
0.0
 40
0.0
 40
1.0
 40
1.0
 40
1.0
 40
1.0
 10
12.6299613705
 20
10.7687335316
 30
0.0
 10
12.6417321148
 20
10.7802835825
 30
0.0
 10
12.6477457883
 20
10.7977379503
 30
0.0
 10
12.6477457883
 20
10.820912652
 30
0.0
  0
SPLINE
  5
4B7
100
AcDbEntity
  8
0
100
AcDbSpline
 62
7
  6
CONTINUOUS
 70
0
 71
3
 72
8
 73
4
 74
0
 42
0.0000001
 43
0.0000001
 44
0.0000000001
 40
0.0
 40
0.0
 40
0.0
 40
0.0
 40
1.0
 40
1.0
 40
1.0
 40
1.0
 10
12.6477457883
 20
10.820912652
 30
0.0
 10
12.6477457883
 20
10.8398337724
 30
0.0
 10
12.6420254411
 20
10.8545013117
 30
0.0
 10
12.6308447641
 20
10.8647320137
 30
0.0
  0
SPLINE
  5
4B8
100
AcDbEntity
  8
0
100
AcDbSpline
 62
7
  6
CONTINUOUS
 70
0
 71
3
 72
8
 73
4
 74
0
 42
0.0000001
 43
0.0000001
 44
0.0000000001
 40
0.0
 40
0.0
 40
0.0
 40
0.0
 40
1.0
 40
1.0
 40
1.0
 40
1.0
 10
12.6308447641
 20
10.8647320137
 30
0.0
 10
12.6195841493
 20
10.8750358614
 30
0.0
 10
12.6035965206
 20
10.8801695021
 30
0.0
 10
12.5827686312
 20
10.8801695021
 30
0.0
  0
SPLINE
  5
4B9
100
AcDbEntity
  8
0
100
AcDbSpline
 62
7
  6
CONTINUOUS
 70
0
 71
3
 72
8
 73
4
 74
0
 42
0.0000001
 43
0.0000001
 44
0.0000000001
 40
0.0
 40
0.0
 40
0.0
 40
0.0
 40
1.0
 40
1.0
 40
1.0
 40
1.0
 10
12.2387757801
 20
7.7180932338
 30
0.0
 10
12.2255750068
 20
7.7035723711
 30
0.0
 10
12.2141343259
 20
7.6935984461
 30
0.0
 10
12.2047282616
 20
7.6880568884
 30
0.0
  0
SPLINE
  5
4BA
100
AcDbEntity
  8
0
100
AcDbSpline
 62
7
  6
CONTINUOUS
 70
0
 71
3
 72
8
 73
4
 74
0
 42
0.0000001
 43
0.0000001
 44
0.0000000001
 40
0.0
 40
0.0
 40
0.0
 40
0.0
 40
1.0
 40
1.0
 40
1.0
 40
1.0
 10
12.2047282616
 20
7.6880568884
 30
0.0
 10
12.1952132054
 20
7.6824511184
 30
0.0
 10
12.1846525841
 20
7.6798109631
 30
0.0
 10
12.1730652266
 20
7.6798109631
 30
0.0
  0
SPLINE
  5
4BB
100
AcDbEntity
  8
0
100
AcDbSpline
 62
7
  6
CONTINUOUS
 70
0
 71
3
 72
8
 73
4
 74
0
 42
0.0000001
 43
0.0000001
 44
0.0000000001
 40
0.0
 40
0.0
 40
0.0
 40
0.0
 40
1.0
 40
1.0
 40
1.0
 40
1.0
 10
12.1730652266
 20
7.6798109631
 30
0.0
 10
12.1538507529
 20
7.6798109631
 30
0.0
 10
12.1390365437
 20
7.6874380826
 30
0.0
 10
12.1285722434
 20
7.7029515876
 30
0.0
  0
SPLINE
  5
4BC
100
AcDbEntity
  8
0
100
AcDbSpline
 62
7
  6
CONTINUOUS
 70
0
 71
3
 72
8
 73
4
 74
0
 42
0.0000001
 43
0.0000001
 44
0.0000000001
 40
0.0
 40
0.0
 40
0.0
 40
0.0
 40
1.0
 40
1.0
 40
1.0
 40
1.0
 10
12.1285722434
 20
7.7029515876
 30
0.0
 10
12.1180619643
 20
7.7185332569
 30
0.0
 10
12.1129283269
 20
7.7405345591
 30
0.0
 10
12.1129283269
 20
7.7691362547
 30
0.0
  0
SPLINE
  5
4BD
100
AcDbEntity
  8
0
100
AcDbSpline
 62
7
  6
CONTINUOUS
 70
0
 71
3
 72
8
 73
4
 74
0
 42
0.0000001
 43
0.0000001
 44
0.0000000001
 40
0.0
 40
0.0
 40
0.0
 40
0.0
 40
1.0
 40
1.0
 40
1.0
 40
1.0
 10
12.1129283269
 20
7.7691362547
 30
0.0
 10
12.1129283269
 20
7.7955378147
 30
0.0
 10
12.1180619643
 20
7.8159257012
 30
0.0
 10
12.1285746694
 20
7.8303347157
 30
0.0
  0
SPLINE
  5
4BE
100
AcDbEntity
  8
0
100
AcDbSpline
 62
7
  6
CONTINUOUS
 70
0
 71
3
 72
8
 73
4
 74
0
 42
0.0000001
 43
0.0000001
 44
0.0000000001
 40
0.0
 40
0.0
 40
0.0
 40
0.0
 40
1.0
 40
1.0
 40
1.0
 40
1.0
 10
12.1285746694
 20
7.8303347157
 30
0.0
 10
12.1390365437
 20
7.84467406
 30
0.0
 10
12.1538507529
 20
7.8518611597
 30
0.0
 10
12.1730652266
 20
7.8518611597
 30
0.0
  0
SPLINE
  5
4BF
100
AcDbEntity
  8
0
100
AcDbSpline
 62
7
  6
CONTINUOUS
 70
0
 71
3
 72
8
 73
4
 74
0
 42
0.0000001
 43
0.0000001
 44
0.0000000001
 40
0.0
 40
0.0
 40
0.0
 40
0.0
 40
1.0
 40
1.0
 40
1.0
 40
1.0
 10
12.1730652266
 20
7.8518611597
 30
0.0
 10
12.1874394127
 20
7.8518611597
 30
0.0
 10
12.2003468462
 20
7.8484876248
 30
0.0
 10
12.2117875184
 20
7.8417405627
 30
0.0
  0
SPLINE
  5
4C0
100
AcDbEntity
  8
0
100
AcDbSpline
 62
7
  6
CONTINUOUS
 70
0
 71
3
 72
8
 73
4
 74
0
 42
0.0000001
 43
0.0000001
 44
0.0000000001
 40
0.0
 40
0.0
 40
0.0
 40
0.0
 40
1.0
 40
1.0
 40
1.0
 40
1.0
 10
12.2117875184
 20
7.8417405627
 30
0.0
 10
12.2232281946
 20
7.8349934983
 30
0.0
 10
12.2321754002
 20
7.8254595997
 30
0.0
 10
12.2387757801
 20
7.8131388592
 30
0.0
  0
SPLINE
  5
4C1
100
AcDbEntity
  8
0
100
AcDbSpline
 62
7
  6
CONTINUOUS
 70
0
 71
3
 72
8
 73
4
 74
0
 42
0.0000001
 43
0.0000001
 44
0.0000000001
 40
0.0
 40
0.0
 40
0.0
 40
0.0
 40
1.0
 40
1.0
 40
1.0
 40
1.0
 10
12.2387757801
 20
7.8577281701
 30
0.0
 10
12.231148664
 20
7.8668220388
 30
0.0
 10
12.2219081186
 20
7.8735691088
 30
0.0
 10
12.2107607932
 20
7.8779693724
 30
0.0
  0
SPLINE
  5
4C2
100
AcDbEntity
  8
0
100
AcDbSpline
 62
7
  6
CONTINUOUS
 70
0
 71
3
 72
8
 73
4
 74
0
 42
0.0000001
 43
0.0000001
 44
0.0000000001
 40
0.0
 40
0.0
 40
0.0
 40
0.0
 40
1.0
 40
1.0
 40
1.0
 40
1.0
 10
12.2107607932
 20
7.8779693724
 30
0.0
 10
12.1996134632
 20
7.8823696377
 30
0.0
 10
12.1865593531
 20
7.8847164365
 30
0.0
 10
12.1714517974
 20
7.8847164365
 30
0.0
  0
SPLINE
  5
4C3
100
AcDbEntity
  8
0
100
AcDbSpline
 62
7
  6
CONTINUOUS
 70
0
 71
3
 72
8
 73
4
 74
0
 42
0.0000001
 43
0.0000001
 44
0.0000000001
 40
0.0
 40
0.0
 40
0.0
 40
0.0
 40
1.0
 40
1.0
 40
1.0
 40
1.0
 10
12.1714517974
 20
7.8847164365
 30
0.0
 10
12.1422634021
 20
7.8847164365
 30
0.0
 10
12.1198220701
 20
7.8748891848
 30
0.0
 10
12.1039811342
 20
7.8553813691
 30
0.0
  0
SPLINE
  5
4C4
100
AcDbEntity
  8
0
100
AcDbSpline
 62
7
  6
CONTINUOUS
 70
0
 71
3
 72
8
 73
4
 74
0
 42
0.0000001
 43
0.0000001
 44
0.0000000001
 40
0.0
 40
0.0
 40
0.0
 40
0.0
 40
1.0
 40
1.0
 40
1.0
 40
1.0
 10
12.1039811342
 20
7.8553813691
 30
0.0
 10
12.088140191
 20
7.8358735445
 30
0.0
 10
12.0803663974
 20
7.8081518951
 30
0.0
 10
12.0803663974
 20
7.7722164365
 30
0.0
  0
SPLINE
  5
4C5
100
AcDbEntity
  8
0
100
AcDbSpline
 62
7
  6
CONTINUOUS
 70
0
 71
3
 72
8
 73
4
 74
0
 42
0.0000001
 43
0.0000001
 44
0.0000000001
 40
0.0
 40
0.0
 40
0.0
 40
0.0
 40
1.0
 40
1.0
 40
1.0
 40
1.0
 10
12.0803663974
 20
7.7722164365
 30
0.0
 10
12.0803663974
 20
7.7332007962
 30
0.0
 10
12.088140191
 20
7.7032790213
 30
0.0
 10
12.103981131
 20
7.6821577683
 30
0.0
  0
SPLINE
  5
4C6
100
AcDbEntity
  8
0
100
AcDbSpline
 62
7
  6
CONTINUOUS
 70
0
 71
3
 72
8
 73
4
 74
0
 42
0.0000001
 43
0.0000001
 44
0.0000000001
 40
0.0
 40
0.0
 40
0.0
 40
0.0
 40
1.0
 40
1.0
 40
1.0
 40
1.0
 10
12.103981131
 20
7.6821577683
 30
0.0
 10
12.1198220701
 20
7.6610365167
 30
0.0
 10
12.1422634021
 20
7.6506225661
 30
0.0
 10
12.1714517974
 20
7.6506225661
 30
0.0
  0
SPLINE
  5
4C7
100
AcDbEntity
  8
0
100
AcDbSpline
 62
7
  6
CONTINUOUS
 70
0
 71
3
 72
8
 73
4
 74
0
 42
0.0000001
 43
0.0000001
 44
0.0000000001
 40
0.0
 40
0.0
 40
0.0
 40
0.0
 40
1.0
 40
1.0
 40
1.0
 40
1.0
 10
12.1714517974
 20
7.6506225661
 30
0.0
 10
12.1849459239
 20
7.6506225661
 30
0.0
 10
12.1977066808
 20
7.6534093978
 30
0.0
 10
12.2094133646
 20
7.6586042395
 30
0.0
  0
SPLINE
  5
4C8
100
AcDbEntity
  8
0
100
AcDbSpline
 62
7
  6
CONTINUOUS
 70
0
 71
3
 72
8
 73
4
 74
0
 42
0.0000001
 43
0.0000001
 44
0.0000000001
 40
0.0
 40
0.0
 40
0.0
 40
0.0
 40
1.0
 40
1.0
 40
1.0
 40
1.0
 10
12.2094133646
 20
7.6586042395
 30
0.0
 10
12.2211747356
 20
7.6638233486
 30
0.0
 10
12.2310019874
 20
7.6713037924
 30
0.0
 10
12.2387757801
 20
7.6809843658
 30
0.0
  0
SPLINE
  5
4C9
100
AcDbEntity
  8
0
100
AcDbSpline
 62
7
  6
CONTINUOUS
 70
0
 71
3
 72
8
 73
4
 74
0
 42
0.0000001
 43
0.0000001
 44
0.0000000001
 40
0.0
 40
0.0
 40
0.0
 40
0.0
 40
1.0
 40
1.0
 40
1.0
 40
1.0
 10
12.3586095431
 20
7.6506225661
 30
0.0
 10
12.3888246813
 20
7.6506225661
 30
0.0
 10
12.4119993963
 20
7.6610365167
 30
0.0
 10
12.4282803512
 20
7.6821577687
 30
0.0
  0
SPLINE
  5
4CA
100
AcDbEntity
  8
0
100
AcDbSpline
 62
7
  6
CONTINUOUS
 70
0
 71
3
 72
8
 73
4
 74
0
 42
0.0000001
 43
0.0000001
 44
0.0000000001
 40
0.0
 40
0.0
 40
0.0
 40
0.0
 40
1.0
 40
1.0
 40
1.0
 40
1.0
 10
12.4282803512
 20
7.6821577687
 30
0.0
 10
12.4445613065
 20
7.7032790213
 30
0.0
 10
12.4527751424
 20
7.7332007962
 30
0.0
 10
12.4527751424
 20
7.7722164365
 30
0.0
  0
SPLINE
  5
4CB
100
AcDbEntity
  8
0
100
AcDbSpline
 62
7
  6
CONTINUOUS
 70
0
 71
3
 72
8
 73
4
 74
0
 42
0.0000001
 43
0.0000001
 44
0.0000000001
 40
0.0
 40
0.0
 40
0.0
 40
0.0
 40
1.0
 40
1.0
 40
1.0
 40
1.0
 10
12.4527751424
 20
7.7722164365
 30
0.0
 10
12.4527751424
 20
7.8107920604
 30
0.0
 10
12.4450013497
 20
7.8388070496
 30
0.0
 10
12.4297039733
 20
7.8571053449
 30
0.0
  0
SPLINE
  5
4CC
100
AcDbEntity
  8
0
100
AcDbSpline
 62
7
  6
CONTINUOUS
 70
0
 71
3
 72
8
 73
4
 74
0
 42
0.0000001
 43
0.0000001
 44
0.0000000001
 40
0.0
 40
0.0
 40
0.0
 40
0.0
 40
1.0
 40
1.0
 40
1.0
 40
1.0
 10
12.4297039733
 20
7.8571053449
 30
0.0
 10
12.4143461951
 20
7.8754758912
 30
0.0
 10
12.3905847736
 20
7.8847164365
 30
0.0
 10
12.3586095431
 20
7.8847164365
 30
0.0
  0
SPLINE
  5
4CD
100
AcDbEntity
  8
0
100
AcDbSpline
 62
7
  6
CONTINUOUS
 70
0
 71
3
 72
8
 73
4
 74
0
 42
0.0000001
 43
0.0000001
 44
0.0000000001
 40
0.0
 40
0.0
 40
0.0
 40
0.0
 40
1.0
 40
1.0
 40
1.0
 40
1.0
 10
12.3586095431
 20
7.8847164365
 30
0.0
 10
12.3285410949
 20
7.8847164365
 30
0.0
 10
12.3053664067
 20
7.8748891848
 30
0.0
 10
12.2890424126
 20
7.8554175224
 30
0.0
  0
SPLINE
  5
4CE
100
AcDbEntity
  8
0
100
AcDbSpline
 62
7
  6
CONTINUOUS
 70
0
 71
3
 72
8
 73
4
 74
0
 42
0.0000001
 43
0.0000001
 44
0.0000000001
 40
0.0
 40
0.0
 40
0.0
 40
0.0
 40
1.0
 40
1.0
 40
1.0
 40
1.0
 10
12.2890424126
 20
7.8554175224
 30
0.0
 10
12.2726577931
 20
7.8358735445
 30
0.0
 10
12.2645906471
 20
7.8081518951
 30
0.0
 10
12.2645906471
 20
7.7722164365
 30
0.0
  0
SPLINE
  5
4CF
100
AcDbEntity
  8
0
100
AcDbSpline
 62
7
  6
CONTINUOUS
 70
0
 71
3
 72
8
 73
4
 74
0
 42
0.0000001
 43
0.0000001
 44
0.0000000001
 40
0.0
 40
0.0
 40
0.0
 40
0.0
 40
1.0
 40
1.0
 40
1.0
 40
1.0
 10
12.2645906471
 20
7.7722164365
 30
0.0
 10
12.2645906471
 20
7.7332007962
 30
0.0
 10
12.2726577931
 20
7.7032790213
 30
0.0
 10
12.2890395504
 20
7.6821223171
 30
0.0
  0
SPLINE
  5
4D0
100
AcDbEntity
  8
0
100
AcDbSpline
 62
7
  6
CONTINUOUS
 70
0
 71
3
 72
8
 73
4
 74
0
 42
0.0000001
 43
0.0000001
 44
0.0000000001
 40
0.0
 40
0.0
 40
0.0
 40
0.0
 40
1.0
 40
1.0
 40
1.0
 40
1.0
 10
12.2890395504
 20
7.6821223171
 30
0.0
 10
12.3053664067
 20
7.6610365167
 30
0.0
 10
12.3285410949
 20
7.6506225661
 30
0.0
 10
12.3586095431
 20
7.6506225661
 30
0.0
  0
SPLINE
  5
4D1
100
AcDbEntity
  8
0
100
AcDbSpline
 62
7
  6
CONTINUOUS
 70
0
 71
3
 72
8
 73
4
 74
0
 42
0.0000001
 43
0.0000001
 44
0.0000000001
 40
0.0
 40
0.0
 40
0.0
 40
0.0
 40
1.0
 40
1.0
 40
1.0
 40
1.0
 10
12.7157640734
 20
7.6551695021
 30
0.0
 10
12.7474459507
 20
7.6551695021
 30
0.0
 10
12.7725273945
 20
7.6655834527
 30
0.0
 10
12.7911502889
 20
7.6867090093
 30
0.0
  0
SPLINE
  5
4D2
100
AcDbEntity
  8
0
100
AcDbSpline
 62
7
  6
CONTINUOUS
 70
0
 71
3
 72
8
 73
4
 74
0
 42
0.0000001
 43
0.0000001
 44
0.0000000001
 40
0.0
 40
0.0
 40
0.0
 40
0.0
 40
1.0
 40
1.0
 40
1.0
 40
1.0
 10
12.7911502889
 20
7.6867090093
 30
0.0
 10
12.8096362927
 20
7.707679279
 30
0.0
 10
12.8190234878
 20
7.7361343014
 30
0.0
 10
12.8190234878
 20
7.7720697599
 30
0.0
  0
SPLINE
  5
4D3
100
AcDbEntity
  8
0
100
AcDbSpline
 62
7
  6
CONTINUOUS
 70
0
 71
3
 72
8
 73
4
 74
0
 42
0.0000001
 43
0.0000001
 44
0.0000000001
 40
0.0
 40
0.0
 40
0.0
 40
0.0
 40
1.0
 40
1.0
 40
1.0
 40
1.0
 10
12.8190234878
 20
7.7720697599
 30
0.0
 10
12.8190234878
 20
7.8091786312
 30
0.0
 10
12.8115430751
 20
7.8360202211
 30
0.0
 10
12.7964979062
 20
7.8535485663
 30
0.0
  0
SPLINE
  5
4D4
100
AcDbEntity
  8
0
100
AcDbSpline
 62
7
  6
CONTINUOUS
 70
0
 71
3
 72
8
 73
4
 74
0
 42
0.0000001
 43
0.0000001
 44
0.0000000001
 40
0.0
 40
0.0
 40
0.0
 40
0.0
 40
1.0
 40
1.0
 40
1.0
 40
1.0
 10
12.7964979062
 20
7.8535485663
 30
0.0
 10
12.7813279369
 20
7.87122231
 30
0.0
 10
12.7580065586
 20
7.8801695021
 30
0.0
 10
12.7266180076
 20
7.8801695021
 30
0.0
  0
SPLINE
  5
4D5
100
AcDbEntity
  8
0
100
AcDbSpline
 62
7
  6
CONTINUOUS
 70
0
 71
3
 72
8
 73
4
 74
0
 42
0.0000001
 43
0.0000001
 44
0.0000000001
 40
0.0
 40
0.0
 40
0.0
 40
0.0
 40
1.0
 40
1.0
 40
1.0
 40
1.0
 10
10.7778520552
 20
6.9706225661
 30
0.0
 10
10.80806718
 20
6.9706225661
 30
0.0
 10
10.8312418816
 20
6.9810365167
 30
0.0
 10
10.8475228499
 20
7.0021577687
 30
0.0
  0
SPLINE
  5
4D6
100
AcDbEntity
  8
0
100
AcDbSpline
 62
7
  6
CONTINUOUS
 70
0
 71
3
 72
8
 73
4
 74
0
 42
0.0000001
 43
0.0000001
 44
0.0000000001
 40
0.0
 40
0.0
 40
0.0
 40
0.0
 40
1.0
 40
1.0
 40
1.0
 40
1.0
 10
10.8475228499
 20
7.0021577687
 30
0.0
 10
10.8638038186
 20
7.0232790213
 30
0.0
 10
10.8720176411
 20
7.0532007962
 30
0.0
 10
10.8720176411
 20
7.0922164365
 30
0.0
  0
SPLINE
  5
4D7
100
AcDbEntity
  8
0
100
AcDbSpline
 62
7
  6
CONTINUOUS
 70
0
 71
3
 72
8
 73
4
 74
0
 42
0.0000001
 43
0.0000001
 44
0.0000000001
 40
0.0
 40
0.0
 40
0.0
 40
0.0
 40
1.0
 40
1.0
 40
1.0
 40
1.0
 10
10.8720176411
 20
7.0922164365
 30
0.0
 10
10.8720176411
 20
7.1307920604
 30
0.0
 10
10.8642438484
 20
7.1588070496
 30
0.0
 10
10.8489464775
 20
7.1771053383
 30
0.0
  0
SPLINE
  5
4D8
100
AcDbEntity
  8
0
100
AcDbSpline
 62
7
  6
CONTINUOUS
 70
0
 71
3
 72
8
 73
4
 74
0
 42
0.0000001
 43
0.0000001
 44
0.0000000001
 40
0.0
 40
0.0
 40
0.0
 40
0.0
 40
1.0
 40
1.0
 40
1.0
 40
1.0
 10
10.8489464775
 20
7.1771053383
 30
0.0
 10
10.8335886938
 20
7.1954758912
 30
0.0
 10
10.8098272857
 20
7.2047164365
 30
0.0
 10
10.7778520552
 20
7.2047164365
 30
0.0
  0
SPLINE
  5
4D9
100
AcDbEntity
  8
0
100
AcDbSpline
 62
7
  6
CONTINUOUS
 70
0
 71
3
 72
8
 73
4
 74
0
 42
0.0000001
 43
0.0000001
 44
0.0000000001
 40
0.0
 40
0.0
 40
0.0
 40
0.0
 40
1.0
 40
1.0
 40
1.0
 40
1.0
 10
10.7778520552
 20
7.2047164365
 30
0.0
 10
10.747783607
 20
7.2047164365
 30
0.0
 10
10.724608902
 20
7.1948891848
 30
0.0
 10
10.7082849113
 20
7.1754175224
 30
0.0
  0
SPLINE
  5
4DA
100
AcDbEntity
  8
0
100
AcDbSpline
 62
7
  6
CONTINUOUS
 70
0
 71
3
 72
8
 73
4
 74
0
 42
0.0000001
 43
0.0000001
 44
0.0000000001
 40
0.0
 40
0.0
 40
0.0
 40
0.0
 40
1.0
 40
1.0
 40
1.0
 40
1.0
 10
10.7082849113
 20
7.1754175224
 30
0.0
 10
10.6919002951
 20
7.1558735445
 30
0.0
 10
10.6838331509
 20
7.1281518951
 30
0.0
 10
10.6838331509
 20
7.0922164365
 30
0.0
  0
SPLINE
  5
4DB
100
AcDbEntity
  8
0
100
AcDbSpline
 62
7
  6
CONTINUOUS
 70
0
 71
3
 72
8
 73
4
 74
0
 42
0.0000001
 43
0.0000001
 44
0.0000000001
 40
0.0
 40
0.0
 40
0.0
 40
0.0
 40
1.0
 40
1.0
 40
1.0
 40
1.0
 10
10.6838331509
 20
7.0922164365
 30
0.0
 10
10.6838331509
 20
7.0532007962
 30
0.0
 10
10.6919002951
 20
7.0232790213
 30
0.0
 10
10.7082820491
 20
7.0021223171
 30
0.0
  0
SPLINE
  5
4DC
100
AcDbEntity
  8
0
100
AcDbSpline
 62
7
  6
CONTINUOUS
 70
0
 71
3
 72
8
 73
4
 74
0
 42
0.0000001
 43
0.0000001
 44
0.0000000001
 40
0.0
 40
0.0
 40
0.0
 40
0.0
 40
1.0
 40
1.0
 40
1.0
 40
1.0
 10
10.7082820491
 20
7.0021223171
 30
0.0
 10
10.724608902
 20
6.9810365167
 30
0.0
 10
10.747783607
 20
6.9706225661
 30
0.0
 10
10.7778520552
 20
6.9706225661
 30
0.0
  0
SPLINE
  5
4DD
100
AcDbEntity
  8
0
100
AcDbSpline
 62
7
  6
CONTINUOUS
 70
0
 71
3
 72
8
 73
4
 74
0
 42
0.0000001
 43
0.0000001
 44
0.0000000001
 40
0.0
 40
0.0
 40
0.0
 40
0.0
 40
1.0
 40
1.0
 40
1.0
 40
1.0
 10
12.7276447573
 20
7.8473142254
 30
0.0
 10
12.7468592443
 20
7.8473142254
 30
0.0
 10
12.7615267434
 20
7.8405671554
 30
0.0
 10
12.7714654291
 20
7.8273399408
 30
0.0
  0
SPLINE
  5
4DE
100
AcDbEntity
  8
0
100
AcDbSpline
 62
7
  6
CONTINUOUS
 70
0
 71
3
 72
8
 73
4
 74
0
 42
0.0000001
 43
0.0000001
 44
0.0000000001
 40
0.0
 40
0.0
 40
0.0
 40
0.0
 40
1.0
 40
1.0
 40
1.0
 40
1.0
 10
12.7714654291
 20
7.8273399408
 30
0.0
 10
12.7814746001
 20
7.8140189188
 30
0.0
 10
12.7864615776
 20
7.794511092
 30
0.0
 10
12.7864615776
 20
7.7689895781
 30
0.0
  0
SPLINE
  5
4DF
100
AcDbEntity
  8
0
100
AcDbSpline
 62
7
  6
CONTINUOUS
 70
0
 71
3
 72
8
 73
4
 74
0
 42
0.0000001
 43
0.0000001
 44
0.0000000001
 40
0.0
 40
0.0
 40
0.0
 40
0.0
 40
1.0
 40
1.0
 40
1.0
 40
1.0
 10
12.7864615776
 20
7.7689895781
 30
0.0
 10
12.7864615776
 20
7.7430280412
 30
0.0
 10
12.7800078609
 20
7.7224934916
 30
0.0
 10
12.7673504755
 20
7.7072753556
 30
0.0
  0
SPLINE
  5
4E0
100
AcDbEntity
  8
0
100
AcDbSpline
 62
7
  6
CONTINUOUS
 70
0
 71
3
 72
8
 73
4
 74
0
 42
0.0000001
 43
0.0000001
 44
0.0000000001
 40
0.0
 40
0.0
 40
0.0
 40
0.0
 40
1.0
 40
1.0
 40
1.0
 40
1.0
 10
12.7673504755
 20
7.7072753556
 30
0.0
 10
12.7546330371
 20
7.6919850169
 30
0.0
 10
12.7374719956
 20
7.6843578974
 30
0.0
 10
12.7157640734
 20
7.6843578974
 30
0.0
  0
SPLINE
  5
4E1
100
AcDbEntity
  8
0
100
AcDbSpline
 62
7
  6
CONTINUOUS
 70
0
 71
3
 72
8
 73
4
 74
0
 42
0.0000001
 43
0.0000001
 44
0.0000000001
 40
0.0
 40
0.0
 40
0.0
 40
0.0
 40
1.0
 40
1.0
 40
1.0
 40
1.0
 10
12.579395056
 20
10.8473142254
 30
0.0
 10
12.5908357503
 20
10.8473142254
 30
0.0
 10
12.5996362927
 20
10.8445273834
 30
0.0
 10
12.6057966415
 20
10.8389537396
 30
0.0
  0
SPLINE
  5
4E2
100
AcDbEntity
  8
0
100
AcDbSpline
 62
7
  6
CONTINUOUS
 70
0
 71
3
 72
8
 73
4
 74
0
 42
0.0000001
 43
0.0000001
 44
0.0000000001
 40
0.0
 40
0.0
 40
0.0
 40
0.0
 40
1.0
 40
1.0
 40
1.0
 40
1.0
 10
12.6057966415
 20
10.8389537396
 30
0.0
 10
12.6119570198
 20
10.8333800691
 30
0.0
 10
12.6151838782
 20
10.8256062629
 30
0.0
 10
12.6151838782
 20
10.8153389948
 30
0.0
  0
SPLINE
  5
4E3
100
AcDbEntity
  8
0
100
AcDbSpline
 62
7
  6
CONTINUOUS
 70
0
 71
3
 72
8
 73
4
 74
0
 42
0.0000001
 43
0.0000001
 44
0.0000000001
 40
0.0
 40
0.0
 40
0.0
 40
0.0
 40
1.0
 40
1.0
 40
1.0
 40
1.0
 10
12.6151838782
 20
10.8153389948
 30
0.0
 10
12.6151838782
 20
10.8009648087
 30
0.0
 10
12.6115169766
 20
10.790550864
 30
0.0
 10
12.60421965
 20
10.7842021968
 30
0.0
  0
SPLINE
  5
4E4
100
AcDbEntity
  8
0
100
AcDbSpline
 62
7
  6
CONTINUOUS
 70
0
 71
3
 72
8
 73
4
 74
0
 42
0.0000001
 43
0.0000001
 44
0.0000000001
 40
0.0
 40
0.0
 40
0.0
 40
0.0
 40
1.0
 40
1.0
 40
1.0
 40
1.0
 10
12.60421965
 20
10.7842021968
 30
0.0
 10
12.5968494239
 20
10.7777901071
 30
0.0
 10
12.5848220768
 20
10.7747099253
 30
0.0
 10
12.5682477417
 20
10.7747099253
 30
0.0
  0
SPLINE
  5
4E5
100
AcDbEntity
  8
0
100
AcDbSpline
 62
7
  6
CONTINUOUS
 70
0
 71
3
 72
8
 73
4
 74
0
 42
0.0000001
 43
0.0000001
 44
0.0000000001
 40
0.0
 40
0.0
 40
0.0
 40
0.0
 40
1.0
 40
1.0
 40
1.0
 40
1.0
 10
12.3586095431
 20
7.6798109631
 30
0.0
 10
12.3389550664
 20
7.6798109631
 30
0.0
 10
12.3237008073
 20
7.6874380826
 30
0.0
 10
12.3130902858
 20
7.7029514114
 30
0.0
  0
SPLINE
  5
4E6
100
AcDbEntity
  8
0
100
AcDbSpline
 62
7
  6
CONTINUOUS
 70
0
 71
3
 72
8
 73
4
 74
0
 42
0.0000001
 43
0.0000001
 44
0.0000000001
 40
0.0
 40
0.0
 40
0.0
 40
0.0
 40
1.0
 40
1.0
 40
1.0
 40
1.0
 10
12.3130902858
 20
7.7029514114
 30
0.0
 10
12.3024329015
 20
7.7185332569
 30
0.0
 10
12.2971525707
 20
7.7405345591
 30
0.0
 10
12.2971525707
 20
7.7691362547
 30
0.0
  0
SPLINE
  5
4E7
100
AcDbEntity
  8
0
100
AcDbSpline
 62
7
  6
CONTINUOUS
 70
0
 71
3
 72
8
 73
4
 74
0
 42
0.0000001
 43
0.0000001
 44
0.0000000001
 40
0.0
 40
0.0
 40
0.0
 40
0.0
 40
1.0
 40
1.0
 40
1.0
 40
1.0
 10
12.2971525707
 20
7.7691362547
 30
0.0
 10
12.2971525707
 20
7.7955378147
 30
0.0
 10
12.3024329015
 20
7.8159257012
 30
0.0
 10
12.3130927362
 20
7.8303348657
 30
0.0
  0
SPLINE
  5
4E8
100
AcDbEntity
  8
0
100
AcDbSpline
 62
7
  6
CONTINUOUS
 70
0
 71
3
 72
8
 73
4
 74
0
 42
0.0000001
 43
0.0000001
 44
0.0000000001
 40
0.0
 40
0.0
 40
0.0
 40
0.0
 40
1.0
 40
1.0
 40
1.0
 40
1.0
 10
12.3130927362
 20
7.8303348657
 30
0.0
 10
12.3237008073
 20
7.84467406
 30
0.0
 10
12.3389550664
 20
7.8518611597
 30
0.0
 10
12.3586095431
 20
7.8518611597
 30
0.0
  0
SPLINE
  5
4E9
100
AcDbEntity
  8
0
100
AcDbSpline
 62
7
  6
CONTINUOUS
 70
0
 71
3
 72
8
 73
4
 74
0
 42
0.0000001
 43
0.0000001
 44
0.0000000001
 40
0.0
 40
0.0
 40
0.0
 40
0.0
 40
1.0
 40
1.0
 40
1.0
 40
1.0
 10
12.3586095431
 20
7.8518611597
 30
0.0
 10
12.3803175189
 20
7.8518611597
 30
0.0
 10
12.3961584576
 20
7.8452607664
 30
0.0
 10
12.4058390145
 20
7.8323533393
 30
0.0
  0
SPLINE
  5
4EA
100
AcDbEntity
  8
0
100
AcDbSpline
 62
7
  6
CONTINUOUS
 70
0
 71
3
 72
8
 73
4
 74
0
 42
0.0000001
 43
0.0000001
 44
0.0000000001
 40
0.0
 40
0.0
 40
0.0
 40
0.0
 40
1.0
 40
1.0
 40
1.0
 40
1.0
 10
12.4058390145
 20
7.8323533393
 30
0.0
 10
12.4155195811
 20
7.8194458994
 30
0.0
 10
12.4202132054
 20
7.7983246567
 30
0.0
 10
12.4202132054
 20
7.7691362547
 30
0.0
  0
SPLINE
  5
4EB
100
AcDbEntity
  8
0
100
AcDbSpline
 62
7
  6
CONTINUOUS
 70
0
 71
3
 72
8
 73
4
 74
0
 42
0.0000001
 43
0.0000001
 44
0.0000000001
 40
0.0
 40
0.0
 40
0.0
 40
0.0
 40
1.0
 40
1.0
 40
1.0
 40
1.0
 10
12.4202132054
 20
7.7691362547
 30
0.0
 10
12.4202132054
 20
7.7405345591
 30
0.0
 10
12.4147862115
 20
7.7185332569
 30
0.0
 10
12.4041756707
 20
7.7030199195
 30
0.0
  0
SPLINE
  5
4EC
100
AcDbEntity
  8
0
100
AcDbSpline
 62
7
  6
CONTINUOUS
 70
0
 71
3
 72
8
 73
4
 74
0
 42
0.0000001
 43
0.0000001
 44
0.0000000001
 40
0.0
 40
0.0
 40
0.0
 40
0.0
 40
1.0
 40
1.0
 40
1.0
 40
1.0
 10
12.4041756707
 20
7.7030199195
 30
0.0
 10
12.3935182788
 20
7.6874380826
 30
0.0
 10
12.3782640465
 20
7.6798109631
 30
0.0
 10
12.3586095431
 20
7.6798109631
 30
0.0
  0
SPLINE
  5
4ED
100
AcDbEntity
  8
0
100
AcDbSpline
 62
7
  6
CONTINUOUS
 70
0
 71
3
 72
8
 73
4
 74
0
 42
0.0000001
 43
0.0000001
 44
0.0000000001
 40
0.0
 40
0.0
 40
0.0
 40
0.0
 40
1.0
 40
1.0
 40
1.0
 40
1.0
 10
10.9514785336
 20
11.3798109631
 30
0.0
 10
10.9318240301
 20
11.3798109631
 30
0.0
 10
10.9165697979
 20
11.3874380826
 30
0.0
 10
10.9059592586
 20
11.4029514177
 30
0.0
  0
SPLINE
  5
4EE
100
AcDbEntity
  8
0
100
AcDbSpline
 62
7
  6
CONTINUOUS
 70
0
 71
3
 72
8
 73
4
 74
0
 42
0.0000001
 43
0.0000001
 44
0.0000000001
 40
0.0
 40
0.0
 40
0.0
 40
0.0
 40
1.0
 40
1.0
 40
1.0
 40
1.0
 10
10.9059592586
 20
11.4029514177
 30
0.0
 10
10.8953018652
 20
11.4185332569
 30
0.0
 10
10.8900215344
 20
11.4405345591
 30
0.0
 10
10.8900215344
 20
11.4691362547
 30
0.0
  0
SPLINE
  5
4EF
100
AcDbEntity
  8
0
100
AcDbSpline
 62
7
  6
CONTINUOUS
 70
0
 71
3
 72
8
 73
4
 74
0
 42
0.0000001
 43
0.0000001
 44
0.0000000001
 40
0.0
 40
0.0
 40
0.0
 40
0.0
 40
1.0
 40
1.0
 40
1.0
 40
1.0
 10
10.8900215344
 20
11.4691362547
 30
0.0
 10
10.8900215344
 20
11.4955378147
 30
0.0
 10
10.8953018652
 20
11.5159257012
 30
0.0
 10
10.9059617087
 20
11.5303348593
 30
0.0
  0
SPLINE
  5
4F0
100
AcDbEntity
  8
0
100
AcDbSpline
 62
7
  6
CONTINUOUS
 70
0
 71
3
 72
8
 73
4
 74
0
 42
0.0000001
 43
0.0000001
 44
0.0000000001
 40
0.0
 40
0.0
 40
0.0
 40
0.0
 40
1.0
 40
1.0
 40
1.0
 40
1.0
 10
10.9059617087
 20
11.5303348593
 30
0.0
 10
10.9165697979
 20
11.54467406
 30
0.0
 10
10.9318240301
 20
11.5518611597
 30
0.0
 10
10.9514785336
 20
11.5518611597
 30
0.0
  0
SPLINE
  5
4F1
100
AcDbEntity
  8
0
100
AcDbSpline
 62
7
  6
CONTINUOUS
 70
0
 71
3
 72
8
 73
4
 74
0
 42
0.0000001
 43
0.0000001
 44
0.0000000001
 40
0.0
 40
0.0
 40
0.0
 40
0.0
 40
1.0
 40
1.0
 40
1.0
 40
1.0
 10
10.9514785336
 20
11.5518611597
 30
0.0
 10
10.9731864826
 20
11.5518611597
 30
0.0
 10
10.9890274213
 20
11.5452607664
 30
0.0
 10
10.9987079965
 20
11.5323533329
 30
0.0
  0
SPLINE
  5
4F2
100
AcDbEntity
  8
0
100
AcDbSpline
 62
7
  6
CONTINUOUS
 70
0
 71
3
 72
8
 73
4
 74
0
 42
0.0000001
 43
0.0000001
 44
0.0000000001
 40
0.0
 40
0.0
 40
0.0
 40
0.0
 40
1.0
 40
1.0
 40
1.0
 40
1.0
 10
10.9987079965
 20
11.5323533329
 30
0.0
 10
11.0083885716
 20
11.5194458994
 30
0.0
 10
11.0130821692
 20
11.4983246567
 30
0.0
 10
11.0130821692
 20
11.4691362547
 30
0.0
  0
SPLINE
  5
4F3
100
AcDbEntity
  8
0
100
AcDbSpline
 62
7
  6
CONTINUOUS
 70
0
 71
3
 72
8
 73
4
 74
0
 42
0.0000001
 43
0.0000001
 44
0.0000000001
 40
0.0
 40
0.0
 40
0.0
 40
0.0
 40
1.0
 40
1.0
 40
1.0
 40
1.0
 10
11.0130821692
 20
11.4691362547
 30
0.0
 10
11.0130821692
 20
11.4405345591
 30
0.0
 10
11.0076551752
 20
11.4185332569
 30
0.0
 10
10.9970446521
 20
11.4030199257
 30
0.0
  0
SPLINE
  5
4F4
100
AcDbEntity
  8
0
100
AcDbSpline
 62
7
  6
CONTINUOUS
 70
0
 71
3
 72
8
 73
4
 74
0
 42
0.0000001
 43
0.0000001
 44
0.0000000001
 40
0.0
 40
0.0
 40
0.0
 40
0.0
 40
1.0
 40
1.0
 40
1.0
 40
1.0
 10
10.9970446521
 20
11.4030199257
 30
0.0
 10
10.9863872694
 20
11.3874380826
 30
0.0
 10
10.9711330102
 20
11.3798109631
 30
0.0
 10
10.9514785336
 20
11.3798109631
 30
0.0
  0
SPLINE
  5
4F5
100
AcDbEntity
  8
0
100
AcDbSpline
 62
7
  6
CONTINUOUS
 70
0
 71
3
 72
8
 73
4
 74
0
 42
0.0000001
 43
0.0000001
 44
0.0000000001
 40
0.0
 40
0.0
 40
0.0
 40
0.0
 40
1.0
 40
1.0
 40
1.0
 40
1.0
 10
10.7778520552
 20
6.9998109631
 30
0.0
 10
10.7581975584
 20
6.9998109631
 30
0.0
 10
10.7429433194
 20
7.0074380826
 30
0.0
 10
10.7323327868
 20
7.022951413
 30
0.0
  0
SPLINE
  5
4F6
100
AcDbEntity
  8
0
100
AcDbSpline
 62
7
  6
CONTINUOUS
 70
0
 71
3
 72
8
 73
4
 74
0
 42
0.0000001
 43
0.0000001
 44
0.0000000001
 40
0.0
 40
0.0
 40
0.0
 40
0.0
 40
1.0
 40
1.0
 40
1.0
 40
1.0
 10
10.7323327868
 20
7.022951413
 30
0.0
 10
10.7216753935
 20
7.0385332569
 30
0.0
 10
10.7163950795
 20
7.0605345591
 30
0.0
 10
10.7163950795
 20
7.0891362547
 30
0.0
  0
SPLINE
  5
4F7
100
AcDbEntity
  8
0
100
AcDbSpline
 62
7
  6
CONTINUOUS
 70
0
 71
3
 72
8
 73
4
 74
0
 42
0.0000001
 43
0.0000001
 44
0.0000000001
 40
0.0
 40
0.0
 40
0.0
 40
0.0
 40
1.0
 40
1.0
 40
1.0
 40
1.0
 10
10.7163950795
 20
7.0891362547
 30
0.0
 10
10.7163950795
 20
7.1155378147
 30
0.0
 10
10.7216753935
 20
7.1359257012
 30
0.0
 10
10.7323352371
 20
7.1503348641
 30
0.0
  0
SPLINE
  5
4F8
100
AcDbEntity
  8
0
100
AcDbSpline
 62
7
  6
CONTINUOUS
 70
0
 71
3
 72
8
 73
4
 74
0
 42
0.0000001
 43
0.0000001
 44
0.0000000001
 40
0.0
 40
0.0
 40
0.0
 40
0.0
 40
1.0
 40
1.0
 40
1.0
 40
1.0
 10
10.7323352371
 20
7.1503348641
 30
0.0
 10
10.7429433194
 20
7.16467406
 30
0.0
 10
10.7581975584
 20
7.1718611597
 30
0.0
 10
10.7778520552
 20
7.1718611597
 30
0.0
  0
SPLINE
  5
4F9
100
AcDbEntity
  8
0
100
AcDbSpline
 62
7
  6
CONTINUOUS
 70
0
 71
3
 72
8
 73
4
 74
0
 42
0.0000001
 43
0.0000001
 44
0.0000000001
 40
0.0
 40
0.0
 40
0.0
 40
0.0
 40
1.0
 40
1.0
 40
1.0
 40
1.0
 10
10.7778520552
 20
7.1718611597
 30
0.0
 10
10.7995600042
 20
7.1718611597
 30
0.0
 10
10.8154009429
 20
7.1652607664
 30
0.0
 10
10.825081518
 20
7.1523533329
 30
0.0
  0
SPLINE
  5
4FA
100
AcDbEntity
  8
0
100
AcDbSpline
 62
7
  6
CONTINUOUS
 70
0
 71
3
 72
8
 73
4
 74
0
 42
0.0000001
 43
0.0000001
 44
0.0000000001
 40
0.0
 40
0.0
 40
0.0
 40
0.0
 40
1.0
 40
1.0
 40
1.0
 40
1.0
 10
10.825081518
 20
7.1523533329
 30
0.0
 10
10.8347620932
 20
7.1394458994
 30
0.0
 10
10.8394557041
 20
7.1183246567
 30
0.0
 10
10.8394557041
 20
7.0891362547
 30
0.0
  0
SPLINE
  5
4FB
100
AcDbEntity
  8
0
100
AcDbSpline
 62
7
  6
CONTINUOUS
 70
0
 71
3
 72
8
 73
4
 74
0
 42
0.0000001
 43
0.0000001
 44
0.0000000001
 40
0.0
 40
0.0
 40
0.0
 40
0.0
 40
1.0
 40
1.0
 40
1.0
 40
1.0
 10
10.8394557041
 20
7.0891362547
 30
0.0
 10
10.8394557041
 20
7.0605345591
 30
0.0
 10
10.8340287236
 20
7.0385332569
 30
0.0
 10
10.8234181828
 20
7.0230199195
 30
0.0
  0
SPLINE
  5
4FC
100
AcDbEntity
  8
0
100
AcDbSpline
 62
7
  6
CONTINUOUS
 70
0
 71
3
 72
8
 73
4
 74
0
 42
0.0000001
 43
0.0000001
 44
0.0000000001
 40
0.0
 40
0.0
 40
0.0
 40
0.0
 40
1.0
 40
1.0
 40
1.0
 40
1.0
 10
10.8234181828
 20
7.0230199195
 30
0.0
 10
10.8127607909
 20
7.0074380826
 30
0.0
 10
10.7975065586
 20
6.9998109631
 30
0.0
 10
10.7778520552
 20
6.9998109631
 30
0.0
  0
SPLINE
  5
4FD
100
AcDbEntity
  8
0
100
AcDbSpline
 62
9
  6
CONTINUOUS
 70
0
 71
3
 72
29
 73
25
 74
0
 42
0.0000001
 43
0.0000001
 44
0.0000000001
 40
0.0
 40
0.0
 40
0.0
 40
0.0
 40
0.0064825618
 40
0.0102397837
 40
0.0143974957
 40
0.0240199994
 40
0.0355231672
 40
0.0489954433
 40
0.0644782819
 40
0.0819872328
 40
0.1015187116
 40
0.1230498524
 40
0.1465442097
 40
0.1992179669
 40
0.2590322557
 40
0.3253608992
 40
0.3974789681
 40
0.474590724
 40
0.5558890704
 40
0.6406243998
 40
0.7280877673
 40
0.8175869297
 40
0.9084514958
 40
1.0
 40
1.0
 40
1.0
 40
1.0
 10
11.31308139
 20
8.7508590986
 30
0.0
 10
11.312916454
 20
8.7510240364
 30
0.0
 10
11.312709373
 20
8.7513387561
 30
0.0
 10
11.3125111852
 20
8.7518174453
 30
0.0
 10
11.3123341856
 20
8.7524245821
 30
0.0
 10
11.3122040693
 20
8.7533288893
 30
0.0
 10
11.3121795782
 20
8.7545754847
 30
0.0
 10
11.31228186
 20
8.7560292094
 30
0.0
 10
11.3125126569
 20
8.7576860225
 30
0.0
 10
11.3128703221
 20
8.7595424407
 30
0.0
 10
11.3133535811
 20
8.7615942881
 30
0.0
 10
11.3139599199
 20
8.7638369989
 30
0.0
 10
11.314967771
 20
8.7672051907
 30
0.0
 10
11.3165289742
 20
8.7718437903
 30
0.0
 10
11.3187755993
 20
8.7778738028
 30
0.0
 10
11.3214358691
 20
8.784493818
 30
0.0
 10
11.3244942652
 20
8.7916223793
 30
0.0
 10
11.3279595934
 20
8.7991600005
 30
0.0
 10
11.3318727431
 20
8.8069870575
 30
0.0
 10
11.3362694744
 20
8.8149820032
 30
0.0
 10
11.3411965575
 20
8.8230115018
 30
0.0
 10
11.3467081133
 20
8.8309250669
 30
0.0
 10
11.3528603611
 20
8.8385444027
 30
0.0
 10
11.3574167334
 20
8.8432852996
 30
0.0
 10
11.359818113
 20
8.8455401845
 30
0.0
  0
SPLINE
  5
4FE
100
AcDbEntity
  8
0
100
AcDbSpline
 62
9
  6
CONTINUOUS
 70
0
 71
3
 72
28
 73
24
 74
0
 42
0.0000001
 43
0.0000001
 44
0.0000000001
 40
0.0
 40
0.0
 40
0.0
 40
0.0
 40
0.0082723885
 40
0.0171535237
 40
0.0271312193
 40
0.0385463943
 40
0.0516173858
 40
0.0664782106
 40
0.0832028914
 40
0.1018300965
 40
0.1223708865
 40
0.1448172775
 40
0.1691485309
 40
0.1953297192
 40
0.2530616612
 40
0.3175841116
 40
0.3883624093
 40
0.4647806684
 40
0.546155053
 40
0.631744599
 40
0.7207632075
 40
0.8123807524
 40
1.0
 40
1.0
 40
1.0
 40
1.0
 10
11.6566994084
 20
8.4072410802
 30
0.0
 10
11.6564966299
 20
8.4074438587
 30
0.0
 10
11.6561363244
 20
8.4079284503
 30
0.0
 10
11.6557920229
 20
8.4088130851
 30
0.0
 10
11.6556286161
 20
8.4098561508
 30
0.0
 10
11.6556402
 20
8.4110548023
 30
0.0
 10
11.655823365
 20
8.4124091521
 30
0.0
 10
11.6561771732
 20
8.4139181112
 30
0.0
 10
11.6567005913
 20
8.4155795758
 30
0.0
 10
11.6573928918
 20
8.4173902608
 30
0.0
 10
11.6582526151
 20
8.4193462975
 30
0.0
 10
11.6592779324
 20
8.4214432624
 30
0.0
 10
11.6604666262
 20
8.4236762098
 30
0.0
 10
11.6623273029
 20
8.4269353309
 30
0.0
 10
11.6650538556
 20
8.4313016672
 30
0.0
 10
11.6688213553
 20
8.4368335866
 30
0.0
 10
11.6731493454
 20
8.4427626005
 30
0.0
 10
11.6779967785
 20
8.4490316284
 30
0.0
 10
11.6833177329
 20
8.4555802905
 30
0.0
 10
11.689061393
 20
8.462345498
 30
0.0
 10
11.6951726678
 20
8.4692620228
 30
0.0
 10
11.7038012638
 20
8.4786710969
 30
0.0
 10
11.7105322537
 20
8.4856314863
 30
0.0
 10
11.7151313061
 20
8.4902305387
 30
0.0
  0
SPLINE
  5
4FF
100
AcDbEntity
  8
0
100
AcDbSpline
 62
9
  6
CONTINUOUS
 70
0
 71
3
 72
15
 73
11
 74
0
 42
0.0000001
 43
0.0000001
 44
0.0000000001
 40
0.0
 40
0.0
 40
0.0
 40
0.0
 40
0.1244031144
 40
0.2491030597
 40
0.3740510595
 40
0.499181815
 40
0.6244220835
 40
0.7496921333
 40
0.8749107444
 40
1.0
 40
1.0
 40
1.0
 40
1.0
 10
11.4549617839
 20
8.8918214172
 30
0.0
 10
11.451765647
 20
8.8950175541
 30
0.0
 10
11.4457337882
 20
8.9017978256
 30
0.0
 10
11.4379203214
 20
8.9129531476
 30
0.0
 10
11.4314304548
 20
8.9249589763
 30
0.0
 10
11.4263551385
 20
8.9376483235
 30
0.0
 10
11.4227635826
 20
8.9508466904
 30
0.0
 10
11.4207053871
 20
8.9643729268
 30
0.0
 10
11.4202085545
 20
8.9780385403
 30
0.0
 10
11.4209240653
 20
8.9871287708
 30
0.0
 10
11.4215410952
 20
8.9916316417
 30
0.0
  0
SPLINE
  5
500
100
AcDbEntity
  8
0
100
AcDbSpline
 62
9
  6
CONTINUOUS
 70
0
 71
3
 72
12
 73
8
 74
0
 42
0.0000001
 43
0.0000001
 44
0.0000000001
 40
0.0
 40
0.0
 40
0.0
 40
0.0
 40
0.2825595202
 40
0.557051966
 40
0.8024628823
 40
0.9082617246
 40
1.0
 40
1.0
 40
1.0
 40
1.0
 10
11.3598199934
 20
8.8455420198
 30
0.0
 10
11.357270915
 20
8.8482111924
 30
0.0
 10
11.352228611
 20
8.8534572004
 30
0.0
 10
11.3449183992
 20
8.8609693366
 30
0.0
 10
11.3391781017
 20
8.866787336
 30
0.0
 10
11.3350835174
 20
8.8708752204
 30
0.0
 10
11.3332461218
 20
8.8726868164
 30
0.0
 10
11.3323888899
 20
8.8735241196
 30
0.0
  0
LINE
  5
501
100
AcDbEntity
  8
0
100
AcDbLine
 62
9
  6
CONTINUOUS
 10
11.3323888899
 20
8.8735241196
 11
11.3321412849
 21
8.8737657362
  0
SPLINE
  5
502
100
AcDbEntity
  8
0
100
AcDbSpline
 62
9
  6
CONTINUOUS
 70
0
 71
3
 72
15
 73
11
 74
0
 42
0.0000001
 43
0.0000001
 44
0.0000000001
 40
0.0
 40
0.0
 40
0.0
 40
0.0
 40
0.1241365953
 40
0.2487021641
 40
0.3736256674
 40
0.4988137082
 40
0.6241604912
 40
0.7495511383
 40
0.8748685363
 40
1.0
 40
1.0
 40
1.0
 40
1.0
 10
11.31308139
 20
8.7508590986
 30
0.0
 10
11.3099183606
 20
8.7540221281
 30
0.0
 10
11.3032029937
 20
8.7599929554
 30
0.0
 10
11.2921483491
 20
8.7677279668
 30
0.0
 10
11.2802416978
 20
8.7741571553
 30
0.0
 10
11.267650994
 20
8.7791892515
 30
0.0
 10
11.2545518001
 20
8.7827547321
 30
0.0
 10
11.2411264106
 20
8.7848037067
 30
0.0
 10
11.2275644619
 20
8.7853078987
 30
0.0
 10
11.2185433019
 20
8.7846080048
 30
0.0
 10
11.2140752781
 20
8.7840011414
 30
0.0
  0
SPLINE
  5
503
100
AcDbEntity
  8
0
100
AcDbSpline
 62
9
  6
CONTINUOUS
 70
0
 71
3
 72
23
 73
19
 74
0
 42
0.0000001
 43
0.0000001
 44
0.0000000001
 40
0.0
 40
0.0
 40
0.0
 40
0.0
 40
0.0613721469
 40
0.1228468679
 40
0.1844470542
 40
0.2461953495
 40
0.3081102187
 40
0.3702043509
 40
0.4324851404
 40
0.4949544068
 40
0.5576084402
 40
0.6204379658
 40
0.6834282635
 40
0.7465609868
 40
0.8098124907
 40
0.8731530756
 40
0.9365669311
 40
1.0
 40
1.0
 40
1.0
 40
1.0
 10
11.8554711167
 20
8.4888602222
 30
0.0
 10
11.8570284528
 20
8.4865464935
 30
0.0
 10
11.8599400973
 20
8.4817729257
 30
0.0
 10
11.8636552308
 20
8.4742473857
 30
0.0
 10
11.8666944852
 20
8.4664054084
 30
0.0
 10
11.8690348514
 20
8.4583067269
 30
0.0
 10
11.8706591079
 20
8.4500117835
 30
0.0
 10
11.871554958
 20
8.4415826875
 30
0.0
 10
11.8717158463
 20
8.4330825463
 30
0.0
 10
11.8711408097
 20
8.4245749497
 30
0.0
 10
11.8698341827
 20
8.4161235012
 30
0.0
 10
11.8678056615
 20
8.4077914319
 30
0.0
 10
11.8650707064
 20
8.3996409506
 30
0.0
 10
11.8616497751
 20
8.3917329321
 30
0.0
 10
11.8575684554
 20
8.3841266797
 30
0.0
 10
11.8528571645
 20
8.3768783081
 30
0.0
 10
11.8475515251
 20
8.3700433411
 30
0.0
 10
11.8436438674
 20
8.3657946998
 30
0.0
 10
11.8416055062
 20
8.3637563387
 30
0.0
  0
SPLINE
  5
504
100
AcDbEntity
  8
0
100
AcDbSpline
 62
9
  6
CONTINUOUS
 70
0
 71
3
 72
28
 73
24
 74
0
 42
0.0000001
 43
0.0000001
 44
0.0000000001
 40
0.0
 40
0.0
 40
0.0
 40
0.0
 40
0.0082723868
 40
0.0171535205
 40
0.0271312149
 40
0.0385463889
 40
0.0516173796
 40
0.0664782039
 40
0.0832028843
 40
0.1018300891
 40
0.1223708789
 40
0.1448172699
 40
0.1691485234
 40
0.1953297117
 40
0.253061654
 40
0.317584105
 40
0.3883624034
 40
0.4647806632
 40
0.5461550486
 40
0.6317445956
 40
0.7207632049
 40
0.8123807507
 40
1.0
 40
1.0
 40
1.0
 40
1.0
 10
11.7981207647
 20
8.5486624365
 30
0.0
 10
11.7979179862
 20
8.5488652149
 30
0.0
 10
11.7974333947
 20
8.5492255203
 30
0.0
 10
11.79654876
 20
8.5495698217
 30
0.0
 10
11.7955056945
 20
8.5497332284
 30
0.0
 10
11.794307043
 20
8.5497216444
 30
0.0
 10
11.7929526934
 20
8.5495384793
 30
0.0
 10
11.7914437344
 20
8.5491846709
 30
0.0
 10
11.7897822699
 20
8.5486612528
 30
0.0
 10
11.7879715849
 20
8.5479689522
 30
0.0
 10
11.7860155483
 20
8.5471092288
 30
0.0
 10
11.7839185835
 20
8.5460839116
 30
0.0
 10
11.7816856361
 20
8.5448952177
 30
0.0
 10
11.778426515
 20
8.5430345409
 30
0.0
 10
11.7740601788
 20
8.5403079882
 30
0.0
 10
11.7685282594
 20
8.5365404885
 30
0.0
 10
11.7625992455
 20
8.5322124984
 30
0.0
 10
11.7563302175
 20
8.5273650654
 30
0.0
 10
11.7497815553
 20
8.5220441111
 30
0.0
 10
11.7430163476
 20
8.5163004511
 30
0.0
 10
11.7360998227
 20
8.5101891765
 30
0.0
 10
11.7266907483
 20
8.5015605807
 30
0.0
 10
11.7197303587
 20
8.4948295911
 30
0.0
 10
11.7151313061
 20
8.4902305388
 30
0.0
  0
SPLINE
  5
505
100
AcDbEntity
  8
0
100
AcDbSpline
 62
9
  6
CONTINUOUS
 70
0
 71
3
 72
32
 73
28
 74
0
 42
0.0000001
 43
0.0000001
 44
0.0000000001
 40
0.0
 40
0.0
 40
0.0
 40
0.0
 40
0.0924689586
 40
0.184326131
 40
0.2748806749
 40
0.3634548607
 40
0.4493320178
 40
0.5317603196
 40
0.6099210783
 40
0.6471301602
 40
0.6829453688
 40
0.7499864358
 40
0.8102616181
 40
0.8630588102
 40
0.8864605068
 40
0.9077790873
 40
0.9269639005
 40
0.9439723051
 40
0.9587748725
 40
0.971352181
 40
0.9816983448
 40
0.986041188
 40
0.9898383854
 40
0.9931016908
 40
0.9958516827
 40
0.9981267958
 40
1.0
 40
1.0
 40
1.0
 40
1.0
 10
11.3598180362
 20
8.8455402613
 30
0.0
 10
11.3622251325
 20
8.8478014832
 30
0.0
 10
11.367241139
 20
8.8520809744
 30
0.0
 10
11.3751936576
 20
8.8578505669
 30
0.0
 10
11.3833771555
 20
8.8630281602
 30
0.0
 10
11.3916250182
 20
8.8676775977
 30
0.0
 10
11.3997947779
 20
8.8718568686
 30
0.0
 10
11.4077564234
 20
8.8756145243
 30
0.0
 10
11.4142152184
 20
8.8784778902
 30
0.0
 10
11.4191811099
 20
8.8805985645
 30
0.0
 10
11.423796946
 20
8.8825273035
 30
0.0
 10
11.4291991269
 20
8.8847105775
 30
0.0
 10
11.4352050139
 20
8.887016189
 30
0.0
 10
11.4397919119
 20
8.8886669098
 30
0.0
 10
11.4430951698
 20
8.8897715649
 30
0.0
 10
11.4452725955
 20
8.8904563777
 30
0.0
 10
11.447245563
 20
8.8910287215
 30
0.0
 10
11.4490088241
 20
8.8914862147
 30
0.0
 10
11.4505572881
 20
8.8918286532
 30
0.0
 10
11.4518861365
 20
8.8920549366
 30
0.0
 10
11.4528560868
 20
8.8921553224
 30
0.0
 10
11.4535164617
 20
8.8921721107
 30
0.0
 10
11.4539237941
 20
8.892156402
 30
0.0
 10
11.4542721356
 20
8.8921143462
 30
0.0
 10
11.454561234
 20
8.8920467816
 30
0.0
 10
11.4547909312
 20
8.8919546546
 30
0.0
 10
11.4549144758
 20
8.8918687245
 30
0.0
 10
11.4549617839
 20
8.8918214172
 30
0.0
  0
LINE
  5
506
100
AcDbEntity
  8
0
100
AcDbLine
 62
9
  6
CONTINUOUS
 10
10.4204229016
 20
9.6435175871
 11
10.4206272357
 21
9.6433127425
  0
LINE
  5
507
100
AcDbEntity
  8
0
100
AcDbLine
 62
9
  6
CONTINUOUS
 10
10.4288872072
 20
9.6340774554
 11
10.4290300063
 21
9.6338992996
  0
SPLINE
  5
508
100
AcDbEntity
  8
0
100
AcDbSpline
 62
9
  6
CONTINUOUS
 70
0
 71
3
 72
15
 73
11
 74
0
 42
0.0000001
 43
0.0000001
 44
0.0000000001
 40
0.0
 40
0.0
 40
0.0
 40
0.0
 40
0.1245950599
 40
0.2494128123
 40
0.3744087888
 40
0.4995261926
 40
0.6247061559
 40
0.7498861765
 40
0.8750037514
 40
1.0
 40
1.0
 40
1.0
 40
1.0
 10
10.4292325193
 20
9.633645417
 30
0.0
 10
10.4317087959
 20
9.6305321459
 30
0.0
 10
10.4363511282
 20
9.6240422644
 30
0.0
 10
10.4422947517
 20
9.6136483281
 30
0.0
 10
10.4471662055
 20
9.602691255
 30
0.0
 10
10.4509127275
 20
9.5912885964
 30
0.0
 10
10.4534949601
 20
9.5795613006
 30
0.0
 10
10.4548853136
 20
9.5676335236
 30
0.0
 10
10.4550692635
 20
9.5556334846
 30
0.0
 10
10.4543853877
 20
9.5476612126
 30
0.0
 10
10.4538435902
 20
9.5437073626
 30
0.0
  0
SPLINE
  5
509
100
AcDbEntity
  8
0
100
AcDbSpline
 62
9
  6
CONTINUOUS
 70
0
 71
3
 72
12
 73
8
 74
0
 42
0.0000001
 43
0.0000001
 44
0.0000000001
 40
0.0
 40
0.0
 40
0.0
 40
0.0
 40
0.2825594979
 40
0.5570519292
 40
0.80246285
 40
0.9082617045
 40
1.0
 40
1.0
 40
1.0
 40
1.0
 10
10.5155646921
 20
9.6897969845
 30
0.0
 10
10.5181137698
 20
9.6871278125
 30
0.0
 10
10.5231560727
 20
9.6818818057
 30
0.0
 10
10.530466283
 20
9.674369671
 30
0.0
 10
10.5362065796
 20
9.6685516726
 30
0.0
 10
10.5403011634
 20
9.6644637884
 30
0.0
 10
10.5421385591
 20
9.6626521924
 30
0.0
 10
10.542995791
 20
9.6618148892
 30
0.0
  0
LINE
  5
50A
100
AcDbEntity
  8
0
100
AcDbLine
 62
9
  6
CONTINUOUS
 10
10.542995791
 20
9.6618148892
 11
10.543243401
 21
9.6615732676
  0
SPLINE
  5
50B
100
AcDbEntity
  8
0
100
AcDbSpline
 62
9
  6
CONTINUOUS
 70
0
 71
3
 72
15
 73
11
 74
0
 42
0.0000001
 43
0.0000001
 44
0.0000000001
 40
0.0
 40
0.0
 40
0.0
 40
0.0
 40
0.1241365953
 40
0.2487021641
 40
0.3736256674
 40
0.4988137082
 40
0.6241604912
 40
0.7495511383
 40
0.8748685363
 40
1.0
 40
1.0
 40
1.0
 40
1.0
 10
10.5623032954
 20
9.7844799057
 30
0.0
 10
10.5654663249
 20
9.7813168762
 30
0.0
 10
10.5721816918
 20
9.7753460489
 30
0.0
 10
10.5832363363
 20
9.7676110375
 30
0.0
 10
10.5951429876
 20
9.761181849
 30
0.0
 10
10.6077336915
 20
9.7561497528
 30
0.0
 10
10.6208328854
 20
9.7525842722
 30
0.0
 10
10.6342582749
 20
9.7505352976
 30
0.0
 10
10.6478202236
 20
9.7500311055
 30
0.0
 10
10.6568413836
 20
9.7507309995
 30
0.0
 10
10.6613094074
 20
9.7513378629
 30
0.0
  0
SPLINE
  5
50C
100
AcDbEntity
  8
0
100
AcDbSpline
 62
9
  6
CONTINUOUS
 70
0
 71
3
 72
23
 73
19
 74
0
 42
0.0000001
 43
0.0000001
 44
0.0000000001
 40
0.0
 40
0.0
 40
0.0
 40
0.0
 40
0.0613721465
 40
0.1228468671
 40
0.1844470531
 40
0.2461953482
 40
0.3081102173
 40
0.3702043495
 40
0.4324851391
 40
0.4949544055
 40
0.5576084391
 40
0.6204379649
 40
0.6834282628
 40
0.7465609863
 40
0.8098124904
 40
0.8731530754
 40
0.9365669311
 40
1.0
 40
1.0
 40
1.0
 40
1.0
 10
11.8554711167
 20
10.0464787821
 30
0.0
 10
11.8570284528
 20
10.0487925107
 30
0.0
 10
11.8599400972
 20
10.0535660785
 30
0.0
 10
11.8636552306
 20
10.0610916185
 30
0.0
 10
11.866694485
 20
10.0689335958
 30
0.0
 10
11.8690348512
 20
10.0770322772
 30
0.0
 10
11.8706591076
 20
10.0853272206
 30
0.0
 10
11.8715549577
 20
10.0937563166
 30
0.0
 10
11.871715846
 20
10.1022564578
 30
0.0
 10
11.8711408094
 20
10.1107640544
 30
0.0
 10
11.8698341824
 20
10.1192155029
 30
0.0
 10
11.8678056613
 20
10.1275475721
 30
0.0
 10
11.8650707062
 20
10.1356980535
 30
0.0
 10
11.8616497749
 20
10.143606072
 30
0.0
 10
11.8575684553
 20
10.1512123245
 30
0.0
 10
11.8528571644
 20
10.1584606961
 30
0.0
 10
11.847551525
 20
10.1652956631
 30
0.0
 10
11.8436438674
 20
10.1695443045
 30
0.0
 10
11.8416055062
 20
10.1715826656
 30
0.0
  0
SPLINE
  5
50D
100
AcDbEntity
  8
0
100
AcDbSpline
 62
9
  6
CONTINUOUS
 70
0
 71
3
 72
29
 73
25
 74
0
 42
0.0000001
 43
0.0000001
 44
0.0000000001
 40
0.0
 40
0.0
 40
0.0
 40
0.0
 40
0.0064825618
 40
0.0102397837
 40
0.0143974957
 40
0.0240199994
 40
0.0355231672
 40
0.0489954433
 40
0.0644782819
 40
0.0819872328
 40
0.1015187116
 40
0.1230498524
 40
0.1465442097
 40
0.1992179669
 40
0.2590322557
 40
0.3253608992
 40
0.3974789681
 40
0.474590724
 40
0.5558890704
 40
0.6406243998
 40
0.7280877673
 40
0.8175869297
 40
0.9084514958
 40
1.0
 40
1.0
 40
1.0
 40
1.0
 10
11.4545027463
 20
9.6430585494
 30
0.0
 10
11.4543378085
 20
9.6428936134
 30
0.0
 10
11.4540230888
 20
9.6426865324
 30
0.0
 10
11.4535443996
 20
9.6424883446
 30
0.0
 10
11.4529372628
 20
9.642311345
 30
0.0
 10
11.4520329555
 20
9.6421812287
 30
0.0
 10
11.4507863602
 20
9.6421567377
 30
0.0
 10
11.4493326355
 20
9.6422590194
 30
0.0
 10
11.4476758224
 20
9.6424898163
 30
0.0
 10
11.4458194042
 20
9.6428474816
 30
0.0
 10
11.4437675568
 20
9.6433307405
 30
0.0
 10
11.441524846
 20
9.6439370793
 30
0.0
 10
11.4381566542
 20
9.6449449304
 30
0.0
 10
11.4335180545
 20
9.6465061336
 30
0.0
 10
11.4274880421
 20
9.6487527587
 30
0.0
 10
11.4208680269
 20
9.6514130285
 30
0.0
 10
11.4137394656
 20
9.6544714246
 30
0.0
 10
11.4062018444
 20
9.6579367528
 30
0.0
 10
11.3983747874
 20
9.6618499025
 30
0.0
 10
11.3903798417
 20
9.6662466338
 30
0.0
 10
11.3823503431
 20
9.6711737169
 30
0.0
 10
11.374436778
 20
9.6766852727
 30
0.0
 10
11.3668174422
 20
9.6828375205
 30
0.0
 10
11.3620765452
 20
9.6873938928
 30
0.0
 10
11.3598216604
 20
9.6897952724
 30
0.0
  0
SPLINE
  5
50E
100
AcDbEntity
  8
0
100
AcDbSpline
 62
9
  6
CONTINUOUS
 70
0
 71
3
 72
28
 73
24
 74
0
 42
0.0000001
 43
0.0000001
 44
0.0000000001
 40
0.0
 40
0.0
 40
0.0
 40
0.0
 40
0.0082723885
 40
0.0171535237
 40
0.0271312193
 40
0.0385463943
 40
0.0516173858
 40
0.0664782106
 40
0.0832028914
 40
0.1018300965
 40
0.1223708865
 40
0.1448172775
 40
0.1691485309
 40
0.1953297192
 40
0.2530616612
 40
0.3175841116
 40
0.3883624093
 40
0.4647806684
 40
0.546155053
 40
0.631744599
 40
0.7207632075
 40
0.8123807524
 40
1.0
 40
1.0
 40
1.0
 40
1.0
 10
11.7981207647
 20
9.9866765678
 30
0.0
 10
11.7979179862
 20
9.9864737893
 30
0.0
 10
11.7974333945
 20
9.9861134838
 30
0.0
 10
11.7965487598
 20
9.9857691823
 30
0.0
 10
11.7955056941
 20
9.9856057755
 30
0.0
 10
11.7943070425
 20
9.9856173594
 30
0.0
 10
11.7929526928
 20
9.9858005244
 30
0.0
 10
11.7914437337
 20
9.9861543326
 30
0.0
 10
11.7897822691
 20
9.9866777507
 30
0.0
 10
11.7879715841
 20
9.9873700512
 30
0.0
 10
11.7860155474
 20
9.9882297745
 30
0.0
 10
11.7839185825
 20
9.9892550918
 30
0.0
 10
11.7816856351
 20
9.9904437856
 30
0.0
 10
11.778426514
 20
9.9923044623
 30
0.0
 10
11.7740601777
 20
9.995031015
 30
0.0
 10
11.7685282582
 20
9.9987985147
 30
0.0
 10
11.7625992444
 20
10.0031265048
 30
0.0
 10
11.7563302165
 20
10.0079739379
 30
0.0
 10
11.7497815543
 20
10.0132948923
 30
0.0
 10
11.7430163468
 20
10.0190385524
 30
0.0
 10
11.7360998221
 20
10.0251498272
 30
0.0
 10
11.726690748
 20
10.0337784232
 30
0.0
 10
11.7197303586
 20
10.0405094131
 30
0.0
 10
11.7151313061
 20
10.0451084656
 30
0.0
  0
LINE
  5
50F
100
AcDbEntity
  8
0
100
AcDbLine
 62
9
  6
CONTINUOUS
 10
11.3135404276
 20
9.7849389433
 11
11.3133315923
 21
9.7847306384
  0
SPLINE
  5
510
100
AcDbEntity
  8
0
100
AcDbSpline
 62
9
  6
CONTINUOUS
 70
0
 71
3
 72
15
 73
11
 74
0
 42
0.0000001
 43
0.0000001
 44
0.0000000001
 40
0.0
 40
0.0
 40
0.0
 40
0.0
 40
0.1245950599
 40
0.2494128123
 40
0.3744087888
 40
0.4995261926
 40
0.6247061559
 40
0.7498861765
 40
0.8750037514
 40
1.0
 40
1.0
 40
1.0
 40
1.0
 10
11.3036682576
 20
9.7761293256
 30
0.0
 10
11.3005549865
 20
9.7736530489
 30
0.0
 10
11.294065105
 20
9.7690107166
 30
0.0
 10
11.2836711687
 20
9.7630670932
 30
0.0
 10
11.2727140956
 20
9.7581956394
 30
0.0
 10
11.261311437
 20
9.7544491174
 30
0.0
 10
11.2495841412
 20
9.7518668848
 30
0.0
 10
11.2376563642
 20
9.7504765313
 30
0.0
 10
11.2256563252
 20
9.7502925814
 30
0.0
 10
11.2176840532
 20
9.7509764572
 30
0.0
 10
11.2137302032
 20
9.7515182546
 30
0.0
  0
SPLINE
  5
511
100
AcDbEntity
  8
0
100
AcDbSpline
 62
9
  6
CONTINUOUS
 70
0
 71
3
 72
12
 73
8
 74
0
 42
0.0000001
 43
0.0000001
 44
0.0000000001
 40
0.0
 40
0.0
 40
0.0
 40
0.0
 40
0.283792936
 40
0.5590868704
 40
0.8042456746
 40
0.9093664255
 40
1.0
 40
1.0
 40
1.0
 40
1.0
 10
11.3598198251
 20
9.6897971528
 30
0.0
 10
11.3571153337
 20
9.6872143448
 30
0.0
 10
11.3518038845
 20
9.6821087268
 30
0.0
 10
11.3442095021
 20
9.6747166565
 30
0.0
 10
11.3383427198
 20
9.6689254725
 30
0.0
 10
11.3342396075
 20
9.6648118023
 30
0.0
 10
11.3324298028
 20
9.6629736387
 30
0.0
 10
11.3315961082
 20
9.6621184439
 30
0.0
  0
SPLINE
  5
512
100
AcDbEntity
  8
0
100
AcDbSpline
 62
9
  6
CONTINUOUS
 70
0
 71
3
 72
15
 73
11
 74
0
 42
0.0000001
 43
0.0000001
 44
0.0000000001
 40
0.0
 40
0.0
 40
0.0
 40
0.0
 40
0.1241365953
 40
0.2487021641
 40
0.3736256674
 40
0.4988137082
 40
0.6241604912
 40
0.7495511383
 40
0.8748685363
 40
1.0
 40
1.0
 40
1.0
 40
1.0
 10
11.4545027463
 20
9.6430585494
 30
0.0
 10
11.4513397168
 20
9.63989552
 30
0.0
 10
11.4453688895
 20
9.6331801531
 30
0.0
 10
11.4376338781
 20
9.6221255085
 30
0.0
 10
11.4312046896
 20
9.6102188572
 30
0.0
 10
11.4261725934
 20
9.5976281534
 30
0.0
 10
11.4226071128
 20
9.5845289595
 30
0.0
 10
11.4205581382
 20
9.57110357
 30
0.0
 10
11.4200539461
 20
9.5575416213
 30
0.0
 10
11.42075384
 20
9.5485204613
 30
0.0
 10
11.4213607035
 20
9.5440524375
 30
0.0
  0
SPLINE
  5
513
100
AcDbEntity
  8
0
100
AcDbSpline
 62
9
  6
CONTINUOUS
 70
0
 71
3
 72
23
 73
19
 74
0
 42
0.0000001
 43
0.0000001
 44
0.0000000001
 40
0.0
 40
0.0
 40
0.0
 40
0.0
 40
0.0613721465
 40
0.1228468671
 40
0.1844470531
 40
0.2461953482
 40
0.3081102173
 40
0.3702043495
 40
0.4324851391
 40
0.4949544055
 40
0.5576084391
 40
0.6204379649
 40
0.6834282628
 40
0.7465609863
 40
0.8098124904
 40
0.8731530754
 40
0.9365669311
 40
1.0
 40
1.0
 40
1.0
 40
1.0
 10
10.0199135688
 20
8.4888602221
 30
0.0
 10
10.0183562327
 20
8.4865464935
 30
0.0
 10
10.0154445883
 20
8.4817729257
 30
0.0
 10
10.0117294549
 20
8.4742473858
 30
0.0
 10
10.0086902004
 20
8.4664054085
 30
0.0
 10
10.0063498343
 20
8.4583067271
 30
0.0
 10
10.0047255778
 20
8.4500117836
 30
0.0
 10
10.0038297277
 20
8.4415826877
 30
0.0
 10
10.0036688395
 20
8.4330825465
 30
0.0
 10
10.0042438761
 20
8.4245749499
 30
0.0
 10
10.0055505031
 20
8.4161235014
 30
0.0
 10
10.0075790242
 20
8.4077914321
 30
0.0
 10
10.0103139793
 20
8.3996409507
 30
0.0
 10
10.0137349106
 20
8.3917329322
 30
0.0
 10
10.0178162302
 20
8.3841266798
 30
0.0
 10
10.0225275211
 20
8.3768783082
 30
0.0
 10
10.0278331605
 20
8.3700433412
 30
0.0
 10
10.0317408181
 20
8.3657946998
 30
0.0
 10
10.0337791793
 20
8.3637563387
 30
0.0
  0
SPLINE
  5
514
100
AcDbEntity
  8
0
100
AcDbSpline
 62
9
  6
CONTINUOUS
 70
0
 71
3
 72
29
 73
25
 74
0
 42
0.0000001
 43
0.0000001
 44
0.0000000001
 40
0.0
 40
0.0
 40
0.0
 40
0.0
 40
0.0064825618
 40
0.0102397837
 40
0.0143974957
 40
0.0240199994
 40
0.0355231672
 40
0.0489954433
 40
0.0644782819
 40
0.0819872328
 40
0.1015187116
 40
0.1230498524
 40
0.1465442097
 40
0.1992179669
 40
0.2590322557
 40
0.3253608992
 40
0.3974789681
 40
0.474590724
 40
0.5558890704
 40
0.6406243998
 40
0.7280877673
 40
0.8175869297
 40
0.9084514958
 40
1.0
 40
1.0
 40
1.0
 40
1.0
 10
10.4208819392
 20
8.8922804548
 30
0.0
 10
10.421046877
 20
8.8924453909
 30
0.0
 10
10.4213615967
 20
8.8926524719
 30
0.0
 10
10.4218402859
 20
8.8928506597
 30
0.0
 10
10.4224474227
 20
8.8930276593
 30
0.0
 10
10.4233517299
 20
8.8931577756
 30
0.0
 10
10.4245983253
 20
8.8931822666
 30
0.0
 10
10.42605205
 20
8.8930799849
 30
0.0
 10
10.4277088631
 20
8.892849188
 30
0.0
 10
10.4295652812
 20
8.8924915227
 30
0.0
 10
10.4316171287
 20
8.8920082638
 30
0.0
 10
10.4338598395
 20
8.891401925
 30
0.0
 10
10.4372280313
 20
8.8903940739
 30
0.0
 10
10.4418666309
 20
8.8888328707
 30
0.0
 10
10.4478966434
 20
8.8865862456
 30
0.0
 10
10.4545166586
 20
8.8839259758
 30
0.0
 10
10.4616452199
 20
8.8808675797
 30
0.0
 10
10.4691828411
 20
8.8774022515
 30
0.0
 10
10.477009898
 20
8.8734891018
 30
0.0
 10
10.4850048438
 20
8.8690923705
 30
0.0
 10
10.4930343424
 20
8.8641652874
 30
0.0
 10
10.5009479075
 20
8.8586537316
 30
0.0
 10
10.5085672433
 20
8.8525014838
 30
0.0
 10
10.5133081402
 20
8.8479451115
 30
0.0
 10
10.5155630251
 20
8.8455437319
 30
0.0
  0
SPLINE
  5
515
100
AcDbEntity
  8
0
100
AcDbSpline
 62
9
  6
CONTINUOUS
 70
0
 71
3
 72
28
 73
24
 74
0
 42
0.0000001
 43
0.0000001
 44
0.0000000001
 40
0.0
 40
0.0
 40
0.0
 40
0.0
 40
0.0082723885
 40
0.0171535237
 40
0.0271312193
 40
0.0385463943
 40
0.0516173858
 40
0.0664782106
 40
0.0832028914
 40
0.1018300965
 40
0.1223708865
 40
0.1448172775
 40
0.1691485309
 40
0.1953297192
 40
0.2530616612
 40
0.3175841116
 40
0.3883624093
 40
0.4647806684
 40
0.546155053
 40
0.631744599
 40
0.7207632075
 40
0.8123807524
 40
1.0
 40
1.0
 40
1.0
 40
1.0
 10
10.0772639208
 20
8.5486624365
 30
0.0
 10
10.0774666993
 20
8.5488652149
 30
0.0
 10
10.0779512909
 20
8.5492255204
 30
0.0
 10
10.0788359257
 20
8.549569822
 30
0.0
 10
10.0798789914
 20
8.5497332288
 30
0.0
 10
10.0810776429
 20
8.5497216449
 30
0.0
 10
10.0824319927
 20
8.5495384799
 30
0.0
 10
10.0839409518
 20
8.5491846716
 30
0.0
 10
10.0856024164
 20
8.5486612536
 30
0.0
 10
10.0874131014
 20
8.5479689531
 30
0.0
 10
10.0893691381
 20
8.5471092297
 30
0.0
 10
10.091466103
 20
8.5460839125
 30
0.0
 10
10.0936990504
 20
8.5448952187
 30
0.0
 10
10.0969581715
 20
8.543034542
 30
0.0
 10
10.1013245078
 20
8.5403079893
 30
0.0
 10
10.1068564272
 20
8.5365404896
 30
0.0
 10
10.1127854411
 20
8.5322124994
 30
0.0
 10
10.119054469
 20
8.5273650664
 30
0.0
 10
10.1256031311
 20
8.522044112
 30
0.0
 10
10.1323683386
 20
8.5163004519
 30
0.0
 10
10.1392848634
 20
8.5101891771
 30
0.0
 10
10.1486939375
 20
8.5015605811
 30
0.0
 10
10.1556543269
 20
8.4948295912
 30
0.0
 10
10.1602533793
 20
8.4902305387
 30
0.0
  0
LINE
  5
516
100
AcDbEntity
  8
0
100
AcDbLine
 62
9
  6
CONTINUOUS
 10
10.5618442578
 20
8.750400061
 11
10.5619974568
 21
8.7505529743
  0
SPLINE
  5
517
100
AcDbEntity
  8
0
100
AcDbSpline
 62
9
  6
CONTINUOUS
 70
0
 71
3
 72
15
 73
11
 74
0
 42
0.0000001
 43
0.0000001
 44
0.0000000001
 40
0.0
 40
0.0
 40
0.0
 40
0.0
 40
0.1246206645
 40
0.2494567516
 40
0.374459247
 40
0.4995745789
 40
0.6247457453
 40
0.7499129377
 40
0.8750163904
 40
1.0
 40
1.0
 40
1.0
 40
1.0
 10
10.5733663419
 20
8.7604980815
 30
0.0
 10
10.5764551257
 20
8.7628659371
 30
0.0
 10
10.582878867
 20
8.7673006149
 30
0.0
 10
10.5931293877
 20
8.7729675729
 30
0.0
 10
10.6039043737
 20
8.7776017166
 30
0.0
 10
10.6150930716
 20
8.7811550469
 30
0.0
 10
10.626581996
 20
8.7835918333
 30
0.0
 10
10.6382547646
 20
8.7848871732
 30
0.0
 10
10.6499913384
 20
8.7850281298
 30
0.0
 10
10.6577873293
 20
8.784350667
 30
0.0
 10
10.6616544823
 20
8.7838207497
 30
0.0
  0
SPLINE
  5
518
100
AcDbEntity
  8
0
100
AcDbSpline
 62
9
  6
CONTINUOUS
 70
0
 71
3
 72
12
 73
8
 74
0
 42
0.0000001
 43
0.0000001
 44
0.0000000001
 40
0.0
 40
0.0
 40
0.0
 40
0.0
 40
0.283792936
 40
0.5590868704
 40
0.8042456746
 40
0.9093664255
 40
1.0
 40
1.0
 40
1.0
 40
1.0
 10
10.5155648604
 20
8.8455418515
 30
0.0
 10
10.5182693518
 20
8.8481246595
 30
0.0
 10
10.5235808009
 20
8.8532302775
 30
0.0
 10
10.5311751834
 20
8.8606223478
 30
0.0
 10
10.5370419657
 20
8.8664135318
 30
0.0
 10
10.541145078
 20
8.870527202
 30
0.0
 10
10.5429548827
 20
8.8723653656
 30
0.0
 10
10.5437885773
 20
8.8732205604
 30
0.0
  0
SPLINE
  5
519
100
AcDbEntity
  8
0
100
AcDbSpline
 62
9
  6
CONTINUOUS
 70
0
 71
3
 72
15
 73
11
 74
0
 42
0.0000001
 43
0.0000001
 44
0.0000000001
 40
0.0
 40
0.0
 40
0.0
 40
0.0
 40
0.1241365953
 40
0.2487021641
 40
0.3736256674
 40
0.4988137082
 40
0.6241604912
 40
0.7495511383
 40
0.8748685363
 40
1.0
 40
1.0
 40
1.0
 40
1.0
 10
10.4208819392
 20
8.8922804548
 30
0.0
 10
10.4240449686
 20
8.8954434843
 30
0.0
 10
10.430015796
 20
8.9021588512
 30
0.0
 10
10.4377508074
 20
8.9132134957
 30
0.0
 10
10.4441799959
 20
8.9251201471
 30
0.0
 10
10.4492120921
 20
8.9377108509
 30
0.0
 10
10.4527775727
 20
8.9508100448
 30
0.0
 10
10.4548265473
 20
8.9642354343
 30
0.0
 10
10.4553307393
 20
8.977797383
 30
0.0
 10
10.4546308454
 20
8.986818543
 30
0.0
 10
10.454023982
 20
8.9912865668
 30
0.0
  0
SPLINE
  5
51A
100
AcDbEntity
  8
0
100
AcDbSpline
 62
9
  6
CONTINUOUS
 70
0
 71
3
 72
23
 73
19
 74
0
 42
0.0000001
 43
0.0000001
 44
0.0000000001
 40
0.0
 40
0.0
 40
0.0
 40
0.0
 40
0.0613721469
 40
0.1228468679
 40
0.1844470542
 40
0.2461953495
 40
0.3081102187
 40
0.3702043509
 40
0.4324851404
 40
0.4949544068
 40
0.5576084402
 40
0.6204379658
 40
0.6834282635
 40
0.7465609868
 40
0.8098124907
 40
0.8731530756
 40
0.9365669311
 40
1.0
 40
1.0
 40
1.0
 40
1.0
 10
11.7165016227
 20
10.1854482761
 30
0.0
 10
11.7188153513
 20
10.1870056122
 30
0.0
 10
11.7235889192
 20
10.1899172567
 30
0.0
 10
11.7311144592
 20
10.1936323902
 30
0.0
 10
11.7389564365
 20
10.1966716447
 30
0.0
 10
11.747055118
 20
10.1990120108
 30
0.0
 10
11.7553500614
 20
10.2006362673
 30
0.0
 10
11.7637791574
 20
10.2015321174
 30
0.0
 10
11.7722792986
 20
10.2016930057
 30
0.0
 10
11.7807868952
 20
10.2011179691
 30
0.0
 10
11.7892383437
 20
10.1998113421
 30
0.0
 10
11.7975704129
 20
10.1977828209
 30
0.0
 10
11.8057208943
 20
10.1950478658
 30
0.0
 10
11.8136289128
 20
10.1916269345
 30
0.0
 10
11.8212351652
 20
10.1875456149
 30
0.0
 10
11.8284835368
 20
10.1828343239
 30
0.0
 10
11.8353185038
 20
10.1775286845
 30
0.0
 10
11.8395671451
 20
10.1736210268
 30
0.0
 10
11.8416055062
 20
10.1715826656
 30
0.0
  0
SPLINE
  5
51B
100
AcDbEntity
  8
0
100
AcDbSpline
 62
9
  6
CONTINUOUS
 70
0
 71
3
 72
28
 73
24
 74
0
 42
0.0000001
 43
0.0000001
 44
0.0000000001
 40
0.0
 40
0.0
 40
0.0
 40
0.0
 40
0.0082723868
 40
0.0171535205
 40
0.0271312149
 40
0.0385463889
 40
0.0516173796
 40
0.0664782039
 40
0.0832028843
 40
0.1018300891
 40
0.1223708789
 40
0.1448172699
 40
0.1691485234
 40
0.1953297117
 40
0.253061654
 40
0.317584105
 40
0.3883624034
 40
0.4647806632
 40
0.5461550486
 40
0.6317445956
 40
0.7207632049
 40
0.8123807507
 40
1.0
 40
1.0
 40
1.0
 40
1.0
 10
11.6566994084
 20
10.1280979241
 30
0.0
 10
11.65649663
 20
10.1278951456
 30
0.0
 10
11.6561363246
 20
10.1274105541
 30
0.0
 10
11.6557920232
 20
10.1265259194
 30
0.0
 10
11.6556286164
 20
10.1254828539
 30
0.0
 10
11.6556402005
 20
10.1242842024
 30
0.0
 10
11.6558233656
 20
10.1229298528
 30
0.0
 10
11.6561771739
 20
10.1214208938
 30
0.0
 10
11.6567005921
 20
10.1197594293
 30
0.0
 10
11.6573928927
 20
10.1179487443
 30
0.0
 10
11.6582526161
 20
10.1159927077
 30
0.0
 10
11.6592779333
 20
10.1138957429
 30
0.0
 10
11.6604666272
 20
10.1116627955
 30
0.0
 10
11.662327304
 20
10.1084036744
 30
0.0
 10
11.6650538567
 20
10.1040373382
 30
0.0
 10
11.6688213564
 20
10.0985054188
 30
0.0
 10
11.6731493465
 20
10.0925764049
 30
0.0
 10
11.6779967795
 20
10.0863073769
 30
0.0
 10
11.6833177338
 20
10.0797587147
 30
0.0
 10
11.6890613938
 20
10.072993507
 30
0.0
 10
11.6951726684
 20
10.0660769821
 30
0.0
 10
11.7038012642
 20
10.0566679077
 30
0.0
 10
11.7105322538
 20
10.0497075181
 30
0.0
 10
11.7151313061
 20
10.0451084655
 30
0.0
  0
SPLINE
  5
51C
100
AcDbEntity
  8
0
100
AcDbSpline
 62
9
  6
CONTINUOUS
 70
0
 71
3
 72
32
 73
28
 74
0
 42
0.0000001
 43
0.0000001
 44
0.0000000001
 40
0.0
 40
0.0
 40
0.0
 40
0.0
 40
0.0924689586
 40
0.184326131
 40
0.2748806749
 40
0.3634548607
 40
0.4493320178
 40
0.5317603196
 40
0.6099210783
 40
0.6471301602
 40
0.6829453688
 40
0.7499864358
 40
0.8102616181
 40
0.8630588102
 40
0.8864605068
 40
0.9077790873
 40
0.9269639005
 40
0.9439723051
 40
0.9587748725
 40
0.971352181
 40
0.9816983448
 40
0.986041188
 40
0.9898383854
 40
0.9931016908
 40
0.9958516827
 40
0.9981267958
 40
1.0
 40
1.0
 40
1.0
 40
1.0
 10
11.3598215836
 20
9.6897951956
 30
0.0
 10
11.3575603617
 20
9.6922022919
 30
0.0
 10
11.3532808705
 20
9.6972182984
 30
0.0
 10
11.347511278
 20
9.705170817
 30
0.0
 10
11.3423336847
 20
9.713354315
 30
0.0
 10
11.3376842472
 20
9.7216021776
 30
0.0
 10
11.3335049763
 20
9.7297719373
 30
0.0
 10
11.3297473206
 20
9.7377335828
 30
0.0
 10
11.3268839547
 20
9.7441923778
 30
0.0
 10
11.3247632803
 20
9.7491582693
 30
0.0
 10
11.3228345414
 20
9.7537741054
 30
0.0
 10
11.3206512674
 20
9.7591762864
 30
0.0
 10
11.3183456559
 20
9.7651821733
 30
0.0
 10
11.3166949351
 20
9.7697690713
 30
0.0
 10
11.31559028
 20
9.7730723292
 30
0.0
 10
11.3149054671
 20
9.7752497549
 30
0.0
 10
11.3143331234
 20
9.7772227224
 30
0.0
 10
11.3138756301
 20
9.7789859835
 30
0.0
 10
11.3135331916
 20
9.7805344475
 30
0.0
 10
11.3133069083
 20
9.7818632959
 30
0.0
 10
11.3132065225
 20
9.7828332462
 30
0.0
 10
11.3131897342
 20
9.7834936211
 30
0.0
 10
11.3132054428
 20
9.7839009536
 30
0.0
 10
11.3132474987
 20
9.7842492951
 30
0.0
 10
11.3133150632
 20
9.7845383934
 30
0.0
 10
11.3134071903
 20
9.7847680906
 30
0.0
 10
11.3134931204
 20
9.7848916352
 30
0.0
 10
11.3135404276
 20
9.7849389433
 30
0.0
  0
SPLINE
  5
51D
100
AcDbEntity
  8
0
100
AcDbSpline
 62
9
  6
CONTINUOUS
 70
0
 71
3
 72
23
 73
19
 74
0
 42
0.0000001
 43
0.0000001
 44
0.0000000001
 40
0.0
 40
0.0
 40
0.0
 40
0.0
 40
0.0613721465
 40
0.1228468671
 40
0.1844470531
 40
0.2461953482
 40
0.3081102173
 40
0.3702043495
 40
0.4324851391
 40
0.4949544055
 40
0.5576084391
 40
0.6204379649
 40
0.6834282628
 40
0.7465609863
 40
0.8098124904
 40
0.8731530754
 40
0.9365669311
 40
1.0
 40
1.0
 40
1.0
 40
1.0
 10
10.1588830627
 20
10.1854482761
 30
0.0
 10
10.1565693341
 20
10.1870056122
 30
0.0
 10
10.1517957663
 20
10.1899172566
 30
0.0
 10
10.1442702264
 20
10.19363239
 30
0.0
 10
10.1364282491
 20
10.1966716444
 30
0.0
 10
10.1283295677
 20
10.1990120106
 30
0.0
 10
10.1200346242
 20
10.2006362671
 30
0.0
 10
10.1116055283
 20
10.2015321171
 30
0.0
 10
10.1031053871
 20
10.2016930054
 30
0.0
 10
10.0945977905
 20
10.2011179688
 30
0.0
 10
10.086146342
 20
10.1998113418
 30
0.0
 10
10.0778142727
 20
10.1977828207
 30
0.0
 10
10.0696637913
 20
10.1950478656
 30
0.0
 10
10.0617557728
 20
10.1916269343
 30
0.0
 10
10.0541495204
 20
10.1875456147
 30
0.0
 10
10.0469011488
 20
10.1828343238
 30
0.0
 10
10.0400661818
 20
10.1775286844
 30
0.0
 10
10.0358175404
 20
10.1736210268
 30
0.0
 10
10.0337791793
 20
10.1715826656
 30
0.0
  0
SPLINE
  5
51E
100
AcDbEntity
  8
0
100
AcDbSpline
 62
9
  6
CONTINUOUS
 70
0
 71
3
 72
29
 73
25
 74
0
 42
0.0000001
 43
0.0000001
 44
0.0000000001
 40
0.0
 40
0.0
 40
0.0
 40
0.0
 40
0.0064825618
 40
0.0102397837
 40
0.0143974957
 40
0.0240199994
 40
0.0355231672
 40
0.0489954433
 40
0.0644782819
 40
0.0819872328
 40
0.1015187116
 40
0.1230498524
 40
0.1465442097
 40
0.1992179669
 40
0.2590322557
 40
0.3253608992
 40
0.3974789681
 40
0.474590724
 40
0.5558890704
 40
0.6406243998
 40
0.7280877673
 40
0.8175869297
 40
0.9084514958
 40
1.0
 40
1.0
 40
1.0
 40
1.0
 10
10.5623032954
 20
9.7844799057
 30
0.0
 10
10.5624682315
 20
9.7843149679
 30
0.0
 10
10.5626753125
 20
9.7840002482
 30
0.0
 10
10.5628735002
 20
9.783521559
 30
0.0
 10
10.5630504999
 20
9.7829144222
 30
0.0
 10
10.5631806161
 20
9.782010115
 30
0.0
 10
10.5632051072
 20
9.7807635196
 30
0.0
 10
10.5631028255
 20
9.7793097949
 30
0.0
 10
10.5628720286
 20
9.7776529818
 30
0.0
 10
10.5625143633
 20
9.7757965636
 30
0.0
 10
10.5620311044
 20
9.7737447162
 30
0.0
 10
10.5614247656
 20
9.7715020054
 30
0.0
 10
10.5604169145
 20
9.7681338136
 30
0.0
 10
10.5588557113
 20
9.7634952139
 30
0.0
 10
10.5566090862
 20
9.7574652015
 30
0.0
 10
10.5539488164
 20
9.7508451863
 30
0.0
 10
10.5508904203
 20
9.743716625
 30
0.0
 10
10.5474250921
 20
9.7361790038
 30
0.0
 10
10.5435119424
 20
9.7283519468
 30
0.0
 10
10.5391152111
 20
9.7203570011
 30
0.0
 10
10.534188128
 20
9.7123275025
 30
0.0
 10
10.5286765722
 20
9.7044139374
 30
0.0
 10
10.5225243244
 20
9.6967946016
 30
0.0
 10
10.5179679521
 20
9.6920537046
 30
0.0
 10
10.5155665725
 20
9.6897988198
 30
0.0
  0
SPLINE
  5
51F
100
AcDbEntity
  8
0
100
AcDbSpline
 62
9
  6
CONTINUOUS
 70
0
 71
3
 72
28
 73
24
 74
0
 42
0.0000001
 43
0.0000001
 44
0.0000000001
 40
0.0
 40
0.0
 40
0.0
 40
0.0
 40
0.0082723885
 40
0.0171535237
 40
0.0271312193
 40
0.0385463943
 40
0.0516173858
 40
0.0664782106
 40
0.0832028914
 40
0.1018300965
 40
0.1223708865
 40
0.1448172775
 40
0.1691485309
 40
0.1953297192
 40
0.2530616612
 40
0.3175841116
 40
0.3883624093
 40
0.4647806684
 40
0.546155053
 40
0.631744599
 40
0.7207632075
 40
0.8123807524
 40
1.0
 40
1.0
 40
1.0
 40
1.0
 10
10.218685277
 20
10.1280979241
 30
0.0
 10
10.2188880555
 20
10.1278951456
 30
0.0
 10
10.219248361
 20
10.127410554
 30
0.0
 10
10.2195926626
 20
10.1265259192
 30
0.0
 10
10.2197560694
 20
10.1254828535
 30
0.0
 10
10.2197444855
 20
10.1242842019
 30
0.0
 10
10.2195613205
 20
10.1229298522
 30
0.0
 10
10.2192075122
 20
10.1214208931
 30
0.0
 10
10.2186840942
 20
10.1197594285
 30
0.0
 10
10.2179917937
 20
10.1179487435
 30
0.0
 10
10.2171320703
 20
10.1159927068
 30
0.0
 10
10.2161067531
 20
10.1138957419
 30
0.0
 10
10.2149180593
 20
10.1116627945
 30
0.0
 10
10.2130573826
 20
10.1084036734
 30
0.0
 10
10.2103308299
 20
10.1040373371
 30
0.0
 10
10.2065633302
 20
10.0985054177
 30
0.0
 10
10.20223534
 20
10.0925764038
 30
0.0
 10
10.197387907
 20
10.0863073759
 30
0.0
 10
10.1920669526
 20
10.0797587138
 30
0.0
 10
10.1863232925
 20
10.0729935062
 30
0.0
 10
10.1802120177
 20
10.0660769815
 30
0.0
 10
10.1715834217
 20
10.0566679074
 30
0.0
 10
10.1648524318
 20
10.049707518
 30
0.0
 10
10.1602533793
 20
10.0451084656
 30
0.0
  0
SPLINE
  5
520
100
AcDbEntity
  8
0
100
AcDbSpline
 62
9
  6
CONTINUOUS
 70
0
 71
3
 72
23
 73
19
 74
0
 42
0.0000001
 43
0.0000001
 44
0.0000000001
 40
0.0
 40
0.0
 40
0.0
 40
0.0
 40
0.0613721469
 40
0.1228468679
 40
0.1844470542
 40
0.2461953495
 40
0.3081102187
 40
0.3702043509
 40
0.4324851404
 40
0.4949544068
 40
0.5576084402
 40
0.6204379658
 40
0.6834282635
 40
0.7465609868
 40
0.8098124907
 40
0.8731530756
 40
0.9365669311
 40
1.0
 40
1.0
 40
1.0
 40
1.0
 10
10.1588830628
 20
8.3498907282
 30
0.0
 10
10.1565693341
 20
8.3483333921
 30
0.0
 10
10.1517957663
 20
8.3454217476
 30
0.0
 10
10.1442702263
 20
8.3417066141
 30
0.0
 10
10.136428249
 20
8.3386673596
 30
0.0
 10
10.1283295675
 20
8.3363269935
 30
0.0
 10
10.1200346241
 20
8.334702737
 30
0.0
 10
10.1116055281
 20
8.3338068868
 30
0.0
 10
10.1031053869
 20
8.3336459986
 30
0.0
 10
10.0945977903
 20
8.3342210352
 30
0.0
 10
10.0861463418
 20
8.3355276622
 30
0.0
 10
10.0778142725
 20
8.3375561834
 30
0.0
 10
10.0696637912
 20
8.3402911385
 30
0.0
 10
10.0617557727
 20
8.3437120698
 30
0.0
 10
10.0541495203
 20
8.3477933894
 30
0.0
 10
10.0469011487
 20
8.3525046804
 30
0.0
 10
10.0400661817
 20
8.3578103198
 30
0.0
 10
10.0358175404
 20
8.3617179775
 30
0.0
 10
10.0337791793
 20
8.3637563387
 30
0.0
  0
SPLINE
  5
521
100
AcDbEntity
  8
0
100
AcDbSpline
 62
9
  6
CONTINUOUS
 70
0
 71
3
 72
28
 73
24
 74
0
 42
0.0000001
 43
0.0000001
 44
0.0000000001
 40
0.0
 40
0.0
 40
0.0
 40
0.0
 40
0.0082723868
 40
0.0171535205
 40
0.0271312149
 40
0.0385463889
 40
0.0516173796
 40
0.0664782039
 40
0.0832028843
 40
0.1018300891
 40
0.1223708789
 40
0.1448172699
 40
0.1691485234
 40
0.1953297117
 40
0.253061654
 40
0.317584105
 40
0.3883624034
 40
0.4647806632
 40
0.5461550486
 40
0.6317445956
 40
0.7207632049
 40
0.8123807507
 40
1.0
 40
1.0
 40
1.0
 40
1.0
 10
10.218685277
 20
8.4072410802
 30
0.0
 10
10.2188880555
 20
8.4074438587
 30
0.0
 10
10.2192483609
 20
8.4079284502
 30
0.0
 10
10.2195926623
 20
8.4088130849
 30
0.0
 10
10.219756069
 20
8.4098561504
 30
0.0
 10
10.219744485
 20
8.4110548019
 30
0.0
 10
10.2195613199
 20
8.4124091515
 30
0.0
 10
10.2192075115
 20
8.4139181105
 30
0.0
 10
10.2186840934
 20
8.415579575
 30
0.0
 10
10.2179917928
 20
8.41739026
 30
0.0
 10
10.2171320694
 20
8.4193462966
 30
0.0
 10
10.2161067521
 20
8.4214432614
 30
0.0
 10
10.2149180582
 20
8.4236762087
 30
0.0
 10
10.2130573815
 20
8.4269353298
 30
0.0
 10
10.2103308288
 20
8.4313016661
 30
0.0
 10
10.2065633291
 20
8.4368335855
 30
0.0
 10
10.202235339
 20
8.4427625994
 30
0.0
 10
10.197387906
 20
8.4490316274
 30
0.0
 10
10.1920669517
 20
8.4555802896
 30
0.0
 10
10.1863232917
 20
8.4623454973
 30
0.0
 10
10.1802120171
 20
8.4692620222
 30
0.0
 10
10.1715834213
 20
8.4786710966
 30
0.0
 10
10.1648524317
 20
8.4856314861
 30
0.0
 10
10.1602533794
 20
8.4902305388
 30
0.0
  0
SPLINE
  5
522
100
AcDbEntity
  8
0
100
AcDbSpline
 62
9
  6
CONTINUOUS
 70
0
 71
3
 72
32
 73
28
 74
0
 42
0.0000001
 43
0.0000001
 44
0.0000000001
 40
0.0
 40
0.0
 40
0.0
 40
0.0
 40
0.0924689586
 40
0.184326131
 40
0.2748806749
 40
0.3634548607
 40
0.4493320178
 40
0.5317603196
 40
0.6099210783
 40
0.6471301602
 40
0.6829453688
 40
0.7499864358
 40
0.8102616181
 40
0.8630588102
 40
0.8864605068
 40
0.9077790873
 40
0.9269639005
 40
0.9439723051
 40
0.9587748725
 40
0.971352181
 40
0.9816983448
 40
0.986041188
 40
0.9898383854
 40
0.9931016908
 40
0.9958516827
 40
0.9981267958
 40
1.0
 40
1.0
 40
1.0
 40
1.0
 10
10.5155631019
 20
8.8455438087
 30
0.0
 10
10.5178243238
 20
8.8431367124
 30
0.0
 10
10.522103815
 20
8.8381207058
 30
0.0
 10
10.5278734075
 20
8.8301681873
 30
0.0
 10
10.5330510008
 20
8.8219846893
 30
0.0
 10
10.5377004383
 20
8.8137368267
 30
0.0
 10
10.5418797092
 20
8.805567067
 30
0.0
 10
10.5456373649
 20
8.7976054215
 30
0.0
 10
10.5485007308
 20
8.7911466265
 30
0.0
 10
10.5506214051
 20
8.786180735
 30
0.0
 10
10.5525501441
 20
8.7815648989
 30
0.0
 10
10.5547334181
 20
8.7761627179
 30
0.0
 10
10.5570390296
 20
8.770156831
 30
0.0
 10
10.5586897504
 20
8.765569933
 30
0.0
 10
10.5597944055
 20
8.7622666751
 30
0.0
 10
10.5604792183
 20
8.7600892494
 30
0.0
 10
10.5610515621
 20
8.7581162819
 30
0.0
 10
10.5615090553
 20
8.7563530208
 30
0.0
 10
10.5618514938
 20
8.7548045568
 30
0.0
 10
10.5620777772
 20
8.7534757083
 30
0.0
 10
10.562178163
 20
8.752505758
 30
0.0
 10
10.5621949513
 20
8.7518453832
 30
0.0
 10
10.5621792426
 20
8.7514380507
 30
0.0
 10
10.5621371868
 20
8.7510897092
 30
0.0
 10
10.5620696222
 20
8.7508006109
 30
0.0
 10
10.5619774952
 20
8.7505709137
 30
0.0
 10
10.561891565
 20
8.7504473691
 30
0.0
 10
10.5618442578
 20
8.750400061
 30
0.0
  0
SPLINE
  5
523
100
AcDbEntity
  8
0
100
AcDbSpline
 62
9
  6
CONTINUOUS
 70
0
 71
3
 72
23
 73
19
 74
0
 42
0.0000001
 43
0.0000001
 44
0.0000000001
 40
0.0
 40
0.0
 40
0.0
 40
0.0
 40
0.0613721469
 40
0.1228468679
 40
0.1844470542
 40
0.2461953495
 40
0.3081102187
 40
0.3702043509
 40
0.4324851404
 40
0.4949544068
 40
0.5576084402
 40
0.6204379658
 40
0.6834282635
 40
0.7465609868
 40
0.8098124907
 40
0.8731530756
 40
0.9365669311
 40
1.0
 40
1.0
 40
1.0
 40
1.0
 10
10.0199135688
 20
10.0464787821
 30
0.0
 10
10.0183562326
 20
10.0487925108
 30
0.0
 10
10.0154445882
 20
10.0535660786
 30
0.0
 10
10.0117294547
 20
10.0610916186
 30
0.0
 10
10.0086902002
 20
10.0689335959
 30
0.0
 10
10.0063498341
 20
10.0770322774
 30
0.0
 10
10.0047255776
 20
10.0853272208
 30
0.0
 10
10.0038297274
 20
10.0937563168
 30
0.0
 10
10.0036688392
 20
10.102256458
 30
0.0
 10
10.0042438758
 20
10.1107640546
 30
0.0
 10
10.0055505028
 20
10.1192155031
 30
0.0
 10
10.0075790239
 20
10.1275475723
 30
0.0
 10
10.0103139791
 20
10.1356980537
 30
0.0
 10
10.0137349104
 20
10.1436060722
 30
0.0
 10
10.01781623
 20
10.1512123246
 30
0.0
 10
10.022527521
 20
10.1584606962
 30
0.0
 10
10.0278331604
 20
10.1652956632
 30
0.0
 10
10.0317408181
 20
10.1695443045
 30
0.0
 10
10.0337791793
 20
10.1715826656
 30
0.0
  0
SPLINE
  5
524
100
AcDbEntity
  8
0
100
AcDbSpline
 62
9
  6
CONTINUOUS
 70
0
 71
3
 72
28
 73
24
 74
0
 42
0.0000001
 43
0.0000001
 44
0.0000000001
 40
0.0
 40
0.0
 40
0.0
 40
0.0
 40
0.0082723868
 40
0.0171535205
 40
0.0271312149
 40
0.0385463889
 40
0.0516173796
 40
0.0664782039
 40
0.0832028843
 40
0.1018300891
 40
0.1223708789
 40
0.1448172699
 40
0.1691485234
 40
0.1953297117
 40
0.253061654
 40
0.317584105
 40
0.3883624034
 40
0.4647806632
 40
0.5461550486
 40
0.6317445956
 40
0.7207632049
 40
0.8123807507
 40
1.0
 40
1.0
 40
1.0
 40
1.0
 10
10.0772639208
 20
9.9866765678
 30
0.0
 10
10.0774666993
 20
9.9864737894
 30
0.0
 10
10.0779512908
 20
9.986113484
 30
0.0
 10
10.0788359254
 20
9.9857691826
 30
0.0
 10
10.079878991
 20
9.9856057758
 30
0.0
 10
10.0810776425
 20
9.9856173599
 30
0.0
 10
10.0824319921
 20
9.985800525
 30
0.0
 10
10.0839409511
 20
9.9861543333
 30
0.0
 10
10.0856024156
 20
9.9866777515
 30
0.0
 10
10.0874131006
 20
9.9873700521
 30
0.0
 10
10.0893691372
 20
9.9882297755
 30
0.0
 10
10.091466102
 20
9.9892550927
 30
0.0
 10
10.0936990493
 20
9.9904437866
 30
0.0
 10
10.0969581704
 20
9.9923044634
 30
0.0
 10
10.1013245067
 20
9.9950310161
 30
0.0
 10
10.1068564261
 20
9.9987985158
 30
0.0
 10
10.11278544
 20
10.0031265059
 30
0.0
 10
10.119054468
 20
10.0079739389
 30
0.0
 10
10.1256031302
 20
10.0132948932
 30
0.0
 10
10.1323683379
 20
10.0190385532
 30
0.0
 10
10.1392848628
 20
10.0251498278
 30
0.0
 10
10.1486939371
 20
10.0337784236
 30
0.0
 10
10.1556543267
 20
10.0405094132
 30
0.0
 10
10.1602533794
 20
10.0451084655
 30
0.0
  0
SPLINE
  5
525
100
AcDbEntity
  8
0
100
AcDbSpline
 62
9
  6
CONTINUOUS
 70
0
 71
3
 72
32
 73
28
 74
0
 42
0.0000001
 43
0.0000001
 44
0.0000000001
 40
0.0
 40
0.0
 40
0.0
 40
0.0
 40
0.0924689586
 40
0.184326131
 40
0.2748806749
 40
0.3634548607
 40
0.4493320178
 40
0.5317603196
 40
0.6099210783
 40
0.6471301602
 40
0.6829453688
 40
0.7499864358
 40
0.8102616181
 40
0.8630588102
 40
0.8864605068
 40
0.9077790873
 40
0.9269639005
 40
0.9439723051
 40
0.9587748725
 40
0.971352181
 40
0.9816983448
 40
0.986041188
 40
0.9898383854
 40
0.9931016908
 40
0.9958516827
 40
0.9981267958
 40
1.0
 40
1.0
 40
1.0
 40
1.0
 10
10.5155666493
 20
9.689798743
 30
0.0
 10
10.513159553
 20
9.6875375211
 30
0.0
 10
10.5081435464
 20
9.6832580299
 30
0.0
 10
10.5001910279
 20
9.6774884374
 30
0.0
 10
10.4920075299
 20
9.6723108441
 30
0.0
 10
10.4837596673
 20
9.6676614066
 30
0.0
 10
10.4755899075
 20
9.6634821357
 30
0.0
 10
10.4676282621
 20
9.65972448
 30
0.0
 10
10.461169467
 20
9.6568611141
 30
0.0
 10
10.4562035756
 20
9.6547404397
 30
0.0
 10
10.4515877395
 20
9.6528117008
 30
0.0
 10
10.4461855585
 20
9.6506284268
 30
0.0
 10
10.4401796716
 20
9.6483228153
 30
0.0
 10
10.4355927736
 20
9.6466720945
 30
0.0
 10
10.4322895157
 20
9.6455674394
 30
0.0
 10
10.43011209
 20
9.6448826265
 30
0.0
 10
10.4281391224
 20
9.6443102828
 30
0.0
 10
10.4263758614
 20
9.6438527895
 30
0.0
 10
10.4248273974
 20
9.6435103511
 30
0.0
 10
10.4234985489
 20
9.6432840677
 30
0.0
 10
10.4225285986
 20
9.6431836819
 30
0.0
 10
10.4218682238
 20
9.6431668936
 30
0.0
 10
10.4214608913
 20
9.6431826022
 30
0.0
 10
10.4211125498
 20
9.6432246581
 30
0.0
 10
10.4208234515
 20
9.6432922226
 30
0.0
 10
10.4205937543
 20
9.6433843497
 30
0.0
 10
10.4204702097
 20
9.6434702798
 30
0.0
 10
10.4204229016
 20
9.6435175871
 30
0.0
  0
SPLINE
  5
526
100
AcDbEntity
  8
0
100
AcDbSpline
 62
9
  6
CONTINUOUS
 70
0
 71
3
 72
23
 73
19
 74
0
 42
0.0000001
 43
0.0000001
 44
0.0000000001
 40
0.0
 40
0.0
 40
0.0
 40
0.0
 40
0.0613721465
 40
0.1228468671
 40
0.1844470531
 40
0.2461953482
 40
0.3081102173
 40
0.3702043495
 40
0.4324851391
 40
0.4949544055
 40
0.5576084391
 40
0.6204379649
 40
0.6834282628
 40
0.7465609863
 40
0.8098124904
 40
0.8731530754
 40
0.9365669311
 40
1.0
 40
1.0
 40
1.0
 40
1.0
 10
11.7165016227
 20
8.3498907282
 30
0.0
 10
11.7188153513
 20
8.3483333921
 30
0.0
 10
11.7235889191
 20
8.3454217477
 30
0.0
 10
11.7311144591
 20
8.3417066143
 30
0.0
 10
11.7389564364
 20
8.3386673598
 30
0.0
 10
11.7470551178
 20
8.3363269937
 30
0.0
 10
11.7553500612
 20
8.3347027372
 30
0.0
 10
11.7637791572
 20
8.3338068871
 30
0.0
 10
11.7722792984
 20
8.3336459989
 30
0.0
 10
11.780786895
 20
8.3342210355
 30
0.0
 10
11.7892383435
 20
8.3355276625
 30
0.0
 10
11.7975704127
 20
8.3375561836
 30
0.0
 10
11.8057208941
 20
8.3402911387
 30
0.0
 10
11.8136289126
 20
8.34371207
 30
0.0
 10
11.8212351651
 20
8.3477933896
 30
0.0
 10
11.8284835367
 20
8.3525046805
 30
0.0
 10
11.8353185037
 20
8.3578103199
 30
0.0
 10
11.8395671451
 20
8.3617179775
 30
0.0
 10
11.8416055062
 20
8.3637563387
 30
0.0
  0
ENDSEC
  0
SECTION
  2
OBJECTS
  0
DICTIONARY
  5
C
100
AcDbDictionary
280
0
281
1
  3
ACAD_GROUP
350
D
  3
ACAD_MLINESTYLE
350
17
  3
ACAD_LAYOUT
350
1A
  3
ACAD_PLOTSETTINGS
350
19
  3
ACAD_PLOTSTYLENAME
350
E
  0
DICTIONARY
  5
D
102
{ACAD_REACTORS
330
C
102
}
100
AcDbDictionary
280
0
281
1
  0
ACDBDICTIONARYWDFLT
  5
E
102
{ACAD_REACTORS
330
C
102
}
100
AcDbDictionary
281
1
  3
Normal
350
F
100
AcDbDictionaryWithDefault
340
F
  0
DICTIONARY
  5
17
102
{ACAD_REACTORS
330
C
102
}
100
AcDbDictionary
280
0
281
1
  3
Standard
350
18
  0
DICTIONARY
  5
19
102
{ACAD_REACTORS
330
C
102
}
100
AcDbDictionary
281
1
  0
DICTIONARY
  5
1A
102
{ACAD_REACTORS
330
C
102
}
100
AcDbDictionary
281
1
  3
Model
350
527
  3
Layout1
350
528
  0
ACDBPLACEHOLDER
  5
F
102
{ACAD_REACTORS
330
E
102
}
  0
MLINESTYLE
  5
18
102
{ACAD_REACTORS
330
17
102
}
100
AcDbMlineStyle
  2
STANDARD
 70
0
  3

 62
256
 51
90.0
 52
90.0
 71
2
 49
0.5
 62
256
  6
BYLAYER
 49
-0.5
 62
256
  6
BYLAYER
  0
LAYOUT
  5
527
102
{ACAD_REACTORS
330
1A
102
}
100
AcDbPlotSettings
  1

  2
none_device
  4
ANSI_C_(22.00_x_17.00_Inches)
  6

 40
0.0
 41
0.0
 42
0.0
 43
0.0
 44
558.8
 45
431.8
 46
0.0
 47
0.0
 48
0.0
 49
0.0
140
0.0
141
0.0
142
1.0
143
1.0
 70
1024
 72
0
 73
0
 74
0
  7

 75
0
147
1.0
148
0.0
149
0.0
100
AcDbLayout
  1
Model
 70
0
 71
0
 10
0.0
 20
0.0
 11
22.0
 21
17.0
 12
0.0
 22
0.0
 32
0.0
 14
0.0
 24
0.0
 34
0.0
 15
0.0
 25
0.0
 35
0.0
146
0.0
 13
0.0
 23
0.0
 33
0.0
 16
1.0
 26
0.0
 36
0.0
 17
0.0
 27
1.0
 37
0.0
 76
0
330
205
345
0
346
0
  0
LAYOUT
  5
528
102
{ACAD_REACTORS
330
1A
102
}
100
AcDbPlotSettings
  1

  2
none_device
  4
ANSI_C_(22.00_x_17.00_Inches)
  6

 40
0.0
 41
0.0
 42
0.0
 43
0.0
 44
558.8
 45
431.8
 46
0.0
 47
0.0
 48
0.0
 49
0.0
140
0.0
141
0.0
142
1.0
143
1.0
 70
0
 72
0
 73
0
 74
0
  7

 75
0
147
1.0
148
0.0
149
0.0
100
AcDbLayout
  1
Layout1
 70
0
 71
1
 10
0.0
 20
0.0
 11
22.0
 21
17.0
 12
0.0
 22
0.0
 32
0.0
 14
0.0
 24
0.0
 34
0.0
 15
0.0
 25
0.0
 35
0.0
146
0.0
 13
0.0
 23
0.0
 33
0.0
 16
1.0
 26
0.0
 36
0.0
 17
0.0
 27
1.0
 37
0.0
 76
0
330
206
345
0
346
0
  0
ENDSEC
  0
EOF
