999
DXF file: E:\BT Custom\CADOUTPUT\_TOP.dxf
999
Pro/ENGINEER 2018400 by Parametric Technology Corporation
  0
SECTION
  2
HEADER
  9
$ACADVER
  1
AC1018
  9
$DWGCODEPAGE
  3
ANSI_1252
  9
$EXTMAX
 10
22.0
 20
17.0
 30
0.0
  9
$EXTMIN
 10
0.0
 20
0.0
 30
0.0
  9
$LIMMIN
 10
0.0
 20
0.0
  9
$LIMMAX
 10
22.0
 20
17.0
  9
$VIEWCTR
 10
11.0
 20
8.5
  9
$VIEWSIZE
 40
17.0
  9
$CLAYER
  8
0
  9
$LTSCALE
 40
1.21
  9
$CELTYPE
  6
BYLAYER
  9
$DIMSCALE
 40
1.0
  9
$DIMASZ
 40
0.1
  9
$DIMEXO
 40
0.0625
  9
$DIMDLI
 40
0.836
  9
$DIMEXE
 40
0.125
  9
$DIMCEN
 40
0.198
  9
$DIMLFAC
 40
1.0
  9
$DIMBLK
  1
_FILLED
  9
$DIMALT
 70
1
  9
$DIMALTD
 70
2
  9
$DIMALTTD
 70
2
  9
$DIMALTF
 40
25.4
  9
$DIMTXT
 40
0.08
  9
$DIMTOL
 70
1
  9
$DIMLIM
 70
0
  9
$DIMTFAC
 40
1.0
  9
$DIMTP
 40
0.001
  9
$DIMTM
 40
0.001
  9
$DIMGAP
 40
0.09
  9
$DIMDSEP
 70
46
  9
$AUNITS
 70
0
  9
$PDMODE
 70
3
  9
$PDSIZE
 40
0.06
  9
$HANDSEED
  5
2DF
  9
$TILEMODE
 70
1
  9
$MEASUREMENT
 70
0
  9
$INSUNITS
 70
1
  0
ENDSEC
  0
SECTION
  2
CLASSES
  0
CLASS
  1
ACDBDICTIONARYWDFLT
  2
AcDbDictionaryWithDefault
  3
AutoCAD 2000
 90
0
 91
1
280
0
281
0
  0
CLASS
  1
ACDBPLACEHOLDER
  2
AcDbPlaceHolder
  3
AutoCAD 2000
 90
0
 91
1
280
0
281
0
  0
CLASS
  1
LAYOUT
  2
AcDbLayout
  3
AutoCAD 2000
 90
0
 91
0
280
0
281
0
  0
ENDSEC
  0
SECTION
  2
TABLES
  0
TABLE
  2
VPORT
  5
8
100
AcDbSymbolTable
 70
2
  0
VPORT
  5
1F4
100
AcDbSymbolTableRecord
100
AcDbViewportTableRecord
  2
*ACTIVE
 70
0
 10
0.0
 20
0.0
 11
1.0
 21
1.0
 12
11.0
 22
8.5
 13
0.0
 23
0.0
 14
1.0
 24
1.0
 15
0.0
 25
0.0
 16
0.0
 26
0.0
 36
1.0
 17
0.0
 27
0.0
 37
0.0
 40
17.0
 41
1.2941176471
 42
50.0
 43
0.0
 44
0.0
 50
0.0
 51
0.0
 71
0
 72
100
 73
1
 74
1
 75
0
 76
0
 77
0
 78
0
  0
ENDTAB
  0
TABLE
  2
LTYPE
  5
5
100
AcDbSymbolTable
 70
6
  0
LTYPE
  5
14
100
AcDbSymbolTableRecord
100
AcDbLinetypeTableRecord
  2
BYBLOCK
 70
0
  3

 72
65
 73
0
 40
0.0
  0
LTYPE
  5
15
100
AcDbSymbolTableRecord
100
AcDbLinetypeTableRecord
  2
BYLAYER
 70
0
  3

 72
65
 73
0
 40
0.0
  0
LTYPE
  5
16
100
AcDbSymbolTableRecord
100
AcDbLinetypeTableRecord
  2
CONTINUOUS
 70
64
  3
Solid line
 72
65
 73
0
 40
0.0
  0
LTYPE
  5
1F5
100
AcDbSymbolTableRecord
100
AcDbLinetypeTableRecord
  2
CENTER
 70
64
  3
____ _ ____ _ ____ _ ____ _ ____ _ ____ _ ____
 72
65
 73
4
 40
0.6
 49
0.375
 74
0
 49
-0.075
 74
0
 49
0.075
 74
0
 49
-0.075
 74
0
  0
LTYPE
  5
1F6
100
AcDbSymbolTableRecord
100
AcDbLinetypeTableRecord
  2
HIDDEN
 70
64
  3
- - - - - - - - - - - - - - - - - - - -
 72
65
 73
2
 40
0.2
 49
0.1
 74
0
 49
-0.1
 74
0
  0
LTYPE
  5
1F7
100
AcDbSymbolTableRecord
100
AcDbLinetypeTableRecord
  2
PHANTOM
 70
64
  3
_____ _ _ _____ _ _ _____ _ _ _____
 72
65
 73
6
 40
0.8
 49
0.45
 74
0
 49
-0.05
 74
0
 49
0.1
 74
0
 49
-0.05
 74
0
 49
0.1
 74
0
 49
-0.05
 74
0
  0
LTYPE
  5
1F8
100
AcDbSymbolTableRecord
100
AcDbLinetypeTableRecord
  2
DOT
 70
64
  3
. . . . . . . . . . . . . . . . . . . .
 72
65
 73
2
 40
0.2
 49
0.1
 74
0
 49
-0.1
 74
0
  0
LTYPE
  5
1F9
100
AcDbSymbolTableRecord
100
AcDbLinetypeTableRecord
  2
DASHED
 70
64
  3
- - - - - - - - - - - - - - - - - - - -
 72
65
 73
2
 40
0.2
 49
0.1
 74
0
 49
-0.1
 74
0
  0
ENDTAB
  0
TABLE
  2
LAYER
  5
2
100
AcDbSymbolTable
 70
36
  0
LAYER
  5
10
100
AcDbSymbolTableRecord
100
AcDbLayerTableRecord
  2
0
 70
0
 62
7
  6
CONTINUOUS
370
-3
390
F
  0
LAYER
  5
1FA
100
AcDbSymbolTableRecord
100
AcDbLayerTableRecord
  2
DEFAULT_1
 70
0
 62
7
  6
CENTER
370
-3
390
F
  0
LAYER
  5
1FB
100
AcDbSymbolTableRecord
100
AcDbLayerTableRecord
  2
DEFAULT_2
 70
0
 62
8
  6
HIDDEN
370
-3
390
F
  0
LAYER
  5
1FC
100
AcDbSymbolTableRecord
100
AcDbLayerTableRecord
  2
DEFAULT_3
 70
0
 62
7
  6
PHANTOM
370
-3
390
F
  0
LAYER
  5
1FD
100
AcDbSymbolTableRecord
100
AcDbLayerTableRecord
  2
ALL_FEATURES
 70
0
 62
7
  6
CONTINUOUS
370
-3
390
F
  0
LAYER
  5
1FE
100
AcDbSymbolTableRecord
100
AcDbLayerTableRecord
  2
AXES_FEATURES
 70
0
 62
7
  6
CONTINUOUS
370
-3
390
F
  0
LAYER
  5
1FF
100
AcDbSymbolTableRecord
100
AcDbLayerTableRecord
  2
DEFAULT_COORDINATE_SYSTEM
 70
0
 62
7
  6
CONTINUOUS
370
-3
390
F
  0
LAYER
  5
200
100
AcDbSymbolTableRecord
100
AcDbLayerTableRecord
  2
DEFAULT_DATUM_AXES
 70
0
 62
7
  6
CONTINUOUS
370
-3
390
F
  0
LAYER
  5
201
100
AcDbSymbolTableRecord
100
AcDbLayerTableRecord
  2
DEFAULT_DATUM_PLANES
 70
0
 62
7
  6
CONTINUOUS
370
-3
390
F
  0
LAYER
  5
202
100
AcDbSymbolTableRecord
100
AcDbLayerTableRecord
  2
DIMENSIONS
 70
0
 62
7
  6
CONTINUOUS
370
-3
390
F
  0
ENDTAB
  0
TABLE
  2
STYLE
  5
3
100
AcDbSymbolTable
 70
1
  0
STYLE
  5
11
100
AcDbSymbolTableRecord
100
AcDbTextStyleTableRecord
  2
STANDARD
 70
0
 40
0.0
 41
0.8
 50
0.0
 71
0
 42
0.2
  3
txt
  4

  0
STYLE
  5
203
100
AcDbSymbolTableRecord
100
AcDbTextStyleTableRecord
  2
TEXTSTYLE_1
 70
0
 40
0.0
 41
0.8
 50
0.0
 71
0
 42
0.2
  3
gdt
  4

  0
ENDTAB
  0
TABLE
  2
VIEW
  5
6
100
AcDbSymbolTable
 70
0
  0
ENDTAB
  0
TABLE
  2
UCS
  5
7
100
AcDbSymbolTable
 70
0
  0
ENDTAB
  0
TABLE
  2
APPID
  5
9
100
AcDbSymbolTable
 70
1
  0
APPID
  5
204
100
AcDbSymbolTableRecord
100
AcDbRegAppTableRecord
  2
ACAD
 70
0
  0
ENDTAB
  0
TABLE
  2
BLOCK_RECORD
  5
1
100
AcDbSymbolTable
 70
0
  0
BLOCK_RECORD
  5
205
100
AcDbSymbolTableRecord
100
AcDbBlockTableRecord
  2
*Model_Space
  0
BLOCK_RECORD
  5
206
100
AcDbSymbolTableRecord
100
AcDbBlockTableRecord
  2
*Paper_Space
  0
BLOCK_RECORD
  5
207
100
AcDbSymbolTableRecord
100
AcDbBlockTableRecord
  2
_FILLED
  0
ENDTAB
  0
TABLE
  2
DIMSTYLE
  5
A
100
AcDbSymbolTable
 70
1
100
AcDbDimStyleTable
 71
0
  0
DIMSTYLE
105
208
100
AcDbSymbolTableRecord
100
AcDbDimStyleTableRecord
  2
STANDARD
 70
0
  3

  4

 40
1.0
 41
0.1
 42
0.0625
 43
0.38
 44
0.125
 45
0.0
 46
0.0
 47
0.001
 48
0.001
140
0.08
141
0.09
142
0.0
143
25.4
144
1.0
145
0.0
146
1.0
147
0.09
 71
1.0
 72
0.0
 73
1
 74
1
 75
0
 76
0
 77
0
 78
4
 79
1
170
1
171
2
172
0
173
0
174
0
175
0
176
0
177
0
178
0
270
2
179
3
271
3
272
3
273
2
274
2
275
0
280
0
281
0
282
0
283
1
284
4
285
0
286
0
287
3
288
0
340
11
278
46
341
207
342
207
343
207
344
207
  0
ENDTAB
  0
ENDSEC
  0
SECTION
  2
BLOCKS
  0
BLOCK
  5
20
100
AcDbEntity
  8
0
100
AcDbBlockBegin
  2
*Model_Space
 70
0
 10
0.0
 20
0.0
 30
0.0
  3
*Model_Space
  1

  0
ENDBLK
  5
21
100
AcDbEntity
  8
0
100
AcDbBlockEnd
  0
BLOCK
  5
1C
100
AcDbEntity
  8
0
100
AcDbBlockBegin
  2
*Paper_Space
 70
0
 10
0.0
 20
0.0
 30
0.0
  3
*Paper_Space
  1

  0
ENDBLK
  5
1D
100
AcDbEntity
  8
0
100
AcDbBlockEnd
  0
BLOCK
  5
209
100
AcDbEntity
  8
0
100
AcDbBlockBegin
  2
_FILLED
 70
64
 10
0.0
 20
0.0
  3
_FILLED
  1

  0
SOLID
  5
20A
100
AcDbEntity
  8
0
  6
BYBLOCK
 62
0
100
AcDbTrace
 10
0.0
 20
0.0
 11
-1.0
 21
0.2
 12
-1.0
 22
-0.2
 13
-1.0
 23
-0.2
  0
ENDBLK
  5
20B
100
AcDbEntity
  8
0
  6
BYBLOCK
 62
0
100
AcDbBlockEnd
  0
ENDSEC
  0
SECTION
  2
ENTITIES
  0
LINE
  5
20C
100
AcDbEntity
  8
0
100
AcDbLine
 62
7
  6
CONTINUOUS
 10
11.4548183383
 20
5.7343318604
 11
11.4722883582
 21
5.7390129381
  0
LINE
  5
20D
100
AcDbEntity
  8
0
100
AcDbLine
 62
9
  6
CONTINUOUS
 10
11.4402361853
 20
5.7282461912
 11
10.6544004913
 21
5.7282461912
  0
LINE
  5
20E
100
AcDbEntity
  8
0
100
AcDbLine
 62
7
  6
CONTINUOUS
 10
10.6398183383
 20
5.7343318604
 11
11.4548183383
 21
5.7343318604
  0
LINE
  5
20F
100
AcDbEntity
  8
0
100
AcDbLine
 62
9
  6
CONTINUOUS
 10
10.6223483184
 20
5.7390129381
 11
11.4722883582
 21
5.7390129381
  0
LINE
  5
210
100
AcDbEntity
  8
0
100
AcDbLine
 62
7
  6
CONTINUOUS
 10
10.6398183383
 20
5.7343318604
 11
10.6223483184
 21
5.7390129381
  0
LINE
  5
211
100
AcDbEntity
  8
0
100
AcDbLine
 62
7
  6
CONTINUOUS
 10
10.5298183383
 20
5.8543318604
 11
11.5648183383
 21
5.8543318604
  0
LINE
  5
212
100
AcDbEntity
  8
0
100
AcDbLine
 62
9
  6
CONTINUOUS
 10
10.4898183383
 20
5.9033216553
 11
11.6048183383
 21
5.9033216553
  0
LINE
  5
213
100
AcDbEntity
  8
0
100
AcDbLine
 62
9
  6
CONTINUOUS
 10
11.6048183383
 20
5.9893318604
 11
10.4898183383
 21
5.9893318604
  0
LINE
  5
214
100
AcDbEntity
  8
0
100
AcDbLine
 62
7
  6
CONTINUOUS
 10
11.5898177268
 20
6.0043318604
 11
10.5048189497
 21
6.0043318604
  0
LINE
  5
215
100
AcDbEntity
  8
0
100
AcDbLine
 62
9
  6
CONTINUOUS
 10
11.5973183383
 20
6.0143318604
 11
10.4973183383
 21
6.0143318604
  0
LINE
  5
216
100
AcDbEntity
  8
0
100
AcDbLine
 62
7
  6
CONTINUOUS
 10
10.2817960731
 20
6.013169066
 11
10.6366887634
 21
6.1016665295
  0
LINE
  5
217
100
AcDbEntity
  8
0
100
AcDbLine
 62
9
  6
CONTINUOUS
 10
10.3283112726
 20
6.1101978185
 11
10.671929291
 21
6.1958837846
  0
LINE
  5
218
100
AcDbEntity
  8
0
100
AcDbLine
 62
7
  6
CONTINUOUS
 10
11.45863576
 20
6.1014950052
 11
11.8128406039
 21
6.0131690659
  0
LINE
  5
219
100
AcDbEntity
  8
0
100
AcDbLine
 62
9
  6
CONTINUOUS
 10
11.4231664232
 20
6.1957693171
 11
11.766325404
 21
6.1101978185
  0
LINE
  5
21A
100
AcDbEntity
  8
0
100
AcDbLine
 62
9
  6
CONTINUOUS
 10
11.7733243088
 20
6.4693318604
 11
11.2869863872
 21
6.4693318604
  0
LINE
  5
21B
100
AcDbEntity
  8
0
100
AcDbLine
 62
9
  6
CONTINUOUS
 10
10.3213123678
 20
6.4693318604
 11
10.8076746985
 21
6.4693318604
  0
LINE
  5
21C
100
AcDbEntity
  8
0
100
AcDbLine
 62
9
  6
CONTINUOUS
 10
10.6904549688
 20
6.5593318604
 11
11.4041817078
 21
6.5593318604
  0
LINE
  5
21D
100
AcDbEntity
  8
0
100
AcDbLine
 62
7
  6
CONTINUOUS
 10
10.2506016896
 20
6.5693318604
 11
11.8440349869
 21
6.5693318604
  0
LINE
  5
21E
100
AcDbEntity
  8
0
100
AcDbLine
 62
9
  6
CONTINUOUS
 10
10.7458183383
 20
6.6293318604
 11
11.3488183383
 21
6.6293318604
  0
LINE
  5
21F
100
AcDbEntity
  8
0
100
AcDbLine
 62
7
  6
CONTINUOUS
 10
10.2892574348
 20
8.1893318604
 11
10.2892574348
 21
7.9393873184
  0
LINE
  5
220
100
AcDbEntity
  8
0
100
AcDbLine
 62
7
  6
CONTINUOUS
 10
10.3063183383
 20
8.2513318604
 11
10.3063183383
 21
8.1893318604
  0
LINE
  5
221
100
AcDbEntity
  8
0
100
AcDbLine
 62
7
  6
CONTINUOUS
 10
10.4898183383
 20
5.9033216553
 11
10.4898183383
 21
5.9893318604
  0
LINE
  5
222
100
AcDbEntity
  8
0
100
AcDbLine
 62
7
  6
CONTINUOUS
 10
10.4973183383
 20
6.0143318604
 11
10.4973183383
 21
6.0669125617
  0
LINE
  5
223
100
AcDbEntity
  8
0
100
AcDbLine
 62
7
  6
CONTINUOUS
 10
10.7458183383
 20
6.9193318604
 11
11.3488183383
 21
6.9193318604
  0
LINE
  5
224
100
AcDbEntity
  8
0
100
AcDbLine
 62
7
  6
CONTINUOUS
 10
11.4461672268
 20
6.9393318604
 11
10.6484694498
 21
6.9393318604
  0
LINE
  5
225
100
AcDbEntity
  8
0
100
AcDbLine
 62
7
  6
CONTINUOUS
 10
10.4326843441
 20
7.3796330489
 11
10.5068183383
 21
7.2737154216
  0
LINE
  5
226
100
AcDbEntity
  8
0
100
AcDbLine
 62
7
  6
CONTINUOUS
 10
10.6682878866
 20
8.1893318604
 11
10.6682878866
 21
7.9393878045
  0
LINE
  5
227
100
AcDbEntity
  8
0
100
AcDbLine
 62
7
  6
CONTINUOUS
 10
10.7458183383
 20
6.6293318604
 11
10.7458183383
 21
6.9193318604
  0
LINE
  5
228
100
AcDbEntity
  8
0
100
AcDbLine
 62
9
  6
CONTINUOUS
 10
11.4770580658
 20
6.9677326177
 11
10.6175786107
 21
6.9677326177
  0
LINE
  5
229
100
AcDbEntity
  8
0
100
AcDbLine
 62
7
  6
CONTINUOUS
 10
10.8473183383
 20
6.9393318604
 11
10.8473183383
 21
6.9193318604
  0
LINE
  5
22A
100
AcDbEntity
  8
0
100
AcDbLine
 62
7
  6
CONTINUOUS
 10
10.9566581634
 20
5.594453601
 11
10.9566581634
 21
5.5934383783
  0
LINE
  5
22B
100
AcDbEntity
  8
0
100
AcDbLine
 62
7
  6
CONTINUOUS
 10
11.0148183383
 20
5.5868696883
 11
11.0148183383
 21
5.6485023556
  0
LINE
  5
22C
100
AcDbEntity
  8
0
100
AcDbLine
 62
7
  6
CONTINUOUS
 10
11.0304433383
 20
5.6414280655
 11
11.0304433383
 21
5.5849425648
  0
LINE
  5
22D
100
AcDbEntity
  8
0
100
AcDbLine
 62
7
  6
CONTINUOUS
 10
11.0641933383
 20
5.5849425648
 11
11.0641933383
 21
5.6414280655
  0
LINE
  5
22E
100
AcDbEntity
  8
0
100
AcDbLine
 62
7
  6
CONTINUOUS
 10
11.0798183383
 20
5.6485023556
 11
11.0798183383
 21
5.5868696883
  0
LINE
  5
22F
100
AcDbEntity
  8
0
100
AcDbLine
 62
9
  6
CONTINUOUS
 10
10.5068183383
 20
7.2737154216
 11
11.5878183383
 21
7.2737154216
  0
LINE
  5
230
100
AcDbEntity
  8
0
100
AcDbLine
 62
9
  6
CONTINUOUS
 10
10.4326843441
 20
7.3796330489
 11
11.6619523325
 21
7.3796330489
  0
LINE
  5
231
100
AcDbEntity
  8
0
100
AcDbLine
 62
7
  6
CONTINUOUS
 10
10.289265592
 20
7.9393844548
 11
10.4061548986
 21
7.8228318604
  0
LINE
  5
232
100
AcDbEntity
  8
0
100
AcDbLine
 62
7
  6
CONTINUOUS
 10
11.1379785132
 20
5.594453601
 11
11.1379785132
 21
5.5934383783
  0
LINE
  5
233
100
AcDbEntity
  8
0
100
AcDbLine
 62
7
  6
CONTINUOUS
 10
11.2473183383
 20
6.9393318604
 11
11.2473183383
 21
6.9193318604
  0
LINE
  5
234
100
AcDbEntity
  8
0
100
AcDbLine
 62
7
  6
CONTINUOUS
 10
11.3488183383
 20
6.6293318604
 11
11.3488183383
 21
6.9193318604
  0
LINE
  5
235
100
AcDbEntity
  8
0
100
AcDbLine
 62
7
  6
CONTINUOUS
 10
11.8053740287
 20
7.9393873904
 11
11.6884817779
 21
7.8228318604
  0
LINE
  5
236
100
AcDbEntity
  8
0
100
AcDbLine
 62
9
  6
CONTINUOUS
 10
10.4288183383
 20
7.6078318604
 11
11.6658183383
 21
7.6078318604
  0
LINE
  5
237
100
AcDbEntity
  8
0
100
AcDbLine
 62
7
  6
CONTINUOUS
 10
11.42634879
 20
8.1893318604
 11
11.42634879
 21
7.9393873184
  0
LINE
  5
238
100
AcDbEntity
  8
0
100
AcDbLine
 62
7
  6
CONTINUOUS
 10
11.5973183383
 20
6.0143318604
 11
11.5973183383
 21
6.0669125617
  0
LINE
  5
239
100
AcDbEntity
  8
0
100
AcDbLine
 62
7
  6
CONTINUOUS
 10
11.6048183383
 20
5.9033216553
 11
11.6048183383
 21
5.9893318604
  0
LINE
  5
23A
100
AcDbEntity
  8
0
100
AcDbLine
 62
7
  6
CONTINUOUS
 10
11.6619523325
 20
7.3796330489
 11
11.5878183383
 21
7.2737154216
  0
LINE
  5
23B
100
AcDbEntity
  8
0
100
AcDbLine
 62
9
  6
CONTINUOUS
 10
10.4061548986
 20
7.8228318604
 11
11.6884817779
 21
7.8228318604
  0
LINE
  5
23C
100
AcDbEntity
  8
0
100
AcDbLine
 62
7
  6
CONTINUOUS
 10
11.7883183383
 20
8.2513318604
 11
11.7883183383
 21
8.1893318604
  0
LINE
  5
23D
100
AcDbEntity
  8
0
100
AcDbLine
 62
7
  6
CONTINUOUS
 10
11.8053792417
 20
8.1893318604
 11
11.8053792417
 21
7.9393892435
  0
LINE
  5
23E
100
AcDbEntity
  8
0
100
AcDbLine
 62
7
  6
CONTINUOUS
 10
11.8053792417
 20
8.1893318604
 11
10.2892574348
 21
8.1893318604
  0
LINE
  5
23F
100
AcDbEntity
  8
0
100
AcDbLine
 62
7
  6
CONTINUOUS
 10
11.8603210121
 20
8.2513318604
 11
10.2343156645
 21
8.2513318604
  0
LINE
  5
240
100
AcDbEntity
  8
0
100
AcDbLine
 62
7
  6
CONTINUOUS
 10
12.0473183383
 20
8.4393318604
 11
10.0473183383
 21
8.4393318604
  0
LINE
  5
241
100
AcDbEntity
  8
0
100
AcDbLine
 62
7
  6
CONTINUOUS
 10
13.8041570779
 20
8.6263318604
 11
8.2904795986
 21
8.6263318604
  0
LINE
  5
242
100
AcDbEntity
  8
0
100
AcDbLine
 62
9
  6
CONTINUOUS
 10
14.0212377081
 20
8.7523318604
 11
8.0733989685
 21
8.7523318604
  0
LINE
  5
243
100
AcDbEntity
  8
0
100
AcDbLine
 62
7
  6
CONTINUOUS
 10
14.2382345161
 20
8.8783318464
 11
7.8564021604
 21
8.8783318464
  0
LINE
  5
244
100
AcDbEntity
  8
0
100
AcDbLine
 62
9
  6
CONTINUOUS
 10
14.4552392802
 20
9.0043346126
 11
7.6393973963
 21
9.0043346126
  0
LINE
  5
245
100
AcDbEntity
  8
0
100
AcDbLine
 62
7
  6
CONTINUOUS
 10
14.6723183383
 20
9.1303318604
 11
7.4223183383
 21
9.1303318604
  0
LINE
  5
246
100
AcDbEntity
  8
0
100
AcDbLine
 62
7
  6
CONTINUOUS
 10
14.9223183383
 20
9.3803318604
 11
7.1723183383
 21
9.3803318604
  0
ARC
  5
247
100
AcDbEntity
  8
0
100
AcDbCircle
 62
7
  6
CONTINUOUS
 10
9.9947794362
 20
6.9153285319
 40
0.625
100
AcDbArc
 50
4.8096995456
 51
34.9889904702
  0
ARC
  5
248
100
AcDbEntity
  8
0
100
AcDbCircle
 62
7
  6
CONTINUOUS
 10
11.035288639
 20
6.1055206098
 40
0.5205755073
100
AcDbArc
 50
281.3918610355
 51
284.1237972495
  0
ARC
  5
249
100
AcDbEntity
  8
0
100
AcDbCircle
 62
7
  6
CONTINUOUS
 10
11.0355178475
 20
6.1044056055
 40
0.5194371964
100
AcDbArc
 50
281.0574667867
 51
281.337158063
  0
ARC
  5
24A
100
AcDbEntity
  8
0
100
AcDbCircle
 62
7
  6
CONTINUOUS
 10
11.0356582992
 20
6.1036688425
 40
0.5186871735
100
AcDbArc
 50
279.5733484473
 51
281.0578492132
  0
ARC
  5
24B
100
AcDbEntity
  8
0
100
AcDbCircle
 62
7
  6
CONTINUOUS
 10
11.0417908794
 20
6.1035714863
 40
0.5181245816
100
AcDbArc
 50
278.9071445932
 51
280.6987841625
  0
ARC
  5
24C
100
AcDbEntity
  8
0
100
AcDbCircle
 62
7
  6
CONTINUOUS
 10
11.0420357285
 20
6.1019365252
 40
0.5174701762
100
AcDbArc
 50
274.1957988653
 51
280.6848839068
  0
ARC
  5
24D
100
AcDbEntity
  8
0
100
AcDbCircle
 62
7
  6
CONTINUOUS
 10
11.0359685112
 20
6.1016809661
 40
0.5166753905
100
AcDbArc
 50
274.8685034099
 51
279.5760888516
  0
ARC
  5
24E
100
AcDbEntity
  8
0
100
AcDbCircle
 62
7
  6
CONTINUOUS
 10
11.0420638713
 20
6.1018060685
 40
0.5163381854
100
AcDbArc
 50
274.1933480351
 51
278.9075492011
  0
ARC
  5
24F
100
AcDbEntity
  8
0
100
AcDbCircle
 62
7
  6
CONTINUOUS
 10
11.0421828961
 20
6.1003140711
 40
0.5158413022
100
AcDbArc
 50
272.4454971393
 51
274.0592945383
  0
ARC
  5
250
100
AcDbEntity
  8
0
100
AcDbCircle
 62
7
  6
CONTINUOUS
 10
11.0421828431
 20
6.1004673246
 40
0.5149943248
100
AcDbArc
 50
272.4495274395
 51
274.0660180284
  0
ARC
  5
251
100
AcDbEntity
  8
0
100
AcDbCircle
 62
7
  6
CONTINUOUS
 10
10.5997934594
 20
7.4965962636
 40
0.2039751211
100
AcDbArc
 50
146.9521644936
 51
214.9889904702
  0
ARC
  5
252
100
AcDbEntity
  8
0
100
AcDbCircle
 62
7
  6
CONTINUOUS
 10
10.2505814448
 20
6.1382116843
 40
0.1288798255
100
AcDbArc
 50
270.0090001903
 51
284.0163926033
  0
ARC
  5
253
100
AcDbEntity
  8
0
100
AcDbCircle
 62
7
  6
CONTINUOUS
 10
10.654700699
 20
5.8597536664
 40
0.125
100
AcDbArc
 50
182.4859527198
 51
255.0
  0
ARC
  5
254
100
AcDbEntity
  8
0
100
AcDbCircle
 62
7
  6
CONTINUOUS
 10
10.6858183383
 20
6.6293318604
 40
0.06
100
AcDbArc
 50
270.0
 51
360.0
  0
ARC
  5
255
100
AcDbEntity
  8
0
100
AcDbCircle
 62
7
  6
CONTINUOUS
 10
10.9783889326
 20
5.638659998
 40
0.0500565035
100
AcDbArc
 50
259.4419644161
 51
262.8957806622
  0
ARC
  5
256
100
AcDbEntity
  8
0
100
AcDbCircle
 62
7
  6
CONTINUOUS
 10
10.5398183383
 20
5.9033216553
 40
0.05
100
AcDbArc
 50
180.0
 51
258.4630409672
  0
ARC
  5
257
100
AcDbEntity
  8
0
100
AcDbCircle
 62
7
  6
CONTINUOUS
 10
10.9634089004
 20
5.6405850143
 40
0.0499129554
100
AcDbArc
 50
260.2168165212
 51
261.356963313
  0
ARC
  5
258
100
AcDbEntity
  8
0
100
AcDbCircle
 62
7
  6
CONTINUOUS
 10
10.9634095223
 20
5.6415175978
 40
0.0498350265
100
AcDbArc
 50
260.201041889
 51
261.3426208995
  0
ARC
  5
259
100
AcDbEntity
  8
0
100
AcDbCircle
 62
7
  6
CONTINUOUS
 10
10.9633007918
 20
5.6398425605
 40
0.049162687
100
AcDbArc
 50
261.3514932655
 51
264.2012982261
  0
ARC
  5
25A
100
AcDbEntity
  8
0
100
AcDbCircle
 62
7
  6
CONTINUOUS
 10
10.9632201492
 20
5.6389508012
 40
0.0482673442
100
AcDbArc
 50
264.189584536
 51
270.9488489127
  0
ARC
  5
25B
100
AcDbEntity
  8
0
100
AcDbCircle
 62
7
  6
CONTINUOUS
 10
10.6484694498
 20
6.9703318604
 40
0.031
100
AcDbArc
 50
184.8096995457
 51
270.0
  0
ARC
  5
25C
100
AcDbEntity
  8
0
100
AcDbCircle
 62
9
  6
CONTINUOUS
 10
10.6294631719
 20
6.0793704229
 40
0.0216268449
100
AcDbArc
 50
65.9574831161
 51
72.1024446671
  0
ARC
  5
25D
100
AcDbEntity
  8
0
100
AcDbCircle
 62
9
  6
CONTINUOUS
 10
10.6298126961
 20
6.0804816429
 40
0.0204619872
100
AcDbArc
 50
72.0775634738
 51
78.3080700616
  0
ARC
  5
25E
100
AcDbEntity
  8
0
100
AcDbCircle
 62
7
  6
CONTINUOUS
 10
10.6673183383
 20
5.7435147611
 40
0.02
100
AcDbArc
 50
207.4103160269
 51
229.7673860839
  0
ARC
  5
25F
100
AcDbEntity
  8
0
100
AcDbCircle
 62
9
  6
CONTINUOUS
 10
10.6299449164
 20
6.0811148437
 40
0.0198151301
100
AcDbArc
 50
78.3114215004
 51
82.2128641339
  0
ARC
  5
260
100
AcDbEntity
  8
0
100
AcDbCircle
 62
7
  6
CONTINUOUS
 10
10.5048183383
 20
5.9893318604
 40
0.015
100
AcDbArc
 50
90.0
 51
180.0
  0
ARC
  5
261
100
AcDbEntity
  8
0
100
AcDbCircle
 62
7
  6
CONTINUOUS
 10
10.5073183383
 20
6.0143318604
 40
0.01
100
AcDbArc
 50
180.0
 51
270.0
  0
ARC
  5
262
100
AcDbEntity
  8
0
100
AcDbCircle
 62
7
  6
CONTINUOUS
 10
7.8564859863
 20
9.1283428097
 40
0.2500109774
100
AcDbArc
 50
209.7364395186
 51
269.9807893772
  0
ARC
  5
263
100
AcDbEntity
  8
0
100
AcDbCircle
 62
7
  6
CONTINUOUS
 10
7.4223183383
 20
9.3803318604
 40
0.25
100
AcDbArc
 50
180.0
 51
270.0
  0
ARC
  5
264
100
AcDbEntity
  8
0
100
AcDbCircle
 62
7
  6
CONTINUOUS
 10
7.4223183383
 20
8.8803318604
 40
0.25
100
AcDbArc
 50
29.7364395186
 51
90.0
  0
ARC
  5
265
100
AcDbEntity
  8
0
100
AcDbCircle
 62
7
  6
CONTINUOUS
 10
7.8563183383
 20
8.6283318604
 40
0.25
100
AcDbArc
 50
29.7357131076
 51
89.9807893772
  0
ARC
  5
266
100
AcDbEntity
  8
0
100
AcDbCircle
 62
7
  6
CONTINUOUS
 10
8.2904795986
 20
8.8763318604
 40
0.25
100
AcDbArc
 50
209.7357131076
 51
270.0
  0
ARC
  5
267
100
AcDbEntity
  8
0
100
AcDbCircle
 62
7
  6
CONTINUOUS
 10
10.0544544494
 20
8.6263318604
 40
0.1871361111
100
AcDbArc
 50
180.0
 51
267.8145949287
  0
ARC
  5
268
100
AcDbEntity
  8
0
100
AcDbCircle
 62
7
  6
CONTINUOUS
 10
10.2343156645
 20
8.4383318604
 40
0.187
100
AcDbArc
 50
179.6936039968
 51
270.0
  0
ARC
  5
269
100
AcDbEntity
  8
0
100
AcDbCircle
 62
7
  6
CONTINUOUS
 10
10.2850438047
 20
7.701370885
 40
0.1715245336
100
AcDbArc
 50
326.9521644936
 51
45.0826423158
  0
ARC
  5
26A
100
AcDbEntity
  8
0
100
AcDbCircle
 62
7
  6
CONTINUOUS
 10
11.0473183383
 20
6.1926651937
 40
0.6083333333
100
AcDbArc
 50
278.6421933169
 51
310.2326139161
  0
ARC
  5
26B
100
AcDbEntity
  8
0
100
AcDbCircle
 62
7
  6
CONTINUOUS
 10
11.0473183383
 20
6.1926651937
 40
0.6083333333
100
AcDbArc
 50
229.7673860839
 51
261.3578066831
  0
ARC
  5
26C
100
AcDbEntity
  8
0
100
AcDbCircle
 62
7
  6
CONTINUOUS
 10
11.0473183383
 20
6.1926651937
 40
0.6083333333
100
AcDbArc
 50
262.9067175816
 51
277.0932824184
  0
ARC
  5
26D
100
AcDbEntity
  8
0
100
AcDbCircle
 62
7
  6
CONTINUOUS
 10
11.0473183383
 20
6.1926651937
 40
0.6073333333
100
AcDbArc
 50
278.0966457792
 51
278.6565322316
  0
ARC
  5
26E
100
AcDbEntity
  8
0
100
AcDbCircle
 62
7
  6
CONTINUOUS
 10
11.0473183383
 20
6.1926651937
 40
0.6073333333
100
AcDbArc
 50
261.3434677684
 51
261.9033445609
  0
ARC
  5
26F
100
AcDbEntity
  8
0
100
AcDbCircle
 62
7
  6
CONTINUOUS
 10
11.0473183383
 20
6.1926651937
 40
0.5525964204
100
AcDbArc
 50
268.2500490744
 51
271.7499509256
  0
ARC
  5
270
100
AcDbEntity
  8
0
100
AcDbCircle
 62
7
  6
CONTINUOUS
 10
11.0473183383
 20
6.1926651937
 40
0.5514953646
100
AcDbArc
 50
268.2465542222
 51
271.7534457778
  0
ARC
  5
271
100
AcDbEntity
  8
0
100
AcDbCircle
 62
7
  6
CONTINUOUS
 10
11.0473183383
 20
6.1926651937
 40
0.5451325017
100
AcDbArc
 50
266.5820828834
 51
273.4179171166
  0
ARC
  5
272
100
AcDbEntity
  8
0
100
AcDbCircle
 62
7
  6
CONTINUOUS
 10
11.0594406682
 20
6.1059297186
 40
0.5209948526
100
AcDbArc
 50
255.8773024183
 51
258.6070408652
  0
ARC
  5
273
100
AcDbEntity
  8
0
100
AcDbCircle
 62
7
  6
CONTINUOUS
 10
11.0591188291
 20
6.1044056055
 40
0.5194371964
100
AcDbArc
 50
258.662841937
 51
258.9425332133
  0
ARC
  5
274
100
AcDbEntity
  8
0
100
AcDbCircle
 62
7
  6
CONTINUOUS
 10
11.0590115008
 20
6.1038508274
 40
0.5188721328
100
AcDbArc
 50
258.9424153871
 51
260.4263868569
  0
ARC
  5
275
100
AcDbEntity
  8
0
100
AcDbCircle
 62
7
  6
CONTINUOUS
 10
11.0528093536
 20
6.1033605656
 40
0.5179105618
100
AcDbArc
 50
259.3008456214
 51
261.0932255299
  0
ARC
  5
276
100
AcDbEntity
  8
0
100
AcDbCircle
 62
7
  6
CONTINUOUS
 10
11.0526009481
 20
6.1019365252
 40
0.5174701762
100
AcDbArc
 50
259.3151160932
 51
265.8042011347
  0
ARC
  5
277
100
AcDbEntity
  8
0
100
AcDbCircle
 62
7
  6
CONTINUOUS
 10
11.0587190504
 20
6.1020825054
 40
0.5170797999
100
AcDbArc
 50
260.425752995
 51
265.1296546479
  0
ARC
  5
278
100
AcDbEntity
  8
0
100
AcDbCircle
 62
7
  6
CONTINUOUS
 10
11.0525307972
 20
6.1014402325
 40
0.5159702572
100
AcDbArc
 50
261.0907689541
 51
265.8083337165
  0
ARC
  5
279
100
AcDbEntity
  8
0
100
AcDbCircle
 62
7
  6
CONTINUOUS
 10
11.0524537805
 20
6.1003140711
 40
0.5158413023
100
AcDbArc
 50
265.9407054617
 51
267.5545028607
  0
ARC
  5
27A
100
AcDbEntity
  8
0
100
AcDbCircle
 62
7
  6
CONTINUOUS
 10
11.0524538335
 20
6.1004673246
 40
0.5149943248
100
AcDbArc
 50
265.9339819716
 51
267.5504725605
  0
ARC
  5
27B
100
AcDbEntity
  8
0
100
AcDbCircle
 62
7
  6
CONTINUOUS
 10
11.4399359776
 20
5.8597536664
 40
0.125
100
AcDbArc
 50
285.0
 51
357.5140472802
  0
ARC
  5
27C
100
AcDbEntity
  8
0
100
AcDbCircle
 62
7
  6
CONTINUOUS
 10
11.5548183383
 20
5.9033216553
 40
0.05
100
AcDbArc
 50
281.5369590328
 51
360.0
  0
ARC
  5
27D
100
AcDbEntity
  8
0
100
AcDbCircle
 62
7
  6
CONTINUOUS
 10
11.1312259199
 20
5.6405966856
 40
0.0499247731
100
AcDbArc
 50
278.6431299593
 51
279.8418734285
  0
ARC
  5
27E
100
AcDbEntity
  8
0
100
AcDbCircle
 62
7
  6
CONTINUOUS
 10
11.1312252943
 20
5.6415292729
 40
0.0498468485
100
AcDbArc
 50
278.6574726688
 51
279.857664146
  0
ARC
  5
27F
100
AcDbEntity
  8
0
100
AcDbCircle
 62
7
  6
CONTINUOUS
 10
11.1162808756
 20
5.6384466663
 40
0.0498407124
100
AcDbArc
 50
277.09675449
 51
280.5611972904
  0
ARC
  5
280
100
AcDbEntity
  8
0
100
AcDbCircle
 62
7
  6
CONTINUOUS
 10
11.1313187418
 20
5.6399784774
 40
0.0492996363
100
AcDbArc
 50
275.756349444
 51
278.64445061
  0
ARC
  5
281
100
AcDbEntity
  8
0
100
AcDbCircle
 62
7
  6
CONTINUOUS
 10
11.1314118967
 20
5.639058662
 40
0.0483751159
100
AcDbArc
 50
269.0734441204
 51
275.755841008
  0
ARC
  5
282
100
AcDbEntity
  8
0
100
AcDbCircle
 62
9
  6
CONTINUOUS
 10
11.4645155327
 20
6.079630987
 40
0.0213031717
100
AcDbArc
 50
101.3290306152
 51
104.8512444669
  0
ARC
  5
283
100
AcDbEntity
  8
0
100
AcDbCircle
 62
9
  6
CONTINUOUS
 10
11.4644530366
 20
6.0799499212
 40
0.020978175
100
AcDbArc
 50
96.9981354699
 51
101.3327833277
  0
ARC
  5
284
100
AcDbEntity
  8
0
100
AcDbCircle
 62
7
  6
CONTINUOUS
 10
11.4273183383
 20
5.7435147611
 40
0.02
100
AcDbArc
 50
310.2326139161
 51
332.5896839731
  0
ARC
  5
285
100
AcDbEntity
  8
0
100
AcDbCircle
 62
7
  6
CONTINUOUS
 10
11.4948432172
 20
7.4965962636
 40
0.2039751211
100
AcDbArc
 50
325.0110095298
 51
33.0478355064
  0
ARC
  5
286
100
AcDbEntity
  8
0
100
AcDbCircle
 62
7
  6
CONTINUOUS
 10
11.3044300762
 20
6.6376174446
 40
0.1239774096
100
AcDbArc
 50
312.9187712498
 51
314.2168798478
  0
ARC
  5
287
100
AcDbEntity
  8
0
100
AcDbCircle
 62
7
  6
CONTINUOUS
 10
11.4088183383
 20
6.6293318604
 40
0.06
100
AcDbArc
 50
180.0
 51
270.0
  0
ARC
  5
288
100
AcDbEntity
  8
0
100
AcDbCircle
 62
7
  6
CONTINUOUS
 10
11.4461672268
 20
6.9703318604
 40
0.031
100
AcDbArc
 50
270.0
 51
355.1903004543
  0
ARC
  5
289
100
AcDbEntity
  8
0
100
AcDbCircle
 62
7
  6
CONTINUOUS
 10
11.8440552317
 20
6.1382116843
 40
0.1288798255
100
AcDbArc
 50
255.9836076734
 51
269.9909998103
  0
ARC
  5
28A
100
AcDbEntity
  8
0
100
AcDbCircle
 62
7
  6
CONTINUOUS
 10
11.5898183383
 20
5.9893318604
 40
0.015
100
AcDbArc
 50
0.0
 51
90.0
  0
ARC
  5
28B
100
AcDbEntity
  8
0
100
AcDbCircle
 62
7
  6
CONTINUOUS
 10
11.5873183383
 20
6.0143318604
 40
0.01
100
AcDbArc
 50
270.0
 51
360.0
  0
ARC
  5
28C
100
AcDbEntity
  8
0
100
AcDbCircle
 62
7
  6
CONTINUOUS
 10
12.0998572404
 20
6.9153285319
 40
0.625
100
AcDbArc
 50
145.0110095298
 51
175.1903004544
  0
ARC
  5
28D
100
AcDbEntity
  8
0
100
AcDbCircle
 62
7
  6
CONTINUOUS
 10
14.2381506903
 20
9.1283428097
 40
0.2500109774
100
AcDbArc
 50
270.0192106228
 51
330.2635604814
  0
ARC
  5
28E
100
AcDbEntity
  8
0
100
AcDbCircle
 62
7
  6
CONTINUOUS
 10
14.6723183383
 20
9.3803318604
 40
0.25
100
AcDbArc
 50
270.0
 51
360.0
  0
ARC
  5
28F
100
AcDbEntity
  8
0
100
AcDbCircle
 62
7
  6
CONTINUOUS
 10
14.6723183383
 20
8.8803318604
 40
0.25
100
AcDbArc
 50
90.0
 51
150.2635604814
  0
ARC
  5
290
100
AcDbEntity
  8
0
100
AcDbCircle
 62
7
  6
CONTINUOUS
 10
14.2383183383
 20
8.6283318604
 40
0.25
100
AcDbArc
 50
90.0192106228
 51
150.2642868924
  0
ARC
  5
291
100
AcDbEntity
  8
0
100
AcDbCircle
 62
7
  6
CONTINUOUS
 10
13.8041570779
 20
8.8763318604
 40
0.25
100
AcDbArc
 50
270.0
 51
330.2642868924
  0
ARC
  5
292
100
AcDbEntity
  8
0
100
AcDbCircle
 62
7
  6
CONTINUOUS
 10
12.0401822272
 20
8.6263318604
 40
0.1871361111
100
AcDbArc
 50
272.1854050713
 51
360.0
  0
ARC
  5
293
100
AcDbEntity
  8
0
100
AcDbCircle
 62
7
  6
CONTINUOUS
 10
11.8603210121
 20
8.4383318604
 40
0.187
100
AcDbArc
 50
270.0
 51
0.3063960032
  0
ARC
  5
294
100
AcDbEntity
  8
0
100
AcDbCircle
 62
7
  6
CONTINUOUS
 10
11.8095928719
 20
7.701370885
 40
0.1715245336
100
AcDbArc
 50
134.9173576842
 51
213.0478355064
  0
SPLINE
  5
295
100
AcDbEntity
  8
0
100
AcDbSpline
 62
7
  6
CONTINUOUS
 70
0
 71
3
 72
9
 73
5
 74
0
 42
0.0000001
 43
0.0000001
 44
0.0000000001
 40
0.0
 40
0.0
 40
0.0
 40
0.0
 40
0.4914943354
 40
1.0
 40
1.0
 40
1.0
 40
1.0
 10
11.125415962
 20
5.5894502704
 30
0.0
 10
11.1275186743
 20
5.5898418759
 30
0.0
 10
11.1317497387
 20
5.5909116444
 30
0.0
 10
11.1358221572
 20
5.5924749919
 30
0.0
 10
11.1378426515
 20
5.5933774966
 30
0.0
  0
LINE
  5
296
100
AcDbEntity
  8
0
100
AcDbLine
 62
7
  6
CONTINUOUS
 10
11.1378426515
 20
5.5933774966
 11
11.1379785132
 21
5.5934383783
  0
SPLINE
  5
297
100
AcDbEntity
  8
0
100
AcDbSpline
 62
7
  6
CONTINUOUS
 70
0
 71
3
 72
22
 73
18
 74
0
 42
0.0000001
 43
0.0000001
 44
0.0000000001
 40
0.0
 40
0.0
 40
0.0
 40
0.0
 40
0.1266215737
 40
0.2524536235
 40
0.3151344141
 40
0.3776565592
 40
0.4400524585
 40
0.5023542869
 40
0.5645941454
 40
0.6267984795
 40
0.6889867231
 40
0.7200878622
 40
0.751189515
 40
0.8133810979
 40
0.8755811691
 40
0.9377871238
 40
1.0
 40
1.0
 40
1.0
 40
1.0
 10
11.9811881762
 20
6.1328027166
 30
0.0
 10
11.9796071267
 20
6.1245001482
 30
0.0
 10
11.9752605288
 20
6.1081484112
 30
0.0
 10
11.9668528409
 20
6.0887722749
 30
0.0
 10
11.9584113138
 20
6.0742798977
 30
0.0
 10
11.9512474195
 20
6.0639920855
 30
0.0
 10
11.9432698865
 20
6.0543540709
 30
0.0
 10
11.9345117181
 20
6.0454446381
 30
0.0
 10
11.9250164981
 20
6.0373436169
 30
0.0
 10
11.9148399962
 20
6.0301297189
 30
0.0
 10
11.9058454234
 20
6.0249187129
 30
0.0
 10
11.8983855275
 20
6.0212674559
 30
0.0
 10
11.8907625627
 20
6.0179696342
 30
0.0
 10
11.8809527387
 20
6.0145285853
 30
0.0
 10
11.8688413901
 20
6.011542421
 30
0.0
 10
11.8564979242
 20
6.0097351798
 30
0.0
 10
11.8481875866
 20
6.0093318604
 30
0.0
 10
11.8440349869
 20
6.0093318604
 30
0.0
  0
SPLINE
  5
298
100
AcDbEntity
  8
0
100
AcDbSpline
 62
7
  6
CONTINUOUS
 70
0
 71
3
 72
13
 73
9
 74
0
 42
0.0000001
 43
0.0000001
 44
0.0000000001
 40
0.0
 40
0.0
 40
0.0
 40
0.0
 40
0.2491326854
 40
0.374460308
 40
0.5000000449
 40
0.6255397744
 40
0.7508673769
 40
1.0
 40
1.0
 40
1.0
 40
1.0
 10
11.9811881765
 20
6.4458610026
 30
0.0
 10
11.9860788281
 20
6.4201787111
 30
0.0
 10
11.9915715241
 20
6.3811903951
 30
0.0
 10
11.9952339835
 20
6.3288363138
 30
0.0
 10
11.9961529586
 20
6.2893318462
 30
0.0
 10
11.9952339824
 20
6.2498273808
 30
0.0
 10
11.991571522
 20
6.197473309
 30
0.0
 10
11.9860788267
 20
6.1584850017
 30
0.0
 10
11.9811881762
 20
6.1328027166
 30
0.0
  0
SPLINE
  5
299
100
AcDbEntity
  8
0
100
AcDbSpline
 62
7
  6
CONTINUOUS
 70
0
 71
3
 72
23
 73
19
 74
0
 42
0.0000001
 43
0.0000001
 44
0.0000000001
 40
0.0
 40
0.0
 40
0.0
 40
0.0
 40
0.0622046067
 40
0.1244030442
 40
0.1865968317
 40
0.248782603
 40
0.2798816244
 40
0.3109802297
 40
0.3731640046
 40
0.4353639197
 40
0.4975994024
 40
0.559896886
 40
0.6222880962
 40
0.6848053436
 40
0.7474808899
 40
0.8103393398
 40
0.8733932713
 40
1.0
 40
1.0
 40
1.0
 40
1.0
 10
11.8440349869
 20
6.5693318604
 30
0.0
 10
11.8481874185
 20
6.5693318604
 30
0.0
 10
11.8564974706
 20
6.5689285949
 30
0.0
 10
11.8688406259
 20
6.5671214556
 30
0.0
 10
11.8809518388
 20
6.5641353977
 30
0.0
 10
11.8907616543
 20
6.5606944023
 30
0.0
 10
11.8983846945
 20
6.5573966662
 30
0.0
 10
11.9058447163
 20
6.553745382
 30
0.0
 10
11.9148395003
 20
6.548534346
 30
0.0
 10
11.9250162319
 20
6.5413203103
 30
0.0
 10
11.9345116774
 20
6.5332191194
 30
0.0
 10
11.9432700219
 20
6.5243095307
 30
0.0
 10
11.9512477034
 20
6.5146712165
 30
0.0
 10
11.9584115178
 20
6.5043836072
 30
0.0
 10
11.9647362111
 20
6.4935249483
 30
0.0
 10
11.9702036104
 20
6.4821700177
 30
0.0
 10
11.9763379882
 20
6.4664569415
 30
0.0
 10
11.9796071663
 20
6.4541633652
 30
0.0
 10
11.9811881765
 20
6.4458610026
 30
0.0
  0
SPLINE
  5
29A
100
AcDbEntity
  8
0
100
AcDbSpline
 62
7
  6
CONTINUOUS
 70
0
 71
3
 72
22
 73
18
 74
0
 42
0.0000001
 43
0.0000001
 44
0.0000000001
 40
0.0
 40
0.0
 40
0.0
 40
0.0
 40
0.1266215737
 40
0.2524536236
 40
0.3151344142
 40
0.3776565592
 40
0.4400524585
 40
0.502354287
 40
0.5645941455
 40
0.6267984795
 40
0.6889867231
 40
0.7200878622
 40
0.751189515
 40
0.8133810979
 40
0.8755811691
 40
0.9377871238
 40
1.0
 40
1.0
 40
1.0
 40
1.0
 10
10.1134485001
 20
6.1328027182
 30
0.0
 10
10.1150295495
 20
6.1245001497
 30
0.0
 10
10.1193761472
 20
6.1081484125
 30
0.0
 10
10.1277838351
 20
6.088772276
 30
0.0
 10
10.1362253622
 20
6.0742798986
 30
0.0
 10
10.1433892564
 20
6.0639920863
 30
0.0
 10
10.1513667894
 20
6.0543540716
 30
0.0
 10
10.1601249579
 20
6.0454446386
 30
0.0
 10
10.1696201779
 20
6.0373436174
 30
0.0
 10
10.1797966799
 20
6.0301297192
 30
0.0
 10
10.1887912527
 20
6.0249187132
 30
0.0
 10
10.1962511487
 20
6.0212674561
 30
0.0
 10
10.2038741135
 20
6.0179696344
 30
0.0
 10
10.2136839376
 20
6.0145285854
 30
0.0
 10
10.2257952862
 20
6.011542421
 30
0.0
 10
10.2381387522
 20
6.0097351798
 30
0.0
 10
10.2464490899
 20
6.0093318604
 30
0.0
 10
10.2506016896
 20
6.0093318604
 30
0.0
  0
SPLINE
  5
29B
100
AcDbEntity
  8
0
100
AcDbSpline
 62
7
  6
CONTINUOUS
 70
0
 71
3
 72
13
 73
9
 74
0
 42
0.0000001
 43
0.0000001
 44
0.0000000001
 40
0.0
 40
0.0
 40
0.0
 40
0.0
 40
0.2491326853
 40
0.374460308
 40
0.5000000448
 40
0.6255397743
 40
0.7508673768
 40
1.0
 40
1.0
 40
1.0
 40
1.0
 10
10.1134485005
 20
6.4458610045
 30
0.0
 10
10.1085578487
 20
6.4201787129
 30
0.0
 10
10.1030651527
 20
6.381190397
 30
0.0
 10
10.0994026932
 20
6.3288363156
 30
0.0
 10
10.0984837179
 20
6.289331848
 30
0.0
 10
10.0994026941
 20
6.2498273825
 30
0.0
 10
10.1030651544
 20
6.1974733106
 30
0.0
 10
10.1085578496
 20
6.1584850033
 30
0.0
 10
10.1134485001
 20
6.1328027182
 30
0.0
  0
SPLINE
  5
29C
100
AcDbEntity
  8
0
100
AcDbSpline
 62
7
  6
CONTINUOUS
 70
0
 71
3
 72
23
 73
19
 74
0
 42
0.0000001
 43
0.0000001
 44
0.0000000001
 40
0.0
 40
0.0
 40
0.0
 40
0.0
 40
0.0622046067
 40
0.1244030442
 40
0.1865968317
 40
0.2487826031
 40
0.2798816244
 40
0.3109802298
 40
0.3731640047
 40
0.4353639197
 40
0.4975994025
 40
0.5598968861
 40
0.6222880962
 40
0.6848053437
 40
0.74748089
 40
0.8103393399
 40
0.8733932713
 40
1.0
 40
1.0
 40
1.0
 40
1.0
 10
10.2506016896
 20
6.5693318604
 30
0.0
 10
10.2464492581
 20
6.5693318604
 30
0.0
 10
10.2381392061
 20
6.5689285949
 30
0.0
 10
10.2257960509
 20
6.5671214556
 30
0.0
 10
10.2136848381
 20
6.5641353978
 30
0.0
 10
10.2038750226
 20
6.5606944025
 30
0.0
 10
10.1962519826
 20
6.5573966664
 30
0.0
 10
10.1887919608
 20
6.5537453823
 30
0.0
 10
10.1797971769
 20
6.5485343463
 30
0.0
 10
10.1696204453
 20
6.5413203108
 30
0.0
 10
10.1601249998
 20
6.53321912
 30
0.0
 10
10.1513666554
 20
6.5243095315
 30
0.0
 10
10.1433889739
 20
6.5146712174
 30
0.0
 10
10.1362251595
 20
6.5043836083
 30
0.0
 10
10.1299004661
 20
6.4935249495
 30
0.0
 10
10.1244330668
 20
6.4821700191
 30
0.0
 10
10.1182986889
 20
6.4664569432
 30
0.0
 10
10.1150295107
 20
6.454163367
 30
0.0
 10
10.1134485005
 20
6.4458610045
 30
0.0
  0
LINE
  5
29D
100
AcDbEntity
  8
0
100
AcDbLine
 62
7
  6
CONTINUOUS
 10
11.1376298824
 20
5.5951039921
 11
11.1378332007
 21
5.5951447984
  0
LINE
  5
29E
100
AcDbEntity
  8
0
100
AcDbLine
 62
7
  6
CONTINUOUS
 10
11.1378332007
 20
5.5951447984
 11
11.1381117185
 21
5.5952008345
  0
LINE
  5
29F
100
AcDbEntity
  8
0
100
AcDbLine
 62
7
  6
CONTINUOUS
 10
10.956524972
 20
5.5952008317
 11
10.9568034759
 21
5.5951447984
  0
LINE
  5
2A0
100
AcDbEntity
  8
0
100
AcDbLine
 62
7
  6
CONTINUOUS
 10
10.9568034759
 20
5.5951447984
 11
10.9570067942
 21
5.5951039921
  0
LINE
  5
2A1
100
AcDbEntity
  8
0
100
AcDbLine
 62
7
  6
CONTINUOUS
 10
10.9566581634
 20
5.5934383783
 11
10.9567938792
 21
5.5933775618
  0
SPLINE
  5
2A2
100
AcDbEntity
  8
0
100
AcDbSpline
 62
7
  6
CONTINUOUS
 70
0
 71
3
 72
9
 73
5
 74
0
 42
0.0000001
 43
0.0000001
 44
0.0000000001
 40
0.0
 40
0.0
 40
0.0
 40
0.0
 40
0.5085041656
 40
1.0
 40
1.0
 40
1.0
 40
1.0
 10
10.9567938792
 20
5.5933775618
 30
0.0
 10
10.9588138078
 20
5.5924753035
 30
0.0
 10
10.9628850694
 20
5.5909123175
 30
0.0
 10
10.9671149007
 20
5.5898426155
 30
0.0
 10
10.9692170103
 20
5.5894509604
 30
0.0
  0
SPLINE
  5
2A3
100
AcDbEntity
  8
0
100
AcDbSpline
 62
7
  6
CONTINUOUS
 70
0
 71
3
 72
11
 73
7
 74
0
 42
0.0000001
 43
0.0000001
 44
0.0000000001
 40
0.0
 40
0.0
 40
0.0
 40
0.0
 40
0.2370840909
 40
0.4811740778
 40
0.7347531415
 40
1.0
 40
1.0
 40
1.0
 40
1.0
 10
10.9549276775
 20
5.5913979024
 30
0.0
 10
10.953011727
 20
5.591728237
 30
0.0
 10
10.9491591987
 20
5.5926264173
 30
0.0
 10
10.9434669741
 20
5.5946350945
 30
0.0
 10
10.9378028304
 20
5.5973153116
 30
0.0
 10
10.9341399615
 20
5.5994929932
 30
0.0
 10
10.9323183383
 20
5.6006817105
 30
0.0
  0
SPLINE
  5
2A4
100
AcDbEntity
  8
0
100
AcDbSpline
 62
7
  6
CONTINUOUS
 70
0
 71
3
 72
11
 73
7
 74
0
 42
0.0000001
 43
0.0000001
 44
0.0000000001
 40
0.0
 40
0.0
 40
0.0
 40
0.0
 40
0.2626618513
 40
0.5156761688
 40
0.7608023289
 40
1.0
 40
1.0
 40
1.0
 40
1.0
 10
11.1595284503
 20
5.5999705284
 30
0.0
 10
11.1579263717
 20
5.5990206025
 30
0.0
 10
11.1547073681
 20
5.5972759036
 30
0.0
 10
11.1497563048
 20
5.5951159376
 30
0.0
 10
11.144786072
 20
5.5934694748
 30
0.0
 10
11.1414302406
 20
5.5927087137
 30
0.0
 10
11.1397591324
 20
5.5924183585
 30
0.0
  0
LINE
  5
2A5
100
AcDbEntity
  8
0
100
AcDbLine
 62
7
  6
CONTINUOUS
 10
11.0798197636
 20
5.5868501342
 11
11.0786989546
 21
5.5867692341
  0
LINE
  5
2A6
100
AcDbEntity
  8
0
100
AcDbLine
 62
7
  6
CONTINUOUS
 10
11.0159377219
 20
5.5867692341
 11
11.0148169129
 21
5.5868501342
  0
LINE
  5
2A7
100
AcDbEntity
  8
0
100
AcDbLine
 62
7
  6
CONTINUOUS
 10
11.0798964703
 20
5.5858532494
 11
11.0786986829
 21
5.5857668465
  0
SPLINE
  5
2A8
100
AcDbEntity
  8
0
100
AcDbSpline
 62
9
  6
CONTINUOUS
 70
0
 71
3
 72
21
 73
17
 74
0
 42
0.0000001
 43
0.0000001
 44
0.0000000001
 40
0.0
 40
0.0
 40
0.0
 40
0.0
 40
0.0276776595
 40
0.0570906017
 40
0.0896818262
 40
0.12650144
 40
0.1682475914
 40
0.2153606418
 40
0.2681106879
 40
0.326638872
 40
0.391009079
 40
0.4612175942
 40
0.5372098157
 40
0.6189034125
 40
0.7989169872
 40
1.0
 40
1.0
 40
1.0
 40
1.0
 10
11.9811881297
 20
6.1328027255
 30
0.0
 10
11.9811326715
 20
6.132511413
 30
0.0
 10
11.9809364889
 20
6.1319234697
 30
0.0
 10
11.9804116698
 20
6.1311090553
 30
0.0
 10
11.9796633162
 20
6.1303515082
 30
0.0
 10
11.9786966916
 20
6.1296489871
 30
0.0
 10
11.9775141466
 20
6.1289992507
 30
0.0
 10
11.9761173903
 20
6.1284018958
 30
0.0
 10
11.9745085524
 20
6.1278576517
 30
0.0
 10
11.9726906079
 20
6.1273672285
 30
0.0
 10
11.9706671694
 20
6.1269318598
 30
0.0
 10
11.9684425967
 20
6.1265525196
 30
0.0
 10
11.9660218096
 20
6.1262300078
 30
0.0
 10
11.9624215544
 20
6.1258653457
 30
0.0
 10
11.9574695766
 20
6.1255730556
 30
0.0
 10
11.9533859482
 20
6.1255052218
 30
0.0
 10
11.9512315018
 20
6.1255052219
 30
0.0
  0
LINE
  5
2A9
100
AcDbEntity
  8
0
100
AcDbLine
 62
7
  6
CONTINUOUS
 10
11.0159379936
 20
5.5857668465
 11
11.0147402063
 21
5.5858532494
  0
SPLINE
  5
2AA
100
AcDbEntity
  8
0
100
AcDbSpline
 62
9
  6
CONTINUOUS
 70
0
 71
3
 72
15
 73
11
 74
0
 42
0.0000001
 43
0.0000001
 44
0.0000000001
 40
0.0
 40
0.0
 40
0.0
 40
0.0
 40
0.104679703
 40
0.215476506
 40
0.3330079239
 40
0.4571744307
 40
0.5872773672
 40
0.7221520785
 40
0.8602977949
 40
1.0
 40
1.0
 40
1.0
 40
1.0
 10
10.6382742607
 20
6.0991209959
 30
0.0
 10
10.6397208099
 20
6.0984770739
 30
0.0
 10
10.6425634732
 20
6.096831858
 30
0.0
 10
10.6463994027
 20
6.0935303205
 30
0.0
 10
10.6498309107
 20
6.0894210309
 30
0.0
 10
10.6527764903
 20
6.0846092068
 30
0.0
 10
10.6551683527
 20
6.0792137207
 30
0.0
 10
10.6569496402
 20
6.073367159
 30
0.0
 10
10.6580776706
 20
6.0672143478
 30
0.0
 10
10.6583756383
 20
6.0630121276
 30
0.0
 10
10.6584094988
 20
6.0608992501
 30
0.0
  0
SPLINE
  5
2AB
100
AcDbEntity
  8
0
100
AcDbSpline
 62
7
  6
CONTINUOUS
 70
0
 71
3
 72
11
 73
7
 74
0
 42
0.0000001
 43
0.0000001
 44
0.0000000001
 40
0.0
 40
0.0
 40
0.0
 40
0.0
 40
0.2391917079
 40
0.4843093109
 40
0.7373225815
 40
1.0
 40
1.0
 40
1.0
 40
1.0
 10
10.9549280204
 20
5.5924096148
 30
0.0
 10
10.9532533124
 20
5.5926988308
 30
0.0
 10
10.9498901497
 20
5.5934580834
 30
0.0
 10
10.9449089712
 20
5.5951045962
 30
0.0
 10
10.9399470316
 20
5.5972668617
 30
0.0
 10
10.9367211157
 20
5.5990144508
 30
0.0
 10
10.9351156223
 20
5.5999661438
 30
0.0
  0
SPLINE
  5
2AC
100
AcDbEntity
  8
0
100
AcDbSpline
 62
9
  6
CONTINUOUS
 70
0
 71
3
 72
21
 73
17
 74
0
 42
0.0000001
 43
0.0000001
 44
0.0000000001
 40
0.0
 40
0.0
 40
0.0
 40
0.0
 40
0.0276776596
 40
0.0570906022
 40
0.0896818272
 40
0.1265014416
 40
0.1682475936
 40
0.2153606445
 40
0.268110691
 40
0.3266388753
 40
0.3910090825
 40
0.4612175976
 40
0.537209819
 40
0.6189034154
 40
0.7989169889
 40
1.0
 40
1.0
 40
1.0
 40
1.0
 10
10.1134485466
 20
6.1328027271
 30
0.0
 10
10.1135040047
 20
6.1325114146
 30
0.0
 10
10.1137001873
 20
6.1319234712
 30
0.0
 10
10.1142250065
 20
6.1311090568
 30
0.0
 10
10.11497336
 20
6.1303515097
 30
0.0
 10
10.1159399847
 20
6.1296489886
 30
0.0
 10
10.1171225297
 20
6.128999252
 30
0.0
 10
10.1185192861
 20
6.1284018971
 30
0.0
 10
10.120128124
 20
6.1278576529
 30
0.0
 10
10.1219460684
 20
6.1273672296
 30
0.0
 10
10.123969507
 20
6.1269318608
 30
0.0
 10
10.1261940797
 20
6.1265525205
 30
0.0
 10
10.1286148668
 20
6.1262300086
 30
0.0
 10
10.132215122
 20
6.1258653462
 30
0.0
 10
10.1371670999
 20
6.1255730559
 30
0.0
 10
10.1412507283
 20
6.1255052219
 30
0.0
 10
10.1434051748
 20
6.1255052219
 30
0.0
  0
SPLINE
  5
2AD
100
AcDbEntity
  8
0
100
AcDbSpline
 62
9
  6
CONTINUOUS
 70
0
 71
3
 72
21
 73
17
 74
0
 42
0.0000001
 43
0.0000001
 44
0.0000000001
 40
0.0
 40
0.0
 40
0.0
 40
0.0
 40
0.1466142583
 40
0.2184225456
 40
0.2888898427
 40
0.424896332
 40
0.4902195437
 40
0.55359508
 40
0.6743066797
 40
0.7318957955
 40
0.7600521103
 40
0.787811194
 40
0.8422433472
 40
0.8955103614
 40
0.9479650651
 40
1.0
 40
1.0
 40
1.0
 40
1.0
 10
11.766325404
 20
6.1101978185
 30
0.0
 10
11.765617476
 20
6.1045199491
 30
0.0
 10
11.7650776042
 20
6.0959829764
 30
0.0
 10
11.7654638512
 20
6.0847086637
 30
0.0
 10
11.7665604291
 20
6.0738978164
 30
0.0
 10
11.7687194515
 20
6.0634667082
 30
0.0
 10
11.7719823794
 20
6.0536542067
 30
0.0
 10
11.7758003577
 20
6.0446926294
 30
0.0
 10
11.7806101647
 20
6.0365043288
 30
0.0
 10
11.7856966687
 20
6.0302385635
 30
0.0
 10
11.788754926
 20
6.0270310667
 30
0.0
 10
11.7918926091
 20
6.0240788592
 30
0.0
 10
11.7960403628
 20
6.0207812301
 30
0.0
 10
11.8013675293
 20
6.0174837729
 30
0.0
 10
11.8069713722
 20
6.0148979171
 30
0.0
 10
11.8108702062
 20
6.0136604214
 30
0.0
 10
11.812840603
 20
6.0131690624
 30
0.0
  0
SPLINE
  5
2AE
100
AcDbEntity
  8
0
100
AcDbSpline
 62
9
  6
CONTINUOUS
 70
0
 71
3
 72
20
 73
16
 74
0
 42
0.0000001
 43
0.0000001
 44
0.0000000001
 40
0.0
 40
0.0
 40
0.0
 40
0.0
 40
0.0544491919
 40
0.1085159276
 40
0.1626216564
 40
0.217238058
 40
0.2727928189
 40
0.3296576073
 40
0.388138979
 40
0.4484658841
 40
0.5107870308
 40
0.5751704518
 40
0.7099257682
 40
0.8520692064
 40
1.0
 40
1.0
 40
1.0
 40
1.0
 10
11.766325404
 20
6.1101978185
 30
0.0
 10
11.7675422211
 20
6.1098943881
 30
0.0
 10
11.7700087764
 20
6.1094429489
 30
0.0
 10
11.7737597732
 20
6.1092530477
 30
0.0
 10
11.7775077075
 20
6.1095572044
 30
0.0
 10
11.781217511
 20
6.110352165
 30
0.0
 10
11.7848569351
 20
6.1116295336
 30
0.0
 10
11.7883939023
 20
6.1133777114
 30
0.0
 10
11.7917981588
 20
6.1155800854
 30
0.0
 10
11.7950410785
 20
6.1182165592
 30
0.0
 10
11.798095376
 20
6.1212643728
 30
0.0
 10
11.801939693
 20
6.1259094334
 30
0.0
 10
11.806109313
 20
6.1326218125
 30
0.0
 10
11.8099161198
 20
6.1416720505
 30
0.0
 10
11.8116054211
 20
6.1481624404
 30
0.0
 10
11.8122427887
 20
6.1515094503
 30
0.0
  0
SPLINE
  5
2AF
100
AcDbEntity
  8
0
100
AcDbSpline
 62
9
  6
CONTINUOUS
 70
0
 71
3
 72
22
 73
18
 74
0
 42
0.0000001
 43
0.0000001
 44
0.0000000001
 40
0.0
 40
0.0
 40
0.0
 40
0.0
 40
0.0526837498
 40
0.1093987943
 40
0.1696285931
 40
0.2328349577
 40
0.2984358577
 40
0.3658267915
 40
0.5034612566
 40
0.5724306433
 40
0.6406439172
 40
0.7074675429
 40
0.7722827363
 40
0.8344935248
 40
0.8935290194
 40
0.9488644185
 40
1.0
 40
1.0
 40
1.0
 40
1.0
 10
11.8122427887
 20
6.1515094503
 30
0.0
 10
11.8145729212
 20
6.1506220009
 30
0.0
 10
11.8194438527
 20
6.1488635879
 30
0.0
 10
11.8270703144
 20
6.1463531858
 30
0.0
 10
11.835233833
 20
6.1438901752
 30
0.0
 10
11.8438556434
 20
6.141498505
 30
0.0
 10
11.8528533174
 20
6.1392013295
 30
0.0
 10
11.8653230797
 20
6.1362740391
 30
0.0
 10
11.8780283848
 20
6.1336620058
 30
0.0
 10
11.8908344745
 20
6.1313846721
 30
0.0
 10
11.9003703442
 20
6.1298677606
 30
0.0
 10
11.9097382923
 20
6.1285574731
 30
0.0
 10
11.918848307
 20
6.1274663435
 30
0.0
 10
11.927612651
 20
6.1266047039
 30
0.0
 10
11.9359473983
 20
6.1259804155
 30
0.0
 10
11.9437721041
 20
6.1255993056
 30
0.0
 10
11.9488113652
 20
6.1255052219
 30
0.0
 10
11.9512315018
 20
6.1255052219
 30
0.0
  0
SPLINE
  5
2B0
100
AcDbEntity
  8
0
100
AcDbSpline
 62
9
  6
CONTINUOUS
 70
0
 71
3
 72
13
 73
9
 74
0
 42
0.0000001
 43
0.0000001
 44
0.0000000001
 40
0.0
 40
0.0
 40
0.0
 40
0.0
 40
0.2488894722
 40
0.3743084549
 40
0.5
 40
0.6256915451
 40
0.7511105278
 40
1.0
 40
1.0
 40
1.0
 40
1.0
 10
11.9512315018
 20
6.1255052219
 30
0.0
 10
11.9563451122
 20
6.1523583371
 30
0.0
 10
11.9620859478
 20
6.1931482122
 30
0.0
 10
11.9659160718
 20
6.2479426794
 30
0.0
 10
11.9668780058
 20
6.2893318604
 30
0.0
 10
11.9659160718
 20
6.3307210414
 30
0.0
 10
11.9620859478
 20
6.3855155086
 30
0.0
 10
11.9563451122
 20
6.4263053836
 30
0.0
 10
11.9512315018
 20
6.4531584988
 30
0.0
  0
SPLINE
  5
2B1
100
AcDbEntity
  8
0
100
AcDbSpline
 62
9
  6
CONTINUOUS
 70
0
 71
3
 72
21
 73
17
 74
0
 42
0.0000001
 43
0.0000001
 44
0.0000000001
 40
0.0
 40
0.0
 40
0.0
 40
0.0
 40
0.0276776594
 40
0.0570906016
 40
0.0896818261
 40
0.1265014399
 40
0.1682475912
 40
0.2153606416
 40
0.2681106877
 40
0.3266388718
 40
0.3910090788
 40
0.461217594
 40
0.5372098155
 40
0.6189034123
 40
0.798916987
 40
1.0
 40
1.0
 40
1.0
 40
1.0
 10
10.1134485469
 20
6.4458609956
 30
0.0
 10
10.1135040051
 20
6.4461523081
 30
0.0
 10
10.1137001877
 20
6.4467402514
 30
0.0
 10
10.1142250068
 20
6.4475546658
 30
0.0
 10
10.1149733604
 20
6.4483122129
 30
0.0
 10
10.115939985
 20
6.4490147339
 30
0.0
 10
10.11712253
 20
6.4496644704
 30
0.0
 10
10.1185192864
 20
6.4502618252
 30
0.0
 10
10.1201281243
 20
6.4508060693
 30
0.0
 10
10.1219460687
 20
6.4512964925
 30
0.0
 10
10.1239695073
 20
6.4517318612
 30
0.0
 10
10.1261940799
 20
6.4521112013
 30
0.0
 10
10.128614867
 20
6.4524337131
 30
0.0
 10
10.1322151222
 20
6.4527983752
 30
0.0
 10
10.1371671
 20
6.4530906652
 30
0.0
 10
10.1412507283
 20
6.453158499
 30
0.0
 10
10.1434051748
 20
6.4531584988
 30
0.0
  0
SPLINE
  5
2B2
100
AcDbEntity
  8
0
100
AcDbSpline
 62
9
  6
CONTINUOUS
 70
0
 71
3
 72
13
 73
9
 74
0
 42
0.0000001
 43
0.0000001
 44
0.0000000001
 40
0.0
 40
0.0
 40
0.0
 40
0.0
 40
0.2488892687
 40
0.3743083384
 40
0.4999999997
 40
0.625691661
 40
0.7511107308
 40
1.0
 40
1.0
 40
1.0
 40
1.0
 10
11.8122427887
 20
6.1515094503
 30
0.0
 10
11.8165447114
 20
6.1741001478
 30
0.0
 10
11.8213743028
 20
6.2084154285
 30
0.0
 10
11.824596474
 20
6.2545123611
 30
0.0
 10
11.8254057206
 20
6.2893318603
 30
0.0
 10
11.824596474
 20
6.3241513596
 30
0.0
 10
11.8213743028
 20
6.3702482922
 30
0.0
 10
11.8165447114
 20
6.404563573
 30
0.0
 10
11.8122427887
 20
6.4271542706
 30
0.0
  0
SPLINE
  5
2B3
100
AcDbEntity
  8
0
100
AcDbSpline
 62
9
  6
CONTINUOUS
 70
0
 71
3
 72
22
 73
18
 74
0
 42
0.0000001
 43
0.0000001
 44
0.0000000001
 40
0.0
 40
0.0
 40
0.0
 40
0.0
 40
0.0526837501
 40
0.1093987948
 40
0.1696285937
 40
0.2328349583
 40
0.2984358582
 40
0.3658267918
 40
0.5034612566
 40
0.5724306431
 40
0.6406439168
 40
0.7074675424
 40
0.7722827357
 40
0.8344935242
 40
0.8935290189
 40
0.9488644182
 40
1.0
 40
1.0
 40
1.0
 40
1.0
 10
11.8122427887
 20
6.4271542706
 30
0.0
 10
11.8145729212
 20
6.42804172
 30
0.0
 10
11.8194438526
 20
6.4298001334
 30
0.0
 10
11.8270703142
 20
6.4323105358
 30
0.0
 10
11.8352338328
 20
6.4347735468
 30
0.0
 10
11.8438556431
 20
6.4371652173
 30
0.0
 10
11.8528533171
 20
6.439462393
 30
0.0
 10
11.8653230793
 20
6.4423896835
 30
0.0
 10
11.8780283845
 20
6.4450017169
 30
0.0
 10
11.8908344742
 20
6.4472790505
 30
0.0
 10
11.9003703439
 20
6.4487959619
 30
0.0
 10
11.909738292
 20
6.4501062492
 30
0.0
 10
11.9188483068
 20
6.4511973787
 30
0.0
 10
11.9276126508
 20
6.4520590179
 30
0.0
 10
11.9359473982
 20
6.452683306
 30
0.0
 10
11.943772104
 20
6.4530644156
 30
0.0
 10
11.9488113651
 20
6.453158499
 30
0.0
 10
11.9512315018
 20
6.4531584988
 30
0.0
  0
SPLINE
  5
2B4
100
AcDbEntity
  8
0
100
AcDbSpline
 62
9
  6
CONTINUOUS
 70
0
 71
3
 72
21
 73
17
 74
0
 42
0.0000001
 43
0.0000001
 44
0.0000000001
 40
0.0
 40
0.0
 40
0.0
 40
0.0
 40
0.1456530574
 40
0.2168008674
 40
0.2865639805
 40
0.4212574345
 40
0.4860691213
 40
0.5490905098
 40
0.6103244633
 40
0.6698241155
 40
0.7276954535
 40
0.784099061
 40
0.8392488002
 40
0.8934053812
 40
0.9468819172
 40
1.0
 40
1.0
 40
1.0
 40
1.0
 10
11.9512315018
 20
6.4531584988
 30
0.0
 10
11.9496792794
 20
6.4613096883
 30
0.0
 10
11.9466498059
 20
6.4733253627
 30
0.0
 10
11.9411683166
 20
6.4887125706
 30
0.0
 10
11.9349406415
 20
6.5031343775
 30
0.0
 10
11.9274393767
 20
6.5165871829
 30
0.0
 10
11.9187074701
 20
6.5287446104
 30
0.0
 10
11.9117402787
 20
6.5369750572
 30
0.0
 10
11.9043186465
 20
6.5443762143
 30
0.0
 10
11.8964906501
 20
6.5508987507
 30
0.0
 10
11.8883076763
 20
6.5564980493
 30
0.0
 10
11.8798234648
 20
6.5611353042
 30
0.0
 10
11.8710945403
 20
6.5647774539
 30
0.0
 10
11.8621789978
 20
6.5673988218
 30
0.0
 10
11.8531393798
 20
6.5689791758
 30
0.0
 10
11.8470610558
 20
6.5693318604
 30
0.0
 10
11.8440349869
 20
6.5693318604
 30
0.0
  0
SPLINE
  5
2B5
100
AcDbEntity
  8
0
100
AcDbSpline
 62
9
  6
CONTINUOUS
 70
0
 71
3
 72
18
 73
14
 74
0
 42
0.0000001
 43
0.0000001
 44
0.0000000001
 40
0.0
 40
0.0
 40
0.0
 40
0.0
 40
0.1456961366
 40
0.2865714478
 40
0.4213071142
 40
0.5490765726
 40
0.6697258513
 40
0.7276152013
 40
0.7840362475
 40
0.8391992884
 40
0.8933741242
 40
0.946875448
 40
1.0
 40
1.0
 40
1.0
 40
1.0
 10
11.8122427887
 20
6.4271542706
 30
0.0
 10
11.8116792445
 20
6.4301136114
 30
0.0
 10
11.8102263918
 20
6.435876011
 30
0.0
 10
11.8070457882
 20
6.4440111776
 30
0.0
 10
11.8029700684
 20
6.4513211663
 30
0.0
 10
11.7981015463
 20
6.4576113824
 30
0.0
 10
11.7934130188
 20
6.4619251618
 30
0.0
 10
11.7893978776
 20
6.464672379
 30
0.0
 10
11.7863175002
 20
6.4663559782
 30
0.0
 10
11.7831484963
 20
6.4676783745
 30
0.0
 10
11.7799114778
 20
6.4686301781
 30
0.0
 10
11.7766295019
 20
6.4692036286
 30
0.0
 10
11.7744227512
 20
6.4693318604
 30
0.0
 10
11.7733243088
 20
6.4693318604
 30
0.0
  0
SPLINE
  5
2B6
100
AcDbEntity
  8
0
100
AcDbSpline
 62
9
  6
CONTINUOUS
 70
0
 71
3
 72
21
 73
17
 74
0
 42
0.0000001
 43
0.0000001
 44
0.0000000001
 40
0.0
 40
0.0
 40
0.0
 40
0.0
 40
0.0276776596
 40
0.0570906022
 40
0.0896818272
 40
0.1265014416
 40
0.1682475936
 40
0.2153606444
 40
0.268110691
 40
0.3266388753
 40
0.3910090824
 40
0.4612175976
 40
0.537209819
 40
0.6189034154
 40
0.7989169889
 40
1.0
 40
1.0
 40
1.0
 40
1.0
 10
11.98118813
 20
6.4458609938
 30
0.0
 10
11.9811326718
 20
6.4461523062
 30
0.0
 10
11.9809364892
 20
6.4467402496
 30
0.0
 10
11.9804116701
 20
6.447554664
 30
0.0
 10
11.9796633165
 20
6.4483122112
 30
0.0
 10
11.9786966919
 20
6.4490147322
 30
0.0
 10
11.9775141469
 20
6.4496644688
 30
0.0
 10
11.9761173905
 20
6.4502618238
 30
0.0
 10
11.9745085526
 20
6.4508060679
 30
0.0
 10
11.9726906081
 20
6.4512964912
 30
0.0
 10
11.9706671696
 20
6.45173186
 30
0.0
 10
11.9684425969
 20
6.4521112003
 30
0.0
 10
11.9660218097
 20
6.4524337123
 30
0.0
 10
11.9624215545
 20
6.4527983746
 30
0.0
 10
11.9574695767
 20
6.4530906649
 30
0.0
 10
11.9533859483
 20
6.4531584989
 30
0.0
 10
11.9512315018
 20
6.4531584989
 30
0.0
  0
SPLINE
  5
2B7
100
AcDbEntity
  8
0
100
AcDbSpline
 62
7
  6
CONTINUOUS
 70
0
 71
3
 72
9
 73
5
 74
0
 42
0.0000001
 43
0.0000001
 44
0.0000000001
 40
0.0
 40
0.0
 40
0.0
 40
0.0
 40
0.5083766679
 40
1.0
 40
1.0
 40
1.0
 40
1.0
 10
11.390889037
 20
6.5487622414
 30
0.0
 10
11.3929539156
 20
6.5507723327
 30
0.0
 10
11.3972085642
 20
6.5545337031
 30
0.0
 10
11.4018286538
 20
6.5578388687
 30
0.0
 10
11.4041817078
 20
6.5593318604
 30
0.0
  0
LINE
  5
2B8
100
AcDbEntity
  8
0
100
AcDbLine
 62
9
  6
CONTINUOUS
 10
11.3916393105
 20
6.548109191
 11
11.390889037
 21
6.5487622414
  0
SPLINE
  5
2B9
100
AcDbEntity
  8
0
100
AcDbSpline
 62
9
  6
CONTINUOUS
 70
0
 71
3
 72
18
 73
14
 74
0
 42
0.0000001
 43
0.0000001
 44
0.0000000001
 40
0.0
 40
0.0
 40
0.0
 40
0.0
 40
0.1803683366
 40
0.2649127728
 40
0.3441471334
 40
0.4179398677
 40
0.4866059768
 40
0.5506773084
 40
0.6107183912
 40
0.7208837877
 40
0.820933825
 40
0.9134241939
 40
1.0
 40
1.0
 40
1.0
 40
1.0
 10
11.4240773177
 20
6.4693318604
 30
0.0
 10
11.424077376
 20
6.4746186913
 30
0.0
 10
11.4236400804
 20
6.4823952945
 30
0.0
 10
11.422166454
 20
6.4923787346
 30
0.0
 10
11.4207427801
 20
6.4991996337
 30
0.0
 10
11.4190402365
 20
6.5054746635
 30
0.0
 10
11.417109133
 20
6.5112157224
 30
0.0
 10
11.4149966416
 20
6.5164602361
 30
0.0
 10
11.4120552842
 20
6.5226691916
 30
0.0
 10
11.4080531569
 20
6.5295259157
 30
0.0
 10
11.4027994274
 20
6.5366934024
 30
0.0
 10
11.3973545117
 20
6.5428137772
 30
0.0
 10
11.393544803
 20
6.5464332542
 30
0.0
 10
11.3916393105
 20
6.548109191
 30
0.0
  0
SPLINE
  5
2BA
100
AcDbEntity
  8
0
100
AcDbSpline
 62
9
  6
CONTINUOUS
 70
0
 71
3
 72
21
 73
17
 74
0
 42
0.0000001
 43
0.0000001
 44
0.0000000001
 40
0.0
 40
0.0
 40
0.0
 40
0.0
 40
0.1448802614
 40
0.2164980565
 40
0.2871073163
 40
0.4240294494
 40
0.4899664576
 40
0.5539479307
 40
0.6158721045
 40
0.6757098413
 40
0.7335132494
 40
0.7894224036
 40
0.8436693812
 40
0.8965711219
 40
0.9485328422
 40
1.0
 40
1.0
 40
1.0
 40
1.0
 10
11.7733243088
 20
6.4693318604
 30
0.0
 10
11.7733243088
 20
6.4758507039
 30
0.0
 10
11.7739969985
 20
6.4856104255
 30
0.0
 10
11.7762465138
 20
6.4983401167
 30
0.0
 10
11.7793215849
 20
6.5105264714
 30
0.0
 10
11.783651893
 20
6.5221079798
 30
0.0
 10
11.7892206999
 20
6.5327581235
 30
0.0
 10
11.7938744641
 20
6.5400422809
 30
0.0
 10
11.7990123622
 20
6.5466498429
 30
0.0
 10
11.8045868877
 20
6.5525176676
 30
0.0
 10
11.8105460338
 20
6.5575883131
 30
0.0
 10
11.8168341321
 20
6.5618115383
 30
0.0
 10
11.8233916148
 20
6.5651441196
 30
0.0
 10
11.8301560292
 20
6.5675515111
 30
0.0
 10
11.8370591459
 20
6.5690065906
 30
0.0
 10
11.8417192377
 20
6.5693318604
 30
0.0
 10
11.8440349869
 20
6.5693318604
 30
0.0
  0
SPLINE
  5
2BB
100
AcDbEntity
  8
0
100
AcDbSpline
 62
7
  6
CONTINUOUS
 70
0
 71
3
 72
15
 73
11
 74
0
 42
0.0000001
 43
0.0000001
 44
0.0000000001
 40
0.0
 40
0.0
 40
0.0
 40
0.0
 40
0.1638648668
 40
0.3132524406
 40
0.4497098899
 40
0.5749837192
 40
0.690802884
 40
0.7989712216
 40
0.9013954221
 40
1.0
 40
1.0
 40
1.0
 40
1.0
 10
11.4041817078
 20
6.5593318604
 30
0.0
 10
11.4054391754
 20
6.5601297124
 30
0.0
 10
11.4078513961
 20
6.5616420188
 30
0.0
 10
11.4113769005
 20
6.56371132
 30
0.0
 10
11.4146820706
 20
6.5654572578
 30
0.0
 10
11.4178080325
 20
6.56687814
 30
0.0
 10
11.4207893985
 20
6.567977231
 30
0.0
 10
11.4236556692
 20
6.5687585289
 30
0.0
 10
11.4264314178
 20
6.5692260843
 30
0.0
 10
11.4282598687
 20
6.5693318604
 30
0.0
 10
11.4291560001
 20
6.5693318604
 30
0.0
  0
SPLINE
  5
2BC
100
AcDbEntity
  8
0
100
AcDbSpline
 62
9
  6
CONTINUOUS
 70
0
 71
3
 72
17
 73
13
 74
0
 42
0.0000001
 43
0.0000001
 44
0.0000000001
 40
0.0
 40
0.0
 40
0.0
 40
0.0
 40
0.0498776346
 40
0.10306158
 40
0.1592435769
 40
0.2181182525
 40
0.3425695166
 40
0.4735322488
 40
0.6079277702
 40
0.7425798122
 40
0.8743015248
 40
1.0
 40
1.0
 40
1.0
 40
1.0
 10
11.4231664232
 20
6.1957693171
 30
0.0
 10
11.4209468341
 20
6.1961745706
 30
0.0
 10
11.416346001
 20
6.1969335795
 30
0.0
 10
11.4092069522
 20
6.1979017237
 30
0.0
 10
11.4016409464
 20
6.1987315071
 30
0.0
 10
11.3908458449
 20
6.1996633377
 30
0.0
 10
11.3766450737
 20
6.2004295263
 30
0.0
 10
11.3590105492
 20
6.2007285497
 30
0.0
 10
11.3409148244
 20
6.2004136319
 30
0.0
 10
11.3228054426
 20
6.1994922227
 30
0.0
 10
11.3051301113
 20
6.1979874458
 30
0.0
 10
11.2935675174
 20
6.1965774057
 30
0.0
 10
11.2879390926
 20
6.1957693171
 30
0.0
  0
SPLINE
  5
2BD
100
AcDbEntity
  8
0
100
AcDbSpline
 62
7
  6
CONTINUOUS
 70
0
 71
3
 72
19
 73
15
 74
0
 42
0.0000001
 43
0.0000001
 44
0.0000000001
 40
0.0
 40
0.0
 40
0.0
 40
0.0
 40
0.0663433974
 40
0.1321261991
 40
0.1973160038
 40
0.2619017805
 40
0.389282618
 40
0.4521200639
 40
0.5144148074
 40
0.6375330424
 40
0.7590270198
 40
0.8193436359
 40
0.8795094184
 40
1.0
 40
1.0
 40
1.0
 40
1.0
 10
11.2869863872
 20
6.4693318604
 30
0.0
 10
11.2888774616
 20
6.4714483459
 30
0.0
 10
11.2927482201
 20
6.4755712795
 30
0.0
 10
11.2988174101
 20
6.4814425435
 30
0.0
 10
11.305088429
 20
6.4869844218
 30
0.0
 10
11.3136223883
 20
6.4939312092
 30
0.0
 10
11.3224305494
 20
6.5003658556
 30
0.0
 10
11.3313664741
 20
6.5064364003
 30
0.0
 10
11.3402484003
 20
6.5122601326
 30
0.0
 10
11.3513284043
 20
6.5193044125
 30
0.0
 10
11.3622722116
 20
6.5264068429
 30
0.0
 10
11.3707886191
 20
6.5322946897
 30
0.0
 10
11.3791007779
 20
6.5383923015
 30
0.0
 10
11.3850790441
 20
6.5433160233
 30
0.0
 10
11.3888538358
 20
6.5468263277
 30
0.0
  0
SPLINE
  5
2BE
100
AcDbEntity
  8
0
100
AcDbSpline
 62
9
  6
CONTINUOUS
 70
0
 71
3
 72
35
 73
31
 74
0
 42
0.0000001
 43
0.0000001
 44
0.0000000001
 40
0.0
 40
0.0
 40
0.0
 40
0.0
 40
0.015558618
 40
0.0233488869
 40
0.0311467393
 40
0.0389496673
 40
0.0467561194
 40
0.054567279
 40
0.0623826519
 40
0.0701982721
 40
0.0780120009
 40
0.0858248117
 40
0.0936377446
 40
0.1092647961
 40
0.1248919371
 40
0.1405187741
 40
0.1561456809
 40
0.1873995758
 40
0.2186534294
 40
0.2499072952
 40
0.281161157
 40
0.31241502
 40
0.3749227453
 40
0.4374304707
 40
0.4999381959
 40
0.5624459212
 40
0.6249536465
 40
0.7499690972
 40
0.8749845484
 40
1.0
 40
1.0
 40
1.0
 40
1.0
 10
11.4231664232
 20
6.1957693171
 30
0.0
 10
11.4233116086
 20
6.1971808065
 30
0.0
 10
11.4235095842
 20
6.1993011464
 30
0.0
 10
11.423736194
 20
6.2021326719
 30
0.0
 10
11.4238890942
 20
6.204260475
 30
0.0
 10
11.4240123881
 20
6.2063917375
 30
0.0
 10
11.42409069
 20
6.2085264744
 30
0.0
 10
11.4241131601
 20
6.2106635985
 30
0.0
 10
11.4241060865
 20
6.2128014985
 30
0.0
 10
11.4240964364
 20
6.214939624
 30
0.0
 10
11.4240965997
 20
6.2170775399
 30
0.0
 10
11.424099627
 20
6.2192152024
 30
0.0
 10
11.4241025012
 20
6.2220654378
 30
0.0
 10
11.4241006562
 20
6.2256283363
 30
0.0
 10
11.4240996915
 20
6.2299038575
 30
0.0
 10
11.4241002481
 20
6.2341793659
 30
0.0
 10
11.424099932
 20
6.2398800247
 30
0.0
 10
11.4240993371
 20
6.2470058579
 30
0.0
 10
11.424098834
 20
6.2555568603
 30
0.0
 10
11.4240980665
 20
6.2641078597
 30
0.0
 10
11.4240972795
 20
6.27265886
 30
0.0
 10
11.4240960906
 20
6.2840601933
 30
0.0
 10
11.4240944466
 20
6.29831186
 30
0.0
 10
11.4240922717
 20
6.3154138599
 30
0.0
 10
11.4240899839
 20
6.3325158599
 30
0.0
 10
11.4240876613
 20
6.3496178598
 30
0.0
 10
11.4240846265
 20
6.3724205264
 30
0.0
 10
11.4240811504
 20
6.4009238598
 30
0.0
 10
11.4240781318
 20
6.43512786
 30
0.0
 10
11.4240773177
 20
6.4579305269
 30
0.0
 10
11.4240773177
 20
6.4693318604
 30
0.0
  0
SPLINE
  5
2BF
100
AcDbEntity
  8
0
100
AcDbSpline
 62
9
  6
CONTINUOUS
 70
0
 71
3
 72
21
 73
17
 74
0
 42
0.0000001
 43
0.0000001
 44
0.0000000001
 40
0.0
 40
0.0
 40
0.0
 40
0.0
 40
0.053119079
 40
0.1065917052
 40
0.160750344
 40
0.2158997186
 40
0.2723032552
 40
0.3301747569
 40
0.3896745808
 40
0.4509085937
 40
0.5139299655
 40
0.5787418199
 40
0.7134356641
 40
0.7831986288
 40
0.8543462518
 40
1.0
 40
1.0
 40
1.0
 40
1.0
 10
10.2506016896
 20
6.0093318606
 30
0.0
 10
10.2475755641
 20
6.0093318656
 30
0.0
 10
10.2414974001
 20
6.0096844874
 30
0.0
 10
10.2324578469
 20
6.0112648996
 30
0.0
 10
10.2235423868
 20
6.0138861153
 30
0.0
 10
10.2148134373
 20
6.0175284428
 30
0.0
 10
10.2063291582
 20
6.0221655265
 30
0.0
 10
10.1981461448
 20
6.0277648092
 30
0.0
 10
10.1903181894
 20
6.0342874291
 30
0.0
 10
10.1828965431
 20
6.0416885825
 30
0.0
 10
10.175929254
 20
6.0499189639
 30
0.0
 10
10.167197369
 20
6.0620764496
 30
0.0
 10
10.1596961155
 20
6.0755292794
 30
0.0
 10
10.1534683668
 20
6.0899510588
 30
0.0
 10
10.1479869003
 20
6.105338297
 30
0.0
 10
10.1449574045
 20
6.117353994
 30
0.0
 10
10.1434051748
 20
6.1255052219
 30
0.0
  0
SPLINE
  5
2C0
100
AcDbEntity
  8
0
100
AcDbSpline
 62
9
  6
CONTINUOUS
 70
0
 71
3
 72
22
 73
18
 74
0
 42
0.0000001
 43
0.0000001
 44
0.0000000001
 40
0.0
 40
0.0
 40
0.0
 40
0.0
 40
0.0468658756
 40
0.0923514996
 40
0.1379219087
 40
0.1848793097
 40
0.2342987732
 40
0.2869864116
 40
0.3434382371
 40
0.4038317714
 40
0.4681165039
 40
0.5361063728
 40
0.6074981297
 40
0.6818999418
 40
0.8378332197
 40
0.9184214337
 40
1.0
 40
1.0
 40
1.0
 40
1.0
 10
11.4586341635
 20
6.101495373
 30
0.0
 10
11.4570001677
 20
6.1019029388
 30
0.0
 10
11.4538320132
 20
6.1029416652
 30
0.0
 10
11.4494102746
 20
6.1052251274
 30
0.0
 10
11.4454031708
 20
6.1081806469
 30
0.0
 10
11.4417758823
 20
6.1117898021
 30
0.0
 10
11.4384902611
 20
6.1160361817
 30
0.0
 10
11.4355122329
 20
6.1209046178
 30
0.0
 10
11.4328201688
 20
6.1263774945
 30
0.0
 10
11.4304129404
 20
6.1324309298
 30
0.0
 10
11.4283049833
 20
6.1390306361
 30
0.0
 10
11.4265116061
 20
6.1461302508
 30
0.0
 10
11.4250500925
 20
6.1536758559
 30
0.0
 10
11.4235434853
 20
6.1644167205
 30
0.0
 10
11.4228176893
 20
6.1755848347
 30
0.0
 10
11.4227992501
 20
6.1870169965
 30
0.0
 10
11.4230122178
 20
6.1928419667
 30
0.0
 10
11.4231664232
 20
6.1957693171
 30
0.0
  0
SPLINE
  5
2C1
100
AcDbEntity
  8
0
100
AcDbSpline
 62
9
  6
CONTINUOUS
 70
0
 71
3
 72
17
 73
13
 74
0
 42
0.0000001
 43
0.0000001
 44
0.0000000001
 40
0.0
 40
0.0
 40
0.0
 40
0.0
 40
0.0521485124
 40
0.1052545295
 40
0.1595780575
 40
0.2153294572
 40
0.3315407058
 40
0.4545758511
 40
0.5841452526
 40
0.7192830009
 40
0.858503455
 40
1.0
 40
1.0
 40
1.0
 40
1.0
 10
11.4590553089
 20
6.1002225163
 30
0.0
 10
11.4582368992
 20
6.1000056338
 30
0.0
 10
11.456609402
 20
6.0994699485
 30
0.0
 10
11.4542518714
 20
6.0983833329
 30
0.0
 10
11.4519762837
 20
6.0970164814
 30
0.0
 10
11.4490355241
 20
6.0948050923
 30
0.0
 10
11.4456567105
 20
6.0913674245
 30
0.0
 10
11.4422515106
 20
6.08641038
 30
0.0
 10
11.4395263939
 20
6.0807096571
 30
0.0
 10
11.4375577271
 20
6.0744326326
 30
0.0
 10
11.4363994114
 20
6.0677630367
 30
0.0
 10
11.4361901472
 20
6.0631962289
 30
0.0
 10
11.4362269581
 20
6.0608992501
 30
0.0
  0
SPLINE
  5
2C2
100
AcDbEntity
  8
0
100
AcDbSpline
 62
9
  6
CONTINUOUS
 70
0
 71
3
 72
21
 73
17
 74
0
 42
0.0000001
 43
0.0000001
 44
0.0000000001
 40
0.0
 40
0.0
 40
0.0
 40
0.0
 40
0.053119079
 40
0.1065917052
 40
0.160750344
 40
0.2158997186
 40
0.2723032552
 40
0.3301747569
 40
0.3896745808
 40
0.4509085937
 40
0.5139299655
 40
0.5787418199
 40
0.7134356641
 40
0.7831986288
 40
0.8543462518
 40
1.0
 40
1.0
 40
1.0
 40
1.0
 10
11.8440349869
 20
6.0093318606
 30
0.0
 10
11.8470611125
 20
6.0093318656
 30
0.0
 10
11.8531392764
 20
6.0096844874
 30
0.0
 10
11.8621788297
 20
6.0112648996
 30
0.0
 10
11.8710942897
 20
6.0138861153
 30
0.0
 10
11.8798232392
 20
6.0175284428
 30
0.0
 10
11.8883075184
 20
6.0221655265
 30
0.0
 10
11.8964905317
 20
6.0277648092
 30
0.0
 10
11.9043184872
 20
6.0342874291
 30
0.0
 10
11.9117401335
 20
6.0416885825
 30
0.0
 10
11.9187074226
 20
6.0499189639
 30
0.0
 10
11.9274393075
 20
6.0620764496
 30
0.0
 10
11.934940561
 20
6.0755292794
 30
0.0
 10
11.9411683098
 20
6.0899510588
 30
0.0
 10
11.9466497763
 20
6.105338297
 30
0.0
 10
11.949679272
 20
6.117353994
 30
0.0
 10
11.9512315018
 20
6.1255052219
 30
0.0
  0
SPLINE
  5
2C3
100
AcDbEntity
  8
0
100
AcDbSpline
 62
7
  6
CONTINUOUS
 70
0
 71
3
 72
31
 73
27
 74
0
 42
0.0000001
 43
0.0000001
 44
0.0000000001
 40
0.0
 40
0.0
 40
0.0
 40
0.0
 40
0.0699580773
 40
0.1378499738
 40
0.2034903113
 40
0.2667659722
 40
0.2975249088
 40
0.3277145283
 40
0.3573693433
 40
0.3865404173
 40
0.4152962797
 40
0.4437225756
 40
0.4719196617
 40
0.4999992266
 40
0.5280787929
 40
0.5562758834
 40
0.5847021863
 40
0.6134580581
 40
0.6426291433
 40
0.6722839709
 40
0.7024736051
 40
0.7332325564
 40
0.7965082445
 40
0.8621486046
 40
0.9300405874
 40
1.0
 40
1.0
 40
1.0
 40
1.0
 10
11.42634879
 20
7.9393878043
 30
0.0
 10
11.4336289351
 20
7.932128642
 30
0.0
 10
11.4482878951
 20
7.9181335384
 30
0.0
 10
11.4709875869
 20
7.8986400136
 30
0.0
 10
11.4941205454
 20
7.8812414708
 30
0.0
 10
11.5139566591
 20
7.8686423733
 30
0.0
 10
11.5300427226
 20
7.8599957365
 30
0.0
 10
11.542092445
 20
7.8543149996
 30
0.0
 10
11.5542319963
 20
7.8494202768
 30
0.0
 10
11.5664523392
 20
7.8453524396
 30
0.0
 10
11.5787411044
 20
7.8421465682
 30
0.0
 10
11.5910840693
 20
7.8398335709
 30
0.0
 10
11.6034645272
 20
7.8384363174
 30
0.0
 10
11.6158641706
 20
7.8379685245
 30
0.0
 10
11.6282638137
 20
7.8384363408
 30
0.0
 10
11.6406442709
 20
7.8398336172
 30
0.0
 10
11.6529872346
 20
7.842146637
 30
0.0
 10
11.6652759982
 20
7.8453525306
 30
0.0
 10
11.6774963392
 20
7.8494203888
 30
0.0
 10
11.689635889
 20
7.8543151305
 30
0.0
 10
11.7016856083
 20
7.8599958889
 30
0.0
 10
11.7177716657
 20
7.8686425523
 30
0.0
 10
11.737607794
 20
7.8812416545
 30
0.0
 10
11.7607406753
 20
7.8986403082
 30
0.0
 10
11.7834408376
 20
7.918133655
 30
0.0
 10
11.7980989634
 20
7.9321299368
 30
0.0
 10
11.8053792417
 20
7.9393892435
 30
0.0
  0
SPLINE
  5
2C4
100
AcDbEntity
  8
0
100
AcDbSpline
 62
7
  6
CONTINUOUS
 70
0
 71
3
 72
27
 73
23
 74
0
 42
0.0000001
 43
0.0000001
 44
0.0000000001
 40
0.0
 40
0.0
 40
0.0
 40
0.0
 40
0.0625042264
 40
0.1250080825
 40
0.2499704631
 40
0.3124717022
 40
0.3437261691
 40
0.3749808639
 40
0.406235512
 40
0.4374903311
 40
0.4687451433
 40
0.5000000001
 40
0.5312548568
 40
0.562509669
 40
0.5937644882
 40
0.6250191362
 40
0.656273831
 40
0.6875282978
 40
0.750029537
 40
0.8749919175
 40
0.9374957736
 40
1.0
 40
1.0
 40
1.0
 40
1.0
 10
10.6682878866
 20
7.939387318
 30
0.0
 10
10.683050664
 20
7.9320271805
 30
0.0
 10
10.7128412987
 20
7.9178265027
 30
0.0
 10
10.7734861729
 20
7.8918347576
 30
0.0
 10
10.8359071197
 20
7.8700452461
 30
0.0
 10
10.8919060832
 20
7.8558952103
 30
0.0
 10
10.9242550507
 20
7.8493835277
 30
0.0
 10
10.9486709639
 20
7.8453265453
 30
0.0
 10
10.9732148088
 20
7.8421309356
 30
0.0
 10
10.9978586298
 20
7.8398264305
 30
0.0
 10
11.0225710406
 20
7.8384347964
 30
0.0
 10
11.0473183384
 20
7.8379689649
 30
0.0
 10
11.0720656362
 20
7.8384347964
 30
0.0
 10
11.096778047
 20
7.8398264305
 30
0.0
 10
11.121421868
 20
7.8421309356
 30
0.0
 10
11.1459657129
 20
7.8453265454
 30
0.0
 10
11.1703816261
 20
7.8493835277
 30
0.0
 10
11.2027305935
 20
7.8558952104
 30
0.0
 10
11.2587295571
 20
7.8700452462
 30
0.0
 10
11.3211505037
 20
7.8918347577
 30
0.0
 10
11.3817953781
 20
7.9178265026
 30
0.0
 10
11.4115860126
 20
7.9320271808
 30
0.0
 10
11.42634879
 20
7.9393873184
 30
0.0
  0
SPLINE
  5
2C5
100
AcDbEntity
  8
0
100
AcDbSpline
 62
7
  6
CONTINUOUS
 70
0
 71
3
 72
31
 73
27
 74
0
 42
0.0000001
 43
0.0000001
 44
0.0000000001
 40
0.0
 40
0.0
 40
0.0
 40
0.0
 40
0.0699594124
 40
0.1378513952
 40
0.2034917553
 40
0.2667674434
 40
0.2975263948
 40
0.327716029
 40
0.3573708565
 40
0.3865419418
 40
0.4152978135
 40
0.4437241164
 40
0.4719212069
 40
0.5000007733
 40
0.5280803381
 40
0.5562774243
 40
0.5847037202
 40
0.6134595825
 40
0.6426306565
 40
0.6722854715
 40
0.702475091
 40
0.7332340276
 40
0.7965096884
 40
0.862150026
 40
0.9300419225
 40
1.0
 40
1.0
 40
1.0
 40
1.0
 10
10.2892574348
 20
7.9393892433
 30
0.0
 10
10.2965377131
 20
7.9321299366
 30
0.0
 10
10.3111958391
 20
7.918133655
 30
0.0
 10
10.3338960013
 20
7.8986403081
 30
0.0
 10
10.3570288826
 20
7.8812416544
 30
0.0
 10
10.3768650109
 20
7.8686425523
 30
0.0
 10
10.3929510683
 20
7.8599958888
 30
0.0
 10
10.4050007877
 20
7.8543151305
 30
0.0
 10
10.4171403375
 20
7.8494203888
 30
0.0
 10
10.4293606785
 20
7.8453525306
 30
0.0
 10
10.4416494421
 20
7.842146637
 30
0.0
 10
10.4539924058
 20
7.8398336172
 30
0.0
 10
10.4663728629
 20
7.8384363408
 30
0.0
 10
10.4787725061
 20
7.8379685245
 30
0.0
 10
10.4911721495
 20
7.8384363175
 30
0.0
 10
10.5035526073
 20
7.8398335709
 30
0.0
 10
10.5158955722
 20
7.8421465682
 30
0.0
 10
10.5281843374
 20
7.8453524396
 30
0.0
 10
10.5404046803
 20
7.8494202768
 30
0.0
 10
10.5525442317
 20
7.8543149996
 30
0.0
 10
10.564593954
 20
7.8599957365
 30
0.0
 10
10.5806800175
 20
7.8686423734
 30
0.0
 10
10.6005161312
 20
7.8812414708
 30
0.0
 10
10.6236490897
 20
7.8986400137
 30
0.0
 10
10.6463487816
 20
7.9181335384
 30
0.0
 10
10.6610077414
 20
7.9321286422
 30
0.0
 10
10.6682878866
 20
7.9393878045
 30
0.0
  0
SPLINE
  5
2C6
100
AcDbEntity
  8
0
100
AcDbSpline
 62
7
  6
CONTINUOUS
 70
0
 71
3
 72
19
 73
15
 74
0
 42
0.0000001
 43
0.0000001
 44
0.0000000001
 40
0.0
 40
0.0
 40
0.0
 40
0.0
 40
0.0603683674
 40
0.1204368875
 40
0.1804381457
 40
0.2405688656
 40
0.30096506
 40
0.3617371535
 40
0.4847109412
 40
0.547021398
 40
0.6099278922
 40
0.7375791421
 40
0.8676638126
 40
1.0
 40
1.0
 40
1.0
 40
1.0
 10
10.7031745397
 20
6.5493149436
 30
0.0
 10
10.705094301
 20
6.5474789344
 30
0.0
 10
10.7090524567
 20
6.5439484313
 30
0.0
 10
10.715271698
 20
6.5390078042
 30
0.0
 10
10.7216926385
 20
6.534351984
 30
0.0
 10
10.7282687884
 20
6.5298941907
 30
0.0
 10
10.7349679826
 20
6.5255617232
 30
0.0
 10
10.7440524196
 20
6.5198272718
 30
0.0
 10
10.7532244245
 20
6.5140728663
 30
0.0
 10
10.7623484767
 20
6.5080695932
 30
0.0
 10
10.7715121875
 20
6.5017569438
 30
0.0
 10
10.7827971749
 20
6.4932709386
 30
0.0
 10
10.7957444478
 20
6.4819766241
 30
0.0
 10
10.8037978879
 20
6.4736783427
 30
0.0
 10
10.8076746985
 20
6.4693332402
 30
0.0
  0
SPLINE
  5
2C7
100
AcDbEntity
  8
0
100
AcDbSpline
 62
9
  6
CONTINUOUS
 70
0
 71
3
 72
18
 73
14
 74
0
 42
0.0000001
 43
0.0000001
 44
0.0000000001
 40
0.0
 40
0.0
 40
0.0
 40
0.0
 40
0.049998721
 40
0.1032608484
 40
0.1594887319
 40
0.2183854925
 40
0.2796191612
 40
0.3428391285
 40
0.4737579049
 40
0.6080913318
 40
0.7426758544
 40
0.8743369353
 40
1.0
 40
1.0
 40
1.0
 40
1.0
 10
10.671929291
 20
6.1958837846
 30
0.0
 10
10.6741263496
 20
6.1963671895
 30
0.0
 10
10.6786845294
 20
6.1972730521
 30
0.0
 10
10.6857678485
 20
6.1984293932
 30
0.0
 10
10.6932801244
 20
6.1994205791
 30
0.0
 10
10.7011735482
 20
6.2002402347
 30
0.0
 10
10.7093988692
 20
6.2008831273
 30
0.0
 10
10.7208729201
 20
6.2015060107
 30
0.0
 10
10.7356539706
 20
6.2018067728
 30
0.0
 10
10.7536447404
 20
6.2014306072
 30
0.0
 10
10.7716395457
 20
6.2003295073
 30
0.0
 10
10.7891857912
 20
6.1985318394
 30
0.0
 10
10.8006456822
 20
6.1968481427
 30
0.0
 10
10.8062168372
 20
6.1958837846
 30
0.0
  0
SPLINE
  5
2C8
100
AcDbEntity
  8
0
100
AcDbSpline
 62
7
  6
CONTINUOUS
 70
0
 71
3
 72
11
 73
7
 74
0
 42
0.0000001
 43
0.0000001
 44
0.0000000001
 40
0.0
 40
0.0
 40
0.0
 40
0.0
 40
0.2652235851
 40
0.518802589
 40
0.7629046494
 40
1.0
 40
1.0
 40
1.0
 40
1.0
 10
11.1623183383
 20
5.6006817105
 30
0.0
 10
11.160500667
 20
5.5994955721
 30
0.0
 10
11.1568458111
 20
5.5973222074
 30
0.0
 10
11.1511944435
 20
5.5946458239
 30
0.0
 10
11.1455151151
 20
5.5926379661
 30
0.0
 10
11.1416712566
 20
5.5917382613
 30
0.0
 10
11.1397595423
 20
5.5914066433
 30
0.0
  0
SPLINE
  5
2C9
100
AcDbEntity
  8
0
100
AcDbSpline
 62
9
  6
CONTINUOUS
 70
0
 71
3
 72
27
 73
23
 74
0
 42
0.0000001
 43
0.0000001
 44
0.0000000001
 40
0.0
 40
0.0
 40
0.0
 40
0.0
 40
0.0707729756
 40
0.1412523473
 40
0.2112786216
 40
0.2806798409
 40
0.3492460255
 40
0.4167418374
 40
0.4829154247
 40
0.5475215671
 40
0.5791819992
 40
0.6103766238
 40
0.6410917295
 40
0.6713176064
 40
0.7010592786
 40
0.73032134
 40
0.7591201102
 40
0.7874696102
 40
0.8428838347
 40
0.8967164173
 40
0.9490787673
 40
1.0
 40
1.0
 40
1.0
 40
1.0
 10
10.8062168372
 20
6.1958837846
 30
0.0
 10
10.8056167932
 20
6.1906802272
 30
0.0
 10
10.8039780522
 20
6.180339976
 30
0.0
 10
10.8002126851
 20
6.1651438223
 30
0.0
 10
10.7951662522
 20
6.1504288741
 30
0.0
 10
10.7888720664
 20
6.1363567296
 30
0.0
 10
10.7813783276
 20
6.1230978696
 30
0.0
 10
10.772757573
 20
6.1108308485
 30
0.0
 10
10.7631156112
 20
6.0997334254
 30
0.0
 10
10.7542833459
 20
6.0915376878
 30
0.0
 10
10.7468491061
 20
6.0857234075
 30
0.0
 10
10.7411569214
 20
6.081772063
 30
0.0
 10
10.735338199
 20
6.0782091354
 30
0.0
 10
10.72941721
 20
6.0750409254
 30
0.0
 10
10.7234231893
 20
6.0722603647
 30
0.0
 10
10.7173819563
 20
6.0698572359
 30
0.0
 10
10.711318523
 20
6.0678141098
 30
0.0
 10
10.7032950983
 20
6.0655602642
 30
0.0
 10
10.6933042235
 20
6.063511454
 30
0.0
 10
10.6814231815
 20
6.0620549329
 30
0.0
 10
10.6698158539
 20
6.0612970299
 30
0.0
 10
10.6621761256
 20
6.0610297076
 30
0.0
 10
10.6584096086
 20
6.0608992528
 30
0.0
  0
SPLINE
  5
2CA
100
AcDbEntity
  8
0
100
AcDbSpline
 62
9
  6
CONTINUOUS
 70
0
 71
3
 72
26
 73
22
 74
0
 42
0.0000001
 43
0.0000001
 44
0.0000000001
 40
0.0
 40
0.0
 40
0.0
 40
0.0
 40
0.1250024904
 40
0.2500049809
 40
0.3750074713
 40
0.5000099617
 40
0.5625112066
 40
0.6250124529
 40
0.6875136975
 40
0.7187643173
 40
0.7500149389
 40
0.7812655664
 40
0.8125161988
 40
0.8281415119
 40
0.8437668199
 40
0.8593921208
 40
0.8750173598
 40
0.9062673217
 40
0.9375218279
 40
0.9687784986
 40
1.0
 40
1.0
 40
1.0
 40
1.0
 10
10.8076746985
 20
6.4693332402
 30
0.0
 10
10.8076746985
 20
6.4579372483
 30
0.0
 10
10.8076746999
 20
6.4351452644
 30
0.0
 10
10.8076746942
 20
6.4009572887
 30
0.0
 10
10.8076747115
 20
6.3667693129
 30
0.0
 10
10.8076746667
 20
6.3382793331
 30
0.0
 10
10.8076747589
 20
6.3154873492
 30
0.0
 10
10.8076746113
 20
6.2983933613
 30
0.0
 10
10.8076745644
 20
6.2841483716
 30
0.0
 10
10.807675064
 20
6.2727523801
 30
0.0
 10
10.8076753904
 20
6.2642053861
 30
0.0
 10
10.8076752768
 20
6.2556583909
 30
0.0
 10
10.80767469
 20
6.2485358945
 30
0.0
 10
10.8076747381
 20
6.2428378977
 30
0.0
 10
10.8076751483
 20
6.2385644022
 30
0.0
 10
10.8076763367
 20
6.2342909117
 30
0.0
 10
10.8076780834
 20
6.2285929914
 30
0.0
 10
10.8076492807
 20
6.2214701491
 30
0.0
 10
10.8074698943
 20
6.2129234516
 30
0.0
 10
10.8070500628
 20
6.2043871047
 30
0.0
 10
10.8065433616
 20
6.1987113367
 30
0.0
 10
10.8062168372
 20
6.1958837846
 30
0.0
  0
SPLINE
  5
2CB
100
AcDbEntity
  8
0
100
AcDbSpline
 62
9
  6
CONTINUOUS
 70
0
 71
3
 72
43
 73
39
 74
0
 42
0.0000001
 43
0.0000001
 44
0.0000000001
 40
0.0
 40
0.0
 40
0.0
 40
0.0
 40
0.0078046652
 40
0.0117066378
 40
0.0156082385
 40
0.0195095191
 40
0.0234115908
 40
0.0273154753
 40
0.0312212718
 40
0.0390361861
 40
0.046850494
 40
0.0546612792
 40
0.0585657289
 40
0.0624706648
 40
0.0702836006
 40
0.0780978767
 40
0.0937233424
 40
0.0976296362
 40
0.1015359339
 40
0.1093486797
 40
0.1171615277
 40
0.1249742877
 40
0.1405997178
 40
0.1562251787
 40
0.1718506448
 40
0.1874761014
 40
0.218727021
 40
0.24997794
 40
0.2812288592
 40
0.3124797784
 40
0.3437306975
 40
0.3749816167
 40
0.437483455
 40
0.4999852933
 40
0.6249889698
 40
0.7499926465
 40
0.8749963232
 40
1.0
 40
1.0
 40
1.0
 40
1.0
 10
11.2879390926
 20
6.1957693171
 30
0.0
 10
11.2878860277
 20
6.1964791261
 30
0.0
 10
11.2877793692
 20
6.1975416962
 30
0.0
 10
11.2876227368
 20
6.1989564853
 30
0.0
 10
11.2875079073
 20
6.2000177933
 30
0.0
 10
11.287405703
 20
6.2010804424
 30
0.0
 10
11.2873256701
 20
6.2021452146
 30
0.0
 10
11.2872621736
 20
6.2032114706
 30
0.0
 10
11.2871926277
 20
6.2046347591
 30
0.0
 10
11.2871205042
 20
6.2064149228
 30
0.0
 10
11.2870165105
 20
6.2085501209
 30
0.0
 10
11.2869471666
 20
6.2103299935
 30
0.0
 10
11.2869207591
 20
6.2117543836
 30
0.0
 10
11.2869194582
 20
6.2131792122
 30
0.0
 10
11.286949312
 20
6.2149603373
 30
0.0
 10
11.2869993898
 20
6.2178102656
 30
0.0
 10
11.286968183
 20
6.2203043613
 30
0.0
 10
11.2869539774
 20
6.2224418594
 30
0.0
 10
11.2869511222
 20
6.2238669043
 30
0.0
 10
11.2869559084
 20
6.2256482197
 30
0.0
 10
11.2869646432
 20
6.2277857935
 30
0.0
 10
11.2869666682
 20
6.2306359089
 30
0.0
 10
11.2869610323
 20
6.2341985318
 30
0.0
 10
11.286962241
 20
6.2384736824
 30
0.0
 10
11.2869632199
 20
6.2427488339
 30
0.0
 10
11.2869635395
 20
6.2484490363
 30
0.0
 10
11.2869637892
 20
6.2555742885
 30
0.0
 10
11.2869647724
 20
6.2641245914
 30
0.0
 10
11.2869655019
 20
6.2726748943
 30
0.0
 10
11.2869664707
 20
6.2812251971
 30
0.0
 10
11.2869674562
 20
6.2897755
 30
0.0
 10
11.28696887
 20
6.3011759038
 30
0.0
 10
11.2869707624
 20
6.3154264086
 30
0.0
 10
11.2869739502
 20
6.3382272161
 30
0.0
 10
11.2869780245
 20
6.3667282256
 30
0.0
 10
11.2869823828
 20
6.400929437
 30
0.0
 10
11.2869855367
 20
6.4351306486
 30
0.0
 10
11.2869863872
 20
6.4579314565
 30
0.0
 10
11.2869863872
 20
6.4693318604
 30
0.0
  0
SPLINE
  5
2CC
100
AcDbEntity
  8
0
100
AcDbSpline
 62
9
  6
CONTINUOUS
 70
0
 71
3
 72
25
 73
21
 74
0
 42
0.0000001
 43
0.0000001
 44
0.0000000001
 40
0.0
 40
0.0
 40
0.0
 40
0.0
 40
0.050882097
 40
0.0768532594
 40
0.1031816685
 40
0.1569212858
 40
0.2122346162
 40
0.269288075
 40
0.2985323943
 40
0.3282702431
 40
0.3585071025
 40
0.3892440575
 40
0.4521409609
 40
0.5168359446
 40
0.5831064859
 40
0.6506945703
 40
0.7193393676
 40
0.7888013431
 40
0.858867987
 40
1.0
 40
1.0
 40
1.0
 40
1.0
 10
11.4362271767
 20
6.060899248
 30
0.0
 10
11.4324201386
 20
6.0607683411
 30
0.0
 10
11.4266677271
 20
6.0606079308
 30
0.0
 10
11.4189421744
 20
6.0606368104
 30
0.0
 10
11.4110068178
 20
6.0608895896
 30
0.0
 10
11.4008955636
 20
6.0617398185
 30
0.0
 10
11.3886311547
 20
6.0639127615
 30
0.0
 10
11.3784246128
 20
6.0668701785
 30
0.0
 10
11.3703189021
 20
6.0700065636
 30
0.0
 10
11.3642412236
 20
6.0727871593
 30
0.0
 10
11.3582442901
 20
6.0759831821
 30
0.0
 10
11.350335138
 20
6.0808342385
 30
0.0
 10
11.3408046187
 20
6.0879318636
 30
0.0
 10
11.3302117169
 20
6.0978965407
 30
0.0
 10
11.3205462759
 20
6.1092276094
 30
0.0
 10
11.3119503079
 20
6.1217475014
 30
0.0
 10
11.3045270447
 20
6.1352667778
 30
0.0
 10
11.2983487215
 20
6.149601183
 30
0.0
 10
11.2918238943
 20
6.1695948918
 30
0.0
 10
11.2889452874
 20
6.1852514887
 30
0.0
 10
11.2879390926
 20
6.1957693171
 30
0.0
  0
SPLINE
  5
2CD
100
AcDbEntity
  8
0
100
AcDbSpline
 62
9
  6
CONTINUOUS
 70
0
 71
3
 72
19
 73
15
 74
0
 42
0.0000001
 43
0.0000001
 44
0.0000000001
 40
0.0
 40
0.0
 40
0.0
 40
0.0
 40
0.0661661508
 40
0.1306050634
 40
0.1935527275
 40
0.255287283
 40
0.3161387819
 40
0.3764315094
 40
0.4364883726
 40
0.4965915794
 40
0.6178509101
 40
0.7417330513
 40
0.869028686
 40
1.0
 40
1.0
 40
1.0
 40
1.0
 10
11.510239894
 20
6.0884691448
 30
0.0
 10
11.5091030279
 20
6.0870620897
 30
0.0
 10
11.5067653715
 20
6.0843584772
 30
0.0
 10
11.5030207813
 20
6.0806130365
 30
0.0
 10
11.4990949869
 20
6.0772402064
 30
0.0
 10
11.4949949318
 20
6.0742448835
 30
0.0
 10
11.4907344031
 20
6.071618668
 30
0.0
 10
11.4863241033
 20
6.0693519714
 30
0.0
 10
11.4817771314
 20
6.0674265488
 30
0.0
 10
11.4755298449
 20
6.0652828955
 30
0.0
 10
11.4673916592
 20
6.0633436822
 30
0.0
 10
11.4572897351
 20
6.0619851375
 30
0.0
 10
11.4468622977
 20
6.0612735528
 30
0.0
 10
11.4398057049
 20
6.0610231916
 30
0.0
 10
11.4362271767
 20
6.060899248
 30
0.0
  0
SPLINE
  5
2CE
100
AcDbEntity
  8
0
100
AcDbSpline
 62
9
  6
CONTINUOUS
 70
0
 71
3
 72
21
 73
17
 74
0
 42
0.0000001
 43
0.0000001
 44
0.0000000001
 40
0.0
 40
0.0
 40
0.0
 40
0.0
 40
0.1310291857
 40
0.2581088845
 40
0.3202355613
 40
0.3815075573
 40
0.442072465
 40
0.5021112612
 40
0.5618682276
 40
0.6216436319
 40
0.681776075
 40
0.7426384654
 40
0.8045846481
 40
0.8679513081
 40
0.9330140635
 40
1.0
 40
1.0
 40
1.0
 40
1.0
 10
10.6584096086
 20
6.0608992535
 30
0.0
 10
10.6547152918
 20
6.0607722225
 30
0.0
 10
10.6474366003
 20
6.0605568151
 30
0.0
 10
10.6383963766
 20
6.0606852971
 30
0.0
 10
10.6313474373
 20
6.0612123649
 30
0.0
 10
10.6261946801
 20
6.0618522479
 30
0.0
 10
10.6211450889
 20
6.062780726
 30
0.0
 10
10.6162080372
 20
6.064028465
 30
0.0
 10
10.6113954812
 20
6.0656261607
 30
0.0
 10
10.6067207334
 20
6.067599372
 30
0.0
 10
10.602197728
 20
6.0699684158
 30
0.0
 10
10.5978423391
 20
6.0727490039
 30
0.0
 10
10.5936660678
 20
6.0759443192
 30
0.0
 10
10.589682088
 20
6.0795549518
 30
0.0
 10
10.5858970963
 20
6.0835702801
 30
0.0
 10
10.583547256
 20
6.0864657036
 30
0.0
 10
10.5824065525
 20
6.0879723499
 30
0.0
  0
SPLINE
  5
2CF
100
AcDbEntity
  8
0
100
AcDbSpline
 62
9
  6
CONTINUOUS
 70
0
 71
3
 72
13
 73
9
 74
0
 42
0.0000001
 43
0.0000001
 44
0.0000000001
 40
0.0
 40
0.0
 40
0.0
 40
0.0
 40
0.2488894722
 40
0.3743084549
 40
0.5
 40
0.6256915451
 40
0.7511105278
 40
1.0
 40
1.0
 40
1.0
 40
1.0
 10
10.1434051748
 20
6.1255052219
 30
0.0
 10
10.1382915644
 20
6.1523583371
 30
0.0
 10
10.1325507287
 20
6.1931482122
 30
0.0
 10
10.1287206047
 20
6.2479426794
 30
0.0
 10
10.1277586707
 20
6.2893318604
 30
0.0
 10
10.1287206047
 20
6.3307210414
 30
0.0
 10
10.1325507287
 20
6.3855155086
 30
0.0
 10
10.1382915644
 20
6.4263053836
 30
0.0
 10
10.1434051748
 20
6.4531584988
 30
0.0
  0
SPLINE
  5
2D0
100
AcDbEntity
  8
0
100
AcDbSpline
 62
9
  6
CONTINUOUS
 70
0
 71
3
 72
21
 73
17
 74
0
 42
0.0000001
 43
0.0000001
 44
0.0000000001
 40
0.0
 40
0.0
 40
0.0
 40
0.0
 40
0.1456530574
 40
0.2168008674
 40
0.2865639805
 40
0.4212574345
 40
0.4860691213
 40
0.5490905098
 40
0.6103244633
 40
0.6698241155
 40
0.7276954535
 40
0.784099061
 40
0.8392488002
 40
0.8934053812
 40
0.9468819172
 40
1.0
 40
1.0
 40
1.0
 40
1.0
 10
10.1434051748
 20
6.4531584988
 30
0.0
 10
10.1449573972
 20
6.4613096883
 30
0.0
 10
10.1479868707
 20
6.4733253627
 30
0.0
 10
10.1534683599
 20
6.4887125706
 30
0.0
 10
10.1596960351
 20
6.5031343775
 30
0.0
 10
10.1671972998
 20
6.5165871829
 30
0.0
 10
10.1759292065
 20
6.5287446104
 30
0.0
 10
10.1828963979
 20
6.5369750572
 30
0.0
 10
10.19031803
 20
6.5443762143
 30
0.0
 10
10.1981460264
 20
6.5508987507
 30
0.0
 10
10.2063290003
 20
6.5564980493
 30
0.0
 10
10.2148132118
 20
6.5611353042
 30
0.0
 10
10.2235421363
 20
6.5647774539
 30
0.0
 10
10.2324576788
 20
6.5673988218
 30
0.0
 10
10.2414972967
 20
6.5689791758
 30
0.0
 10
10.2475756208
 20
6.5693318604
 30
0.0
 10
10.2506016896
 20
6.5693318604
 30
0.0
  0
SPLINE
  5
2D1
100
AcDbEntity
  8
0
100
AcDbSpline
 62
9
  6
CONTINUOUS
 70
0
 71
3
 72
25
 73
21
 74
0
 42
0.0000001
 43
0.0000001
 44
0.0000000001
 40
0.0
 40
0.0
 40
0.0
 40
0.0
 40
0.1250206041
 40
0.2500412082
 40
0.3750618123
 40
0.4375721144
 40
0.5000824164
 40
0.5625927185
 40
0.6251030206
 40
0.6876133224
 40
0.7188684737
 40
0.7501236254
 40
0.7813787733
 40
0.8126339308
 40
0.8438890793
 40
0.8751442074
 40
0.9063989683
 40
0.9376467479
 40
0.9688638144
 40
1.0
 40
1.0
 40
1.0
 40
1.0
 10
10.6705359997
 20
6.4693318604
 30
0.0
 10
10.6705359997
 20
6.4579344513
 30
0.0
 10
10.6705359995
 20
6.4351396332
 30
0.0
 10
10.6705360005
 20
6.4009474059
 30
0.0
 10
10.6705359965
 20
6.3724538832
 30
0.0
 10
10.6705360025
 20
6.349659065
 30
0.0
 10
10.6705359978
 20
6.3325629514
 30
0.0
 10
10.6705359973
 20
6.3154668378
 30
0.0
 10
10.6705360171
 20
6.2983707242
 30
0.0
 10
10.6705359305
 20
6.2841239628
 30
0.0
 10
10.6705361214
 20
6.2727265536
 30
0.0
 10
10.6705363958
 20
6.2641784971
 30
0.0
 10
10.6705346849
 20
6.2556304396
 30
0.0
 10
10.6705360508
 20
6.2470823841
 30
0.0
 10
10.6705420566
 20
6.2385343248
 30
0.0
 10
10.6705244998
 20
6.229986322
 30
0.0
 10
10.6705602497
 20
6.2214389226
 30
0.0
 10
10.6707326884
 20
6.2128961033
 30
0.0
 10
10.6711355859
 20
6.2043712762
 30
0.0
 10
10.6716180055
 20
6.1987051713
 30
0.0
 10
10.671929291
 20
6.1958837846
 30
0.0
  0
SPLINE
  5
2D2
100
AcDbEntity
  8
0
100
AcDbSpline
 62
7
  6
CONTINUOUS
 70
0
 71
3
 72
15
 73
11
 74
0
 42
0.0000001
 43
0.0000001
 44
0.0000000001
 40
0.0
 40
0.0
 40
0.0
 40
0.0
 40
0.0986045779
 40
0.2010287785
 40
0.309197116
 40
0.4250162808
 40
0.5502901101
 40
0.6867475594
 40
0.8361351332
 40
1.0
 40
1.0
 40
1.0
 40
1.0
 10
10.6654806764
 20
6.5693318604
 30
0.0
 10
10.6663768079
 20
6.5693318604
 30
0.0
 10
10.6682052587
 20
6.5692260843
 30
0.0
 10
10.6709810074
 20
6.5687585289
 30
0.0
 10
10.673847278
 20
6.567977231
 30
0.0
 10
10.6768286441
 20
6.56687814
 30
0.0
 10
10.679954606
 20
6.5654572578
 30
0.0
 10
10.683259776
 20
6.56371132
 30
0.0
 10
10.6867852805
 20
6.5616420188
 30
0.0
 10
10.6891975011
 20
6.5601297124
 30
0.0
 10
10.6904549688
 20
6.5593318604
 30
0.0
  0
SPLINE
  5
2D3
100
AcDbEntity
  8
0
100
AcDbSpline
 62
7
  6
CONTINUOUS
 70
0
 71
3
 72
9
 73
5
 74
0
 42
0.0000001
 43
0.0000001
 44
0.0000000001
 40
0.0
 40
0.0
 40
0.0
 40
0.0
 40
0.2441071415
 40
1.0
 40
1.0
 40
1.0
 40
1.0
 10
10.6904549688
 20
6.5593318604
 30
0.0
 10
10.691568624
 20
6.5586252561
 30
0.0
 10
10.696054109
 20
6.5556107443
 30
0.0
 10
10.7002257576
 20
6.5521353373
 30
0.0
 10
10.7031773024
 20
6.5493125574
 30
0.0
  0
SPLINE
  5
2D4
100
AcDbEntity
  8
0
100
AcDbSpline
 62
9
  6
CONTINUOUS
 70
0
 71
3
 72
29
 73
25
 74
0
 42
0.0000001
 43
0.0000001
 44
0.0000000001
 40
0.0
 40
0.0
 40
0.0
 40
0.0
 40
0.0867772458
 40
0.1319595233
 40
0.178509873
 40
0.2266835243
 40
0.2768457339
 40
0.3028326239
 40
0.3295174444
 40
0.385265533
 40
0.4446875917
 40
0.4760065112
 40
0.5085367544
 40
0.5423598628
 40
0.577536936
 40
0.6521424005
 40
0.6916508141
 40
0.7325718861
 40
0.7747819645
 40
0.8181706809
 40
0.8626419212
 40
0.907976642
 40
0.9538664432
 40
1.0
 40
1.0
 40
1.0
 40
1.0
 10
10.7031773024
 20
6.5493125574
 30
0.0
 10
10.7011149682
 20
6.5477220468
 30
0.0
 10
10.6980485506
 20
6.5452081461
 30
0.0
 10
10.6941351863
 20
6.5415464436
 30
0.0
 10
10.6912192868
 20
6.5385220892
 30
0.0
 10
10.6883841802
 20
6.5352216102
 30
0.0
 10
10.6861401453
 20
6.5322364386
 30
0.0
 10
10.6844229203
 20
6.5296712041
 30
0.0
 10
10.6827161265
 20
6.5268999533
 30
0.0
 10
10.6806860641
 20
6.5231536376
 30
0.0
 10
10.6788471685
 20
6.5191563491
 30
0.0
 10
10.6774788053
 20
6.5157182289
 30
0.0
 10
10.676496479
 20
6.5129556066
 30
0.0
 10
10.6755783346
 20
6.5100493702
 30
0.0
 10
10.6744170607
 20
6.5058982071
 30
0.0
 10
10.6734176798
 20
6.5015266877
 30
0.0
 10
10.6725997221
 20
6.4969455951
 30
0.0
 10
10.6720547096
 20
6.4933050292
 30
0.0
 10
10.6715735196
 20
6.489538199
 30
0.0
 10
10.6711693081
 20
6.4856549432
 30
0.0
 10
10.6708757209
 20
6.4816676336
 30
0.0
 10
10.6706821562
 20
6.4775993399
 30
0.0
 10
10.6705630419
 20
6.4734783855
 30
0.0
 10
10.6705356766
 20
6.4707164474
 30
0.0
 10
10.6705359997
 20
6.4693318604
 30
0.0
  0
SPLINE
  5
2D5
100
AcDbEntity
  8
0
100
AcDbSpline
 62
9
  6
CONTINUOUS
 70
0
 71
3
 72
21
 73
17
 74
0
 42
0.0000001
 43
0.0000001
 44
0.0000000001
 40
0.0
 40
0.0
 40
0.0
 40
0.0
 40
0.1448802627
 40
0.2164980586
 40
0.2871073192
 40
0.4240294538
 40
0.4899664626
 40
0.5539479362
 40
0.6158721103
 40
0.6757098471
 40
0.7335132548
 40
0.7894224085
 40
0.8436693852
 40
0.8965711248
 40
0.9485328437
 40
1.0
 40
1.0
 40
1.0
 40
1.0
 10
10.3213123678
 20
6.4693318604
 30
0.0
 10
10.3213123676
 20
6.475850704
 30
0.0
 10
10.3206396775
 20
6.4856104255
 30
0.0
 10
10.3183901619
 20
6.4983401167
 30
0.0
 10
10.3153150906
 20
6.5105264714
 30
0.0
 10
10.3109847824
 20
6.5221079798
 30
0.0
 10
10.3054159754
 20
6.5327581235
 30
0.0
 10
10.3007622111
 20
6.5400422809
 30
0.0
 10
10.2956243131
 20
6.5466498429
 30
0.0
 10
10.2900497877
 20
6.5525176676
 30
0.0
 10
10.2840906417
 20
6.557588313
 30
0.0
 10
10.2778025436
 20
6.5618115383
 30
0.0
 10
10.2712450611
 20
6.5651441196
 30
0.0
 10
10.2644806469
 20
6.5675515111
 30
0.0
 10
10.2575775304
 20
6.5690065906
 30
0.0
 10
10.2529174388
 20
6.5693318604
 30
0.0
 10
10.2506016897
 20
6.5693318604
 30
0.0
  0
SPLINE
  5
2D6
100
AcDbEntity
  8
0
100
AcDbSpline
 62
9
  6
CONTINUOUS
 70
0
 71
3
 72
18
 73
14
 74
0
 42
0.0000001
 43
0.0000001
 44
0.0000000001
 40
0.0
 40
0.0
 40
0.0
 40
0.0
 40
0.053124552
 40
0.1066258758
 40
0.1608007116
 40
0.2159637525
 40
0.2723847987
 40
0.3302741487
 40
0.4509234274
 40
0.5786928858
 40
0.7134285522
 40
0.8543038634
 40
1.0
 40
1.0
 40
1.0
 40
1.0
 10
10.3213123678
 20
6.4693318604
 30
0.0
 10
10.3202139254
 20
6.4693318604
 30
0.0
 10
10.3180071747
 20
6.4692036286
 30
0.0
 10
10.3147251988
 20
6.4686301781
 30
0.0
 10
10.3114881803
 20
6.4676783745
 30
0.0
 10
10.3083191763
 20
6.4663559782
 30
0.0
 10
10.305238799
 20
6.464672379
 30
0.0
 10
10.3012236578
 20
6.4619251618
 30
0.0
 10
10.2965351303
 20
6.4576113824
 30
0.0
 10
10.2916666081
 20
6.4513211663
 30
0.0
 10
10.2875908884
 20
6.4440111776
 30
0.0
 10
10.2844102848
 20
6.435876011
 30
0.0
 10
10.282957432
 20
6.4301136114
 30
0.0
 10
10.2823938879
 20
6.4271542706
 30
0.0
  0
SPLINE
  5
2D7
100
AcDbEntity
  8
0
100
AcDbSpline
 62
9
  6
CONTINUOUS
 70
0
 71
3
 72
22
 73
18
 74
0
 42
0.0000001
 43
0.0000001
 44
0.0000000001
 40
0.0
 40
0.0
 40
0.0
 40
0.0
 40
0.0526837498
 40
0.1093987943
 40
0.1696285931
 40
0.2328349577
 40
0.2984358577
 40
0.3658267915
 40
0.5034612566
 40
0.5724306433
 40
0.6406439172
 40
0.7074675429
 40
0.7722827363
 40
0.8344935248
 40
0.8935290194
 40
0.9488644185
 40
1.0
 40
1.0
 40
1.0
 40
1.0
 10
10.2823938879
 20
6.4271542706
 30
0.0
 10
10.2800637554
 20
6.4280417199
 30
0.0
 10
10.2751928239
 20
6.429800133
 30
0.0
 10
10.2675663622
 20
6.432310535
 30
0.0
 10
10.2594028436
 20
6.4347735456
 30
0.0
 10
10.2507810332
 20
6.4371652159
 30
0.0
 10
10.2417833592
 20
6.4394623913
 30
0.0
 10
10.2293135969
 20
6.4423896817
 30
0.0
 10
10.2166082917
 20
6.4450017151
 30
0.0
 10
10.203802202
 20
6.4472790487
 30
0.0
 10
10.1942663324
 20
6.4487959602
 30
0.0
 10
10.1848983843
 20
6.4501062477
 30
0.0
 10
10.1757883695
 20
6.4511973774
 30
0.0
 10
10.1670240255
 20
6.4520590169
 30
0.0
 10
10.1586892783
 20
6.4526833053
 30
0.0
 10
10.1508645725
 20
6.4530644152
 30
0.0
 10
10.1458253114
 20
6.4531584989
 30
0.0
 10
10.1434051748
 20
6.4531584989
 30
0.0
  0
SPLINE
  5
2D8
100
AcDbEntity
  8
0
100
AcDbSpline
 62
9
  6
CONTINUOUS
 70
0
 71
3
 72
13
 73
9
 74
0
 42
0.0000001
 43
0.0000001
 44
0.0000000001
 40
0.0
 40
0.0
 40
0.0
 40
0.0
 40
0.2488892692
 40
0.374308339
 40
0.5000000003
 40
0.6256916616
 40
0.7511107313
 40
1.0
 40
1.0
 40
1.0
 40
1.0
 10
10.2823938879
 20
6.4271542706
 30
0.0
 10
10.2780919652
 20
6.404563573
 30
0.0
 10
10.2732623738
 20
6.3702482922
 30
0.0
 10
10.2700402026
 20
6.3241513596
 30
0.0
 10
10.269230956
 20
6.2893318603
 30
0.0
 10
10.2700402026
 20
6.2545123611
 30
0.0
 10
10.2732623738
 20
6.2084154285
 30
0.0
 10
10.2780919652
 20
6.1741001478
 30
0.0
 10
10.2823938879
 20
6.1515094503
 30
0.0
  0
SPLINE
  5
2D9
100
AcDbEntity
  8
0
100
AcDbSpline
 62
9
  6
CONTINUOUS
 70
0
 71
3
 72
22
 73
18
 74
0
 42
0.0000001
 43
0.0000001
 44
0.0000000001
 40
0.0
 40
0.0
 40
0.0
 40
0.0
 40
0.0526837501
 40
0.1093987948
 40
0.1696285936
 40
0.2328349582
 40
0.2984358581
 40
0.3658267918
 40
0.5034612566
 40
0.5724306431
 40
0.6406439168
 40
0.7074675425
 40
0.7722827358
 40
0.8344935243
 40
0.893529019
 40
0.9488644183
 40
1.0
 40
1.0
 40
1.0
 40
1.0
 10
10.2823938879
 20
6.1515094503
 30
0.0
 10
10.2800637554
 20
6.1506220008
 30
0.0
 10
10.275192824
 20
6.1488635875
 30
0.0
 10
10.2675663623
 20
6.1463531851
 30
0.0
 10
10.2594028438
 20
6.1438901742
 30
0.0
 10
10.2507810334
 20
6.1414985037
 30
0.0
 10
10.2417833594
 20
6.1392013281
 30
0.0
 10
10.2293135972
 20
6.1362740376
 30
0.0
 10
10.2166082921
 20
6.1336620041
 30
0.0
 10
10.2038022023
 20
6.1313846706
 30
0.0
 10
10.1942663327
 20
6.1298677592
 30
0.0
 10
10.1848983845
 20
6.1285574718
 30
0.0
 10
10.1757883697
 20
6.1274663423
 30
0.0
 10
10.1670240257
 20
6.126604703
 30
0.0
 10
10.1586892784
 20
6.1259804149
 30
0.0
 10
10.1508645726
 20
6.1255993053
 30
0.0
 10
10.1458253114
 20
6.1255052218
 30
0.0
 10
10.1434051748
 20
6.1255052219
 30
0.0
  0
SPLINE
  5
2DA
100
AcDbEntity
  8
0
100
AcDbSpline
 62
9
  6
CONTINUOUS
 70
0
 71
3
 72
20
 73
16
 74
0
 42
0.0000001
 43
0.0000001
 44
0.0000000001
 40
0.0
 40
0.0
 40
0.0
 40
0.0
 40
0.1479307936
 40
0.2900742318
 40
0.4248295482
 40
0.4892129692
 40
0.5515341159
 40
0.611861021
 40
0.6703423927
 40
0.7272071811
 40
0.782761942
 40
0.8373783436
 40
0.8914840724
 40
0.9455508081
 40
1.0
 40
1.0
 40
1.0
 40
1.0
 10
10.2823938879
 20
6.1515094503
 30
0.0
 10
10.2830312554
 20
6.1481624404
 30
0.0
 10
10.2847205568
 20
6.1416720505
 30
0.0
 10
10.2885273635
 20
6.1326218125
 30
0.0
 10
10.2926969835
 20
6.1259094334
 30
0.0
 10
10.2965413005
 20
6.1212643728
 30
0.0
 10
10.2995955981
 20
6.1182165592
 30
0.0
 10
10.3028385178
 20
6.1155800854
 30
0.0
 10
10.3062427743
 20
6.1133777114
 30
0.0
 10
10.3097797415
 20
6.1116295336
 30
0.0
 10
10.3134191655
 20
6.110352165
 30
0.0
 10
10.3171289691
 20
6.1095572044
 30
0.0
 10
10.3208769034
 20
6.1092530477
 30
0.0
 10
10.3246279002
 20
6.1094429489
 30
0.0
 10
10.3270944554
 20
6.1098943881
 30
0.0
 10
10.3283112726
 20
6.1101978185
 30
0.0
  0
SPLINE
  5
2DB
100
AcDbEntity
  8
0
100
AcDbSpline
 62
9
  6
CONTINUOUS
 70
0
 71
3
 72
22
 73
18
 74
0
 42
0.0000001
 43
0.0000001
 44
0.0000000001
 40
0.0
 40
0.0
 40
0.0
 40
0.0
 40
0.0805787262
 40
0.1600119358
 40
0.3134737948
 40
0.3866926483
 40
0.4570100601
 40
0.5240886442
 40
0.5876727337
 40
0.6476103414
 40
0.7039228647
 40
0.7568763539
 40
0.8070608765
 40
0.8553030128
 40
0.9026659398
 40
0.9504314117
 40
1.0
 40
1.0
 40
1.0
 40
1.0
 10
10.671929291
 20
6.1958837846
 30
0.0
 10
10.6721988859
 20
6.1929830254
 30
0.0
 10
10.6726245143
 20
6.1872114272
 30
0.0
 10
10.6729622647
 20
6.175880737
 30
0.0
 10
10.6725075371
 20
6.1647999571
 30
0.0
 10
10.6712042891
 20
6.1541371764
 30
0.0
 10
10.669858986
 20
6.1466378858
 30
0.0
 10
10.668148343
 20
6.1395709894
 30
0.0
 10
10.6660889431
 20
6.1329891838
 30
0.0
 10
10.6636983439
 20
6.1269358907
 30
0.0
 10
10.6609833439
 20
6.1214449374
 30
0.0
 10
10.6579348674
 20
6.1165395759
 30
0.0
 10
10.6545235582
 20
6.1122419194
 30
0.0
 10
10.6507180297
 20
6.1085701539
 30
0.0
 10
10.6464843192
 20
6.1055446967
 30
0.0
 10
10.6417914841
 20
6.1031873986
 30
0.0
 10
10.6384288535
 20
6.1021005292
 30
0.0
 10
10.6366900037
 20
6.1016668576
 30
0.0
  0
SPLINE
  5
2DC
100
AcDbEntity
  8
0
100
AcDbSpline
 62
9
  6
CONTINUOUS
 70
0
 71
3
 72
21
 73
17
 74
0
 42
0.0000001
 43
0.0000001
 44
0.0000000001
 40
0.0
 40
0.0
 40
0.0
 40
0.0
 40
0.1466142572
 40
0.2184225438
 40
0.2888898402
 40
0.4248963283
 40
0.4902195395
 40
0.5535950754
 40
0.6743066749
 40
0.731895791
 40
0.7600521059
 40
0.7878111899
 40
0.8422433438
 40
0.8955103589
 40
0.9479650637
 40
1.0
 40
1.0
 40
1.0
 40
1.0
 10
10.3283112726
 20
6.1101978185
 30
0.0
 10
10.3290192007
 20
6.1045199492
 30
0.0
 10
10.3295590727
 20
6.0959829765
 30
0.0
 10
10.329172826
 20
6.0847086639
 30
0.0
 10
10.3280762483
 20
6.0738978166
 30
0.0
 10
10.325917226
 20
6.0634667084
 30
0.0
 10
10.3226542982
 20
6.053654207
 30
0.0
 10
10.3188363199
 20
6.0446926296
 30
0.0
 10
10.314026513
 20
6.036504329
 30
0.0
 10
10.3089400089
 20
6.0302385637
 30
0.0
 10
10.3058817515
 20
6.0270310669
 30
0.0
 10
10.3027440684
 20
6.0240788595
 30
0.0
 10
10.2985963146
 20
6.0207812303
 30
0.0
 10
10.293269148
 20
6.017483773
 30
0.0
 10
10.2876653049
 20
6.0148979172
 30
0.0
 10
10.2837664708
 20
6.0136604215
 30
0.0
 10
10.2817960739
 20
6.0131690625
 30
0.0
  0
ENDSEC
  0
SECTION
  2
OBJECTS
  0
DICTIONARY
  5
C
100
AcDbDictionary
280
0
281
1
  3
ACAD_GROUP
350
D
  3
ACAD_MLINESTYLE
350
17
  3
ACAD_LAYOUT
350
1A
  3
ACAD_PLOTSETTINGS
350
19
  3
ACAD_PLOTSTYLENAME
350
E
  0
DICTIONARY
  5
D
102
{ACAD_REACTORS
330
C
102
}
100
AcDbDictionary
280
0
281
1
  0
ACDBDICTIONARYWDFLT
  5
E
102
{ACAD_REACTORS
330
C
102
}
100
AcDbDictionary
281
1
  3
Normal
350
F
100
AcDbDictionaryWithDefault
340
F
  0
DICTIONARY
  5
17
102
{ACAD_REACTORS
330
C
102
}
100
AcDbDictionary
280
0
281
1
  3
Standard
350
18
  0
DICTIONARY
  5
19
102
{ACAD_REACTORS
330
C
102
}
100
AcDbDictionary
281
1
  0
DICTIONARY
  5
1A
102
{ACAD_REACTORS
330
C
102
}
100
AcDbDictionary
281
1
  3
Model
350
2DD
  3
Layout1
350
2DE
  0
ACDBPLACEHOLDER
  5
F
102
{ACAD_REACTORS
330
E
102
}
  0
MLINESTYLE
  5
18
102
{ACAD_REACTORS
330
17
102
}
100
AcDbMlineStyle
  2
STANDARD
 70
0
  3

 62
256
 51
90.0
 52
90.0
 71
2
 49
0.5
 62
256
  6
BYLAYER
 49
-0.5
 62
256
  6
BYLAYER
  0
LAYOUT
  5
2DD
102
{ACAD_REACTORS
330
1A
102
}
100
AcDbPlotSettings
  1

  2
none_device
  4
ANSI_C_(22.00_x_17.00_Inches)
  6

 40
0.0
 41
0.0
 42
0.0
 43
0.0
 44
558.8
 45
431.8
 46
0.0
 47
0.0
 48
0.0
 49
0.0
140
0.0
141
0.0
142
1.0
143
1.0
 70
1024
 72
0
 73
0
 74
0
  7

 75
0
147
1.0
148
0.0
149
0.0
100
AcDbLayout
  1
Model
 70
0
 71
0
 10
0.0
 20
0.0
 11
22.0
 21
17.0
 12
0.0
 22
0.0
 32
0.0
 14
0.0
 24
0.0
 34
0.0
 15
0.0
 25
0.0
 35
0.0
146
0.0
 13
0.0
 23
0.0
 33
0.0
 16
1.0
 26
0.0
 36
0.0
 17
0.0
 27
1.0
 37
0.0
 76
0
330
205
345
0
346
0
  0
LAYOUT
  5
2DE
102
{ACAD_REACTORS
330
1A
102
}
100
AcDbPlotSettings
  1

  2
none_device
  4
ANSI_C_(22.00_x_17.00_Inches)
  6

 40
0.0
 41
0.0
 42
0.0
 43
0.0
 44
558.8
 45
431.8
 46
0.0
 47
0.0
 48
0.0
 49
0.0
140
0.0
141
0.0
142
1.0
143
1.0
 70
0
 72
0
 73
0
 74
0
  7

 75
0
147
1.0
148
0.0
149
0.0
100
AcDbLayout
  1
Layout1
 70
0
 71
1
 10
0.0
 20
0.0
 11
22.0
 21
17.0
 12
0.0
 22
0.0
 32
0.0
 14
0.0
 24
0.0
 34
0.0
 15
0.0
 25
0.0
 35
0.0
146
0.0
 13
0.0
 23
0.0
 33
0.0
 16
1.0
 26
0.0
 36
0.0
 17
0.0
 27
1.0
 37
0.0
 76
0
330
206
345
0
346
0
  0
ENDSEC
  0
EOF
