999
DXF file: E:\BT Custom\CADOUTPUT\_RIGHT.dxf
999
Pro/ENGINEER 2018400 by Parametric Technology Corporation
  0
SECTION
  2
HEADER
  9
$ACADVER
  1
AC1018
  9
$DWGCODEPAGE
  3
ANSI_1252
  9
$EXTMAX
 10
22.0
 20
17.0
 30
0.0
  9
$EXTMIN
 10
0.0
 20
0.0
 30
0.0
  9
$LIMMIN
 10
0.0
 20
0.0
  9
$LIMMAX
 10
22.0
 20
17.0
  9
$VIEWCTR
 10
11.0
 20
8.5
  9
$VIEWSIZE
 40
17.0
  9
$CLAYER
  8
0
  9
$LTSCALE
 40
1.21
  9
$CELTYPE
  6
BYLAYER
  9
$DIMSCALE
 40
1.0
  9
$DIMASZ
 40
0.1
  9
$DIMEXO
 40
0.0625
  9
$DIMDLI
 40
0.836
  9
$DIMEXE
 40
0.125
  9
$DIMCEN
 40
0.198
  9
$DIMLFAC
 40
1.0
  9
$DIMBLK
  1
_FILLED
  9
$DIMALT
 70
1
  9
$DIMALTD
 70
2
  9
$DIMALTTD
 70
2
  9
$DIMALTF
 40
25.4
  9
$DIMTXT
 40
0.08
  9
$DIMTOL
 70
1
  9
$DIMLIM
 70
0
  9
$DIMTFAC
 40
1.0
  9
$DIMTP
 40
0.001
  9
$DIMTM
 40
0.001
  9
$DIMGAP
 40
0.09
  9
$DIMDSEP
 70
46
  9
$AUNITS
 70
0
  9
$PDMODE
 70
3
  9
$PDSIZE
 40
0.06
  9
$HANDSEED
  5
2AE
  9
$TILEMODE
 70
1
  9
$MEASUREMENT
 70
0
  9
$INSUNITS
 70
1
  0
ENDSEC
  0
SECTION
  2
CLASSES
  0
CLASS
  1
ACDBDICTIONARYWDFLT
  2
AcDbDictionaryWithDefault
  3
AutoCAD 2000
 90
0
 91
1
280
0
281
0
  0
CLASS
  1
ACDBPLACEHOLDER
  2
AcDbPlaceHolder
  3
AutoCAD 2000
 90
0
 91
1
280
0
281
0
  0
CLASS
  1
LAYOUT
  2
AcDbLayout
  3
AutoCAD 2000
 90
0
 91
0
280
0
281
0
  0
ENDSEC
  0
SECTION
  2
TABLES
  0
TABLE
  2
VPORT
  5
8
100
AcDbSymbolTable
 70
2
  0
VPORT
  5
1F4
100
AcDbSymbolTableRecord
100
AcDbViewportTableRecord
  2
*ACTIVE
 70
0
 10
0.0
 20
0.0
 11
1.0
 21
1.0
 12
11.0
 22
8.5
 13
0.0
 23
0.0
 14
1.0
 24
1.0
 15
0.0
 25
0.0
 16
0.0
 26
0.0
 36
1.0
 17
0.0
 27
0.0
 37
0.0
 40
17.0
 41
1.2941176471
 42
50.0
 43
0.0
 44
0.0
 50
0.0
 51
0.0
 71
0
 72
100
 73
1
 74
1
 75
0
 76
0
 77
0
 78
0
  0
ENDTAB
  0
TABLE
  2
LTYPE
  5
5
100
AcDbSymbolTable
 70
6
  0
LTYPE
  5
14
100
AcDbSymbolTableRecord
100
AcDbLinetypeTableRecord
  2
BYBLOCK
 70
0
  3

 72
65
 73
0
 40
0.0
  0
LTYPE
  5
15
100
AcDbSymbolTableRecord
100
AcDbLinetypeTableRecord
  2
BYLAYER
 70
0
  3

 72
65
 73
0
 40
0.0
  0
LTYPE
  5
16
100
AcDbSymbolTableRecord
100
AcDbLinetypeTableRecord
  2
CONTINUOUS
 70
64
  3
Solid line
 72
65
 73
0
 40
0.0
  0
LTYPE
  5
1F5
100
AcDbSymbolTableRecord
100
AcDbLinetypeTableRecord
  2
CENTER
 70
64
  3
____ _ ____ _ ____ _ ____ _ ____ _ ____ _ ____
 72
65
 73
4
 40
0.6
 49
0.375
 74
0
 49
-0.075
 74
0
 49
0.075
 74
0
 49
-0.075
 74
0
  0
LTYPE
  5
1F6
100
AcDbSymbolTableRecord
100
AcDbLinetypeTableRecord
  2
HIDDEN
 70
64
  3
- - - - - - - - - - - - - - - - - - - -
 72
65
 73
2
 40
0.2
 49
0.1
 74
0
 49
-0.1
 74
0
  0
LTYPE
  5
1F7
100
AcDbSymbolTableRecord
100
AcDbLinetypeTableRecord
  2
PHANTOM
 70
64
  3
_____ _ _ _____ _ _ _____ _ _ _____
 72
65
 73
6
 40
0.8
 49
0.45
 74
0
 49
-0.05
 74
0
 49
0.1
 74
0
 49
-0.05
 74
0
 49
0.1
 74
0
 49
-0.05
 74
0
  0
LTYPE
  5
1F8
100
AcDbSymbolTableRecord
100
AcDbLinetypeTableRecord
  2
DOT
 70
64
  3
. . . . . . . . . . . . . . . . . . . .
 72
65
 73
2
 40
0.2
 49
0.1
 74
0
 49
-0.1
 74
0
  0
LTYPE
  5
1F9
100
AcDbSymbolTableRecord
100
AcDbLinetypeTableRecord
  2
DASHED
 70
64
  3
- - - - - - - - - - - - - - - - - - - -
 72
65
 73
2
 40
0.2
 49
0.1
 74
0
 49
-0.1
 74
0
  0
ENDTAB
  0
TABLE
  2
LAYER
  5
2
100
AcDbSymbolTable
 70
36
  0
LAYER
  5
10
100
AcDbSymbolTableRecord
100
AcDbLayerTableRecord
  2
0
 70
0
 62
7
  6
CONTINUOUS
370
-3
390
F
  0
LAYER
  5
1FA
100
AcDbSymbolTableRecord
100
AcDbLayerTableRecord
  2
DEFAULT_1
 70
0
 62
7
  6
CENTER
370
-3
390
F
  0
LAYER
  5
1FB
100
AcDbSymbolTableRecord
100
AcDbLayerTableRecord
  2
DEFAULT_2
 70
0
 62
8
  6
HIDDEN
370
-3
390
F
  0
LAYER
  5
1FC
100
AcDbSymbolTableRecord
100
AcDbLayerTableRecord
  2
DEFAULT_3
 70
0
 62
7
  6
PHANTOM
370
-3
390
F
  0
LAYER
  5
1FD
100
AcDbSymbolTableRecord
100
AcDbLayerTableRecord
  2
ALL_FEATURES
 70
0
 62
7
  6
CONTINUOUS
370
-3
390
F
  0
LAYER
  5
1FE
100
AcDbSymbolTableRecord
100
AcDbLayerTableRecord
  2
AXES_FEATURES
 70
0
 62
7
  6
CONTINUOUS
370
-3
390
F
  0
LAYER
  5
1FF
100
AcDbSymbolTableRecord
100
AcDbLayerTableRecord
  2
DEFAULT_COORDINATE_SYSTEM
 70
0
 62
7
  6
CONTINUOUS
370
-3
390
F
  0
LAYER
  5
200
100
AcDbSymbolTableRecord
100
AcDbLayerTableRecord
  2
DEFAULT_DATUM_AXES
 70
0
 62
7
  6
CONTINUOUS
370
-3
390
F
  0
LAYER
  5
201
100
AcDbSymbolTableRecord
100
AcDbLayerTableRecord
  2
DEFAULT_DATUM_PLANES
 70
0
 62
7
  6
CONTINUOUS
370
-3
390
F
  0
LAYER
  5
202
100
AcDbSymbolTableRecord
100
AcDbLayerTableRecord
  2
DIMENSIONS
 70
0
 62
7
  6
CONTINUOUS
370
-3
390
F
  0
ENDTAB
  0
TABLE
  2
STYLE
  5
3
100
AcDbSymbolTable
 70
1
  0
STYLE
  5
11
100
AcDbSymbolTableRecord
100
AcDbTextStyleTableRecord
  2
STANDARD
 70
0
 40
0.0
 41
0.8
 50
0.0
 71
0
 42
0.2
  3
txt
  4

  0
STYLE
  5
203
100
AcDbSymbolTableRecord
100
AcDbTextStyleTableRecord
  2
TEXTSTYLE_1
 70
0
 40
0.0
 41
0.8
 50
0.0
 71
0
 42
0.2
  3
gdt
  4

  0
ENDTAB
  0
TABLE
  2
VIEW
  5
6
100
AcDbSymbolTable
 70
0
  0
ENDTAB
  0
TABLE
  2
UCS
  5
7
100
AcDbSymbolTable
 70
0
  0
ENDTAB
  0
TABLE
  2
APPID
  5
9
100
AcDbSymbolTable
 70
1
  0
APPID
  5
204
100
AcDbSymbolTableRecord
100
AcDbRegAppTableRecord
  2
ACAD
 70
0
  0
ENDTAB
  0
TABLE
  2
BLOCK_RECORD
  5
1
100
AcDbSymbolTable
 70
0
  0
BLOCK_RECORD
  5
205
100
AcDbSymbolTableRecord
100
AcDbBlockTableRecord
  2
*Model_Space
  0
BLOCK_RECORD
  5
206
100
AcDbSymbolTableRecord
100
AcDbBlockTableRecord
  2
*Paper_Space
  0
BLOCK_RECORD
  5
207
100
AcDbSymbolTableRecord
100
AcDbBlockTableRecord
  2
_FILLED
  0
ENDTAB
  0
TABLE
  2
DIMSTYLE
  5
A
100
AcDbSymbolTable
 70
1
100
AcDbDimStyleTable
 71
0
  0
DIMSTYLE
105
208
100
AcDbSymbolTableRecord
100
AcDbDimStyleTableRecord
  2
STANDARD
 70
0
  3

  4

 40
1.0
 41
0.1
 42
0.0625
 43
0.38
 44
0.125
 45
0.0
 46
0.0
 47
0.001
 48
0.001
140
0.08
141
0.09
142
0.0
143
25.4
144
1.0
145
0.0
146
1.0
147
0.09
 71
1.0
 72
0.0
 73
1
 74
1
 75
0
 76
0
 77
0
 78
4
 79
1
170
1
171
2
172
0
173
0
174
0
175
0
176
0
177
0
178
0
270
2
179
3
271
3
272
3
273
2
274
2
275
0
280
0
281
0
282
0
283
1
284
4
285
0
286
0
287
3
288
0
340
11
278
46
341
207
342
207
343
207
344
207
  0
ENDTAB
  0
ENDSEC
  0
SECTION
  2
BLOCKS
  0
BLOCK
  5
20
100
AcDbEntity
  8
0
100
AcDbBlockBegin
  2
*Model_Space
 70
0
 10
0.0
 20
0.0
 30
0.0
  3
*Model_Space
  1

  0
ENDBLK
  5
21
100
AcDbEntity
  8
0
100
AcDbBlockEnd
  0
BLOCK
  5
1C
100
AcDbEntity
  8
0
100
AcDbBlockBegin
  2
*Paper_Space
 70
0
 10
0.0
 20
0.0
 30
0.0
  3
*Paper_Space
  1

  0
ENDBLK
  5
1D
100
AcDbEntity
  8
0
100
AcDbBlockEnd
  0
BLOCK
  5
209
100
AcDbEntity
  8
0
100
AcDbBlockBegin
  2
_FILLED
 70
64
 10
0.0
 20
0.0
  3
_FILLED
  1

  0
SOLID
  5
20A
100
AcDbEntity
  8
0
  6
BYBLOCK
 62
0
100
AcDbTrace
 10
0.0
 20
0.0
 11
-1.0
 21
0.2
 12
-1.0
 22
-0.2
 13
-1.0
 23
-0.2
  0
ENDBLK
  5
20B
100
AcDbEntity
  8
0
  6
BYBLOCK
 62
0
100
AcDbBlockEnd
  0
ENDSEC
  0
SECTION
  2
ENTITIES
  0
LINE
  5
20C
100
AcDbEntity
  8
0
100
AcDbLine
 62
7
  6
CONTINUOUS
 10
9.1014834891
 20
5.753391804
 11
9.1214834891
 21
5.733391804
  0
LINE
  5
20D
100
AcDbEntity
  8
0
100
AcDbLine
 62
7
  6
CONTINUOUS
 10
9.6444834891
 20
5.733391804
 11
9.1214834891
 21
5.733391804
  0
LINE
  5
20E
100
AcDbEntity
  8
0
100
AcDbLine
 62
7
  6
CONTINUOUS
 10
9.1014834891
 20
5.753391804
 11
9.6644834891
 21
5.753391804
  0
LINE
  5
20F
100
AcDbEntity
  8
0
100
AcDbLine
 62
7
  6
CONTINUOUS
 10
9.1014834891
 20
5.833391804
 11
9.6644834891
 21
5.833391804
  0
LINE
  5
210
100
AcDbEntity
  8
0
100
AcDbLine
 62
9
  6
CONTINUOUS
 10
8.9331741959
 20
8.6147471475
 11
8.9331741959
 21
9.4050364606
  0
LINE
  5
211
100
AcDbEntity
  8
0
100
AcDbLine
 62
7
  6
CONTINUOUS
 10
8.9569834891
 20
8.5553825563
 11
8.9569834891
 21
9.4644010518
  0
LINE
  5
212
100
AcDbEntity
  8
0
100
AcDbLine
 62
7
  6
CONTINUOUS
 10
8.9734798132
 20
8.5046113828
 11
8.9734798132
 21
9.5151722253
  0
LINE
  5
213
100
AcDbEntity
  8
0
100
AcDbLine
 62
7
  6
CONTINUOUS
 10
8.995699392
 20
8.482391804
 11
8.995699392
 21
9.537391804
  0
LINE
  5
214
100
AcDbEntity
  8
0
100
AcDbLine
 62
7
  6
CONTINUOUS
 10
8.9569834891
 20
9.4644017602
 11
8.9734798132
 21
9.5151722253
  0
LINE
  5
215
100
AcDbEntity
  8
0
100
AcDbLine
 62
7
  6
CONTINUOUS
 10
8.9569834891
 20
8.5553818479
 11
8.9734798132
 21
8.5046113828
  0
LINE
  5
216
100
AcDbEntity
  8
0
100
AcDbLine
 62
7
  6
CONTINUOUS
 10
9.0669834891
 20
8.482391804
 11
9.0669834891
 21
9.537391804
  0
LINE
  5
217
100
AcDbEntity
  8
0
100
AcDbLine
 62
7
  6
CONTINUOUS
 10
9.0819834891
 20
8.508391804
 11
9.0819834891
 21
9.511391804
  0
LINE
  5
218
100
AcDbEntity
  8
0
100
AcDbLine
 62
7
  6
CONTINUOUS
 10
9.0979834891
 20
8.4806994888
 11
9.0979834891
 21
9.5390841193
  0
LINE
  5
219
100
AcDbEntity
  8
0
100
AcDbLine
 62
7
  6
CONTINUOUS
 10
9.1014834891
 20
5.753391804
 11
9.1014834891
 21
5.833391804
  0
LINE
  5
21A
100
AcDbEntity
  8
0
100
AcDbLine
 62
7
  6
CONTINUOUS
 10
9.1014834891
 20
8.122391804
 11
9.1014834891
 21
8.227391804
  0
LINE
  5
21B
100
AcDbEntity
  8
0
100
AcDbLine
 62
7
  6
CONTINUOUS
 10
9.1779834891
 20
8.452391804
 11
9.1779834891
 21
9.567391804
  0
LINE
  5
21C
100
AcDbEntity
  8
0
100
AcDbLine
 62
7
  6
CONTINUOUS
 10
9.1859834891
 20
8.427391804
 11
9.1859834891
 21
8.4552799048
  0
LINE
  5
21D
100
AcDbEntity
  8
0
100
AcDbLine
 62
7
  6
CONTINUOUS
 10
9.0819834891
 20
9.511391804
 11
9.0979834891
 21
9.5390841193
  0
LINE
  5
21E
100
AcDbEntity
  8
0
100
AcDbLine
 62
7
  6
CONTINUOUS
 10
9.5880202099
 20
9.9193535464
 11
9.5537208465
 21
9.8701874764
  0
LINE
  5
21F
100
AcDbEntity
  8
0
100
AcDbLine
 62
7
  6
CONTINUOUS
 10
8.9734798132
 20
9.5151722253
 11
8.995699392
 21
9.537391804
  0
LINE
  5
220
100
AcDbEntity
  8
0
100
AcDbLine
 62
7
  6
CONTINUOUS
 10
8.9734798132
 20
8.5046113828
 11
8.995699392
 21
8.482391804
  0
LINE
  5
221
100
AcDbEntity
  8
0
100
AcDbLine
 62
7
  6
CONTINUOUS
 10
9.0819834891
 20
8.508391804
 11
9.0979834891
 21
8.4806994888
  0
LINE
  5
222
100
AcDbEntity
  8
0
100
AcDbLine
 62
7
  6
CONTINUOUS
 10
9.5799834891
 20
8.427391804
 11
9.5799834891
 21
8.4552799048
  0
LINE
  5
223
100
AcDbEntity
  8
0
100
AcDbLine
 62
7
  6
CONTINUOUS
 10
9.5879834891
 20
8.452391804
 11
9.5879834891
 21
9.567391804
  0
LINE
  5
224
100
AcDbEntity
  8
0
100
AcDbLine
 62
7
  6
CONTINUOUS
 10
9.1014834891
 20
8.227391804
 11
9.1859834891
 21
8.427391804
  0
LINE
  5
225
100
AcDbEntity
  8
0
100
AcDbLine
 62
7
  6
CONTINUOUS
 10
9.0669834891
 20
8.482391804
 11
9.0819834891
 21
8.508391804
  0
LINE
  5
226
100
AcDbEntity
  8
0
100
AcDbLine
 62
7
  6
CONTINUOUS
 10
9.0669834891
 20
9.537391804
 11
9.0819834891
 21
9.511391804
  0
LINE
  5
227
100
AcDbEntity
  8
0
100
AcDbLine
 62
7
  6
CONTINUOUS
 10
9.6644834891
 20
8.227391804
 11
9.5799834891
 21
8.427391804
  0
LINE
  5
228
100
AcDbEntity
  8
0
100
AcDbLine
 62
7
  6
CONTINUOUS
 10
9.6644834891
 20
5.753391804
 11
9.6644834891
 21
5.833391804
  0
LINE
  5
229
100
AcDbEntity
  8
0
100
AcDbLine
 62
7
  6
CONTINUOUS
 10
9.6644834891
 20
8.122391804
 11
9.6644834891
 21
8.227391804
  0
LINE
  5
22A
100
AcDbEntity
  8
0
100
AcDbLine
 62
7
  6
CONTINUOUS
 10
9.6669834891
 20
8.482391804
 11
9.6669834891
 21
9.537391804
  0
LINE
  5
22B
100
AcDbEntity
  8
0
100
AcDbLine
 62
7
  6
CONTINUOUS
 10
9.7179834891
 20
8.639391831
 11
9.7179834891
 21
9.3803917771
  0
LINE
  5
22C
100
AcDbEntity
  8
0
100
AcDbLine
 62
7
  6
CONTINUOUS
 10
9.6669834891
 20
8.482391804
 11
9.7179834891
 21
8.639391804
  0
LINE
  5
22D
100
AcDbEntity
  8
0
100
AcDbLine
 62
7
  6
CONTINUOUS
 10
9.1014834891
 20
8.122391804
 11
9.6644834891
 21
8.122391804
  0
LINE
  5
22E
100
AcDbEntity
  8
0
100
AcDbLine
 62
7
  6
CONTINUOUS
 10
9.6669834891
 20
9.537391804
 11
9.7179834891
 21
9.380391804
  0
LINE
  5
22F
100
AcDbEntity
  8
0
100
AcDbLine
 62
7
  6
CONTINUOUS
 10
10.0769834891
 20
8.6663918287
 11
10.0769834891
 21
9.3533917791
  0
LINE
  5
230
100
AcDbEntity
  8
0
100
AcDbLine
 62
7
  6
CONTINUOUS
 10
10.0969834891
 20
9.4087406926
 11
10.0969834891
 21
8.6110429155
  0
LINE
  5
231
100
AcDbEntity
  8
0
100
AcDbLine
 62
9
  6
CONTINUOUS
 10
10.1253842465
 20
8.5801520765
 11
10.1253842465
 21
9.4396315316
  0
LINE
  5
232
100
AcDbEntity
  8
0
100
AcDbLine
 62
7
  6
CONTINUOUS
 10
10.4313670503
 20
9.550391804
 11
10.5372846776
 21
9.6245257982
  0
LINE
  5
233
100
AcDbEntity
  8
0
100
AcDbLine
 62
7
  6
CONTINUOUS
 10
9.1014834891
 20
8.227391804
 11
9.6644834891
 21
8.227391804
  0
LINE
  5
234
100
AcDbEntity
  8
0
100
AcDbLine
 62
7
  6
CONTINUOUS
 10
11.3469834891
 20
8.268891804
 11
11.4089834891
 21
8.268891804
  0
LINE
  5
235
100
AcDbEntity
  8
0
100
AcDbLine
 62
7
  6
CONTINUOUS
 10
11.3469834891
 20
8.353391804
 11
10.9957757313
 21
8.353391804
  0
LINE
  5
236
100
AcDbEntity
  8
0
100
AcDbLine
 62
7
  6
CONTINUOUS
 10
9.1859834891
 20
8.427391804
 11
9.5799834891
 21
8.427391804
  0
LINE
  5
237
100
AcDbEntity
  8
0
100
AcDbLine
 62
7
  6
CONTINUOUS
 10
10.4313670503
 20
8.469391804
 11
10.5372846776
 21
8.3952578098
  0
LINE
  5
238
100
AcDbEntity
  8
0
100
AcDbLine
 62
7
  6
CONTINUOUS
 10
9.1779467684
 20
9.9193535464
 11
9.2122461318
 21
9.8701874764
  0
LINE
  5
239
100
AcDbEntity
  8
0
100
AcDbLine
 62
9
  6
CONTINUOUS
 10
10.4313670503
 20
8.469391804
 11
10.4313670503
 21
9.550391804
  0
LINE
  5
23A
100
AcDbEntity
  8
0
100
AcDbLine
 62
7
  6
CONTINUOUS
 10
10.9804834891
 20
9.6510552437
 11
10.9957758709
 21
9.666391804
  0
LINE
  5
23B
100
AcDbEntity
  8
0
100
AcDbLine
 62
7
  6
CONTINUOUS
 10
8.995699392
 20
8.482391804
 11
9.0669834891
 21
8.482391804
  0
LINE
  5
23C
100
AcDbEntity
  8
0
100
AcDbLine
 62
7
  6
CONTINUOUS
 10
9.3179834891
 20
8.487391804
 11
9.4479834891
 21
8.487391804
  0
LINE
  5
23D
100
AcDbEntity
  8
0
100
AcDbLine
 62
7
  6
CONTINUOUS
 10
9.7179834891
 20
8.666391804
 11
10.0769834891
 21
8.666391804
  0
LINE
  5
23E
100
AcDbEntity
  8
0
100
AcDbLine
 62
7
  6
CONTINUOUS
 10
8.9088683338
 20
8.722391804
 11
8.909020015
 21
8.722391804
  0
LINE
  5
23F
100
AcDbEntity
  8
0
100
AcDbLine
 62
7
  6
CONTINUOUS
 10
10.9804834891
 20
8.3687283644
 11
10.9957758709
 21
8.353391804
  0
LINE
  5
240
100
AcDbEntity
  8
0
100
AcDbLine
 62
9
  6
CONTINUOUS
 10
10.5372846776
 20
8.3952578098
 11
10.5372846776
 21
9.6245257982
  0
LINE
  5
241
100
AcDbEntity
  8
0
100
AcDbLine
 62
7
  6
CONTINUOUS
 10
10.0969834891
 20
8.809891804
 11
10.0769834891
 21
8.809891804
  0
LINE
  5
242
100
AcDbEntity
  8
0
100
AcDbLine
 62
7
  6
CONTINUOUS
 10
11.3469834891
 20
9.009891804
 11
11.0970408722
 21
9.009891804
  0
LINE
  5
243
100
AcDbEntity
  8
0
100
AcDbLine
 62
9
  6
CONTINUOUS
 10
10.7654834891
 20
8.391391804
 11
10.7654834891
 21
9.628391804
  0
LINE
  5
244
100
AcDbEntity
  8
0
100
AcDbLine
 62
9
  6
CONTINUOUS
 10
10.9804834891
 20
8.3687283644
 11
10.9804834891
 21
9.6510552437
  0
LINE
  5
245
100
AcDbEntity
  8
0
100
AcDbLine
 62
7
  6
CONTINUOUS
 10
8.8847449457
 20
9.077391804
 11
8.8837438084
 21
9.077391804
  0
LINE
  5
246
100
AcDbEntity
  8
0
100
AcDbLine
 62
7
  6
CONTINUOUS
 10
8.8889684748
 20
9.0916880613
 11
8.8879646002
 21
9.0916880613
  0
LINE
  5
247
100
AcDbEntity
  8
0
100
AcDbLine
 62
9
  6
CONTINUOUS
 10
8.8908091065
 20
9.1160123026
 11
8.8898040343
 21
9.1160123026
  0
LINE
  5
248
100
AcDbEntity
  8
0
100
AcDbLine
 62
7
  6
CONTINUOUS
 10
10.0969834891
 20
9.209891804
 11
10.0769834891
 21
9.209891804
  0
LINE
  5
249
100
AcDbEntity
  8
0
100
AcDbLine
 62
7
  6
CONTINUOUS
 10
8.9093922717
 20
9.297391804
 11
8.9089616687
 21
9.297391804
  0
LINE
  5
24A
100
AcDbEntity
  8
0
100
AcDbLine
 62
7
  6
CONTINUOUS
 10
8.9127782175
 20
9.317391804
 11
8.9132407901
 21
9.317391804
  0
LINE
  5
24B
100
AcDbEntity
  8
0
100
AcDbLine
 62
7
  6
CONTINUOUS
 10
9.7179834891
 20
9.353391804
 11
10.0769834891
 21
9.353391804
  0
LINE
  5
24C
100
AcDbEntity
  8
0
100
AcDbLine
 62
7
  6
CONTINUOUS
 10
9.3179834891
 20
9.532391804
 11
9.4479834891
 21
9.532391804
  0
LINE
  5
24D
100
AcDbEntity
  8
0
100
AcDbLine
 62
7
  6
CONTINUOUS
 10
8.995699392
 20
9.537391804
 11
9.0669834891
 21
9.537391804
  0
LINE
  5
24E
100
AcDbEntity
  8
0
100
AcDbLine
 62
9
  6
CONTINUOUS
 10
9.2443652722
 20
9.5465815498
 11
9.521601708
 21
9.5465815498
  0
LINE
  5
24F
100
AcDbEntity
  8
0
100
AcDbLine
 62
9
  6
CONTINUOUS
 10
9.194840632
 20
9.5672069749
 11
9.5711263463
 21
9.5672069749
  0
LINE
  5
250
100
AcDbEntity
  8
0
100
AcDbLine
 62
7
  6
CONTINUOUS
 10
11.3469834891
 20
8.2688921891
 11
11.3469834891
 21
9.7508914193
  0
LINE
  5
251
100
AcDbEntity
  8
0
100
AcDbLine
 62
7
  6
CONTINUOUS
 10
11.4089834891
 20
9.8228940972
 11
11.4089834891
 21
8.1968891302
  0
LINE
  5
252
100
AcDbEntity
  8
0
100
AcDbLine
 62
7
  6
CONTINUOUS
 10
11.5969834891
 20
8.009891804
 11
11.5969834891
 21
10.009891804
  0
LINE
  5
253
100
AcDbEntity
  8
0
100
AcDbLine
 62
7
  6
CONTINUOUS
 10
10.9957757313
 20
9.666391804
 11
11.3469834891
 21
9.666391804
  0
LINE
  5
254
100
AcDbEntity
  8
0
100
AcDbLine
 62
7
  6
CONTINUOUS
 10
11.3469834891
 20
9.750891804
 11
11.4089834891
 21
9.750891804
  0
LINE
  5
255
100
AcDbEntity
  8
0
100
AcDbLine
 62
9
  6
CONTINUOUS
 10
9.1913399248
 20
9.8185316049
 11
9.5746270535
 21
9.8185316049
  0
LINE
  5
256
100
AcDbEntity
  8
0
100
AcDbLine
 62
7
  6
CONTINUOUS
 10
9.5629834891
 20
9.8455055472
 11
9.2029834891
 21
9.8455055472
  0
LINE
  5
257
100
AcDbEntity
  8
0
100
AcDbLine
 62
9
  6
CONTINUOUS
 10
9.2122461318
 20
9.8701874764
 11
9.5537208465
 21
9.8701874764
  0
LINE
  5
258
100
AcDbEntity
  8
0
100
AcDbLine
 62
7
  6
CONTINUOUS
 10
11.7839834891
 20
11.7667305437
 11
11.7839834891
 21
6.2530530644
  0
LINE
  5
259
100
AcDbEntity
  8
0
100
AcDbLine
 62
9
  6
CONTINUOUS
 10
9.1779467684
 20
9.9193535464
 11
9.5880202099
 21
9.9193535464
  0
LINE
  5
25A
100
AcDbEntity
  8
0
100
AcDbLine
 62
9
  6
CONTINUOUS
 10
11.9099834891
 20
6.0359724342
 11
11.9099834891
 21
11.9838111739
  0
LINE
  5
25B
100
AcDbEntity
  8
0
100
AcDbLine
 62
7
  6
CONTINUOUS
 10
12.035983461
 20
12.2007241561
 11
12.035983461
 21
5.819059452
  0
LINE
  5
25C
100
AcDbEntity
  8
0
100
AcDbLine
 62
9
  6
CONTINUOUS
 10
12.0359834751
 20
5.8189756262
 11
12.0359834751
 21
12.2008079819
  0
LINE
  5
25D
100
AcDbEntity
  8
0
100
AcDbLine
 62
9
  6
CONTINUOUS
 10
12.1619862413
 20
5.6019708621
 11
12.1619862413
 21
12.417812746
  0
LINE
  5
25E
100
AcDbEntity
  8
0
100
AcDbLine
 62
7
  6
CONTINUOUS
 10
12.2879834891
 20
12.634891804
 11
12.2879834891
 21
5.384891804
  0
LINE
  5
25F
100
AcDbEntity
  8
0
100
AcDbLine
 62
7
  6
CONTINUOUS
 10
9.6644834891
 20
5.753391804
 11
9.6444834891
 21
5.733391804
  0
LINE
  5
260
100
AcDbEntity
  8
0
100
AcDbLine
 62
7
  6
CONTINUOUS
 10
12.5379834891
 20
5.134891804
 11
12.5379834891
 21
12.884891804
  0
ARC
  5
261
100
AcDbEntity
  8
0
100
AcDbCircle
 62
7
  6
CONTINUOUS
 10
10.4311725097
 20
9.0096436875
 40
1.549169075
100
AcDbArc
 50
169.295515706
 51
178.6671911591
  0
ARC
  5
262
100
AcDbEntity
  8
0
100
AcDbCircle
 62
7
  6
CONTINUOUS
 10
10.4311768485
 20
9.0090186036
 40
1.5489428357
100
AcDbArc
 50
168.5164702483
 51
177.4700363037
  0
ARC
  5
263
100
AcDbEntity
  8
0
100
AcDbCircle
 62
7
  6
CONTINUOUS
 10
10.431149569
 20
9.0096454966
 40
1.5481460652
100
AcDbArc
 50
177.4931327583
 51
177.8562756419
  0
ARC
  5
264
100
AcDbEntity
  8
0
100
AcDbCircle
 62
7
  6
CONTINUOUS
 10
9.5914295008
 20
8.2717597593
 40
1.36
100
AcDbArc
 50
107.6982774827
 51
111.2739720086
  0
ARC
  5
265
100
AcDbEntity
  8
0
100
AcDbCircle
 62
7
  6
CONTINUOUS
 10
9.1449016736
 20
8.2815930232
 40
1.36
100
AcDbArc
 50
67.4255442891
 51
70.9862257999
  0
ARC
  5
266
100
AcDbEntity
  8
0
100
AcDbCircle
 62
7
  6
CONTINUOUS
 10
10.1345581692
 20
8.9864954891
 40
1.2501653957
100
AcDbArc
 50
178.9276711954
 51
180.0560949655
  0
ARC
  5
267
100
AcDbEntity
  8
0
100
AcDbCircle
 62
7
  6
CONTINUOUS
 10
10.0496891311
 20
8.9888366251
 40
1.1662685383
100
AcDbArc
 50
174.9406004465
 51
178.9655569084
  0
ARC
  5
268
100
AcDbEntity
  8
0
100
AcDbCircle
 62
7
  6
CONTINUOUS
 10
10.0499382572
 20
8.9888365749
 40
1.1655167368
100
AcDbArc
 50
174.937325953
 51
178.9648871149
  0
ARC
  5
269
100
AcDbEntity
  8
0
100
AcDbCircle
 62
7
  6
CONTINUOUS
 10
10.012889099
 20
8.9824739869
 40
1.1284677864
100
AcDbArc
 50
174.449183537
 51
178.6077761176
  0
ARC
  5
26A
100
AcDbEntity
  8
0
100
AcDbCircle
 62
7
  6
CONTINUOUS
 10
9.9388406415
 20
8.9888509207
 40
1.0541500409
100
AcDbArc
 50
174.2030411254
 51
174.4048552707
  0
ARC
  5
26B
100
AcDbEntity
  8
0
100
AcDbCircle
 62
7
  6
CONTINUOUS
 10
10.0729801606
 20
7.957352902
 40
0.625
100
AcDbArc
 50
55.0110095298
 51
85.1903004544
  0
ARC
  5
26C
100
AcDbEntity
  8
0
100
AcDbCircle
 62
7
  6
CONTINUOUS
 10
9.3829834891
 20
6.0109126374
 40
0.3735208333
100
AcDbArc
 50
227.9864211385
 51
312.0135788615
  0
ARC
  5
26D
100
AcDbEntity
  8
0
100
AcDbCircle
 62
7
  6
CONTINUOUS
 10
10.6542478924
 20
8.5623669251
 40
0.2039751211
100
AcDbArc
 50
235.0110095298
 51
303.0478355064
  0
ARC
  5
26E
100
AcDbEntity
  8
0
100
AcDbCircle
 62
7
  6
CONTINUOUS
 10
10.1279834891
 20
8.6110429155
 40
0.031
100
AcDbArc
 50
180.0
 51
265.1903004544
  0
ARC
  5
26F
100
AcDbEntity
  8
0
100
AcDbCircle
 62
7
  6
CONTINUOUS
 10
8.9621838361
 20
8.622391804
 40
0.03
100
AcDbArc
 50
194.7630312681
 51
260.0138853066
  0
ARC
  5
270
100
AcDbEntity
  8
0
100
AcDbCircle
 62
7
  6
CONTINUOUS
 10
10.4326535046
 20
9.009891804
 40
1.5506700155
100
AcDbArc
 50
191.4376457584
 51
194.7630312681
  0
ARC
  5
271
100
AcDbEntity
  8
0
100
AcDbCircle
 62
7
  6
CONTINUOUS
 10
10.4326535046
 20
9.009891804
 40
1.5506700155
100
AcDbArc
 50
165.2369687319
 51
168.5623542416
  0
ARC
  5
272
100
AcDbEntity
  8
0
100
AcDbCircle
 62
7
  6
CONTINUOUS
 10
10.4326535046
 20
9.009891804
 40
1.5506700155
100
AcDbArc
 50
178.6775962817
 51
186.8672533011
  0
ARC
  5
273
100
AcDbEntity
  8
0
100
AcDbCircle
 62
7
  6
CONTINUOUS
 10
9.5914295008
 20
9.7480238488
 40
1.36
100
AcDbArc
 50
248.7260279914
 51
252.3017225173
  0
ARC
  5
274
100
AcDbEntity
  8
0
100
AcDbCircle
 62
7
  6
CONTINUOUS
 10
9.1449016736
 20
9.7381905849
 40
1.36
100
AcDbArc
 50
289.0137742001
 51
292.5744557109
  0
ARC
  5
275
100
AcDbEntity
  8
0
100
AcDbCircle
 62
7
  6
CONTINUOUS
 10
10.0729801606
 20
10.0624307061
 40
0.625
100
AcDbArc
 50
274.8096995456
 51
304.9889904702
  0
ARC
  5
276
100
AcDbEntity
  8
0
100
AcDbCircle
 62
7
  6
CONTINUOUS
 10
9.1671515878
 20
9.0525818105
 40
0.2845085109
100
AcDbArc
 50
167.1177805411
 51
171.9344832544
  0
ARC
  5
277
100
AcDbEntity
  8
0
100
AcDbCircle
 62
7
  6
CONTINUOUS
 10
9.1679410489
 20
9.0525880861
 40
0.2842969161
100
AcDbArc
 50
167.1289970594
 51
171.9475047507
  0
ARC
  5
278
100
AcDbEntity
  8
0
100
AcDbCircle
 62
7
  6
CONTINUOUS
 10
9.1650451342
 20
9.0347050785
 40
0.2828792722
100
AcDbArc
 50
168.3788660772
 51
170.9032000574
  0
ARC
  5
279
100
AcDbEntity
  8
0
100
AcDbCircle
 62
7
  6
CONTINUOUS
 10
9.1624691227
 20
9.0351268649
 40
0.2802689746
100
AcDbArc
 50
170.9050821577
 51
171.3470097636
  0
ARC
  5
27A
100
AcDbEntity
  8
0
100
AcDbCircle
 62
7
  6
CONTINUOUS
 10
9.1594410137
 20
9.0537736373
 40
0.2767070054
100
AcDbArc
 50
171.9548173988
 51
175.1035941332
  0
ARC
  5
27B
100
AcDbEntity
  8
0
100
AcDbCircle
 62
7
  6
CONTINUOUS
 10
9.1601636475
 20
9.0537846503
 40
0.2764285785
100
AcDbArc
 50
172.0747297363
 51
175.100941325
  0
ARC
  5
27C
100
AcDbEntity
  8
0
100
AcDbCircle
 62
7
  6
CONTINUOUS
 10
9.1576797437
 20
9.0357819368
 40
0.2754355251
100
AcDbArc
 50
171.3628061507
 51
177.4676666917
  0
ARC
  5
27D
100
AcDbEntity
  8
0
100
AcDbCircle
 62
7
  6
CONTINUOUS
 10
9.15484496
 20
9.0359610953
 40
0.2725955993
100
AcDbArc
 50
177.4789607903
 51
177.9572135628
  0
ARC
  5
27E
100
AcDbEntity
  8
0
100
AcDbCircle
 62
7
  6
CONTINUOUS
 10
9.3829834891
 20
10.062391804
 40
0.25
100
AcDbArc
 50
325.0995
 51
214.9005
  0
ARC
  5
27F
100
AcDbEntity
  8
0
100
AcDbCircle
 62
7
  6
CONTINUOUS
 10
10.6542478924
 20
9.457416683
 40
0.2039751211
100
AcDbArc
 50
56.9521644936
 51
124.9889904702
  0
ARC
  5
280
100
AcDbEntity
  8
0
100
AcDbCircle
 62
7
  6
CONTINUOUS
 10
9.7099834891
 20
9.6909595259
 40
0.186
100
AcDbArc
 50
136.6958241996
 51
221.7081302521
  0
ARC
  5
281
100
AcDbEntity
  8
0
100
AcDbCircle
 62
7
  6
CONTINUOUS
 10
9.0559834891
 20
9.6909595259
 40
0.186
100
AcDbArc
 50
318.2918697479
 51
43.3041758004
  0
ARC
  5
282
100
AcDbEntity
  8
0
100
AcDbCircle
 62
7
  6
CONTINUOUS
 10
9.2179834891
 20
9.5465815498
 40
0.031
100
AcDbArc
 50
138.2918697479
 51
148.8824129423
  0
ARC
  5
283
100
AcDbEntity
  8
0
100
AcDbCircle
 62
7
  6
CONTINUOUS
 10
9.5479834891
 20
9.5465815498
 40
0.031
100
AcDbArc
 50
31.117586516
 51
41.7081302521
  0
ARC
  5
284
100
AcDbEntity
  8
0
100
AcDbCircle
 62
7
  6
CONTINUOUS
 10
10.1279834891
 20
9.4087406926
 40
0.031
100
AcDbArc
 50
94.8096995456
 51
180.0
  0
ARC
  5
285
100
AcDbEntity
  8
0
100
AcDbCircle
 62
7
  6
CONTINUOUS
 10
8.9621838361
 20
9.397391804
 40
0.03
100
AcDbArc
 50
99.9861146934
 51
165.2369687319
  0
ARC
  5
286
100
AcDbEntity
  8
0
100
AcDbCircle
 62
7
  6
CONTINUOUS
 10
9.5668431966
 20
9.8610330279
 40
0.016
100
AcDbArc
 50
145.0995
 51
256.0407512246
  0
ARC
  5
287
100
AcDbEntity
  8
0
100
AcDbCircle
 62
7
  6
CONTINUOUS
 10
9.5629834891
 20
9.8295055472
 40
0.016
100
AcDbArc
 50
316.6958241996
 51
90.0
  0
ARC
  5
288
100
AcDbEntity
  8
0
100
AcDbCircle
 62
7
  6
CONTINUOUS
 10
9.1991237816
 20
9.8610330279
 40
0.016
100
AcDbArc
 50
283.9592487754
 51
34.9005
  0
ARC
  5
289
100
AcDbEntity
  8
0
100
AcDbCircle
 62
7
  6
CONTINUOUS
 10
9.2029834891
 20
9.8295055472
 40
0.016
100
AcDbArc
 50
90.0
 51
223.3041758004
  0
ARC
  5
28A
100
AcDbEntity
  8
0
100
AcDbCircle
 62
7
  6
CONTINUOUS
 10
12.2859944384
 20
5.819059452
 40
0.2500109774
100
AcDbArc
 50
180.0192106228
 51
240.2635604814
  0
ARC
  5
28B
100
AcDbEntity
  8
0
100
AcDbCircle
 62
7
  6
CONTINUOUS
 10
12.0339834891
 20
6.2530530644
 40
0.25
100
AcDbArc
 50
180.0
 51
240.2642868924
  0
ARC
  5
28C
100
AcDbEntity
  8
0
100
AcDbCircle
 62
7
  6
CONTINUOUS
 10
11.7859834891
 20
5.818891804
 40
0.25
100
AcDbArc
 50
0.0192106228
 51
60.2642868924
  0
ARC
  5
28D
100
AcDbEntity
  8
0
100
AcDbCircle
 62
7
  6
CONTINUOUS
 10
12.0379834891
 20
5.384891804
 40
0.25
100
AcDbArc
 50
0.0
 51
60.2635604814
  0
ARC
  5
28E
100
AcDbEntity
  8
0
100
AcDbCircle
 62
7
  6
CONTINUOUS
 10
12.5379834891
 20
5.384891804
 40
0.25
100
AcDbArc
 50
180.0
 51
270.0
  0
ARC
  5
28F
100
AcDbEntity
  8
0
100
AcDbCircle
 62
7
  6
CONTINUOUS
 10
11.7839834891
 20
8.0170279152
 40
0.1871361111
100
AcDbArc
 50
182.1854050713
 51
270.0
  0
ARC
  5
290
100
AcDbEntity
  8
0
100
AcDbCircle
 62
7
  6
CONTINUOUS
 10
11.5959834891
 20
8.1968891302
 40
0.187
100
AcDbArc
 50
180.0
 51
270.3063960032
  0
ARC
  5
291
100
AcDbEntity
  8
0
100
AcDbCircle
 62
7
  6
CONTINUOUS
 10
10.8590225137
 20
8.2476172704
 40
0.1715245336
100
AcDbArc
 50
44.9173576842
 51
123.0478355064
  0
ARC
  5
292
100
AcDbEntity
  8
0
100
AcDbCircle
 62
7
  6
CONTINUOUS
 10
12.2859944384
 20
12.2007241561
 40
0.2500109774
100
AcDbArc
 50
119.7364395186
 51
179.9807893772
  0
ARC
  5
293
100
AcDbEntity
  8
0
100
AcDbCircle
 62
7
  6
CONTINUOUS
 10
12.0339834891
 20
11.7667305437
 40
0.25
100
AcDbArc
 50
119.7357131076
 51
180.0
  0
ARC
  5
294
100
AcDbEntity
  8
0
100
AcDbCircle
 62
7
  6
CONTINUOUS
 10
11.7859834891
 20
12.200891804
 40
0.25
100
AcDbArc
 50
299.7357131076
 51
359.9807893772
  0
ARC
  5
295
100
AcDbEntity
  8
0
100
AcDbCircle
 62
7
  6
CONTINUOUS
 10
12.0379834891
 20
12.634891804
 40
0.25
100
AcDbArc
 50
299.7364395186
 51
360.0
  0
ARC
  5
296
100
AcDbEntity
  8
0
100
AcDbCircle
 62
7
  6
CONTINUOUS
 10
12.5379834891
 20
12.634891804
 40
0.25
100
AcDbArc
 50
90.0
 51
180.0
  0
ARC
  5
297
100
AcDbEntity
  8
0
100
AcDbCircle
 62
7
  6
CONTINUOUS
 10
11.7839834891
 20
10.0027556929
 40
0.1871361111
100
AcDbArc
 50
90.0
 51
177.8145949287
  0
ARC
  5
298
100
AcDbEntity
  8
0
100
AcDbCircle
 62
7
  6
CONTINUOUS
 10
11.5959834891
 20
9.8228944779
 40
0.187
100
AcDbArc
 50
89.6936039968
 51
180.0
  0
ARC
  5
299
100
AcDbEntity
  8
0
100
AcDbCircle
 62
7
  6
CONTINUOUS
 10
10.8590225137
 20
9.7721663377
 40
0.1715245336
100
AcDbArc
 50
236.9521644936
 51
315.0826423158
  0
SPLINE
  5
29A
100
AcDbEntity
  8
0
100
AcDbSpline
 62
7
  6
CONTINUOUS
 70
0
 71
3
 72
50
 73
46
 74
0
 42
0.0000001
 43
0.0000001
 44
0.0000000001
 40
0.0
 40
0.0
 40
0.0
 40
0.0
 40
0.0000045908
 40
0.00001836
 40
0.0000413056
 40
0.0000734258
 40
0.0001147187
 40
0.0001651826
 40
0.0002936159
 40
0.000458711
 40
0.0006604531
 40
0.0008988276
 40
0.0011738198
 40
0.0018335986
 40
0.0026396721
 40
0.0035919228
 40
0.0046902335
 40
0.0059344862
 40
0.0073244971
 40
0.0105404929
 40
0.014335537
 40
0.0187069299
 40
0.0236519718
 40
0.0291675012
 40
0.0352493544
 40
0.0418932412
 40
0.0490948761
 40
0.0568498773
 40
0.0739988064
 40
0.0932957954
 40
0.1146943433
 40
0.1381429247
 40
0.1635887895
 40
0.1909758079
 40
0.2202467706
 40
0.2513429226
 40
0.284204416
 40
0.3549814728
 40
0.4320915252
 40
0.5150455936
 40
0.6033524612
 40
0.6965174694
 40
0.7940321562
 40
0.8953784787
 40
1.0
 40
1.0
 40
1.0
 40
1.0
 10
9.5879834891
 20
9.567391804
 30
0.0
 10
9.5879834891
 20
9.5673915827
 30
0.0
 10
9.5879821533
 20
9.5673916286
 30
0.0
 10
9.587980773
 20
9.5673906002
 30
0.0
 10
9.5879773807
 20
9.5673896473
 30
0.0
 10
9.5879731446
 20
9.5673879566
 30
0.0
 10
9.5879674927
 20
9.5673859268
 30
0.0
 10
9.5879575539
 20
9.5673822445
 30
0.0
 10
9.5879419761
 20
9.5673765283
 30
0.0
 10
9.5879195747
 20
9.5673682809
 30
0.0
 10
9.5878921893
 20
9.5673582125
 30
0.0
 10
9.5878598337
 20
9.5673463163
 30
0.0
 10
9.5878067505
 20
9.5673268064
 30
0.0
 10
9.5877279762
 20
9.5672978663
 30
0.0
 10
9.587618548
 20
9.5672576871
 30
0.0
 10
9.5874892662
 20
9.567210244
 30
0.0
 10
9.5873401442
 20
9.5671555504
 30
0.0
 10
9.5871711984
 20
9.5670936195
 30
0.0
 10
9.5869063823
 20
9.5669966028
 30
0.0
 10
9.5865260443
 20
9.5668574451
 30
0.0
 10
9.5860106002
 20
9.5666692613
 30
0.0
 10
9.5854166853
 20
9.5664529641
 30
0.0
 10
9.5847446279
 20
9.5662088597
 30
0.0
 10
9.5839948127
 20
9.5659373054
 30
0.0
 10
9.5831676628
 20
9.5656387805
 30
0.0
 10
9.5822636584
 20
9.5653137668
 30
0.0
 10
9.5812832875
 20
9.5649627581
 30
0.0
 10
9.5798254081
 20
9.5644430631
 30
0.0
 10
9.5778165957
 20
9.5637323448
 30
0.0
 10
9.5751844569
 20
9.5628115234
 30
0.0
 10
9.5722616924
 20
9.5618018262
 30
0.0
 10
9.5690538874
 20
9.560709512
 30
0.0
 10
9.5655671413
 20
9.5595408815
 30
0.0
 10
9.56180764
 20
9.5583029688
 30
0.0
 10
9.5577818998
 20
9.5570028986
 30
0.0
 10
9.5534965421
 20
9.5556482249
 30
0.0
 10
9.5472904273
 20
9.5537316941
 30
0.0
 10
9.5389369597
 20
9.5512516284
 30
0.0
 10
9.5282188573
 20
9.5482559627
 30
0.0
 10
9.5166307629
 20
9.5452400346
 30
0.0
 10
9.504232302
 20
9.5422739894
 30
0.0
 10
9.4910862564
 20
9.5394285731
 30
0.0
 10
9.4772594823
 20
9.5367737224
 30
0.0
 10
9.4628252288
 20
9.5343776199
 30
0.0
 10
9.4529884816
 20
9.5330144347
 30
0.0
 10
9.4479834891
 20
9.532391804
 30
0.0
  0
SPLINE
  5
29B
100
AcDbEntity
  8
0
100
AcDbSpline
 62
7
  6
CONTINUOUS
 70
0
 71
3
 72
17
 73
13
 74
0
 42
0.0000001
 43
0.0000001
 44
0.0000000001
 40
0.0
 40
0.0
 40
0.0
 40
0.0
 40
0.0202623114
 40
0.0426793142
 40
0.0692167703
 40
0.1010881661
 40
0.1832117551
 40
0.2918237058
 40
0.427790691
 40
0.5913248677
 40
0.7821934221
 40
1.0
 40
1.0
 40
1.0
 40
1.0
 10
8.8903755604
 20
9.1173917482
 30
0.0
 10
8.8903867835
 20
9.1173917456
 30
0.0
 10
8.8904106048
 20
9.1173870893
 30
0.0
 10
8.8904438993
 20
9.1173669971
 30
0.0
 10
8.890475549
 20
9.1173348915
 30
0.0
 10
8.8905199591
 20
9.1172706506
 30
0.0
 10
8.890570414
 20
9.1171572904
 30
0.0
 10
8.8906240112
 20
9.1169843464
 30
0.0
 10
8.8906742805
 20
9.1167637529
 30
0.0
 10
8.89072098
 20
9.1164961239
 30
0.0
 10
8.8907638453
 20
9.1161820342
 30
0.0
 10
8.8907881344
 20
9.1159569545
 30
0.0
 10
8.8907998235
 20
9.115836881
 30
0.0
  0
SPLINE
  5
29C
100
AcDbEntity
  8
0
100
AcDbSpline
 62
7
  6
CONTINUOUS
 70
0
 71
3
 72
16
 73
12
 74
0
 42
0.0000001
 43
0.0000001
 44
0.0000000001
 40
0.0
 40
0.0
 40
0.0
 40
0.0
 40
0.0357683609
 40
0.0776957318
 40
0.1783877648
 40
0.2981471429
 40
0.4321939239
 40
0.5751471748
 40
0.7212862457
 40
0.8647848302
 40
1.0
 40
1.0
 40
1.0
 40
1.0
 10
8.8907998235
 20
9.115836881
 30
0.0
 10
8.8908235584
 20
9.1155930677
 30
0.0
 10
8.8908641547
 20
9.1150623901
 30
0.0
 10
8.8909248231
 20
9.1138420929
 30
0.0
 10
8.8909579026
 20
9.1120450616
 30
0.0
 10
8.8909408328
 20
9.1096171324
 30
0.0
 10
8.8908675098
 20
9.1069006812
 30
0.0
 10
8.8907407361
 20
9.1040053972
 30
0.0
 10
8.8905653641
 20
9.1010477982
 30
0.0
 10
8.8903485415
 20
9.0981461005
 30
0.0
 10
8.8901749834
 20
9.0962450637
 30
0.0
 10
8.8900814488
 20
9.095323755
 30
0.0
  0
SPLINE
  5
29D
100
AcDbEntity
  8
0
100
AcDbSpline
 62
7
  6
CONTINUOUS
 70
0
 71
3
 72
88
 73
84
 74
0
 42
0.0000001
 43
0.0000001
 44
0.0000000001
 40
0.0
 40
0.0
 40
0.0
 40
0.0
 40
0.0625016031
 40
0.1250032091
 40
0.187504811
 40
0.2500064167
 40
0.3125080247
 40
0.3437593722
 40
0.3750107192
 40
0.4062620667
 40
0.4375134147
 40
0.4687647623
 40
0.5000161097
 40
0.5312674574
 40
0.5625188052
 40
0.5781445472
 40
0.5937702891
 40
0.6093960308
 40
0.6250217725
 40
0.6406475144
 40
0.6562732569
 40
0.6640861366
 40
0.6718990157
 40
0.6797118942
 40
0.687524773
 40
0.6953376536
 40
0.7031505353
 40
0.7109634094
 40
0.7148698473
 40
0.7187762923
 40
0.7226827433
 40
0.7265891628
 40
0.7285423685
 40
0.7304956031
 40
0.7324488846
 40
0.7344021561
 40
0.7353787586
 40
0.7363553253
 40
0.7373318499
 40
0.7383083806
 40
0.7392850266
 40
0.7397734385
 40
0.7402619244
 40
0.7412388542
 40
0.7417271641
 40
0.7422153384
 40
0.7427034334
 40
0.7431915825
 40
0.7441682513
 40
0.7446566542
 40
0.745145003
 40
0.746121604
 40
0.7470981921
 40
0.7480747967
 40
0.7490514067
 40
0.7500280144
 40
0.7519812164
 40
0.7539344244
 40
0.755887647
 40
0.7578408812
 40
0.7617472962
 40
0.765653671
 40
0.7695600466
 40
0.7734664412
 40
0.7773728386
 40
0.7812792302
 40
0.7890916898
 40
0.796904151
 40
0.8047166212
 40
0.8125290884
 40
0.8203415549
 40
0.8281540224
 40
0.8437764661
 40
0.8593989404
 40
0.8750212937
 40
0.8906436766
 40
0.906266211
 40
0.9218888218
 40
0.9375110521
 40
0.9531331247
 40
0.9687554909
 40
0.9843778139
 40
1.0
 40
1.0
 40
1.0
 40
1.0
 10
9.6644834891
 20
8.122391804
 30
0.0
 10
9.6622342883
 20
8.0732516989
 30
0.0
 10
9.6588965962
 20
7.9749143944
 30
0.0
 10
9.657373539
 20
7.8273345868
 30
0.0
 10
9.6593345093
 20
7.6797589684
 30
0.0
 10
9.6647800449
 20
7.532271467
 30
0.0
 10
9.6722186904
 20
7.4095048203
 30
0.0
 10
9.6799072064
 20
7.3114198624
 30
0.0
 10
9.6865417208
 20
7.2379283068
 30
0.0
 10
9.6940434957
 20
7.1645203158
 30
0.0
 10
9.7024113562
 20
7.0912059717
 30
0.0
 10
9.7116441653
 20
7.017995537
 30
0.0
 10
9.7217407305
 20
6.9448992017
 30
0.0
 10
9.7326994941
 20
6.8719272044
 30
0.0
 10
9.742549087
 20
6.8112290384
 30
0.0
 10
9.7508582866
 20
6.7627431215
 30
0.0
 10
9.7573047647
 20
6.7264159771
 30
0.0
 10
9.7639655787
 20
6.6901275352
 30
0.0
 10
9.7708404953
 20
6.6538790404
 30
0.0
 10
9.7779292556
 20
6.6176717648
 30
0.0
 10
9.7840145451
 20
6.5875343994
 30
0.0
 10
9.7889894537
 20
6.5634464144
 30
0.0
 10
9.7927739662
 20
6.5453915068
 30
0.0
 10
9.7966117963
 20
6.5273478599
 30
0.0
 10
9.800502846
 20
6.5093156131
 30
0.0
 10
9.8044470461
 20
6.4912949148
 30
0.0
 10
9.8084441742
 20
6.4732858865
 30
0.0
 10
9.8118199427
 20
6.4582883827
 30
0.0
 10
9.8145471325
 20
6.4462964073
 30
0.0
 10
9.8166054963
 20
6.4373053723
 30
0.0
 10
9.8186758893
 20
6.4283171138
 30
0.0
 10
9.8204147041
 20
6.4208300324
 30
0.0
 10
9.8218131109
 20
6.4148420849
 30
0.0
 10
9.8228633739
 20
6.4103514027
 30
0.0
 10
9.8239126191
 20
6.4058604301
 30
0.0
 10
9.824789824
 20
6.4021186141
 30
0.0
 10
9.8254970236
 20
6.3991265095
 30
0.0
 10
9.82603069
 20
6.3968833152
 30
0.0
 10
9.8265694056
 20
6.3946413868
 30
0.0
 10
9.8271095408
 20
6.3923997374
 30
0.0
 10
9.8275529124
 20
6.3905299353
 30
0.0
 10
9.8278994112
 20
6.3890319551
 30
0.0
 10
9.8282390862
 20
6.3875321915
 30
0.0
 10
9.828577641
 20
6.3860322349
 30
0.0
 10
9.8289331549
 20
6.3845364542
 30
0.0
 10
9.8292126743
 20
6.3834181346
 30
0.0
 10
9.8295097861
 20
6.382304457
 30
0.0
 10
9.8299344779
 20
6.3808271855
 30
0.0
 10
9.8303863544
 20
6.3793577755
 30
0.0
 10
9.8308368987
 20
6.3778878475
 30
0.0
 10
9.8312766997
 20
6.3764147044
 30
0.0
 10
9.8318095386
 20
6.3745684288
 30
0.0
 10
9.8324365666
 20
6.3723494392
 30
0.0
 10
9.8330584809
 20
6.3701290008
 30
0.0
 10
9.8336725636
 20
6.3679063654
 30
0.0
 10
9.8344799803
 20
6.3649397454
 30
0.0
 10
9.8354638172
 20
6.3612245909
 30
0.0
 10
9.8366016414
 20
6.3567552959
 30
0.0
 10
9.8376982027
 20
6.3522756711
 30
0.0
 10
9.8391060301
 20
6.3462898531
 30
0.0
 10
9.8407670469
 20
6.3387847347
 30
0.0
 10
9.8426012258
 20
6.329744956
 30
0.0
 10
9.844273167
 20
6.3206737582
 30
0.0
 10
9.8457822679
 20
6.3115740521
 30
0.0
 10
9.8471286845
 20
6.3024488139
 30
0.0
 10
9.848706529
 20
6.2902521504
 30
0.0
 10
9.8502704998
 20
6.274956318
 30
0.0
 10
9.8514903947
 20
6.2565465939
 30
0.0
 10
9.8520522868
 20
6.2381049125
 30
0.0
 10
9.8519552778
 20
6.2196550204
 30
0.0
 10
9.8511997335
 20
6.2012201042
 30
0.0
 10
9.8493159485
 20
6.176694991
 30
0.0
 10
9.8453199084
 20
6.1461871231
 30
0.0
 10
9.8379248518
 20
6.1100181803
 30
0.0
 10
9.8279696238
 20
6.0744675557
 30
0.0
 10
9.8154996313
 20
6.0397194066
 30
0.0
 10
9.8005856241
 20
6.0059477641
 30
0.0
 10
9.7832987683
 20
5.9733270789
 30
0.0
 10
9.7637273741
 20
5.9420237787
 30
0.0
 10
9.741962684
 20
5.9122042967
 30
0.0
 10
9.7181317393
 20
5.8840085169
 30
0.0
 10
9.6923592722
 20
5.8575781192
 30
0.0
 10
9.673961112
 20
5.8412244597
 30
0.0
 10
9.6644834891
 20
5.833391804
 30
0.0
  0
SPLINE
  5
29E
100
AcDbEntity
  8
0
100
AcDbSpline
 62
7
  6
CONTINUOUS
 70
0
 71
3
 72
88
 73
84
 74
0
 42
0.0000001
 43
0.0000001
 44
0.0000000001
 40
0.0
 40
0.0
 40
0.0
 40
0.0
 40
0.0625016031
 40
0.1250032091
 40
0.187504811
 40
0.2500064167
 40
0.3125080247
 40
0.3437593722
 40
0.3750107192
 40
0.4062620667
 40
0.4375134147
 40
0.4687647623
 40
0.5000161097
 40
0.5312674574
 40
0.5625188052
 40
0.5781445472
 40
0.5937702891
 40
0.6093960308
 40
0.6250217725
 40
0.6406475144
 40
0.6562732569
 40
0.6640861366
 40
0.6718990157
 40
0.6797118942
 40
0.687524773
 40
0.6953376536
 40
0.7031505353
 40
0.7109634094
 40
0.7148698473
 40
0.7187762923
 40
0.7226827433
 40
0.7265891628
 40
0.7285423685
 40
0.7304956031
 40
0.7324488846
 40
0.7344021561
 40
0.7353787586
 40
0.7363553253
 40
0.7373318499
 40
0.7383083806
 40
0.7392850266
 40
0.7397734385
 40
0.7402619244
 40
0.7412388542
 40
0.7417271641
 40
0.7422153384
 40
0.7427034334
 40
0.7431915825
 40
0.7441682513
 40
0.7446566542
 40
0.745145003
 40
0.746121604
 40
0.7470981921
 40
0.7480747967
 40
0.7490514067
 40
0.7500280144
 40
0.7519812164
 40
0.7539344244
 40
0.755887647
 40
0.7578408812
 40
0.7617472962
 40
0.765653671
 40
0.7695600466
 40
0.7734664412
 40
0.7773728386
 40
0.7812792302
 40
0.7890916898
 40
0.796904151
 40
0.8047166212
 40
0.8125290884
 40
0.8203415549
 40
0.8281540224
 40
0.8437764661
 40
0.8593989404
 40
0.8750212937
 40
0.8906436766
 40
0.906266211
 40
0.9218888218
 40
0.9375110521
 40
0.9531331247
 40
0.9687554909
 40
0.9843778139
 40
1.0
 40
1.0
 40
1.0
 40
1.0
 10
9.1014834891
 20
8.122391804
 30
0.0
 10
9.1037326899
 20
8.0732516989
 30
0.0
 10
9.1070703821
 20
7.9749143944
 30
0.0
 10
9.1085934392
 20
7.8273345868
 30
0.0
 10
9.1066324689
 20
7.6797589684
 30
0.0
 10
9.1011869334
 20
7.532271467
 30
0.0
 10
9.0937482878
 20
7.4095048203
 30
0.0
 10
9.0860597718
 20
7.3114198624
 30
0.0
 10
9.0794252575
 20
7.2379283068
 30
0.0
 10
9.0719234825
 20
7.1645203158
 30
0.0
 10
9.0635556221
 20
7.0912059717
 30
0.0
 10
9.054322813
 20
7.017995537
 30
0.0
 10
9.0442262478
 20
6.9448992017
 30
0.0
 10
9.0332674842
 20
6.8719272044
 30
0.0
 10
9.0234178913
 20
6.8112290384
 30
0.0
 10
9.0151086916
 20
6.7627431215
 30
0.0
 10
9.0086622135
 20
6.7264159771
 30
0.0
 10
9.0020013995
 20
6.6901275352
 30
0.0
 10
8.9951264829
 20
6.6538790404
 30
0.0
 10
8.9880377226
 20
6.6176717648
 30
0.0
 10
8.9819524332
 20
6.5875343994
 30
0.0
 10
8.9769775246
 20
6.5634464144
 30
0.0
 10
8.9731930121
 20
6.5453915068
 30
0.0
 10
8.969355182
 20
6.5273478599
 30
0.0
 10
8.9654641322
 20
6.5093156131
 30
0.0
 10
8.9615199322
 20
6.4912949148
 30
0.0
 10
8.9575228041
 20
6.4732858865
 30
0.0
 10
8.9541470356
 20
6.4582883827
 30
0.0
 10
8.9514198457
 20
6.4462964073
 30
0.0
 10
8.949361482
 20
6.4373053723
 30
0.0
 10
8.947291089
 20
6.4283171138
 30
0.0
 10
8.9455522741
 20
6.4208300324
 30
0.0
 10
8.9441538674
 20
6.4148420849
 30
0.0
 10
8.9431036044
 20
6.4103514027
 30
0.0
 10
8.9420543592
 20
6.4058604301
 30
0.0
 10
8.9411771543
 20
6.4021186141
 30
0.0
 10
8.9404699547
 20
6.3991265095
 30
0.0
 10
8.9399362882
 20
6.3968833152
 30
0.0
 10
8.9393975727
 20
6.3946413868
 30
0.0
 10
8.9388574375
 20
6.3923997374
 30
0.0
 10
8.9384140659
 20
6.3905299353
 30
0.0
 10
8.938067567
 20
6.3890319551
 30
0.0
 10
8.9377278921
 20
6.3875321915
 30
0.0
 10
8.9373893372
 20
6.3860322349
 30
0.0
 10
8.9370338234
 20
6.3845364542
 30
0.0
 10
8.936754304
 20
6.3834181346
 30
0.0
 10
8.9364571922
 20
6.382304457
 30
0.0
 10
8.9360325004
 20
6.3808271855
 30
0.0
 10
8.9355806239
 20
6.3793577755
 30
0.0
 10
8.9351300796
 20
6.3778878475
 30
0.0
 10
8.9346902786
 20
6.3764147044
 30
0.0
 10
8.9341574396
 20
6.3745684288
 30
0.0
 10
8.9335304117
 20
6.3723494392
 30
0.0
 10
8.9329084973
 20
6.3701290008
 30
0.0
 10
8.9322944147
 20
6.3679063654
 30
0.0
 10
8.931486998
 20
6.3649397454
 30
0.0
 10
8.930503161
 20
6.3612245909
 30
0.0
 10
8.9293653368
 20
6.3567552959
 30
0.0
 10
8.9282687755
 20
6.3522756711
 30
0.0
 10
8.9268609482
 20
6.3462898531
 30
0.0
 10
8.9251999314
 20
6.3387847347
 30
0.0
 10
8.9233657524
 20
6.329744956
 30
0.0
 10
8.9216938112
 20
6.3206737582
 30
0.0
 10
8.9201847104
 20
6.3115740521
 30
0.0
 10
8.9188382938
 20
6.3024488139
 30
0.0
 10
8.9172604492
 20
6.2902521504
 30
0.0
 10
8.9156964785
 20
6.274956318
 30
0.0
 10
8.9144765836
 20
6.2565465939
 30
0.0
 10
8.9139146915
 20
6.2381049125
 30
0.0
 10
8.9140117005
 20
6.2196550204
 30
0.0
 10
8.9147672448
 20
6.2012201042
 30
0.0
 10
8.9166510298
 20
6.176694991
 30
0.0
 10
8.9206470699
 20
6.1461871231
 30
0.0
 10
8.9280421264
 20
6.1100181803
 30
0.0
 10
8.9379973545
 20
6.0744675557
 30
0.0
 10
8.950467347
 20
6.0397194066
 30
0.0
 10
8.9653813541
 20
6.0059477641
 30
0.0
 10
8.9826682099
 20
5.9733270789
 30
0.0
 10
9.0022396042
 20
5.9420237787
 30
0.0
 10
9.0240042943
 20
5.9122042967
 30
0.0
 10
9.047835239
 20
5.8840085169
 30
0.0
 10
9.0736077061
 20
5.8575781192
 30
0.0
 10
9.0920058663
 20
5.8412244597
 30
0.0
 10
9.1014834891
 20
5.833391804
 30
0.0
  0
SPLINE
  5
29F
100
AcDbEntity
  8
0
100
AcDbSpline
 62
7
  6
CONTINUOUS
 70
0
 71
3
 72
50
 73
46
 74
0
 42
0.0000001
 43
0.0000001
 44
0.0000000001
 40
0.0
 40
0.0
 40
0.0
 40
0.0
 40
0.0000045894
 40
0.0000183564
 40
0.0000412992
 40
0.0000734159
 40
0.0001147047
 40
0.0001651639
 40
0.0002935861
 40
0.000458668
 40
0.0006603951
 40
0.000898753
 40
0.0011737272
 40
0.0018334667
 40
0.002639498
 40
0.0035917055
 40
0.0046899736
 40
0.0059341864
 40
0.0073241609
 40
0.0105400936
 40
0.0143350842
 40
0.0187064294
 40
0.0236514256
 40
0.0291669088
 40
0.0352487162
 40
0.0418925584
 40
0.0490941509
 40
0.056849113
 40
0.0739979735
 40
0.0932949049
 40
0.1146934047
 40
0.1381419476
 40
0.1635877839
 40
0.1909747835
 40
0.2202457366
 40
0.2513418876
 40
0.2842033889
 40
0.3549804867
 40
0.4320906101
 40
0.5150447775
 40
0.6033517694
 40
0.6965169238
 40
0.7940317767
 40
0.895378283
 40
1.0
 40
1.0
 40
1.0
 40
1.0
 10
9.1779834891
 20
8.452391804
 30
0.0
 10
9.1779834891
 20
8.4523920253
 30
0.0
 10
9.1779848251
 20
8.4523919786
 30
0.0
 10
9.177986205
 20
8.4523930071
 30
0.0
 10
9.1779895971
 20
8.4523939593
 30
0.0
 10
9.1779938328
 20
8.4523956497
 30
0.0
 10
9.1779994842
 20
8.4523976791
 30
0.0
 10
9.1780094222
 20
8.4524013607
 30
0.0
 10
9.1780249988
 20
8.4524070762
 30
0.0
 10
9.1780473985
 20
8.4524153228
 30
0.0
 10
9.1780747819
 20
8.4524253903
 30
0.0
 10
9.1781071352
 20
8.4524372857
 30
0.0
 10
9.1781602151
 20
8.4524567944
 30
0.0
 10
9.1782389848
 20
8.4524857332
 30
0.0
 10
9.1783484072
 20
8.4525259109
 30
0.0
 10
9.1784776829
 20
8.4525733523
 30
0.0
 10
9.178626799
 20
8.4526280444
 30
0.0
 10
9.1787957392
 20
8.4526899738
 30
0.0
 10
9.1790605489
 20
8.4527869887
 30
0.0
 10
9.1794408799
 20
8.452926144
 30
0.0
 10
9.1799563166
 20
8.4531143249
 30
0.0
 10
9.1805502249
 20
8.4533306194
 30
0.0
 10
9.1812222762
 20
8.4535747214
 30
0.0
 10
9.1819720851
 20
8.4538462733
 30
0.0
 10
9.1827992288
 20
8.4541447961
 30
0.0
 10
9.1837032271
 20
8.4544698079
 30
0.0
 10
9.1846835922
 20
8.4548208147
 30
0.0
 10
9.1861414646
 20
8.4553405076
 30
0.0
 10
9.1881502694
 20
8.4560512235
 30
0.0
 10
9.1907824001
 20
8.4569720425
 30
0.0
 10
9.1937051579
 20
8.457981738
 30
0.0
 10
9.1969129575
 20
8.459074051
 30
0.0
 10
9.2003996994
 20
8.4602426809
 30
0.0
 10
9.2041591979
 20
8.4614805935
 30
0.0
 10
9.2081849364
 20
8.4627806641
 30
0.0
 10
9.2124702937
 20
8.4641353386
 30
0.0
 10
9.2186764103
 20
8.4660518715
 30
0.0
 10
9.2270298829
 20
8.4685319407
 30
0.0
 10
9.2377479944
 20
8.4715276113
 30
0.0
 10
9.249336102
 20
8.4745435453
 30
0.0
 10
9.2617345797
 20
8.4775095968
 30
0.0
 10
9.2748806454
 20
8.4803550196
 30
0.0
 10
9.2887074428
 20
8.4830098764
 30
0.0
 10
9.303141722
 20
8.4854059842
 30
0.0
 10
9.3129784873
 20
8.4867691722
 30
0.0
 10
9.3179834891
 20
8.487391804
 30
0.0
  0
SPLINE
  5
2A0
100
AcDbEntity
  8
0
100
AcDbSpline
 62
7
  6
CONTINUOUS
 70
0
 71
3
 72
11
 73
7
 74
0
 42
0.0000001
 43
0.0000001
 44
0.0000000001
 40
0.0
 40
0.0
 40
0.0
 40
0.0
 40
0.2422025738
 40
0.4905425286
 40
0.7436268714
 40
1.0
 40
1.0
 40
1.0
 40
1.0
 10
8.8847544403
 20
9.009891804
 30
0.0
 10
8.8841702681
 20
8.9865534933
 30
0.0
 10
8.8843663345
 20
8.9392418085
 30
0.0
 10
8.8885567655
 20
8.8676550025
 30
0.0
 10
8.8966103793
 20
8.795026105
 30
0.0
 10
8.9044751101
 20
8.7465298346
 30
0.0
 10
8.9090290089
 20
8.722241557
 30
0.0
  0
LINE
  5
2A1
100
AcDbEntity
  8
0
100
AcDbLine
 62
7
  6
CONTINUOUS
 10
8.9090290089
 20
8.722241557
 11
8.9093632217
 21
8.7204649154
  0
LINE
  5
2A2
100
AcDbEntity
  8
0
100
AcDbLine
 62
7
  6
CONTINUOUS
 10
8.9093632217
 20
8.7204649154
 11
8.9123357566
 21
8.7047306008
  0
LINE
  5
2A3
100
AcDbEntity
  8
0
100
AcDbLine
 62
7
  6
CONTINUOUS
 10
8.9123357566
 20
8.7047306008
 11
8.9127780996
 21
8.702391804
  0
LINE
  5
2A4
100
AcDbEntity
  8
0
100
AcDbLine
 62
7
  6
CONTINUOUS
 10
8.885367905
 20
9.077146064
 11
8.8853902649
 21
9.0772932578
  0
SPLINE
  5
2A5
100
AcDbEntity
  8
0
100
AcDbSpline
 62
7
  6
CONTINUOUS
 70
0
 71
3
 72
50
 73
46
 74
0
 42
0.0000001
 43
0.0000001
 44
0.0000000001
 40
0.0
 40
0.0
 40
0.0
 40
0.0
 40
0.104621643
 40
0.2059680788
 40
0.3034828687
 40
0.3966479677
 40
0.4849549124
 40
0.5679090424
 40
0.645019139
 40
0.7157962212
 40
0.7486577195
 40
0.779753871
 40
0.8090248278
 40
0.8364118346
 40
0.8618576816
 40
0.8853062392
 40
0.9067047574
 40
0.9260017106
 40
0.9431505972
 40
0.9509055741
 40
0.9581071827
 40
0.9647510418
 40
0.9708328666
 40
0.9763483673
 40
0.9812933808
 40
0.9856647442
 40
0.989459755
 40
0.9926757117
 40
0.9940656999
 40
0.9953099279
 40
0.9964082121
 40
0.997360436
 40
0.9981664833
 40
0.9988262377
 40
0.9991012187
 40
0.9993395829
 40
0.9995413157
 40
0.9997064026
 40
0.999834829
 40
0.99988529
 40
0.9999265804
 40
0.9999586984
 40
0.9999816422
 40
0.99999541
 40
1.0
 40
1.0
 40
1.0
 40
1.0
 10
9.3179834891
 20
9.532391804
 30
0.0
 10
9.3129784909
 20
9.5330144354
 30
0.0
 10
9.3031417324
 20
9.5343776224
 30
0.0
 10
9.288707463
 20
9.5367737282
 30
0.0
 10
9.2748806745
 20
9.5394285827
 30
0.0
 10
9.2617346164
 20
9.542274003
 30
0.0
 10
9.249336145
 20
9.5452400521
 30
0.0
 10
9.2377480425
 20
9.5482559838
 30
0.0
 10
9.2270299344
 20
9.5512516526
 30
0.0
 10
9.2186764637
 20
9.5537317205
 30
0.0
 10
9.2124703478
 20
9.5556482525
 30
0.0
 10
9.2081849904
 20
9.5570029268
 30
0.0
 10
9.2041592511
 20
9.5583029972
 30
0.0
 10
9.2003997516
 20
9.5595409099
 30
0.0
 10
9.1969130081
 20
9.56070954
 30
0.0
 10
9.1937052064
 20
9.5618018535
 30
0.0
 10
9.1907824461
 20
9.5628115496
 30
0.0
 10
9.1881503123
 20
9.5637323695
 30
0.0
 10
9.1861415046
 20
9.5644430863
 30
0.0
 10
9.1846836296
 20
9.56496278
 30
0.0
 10
9.1837032623
 20
9.5653137876
 30
0.0
 10
9.1827992617
 20
9.5656388001
 30
0.0
 10
9.1819721156
 20
9.5659373236
 30
0.0
 10
9.1812223043
 20
9.5662088764
 30
0.0
 10
9.1805502507
 20
9.5664529794
 30
0.0
 10
9.1799563399
 20
9.5666692749
 30
0.0
 10
9.1794409004
 20
9.5668574569
 30
0.0
 10
9.1790605667
 20
9.5669966131
 30
0.0
 10
9.1787957546
 20
9.5670936287
 30
0.0
 10
9.1786268123
 20
9.5671555586
 30
0.0
 10
9.1784776939
 20
9.5672102513
 30
0.0
 10
9.1783484159
 20
9.5672576934
 30
0.0
 10
9.1782389914
 20
9.5672978716
 30
0.0
 10
9.1781602199
 20
9.5673268109
 30
0.0
 10
9.1781071388
 20
9.5673463201
 30
0.0
 10
9.1780747845
 20
9.5673582158
 30
0.0
 10
9.1780474004
 20
9.5673682836
 30
0.0
 10
9.1780250001
 20
9.5673765305
 30
0.0
 10
9.178009423
 20
9.5673822463
 30
0.0
 10
9.1779994847
 20
9.5673859282
 30
0.0
 10
9.1779938331
 20
9.5673879577
 30
0.0
 10
9.1779895973
 20
9.5673896482
 30
0.0
 10
9.1779862051
 20
9.5673906007
 30
0.0
 10
9.177984825
 20
9.5673916292
 30
0.0
 10
9.1779834891
 20
9.5673915828
 30
0.0
 10
9.1779834891
 20
9.567391804
 30
0.0
  0
SPLINE
  5
2A6
100
AcDbEntity
  8
0
100
AcDbSpline
 62
7
  6
CONTINUOUS
 70
0
 71
3
 72
50
 73
46
 74
0
 42
0.0000001
 43
0.0000001
 44
0.0000000001
 40
0.0
 40
0.0
 40
0.0
 40
0.0
 40
0.1046217117
 40
0.2059682129
 40
0.3034830613
 40
0.3966482118
 40
0.4849552003
 40
0.567909365
 40
0.6450194866
 40
0.7157965832
 40
0.7486580843
 40
0.7797542354
 40
0.8090251887
 40
0.8364121888
 40
0.8618580259
 40
0.8853065699
 40
0.906705071
 40
0.926002004
 40
0.9431508664
 40
0.9509058295
 40
0.9581074232
 40
0.9647512665
 40
0.9708330752
 40
0.9763485596
 40
0.981293557
 40
0.9856649036
 40
0.9894598956
 40
0.9926758301
 40
0.9940658055
 40
0.9953100194
 40
0.9964082887
 40
0.9973604973
 40
0.9981665298
 40
0.9988262703
 40
0.999101245
 40
0.9993396033
 40
0.9995413308
 40
0.9997064131
 40
0.9998348356
 40
0.9998852949
 40
0.9999265839
 40
0.9999587007
 40
0.9999816435
 40
0.9999954105
 40
1.0
 40
1.0
 40
1.0
 40
1.0
 10
9.4479834891
 20
8.487391804
 30
0.0
 10
9.4529884907
 20
8.4867691723
 30
0.0
 10
9.4628252555
 20
8.4854059843
 30
0.0
 10
9.477259534
 20
8.4830098766
 30
0.0
 10
9.4910863307
 20
8.48035502
 30
0.0
 10
9.504232396
 20
8.4775095974
 30
0.0
 10
9.5166308732
 20
8.4745435461
 30
0.0
 10
9.5282189804
 20
8.4715276122
 30
0.0
 10
9.5389370917
 20
8.4685319417
 30
0.0
 10
9.5472905642
 20
8.4660518727
 30
0.0
 10
9.5534966807
 20
8.4641353399
 30
0.0
 10
9.557782038
 20
8.4627806653
 30
0.0
 10
9.5618077766
 20
8.4614805948
 30
0.0
 10
9.5655672751
 20
8.4602426821
 30
0.0
 10
9.5690540172
 20
8.4590740522
 30
0.0
 10
9.5722618169
 20
8.4579817392
 30
0.0
 10
9.5751845748
 20
8.4569720436
 30
0.0
 10
9.5778167058
 20
8.4560512246
 30
0.0
 10
9.5798255108
 20
8.4553405086
 30
0.0
 10
9.5812833834
 20
8.4548208157
 30
0.0
 10
9.5822637487
 20
8.4544698088
 30
0.0
 10
9.5831677471
 20
8.454144797
 30
0.0
 10
9.583994891
 20
8.4538462741
 30
0.0
 10
9.5847447001
 20
8.4535747221
 30
0.0
 10
9.5854167515
 20
8.4533306201
 30
0.0
 10
9.58601066
 20
8.4531143255
 30
0.0
 10
9.5865260969
 20
8.4529261445
 30
0.0
 10
9.5869064281
 20
8.4527869891
 30
0.0
 10
9.587171238
 20
8.4526899742
 30
0.0
 10
9.5873401783
 20
8.4526280448
 30
0.0
 10
9.5874892946
 20
8.4525733527
 30
0.0
 10
9.5876185705
 20
8.4525259112
 30
0.0
 10
9.587727993
 20
8.4524857334
 30
0.0
 10
9.5878067628
 20
8.4524567946
 30
0.0
 10
9.5878598428
 20
8.4524372859
 30
0.0
 10
9.5878921962
 20
8.4524253905
 30
0.0
 10
9.5879195796
 20
8.4524153229
 30
0.0
 10
9.5879419793
 20
8.4524070763
 30
0.0
 10
9.587957556
 20
8.4524013608
 30
0.0
 10
9.5879674941
 20
8.4523976791
 30
0.0
 10
9.5879731455
 20
8.4523956498
 30
0.0
 10
9.5879773812
 20
8.4523939593
 30
0.0
 10
9.5879807732
 20
8.4523930071
 30
0.0
 10
9.5879821532
 20
8.4523919786
 30
0.0
 10
9.5879834891
 20
8.4523920253
 30
0.0
 10
9.5879834891
 20
8.452391804
 30
0.0
  0
LINE
  5
2A7
100
AcDbEntity
  8
0
100
AcDbLine
 62
7
  6
CONTINUOUS
 10
8.8864472604
 20
9.092412495
 11
8.8863753082
 21
9.0918990087
  0
SPLINE
  5
2A8
100
AcDbEntity
  8
0
100
AcDbSpline
 62
7
  6
CONTINUOUS
 70
0
 71
3
 72
11
 73
7
 74
0
 42
0.0000001
 43
0.0000001
 44
0.0000000001
 40
0.0
 40
0.0
 40
0.0
 40
0.0
 40
0.2561034637
 40
0.5090587569
 40
0.7574709503
 40
1.0
 40
1.0
 40
1.0
 40
1.0
 10
8.9088683338
 20
8.722391804
 30
0.0
 10
8.9042929591
 20
8.7466418496
 30
0.0
 10
8.8963566858
 20
8.7950711277
 30
0.0
 10
8.8881068849
 20
8.8676222166
 30
0.0
 10
8.8836272654
 20
8.939193836
 30
0.0
 10
8.8831729995
 20
8.9865260208
 30
0.0
 10
8.8836106676
 20
9.009891804
 30
0.0
  0
SPLINE
  5
2A9
100
AcDbEntity
  8
0
100
AcDbSpline
 62
7
  6
CONTINUOUS
 70
0
 71
3
 72
15
 73
11
 74
0
 42
0.0000001
 43
0.0000001
 44
0.0000000001
 40
0.0
 40
0.0
 40
0.0
 40
0.0
 40
0.2145690536
 40
0.4034396537
 40
0.5661540812
 40
0.7023996489
 40
0.8123392504
 40
0.8576971106
 40
0.896881758
 40
1.0
 40
1.0
 40
1.0
 40
1.0
 10
8.8898040343
 20
9.1160123026
 30
0.0
 10
8.8898284058
 20
9.1161189373
 30
0.0
 10
8.8898763529
 20
9.1163189603
 30
0.0
 10
8.8899515793
 20
9.1165976647
 30
0.0
 10
8.890025182
 20
9.1168352485
 30
0.0
 10
8.8900971211
 20
9.1170311545
 30
0.0
 10
8.8901582352
 20
9.1171665116
 30
0.0
 10
8.8902079363
 20
9.1172531266
 30
0.0
 10
8.890260627
 20
9.1173302793
 30
0.0
 10
8.8903229922
 20
9.1173917602
 30
0.0
 10
8.8903755604
 20
9.1173917482
 30
0.0
  0
SPLINE
  5
2AA
100
AcDbEntity
  8
0
100
AcDbSpline
 62
7
  6
CONTINUOUS
 70
0
 71
3
 72
30
 73
26
 74
0
 42
0.0000001
 43
0.0000001
 44
0.0000000001
 40
0.0
 40
0.0
 40
0.0
 40
0.0
 40
0.063530756
 40
0.1267593141
 40
0.1896674345
 40
0.2522486632
 40
0.3145155134
 40
0.3455473422
 40
0.3765176869
 40
0.4074358968
 40
0.4383132248
 40
0.4691624058
 40
0.4999971867
 40
0.5308319674
 40
0.5616811478
 40
0.5925584749
 40
0.6234766837
 40
0.6544470269
 40
0.6854788542
 40
0.7477457007
 40
0.8103269247
 40
0.8417433465
 40
0.8732408937
 40
0.9364694593
 40
1.0
 40
1.0
 40
1.0
 40
1.0
 10
11.097040872
 20
9.009891804
 30
0.0
 10
11.0896973233
 20
8.997135659
 30
0.0
 10
11.0755274605
 20
8.9714016796
 30
0.0
 10
11.0560254568
 20
8.932006416
 30
0.0
 10
11.0386356143
 20
8.8918668959
 30
0.0
 10
11.0236908617
 20
8.8509862207
 30
0.0
 10
11.0135600608
 20
8.8162871886
 30
0.0
 10
11.0070395447
 20
8.7882382277
 30
0.0
 10
11.0029809919
 20
8.7670903592
 30
0.0
 10
10.9997844028
 20
8.7458311681
 30
0.0
 10
10.9974787749
 20
8.7244848267
 30
0.0
 10
10.9960864029
 20
8.7030786725
 30
0.0
 10
10.9956207809
 20
8.6816420729
 30
0.0
 10
10.9960863795
 20
8.660205473
 30
0.0
 10
10.9974787285
 20
8.6387993174
 30
0.0
 10
10.9997843336
 20
8.617452975
 30
0.0
 10
11.0029809014
 20
8.5961937783
 30
0.0
 10
11.0070394302
 20
8.5750459182
 30
0.0
 10
11.0135599327
 20
8.5469968952
 30
0.0
 10
11.0236905977
 20
8.5122982959
 30
0.0
 10
11.0361290522
 20
8.4782728625
 30
0.0
 10
11.0472971052
 20
8.4514250316
 30
0.0
 10
11.0592541068
 20
8.4247544454
 30
0.0
 10
11.075528112
 20
8.3918824509
 30
0.0
 10
11.0896959182
 20
8.3661479109
 30
0.0
 10
11.0970394332
 20
8.353391804
 30
0.0
  0
SPLINE
  5
2AB
100
AcDbEntity
  8
0
100
AcDbSpline
 62
7
  6
CONTINUOUS
 70
0
 71
3
 72
30
 73
26
 74
0
 42
0.0000001
 43
0.0000001
 44
0.0000000001
 40
0.0
 40
0.0
 40
0.0
 40
0.0
 40
0.0635305407
 40
0.1267591063
 40
0.1582566535
 40
0.1896730752
 40
0.2522542993
 40
0.3145211458
 40
0.3455529731
 40
0.3765233163
 40
0.4074415251
 40
0.4383188522
 40
0.4691680326
 40
0.5000028133
 40
0.5308375943
 40
0.5616867752
 40
0.5925641032
 40
0.6234823131
 40
0.6544526578
 40
0.6854844866
 40
0.7477513368
 40
0.8103325655
 40
0.8732406859
 40
0.9364692439
 40
1.0
 40
1.0
 40
1.0
 40
1.0
 10
11.097039433
 20
9.666391804
 30
0.0
 10
11.0896959179
 20
9.6536356972
 30
0.0
 10
11.0755281121
 20
9.627901157
 30
0.0
 10
11.0592541067
 20
9.5950291626
 30
0.0
 10
11.0472971052
 20
9.5683585764
 30
0.0
 10
11.0361290521
 20
9.5415107456
 30
0.0
 10
11.0236905976
 20
9.5074853121
 30
0.0
 10
11.0135599327
 20
9.4727867128
 30
0.0
 10
11.0070394302
 20
9.4447376898
 30
0.0
 10
11.0029809014
 20
9.4235898297
 30
0.0
 10
10.9997843335
 20
9.402330633
 30
0.0
 10
10.9974787285
 20
9.3809842906
 30
0.0
 10
10.9960863795
 20
9.359578135
 30
0.0
 10
10.9956207809
 20
9.3381415351
 30
0.0
 10
10.9960864029
 20
9.3167049355
 30
0.0
 10
10.9974787749
 20
9.2952987813
 30
0.0
 10
10.9997844029
 20
9.2739524399
 30
0.0
 10
11.0029809919
 20
9.2526932488
 30
0.0
 10
11.0070395447
 20
9.2315453803
 30
0.0
 10
11.0135600608
 20
9.2034964194
 30
0.0
 10
11.0236908618
 20
9.1687973873
 30
0.0
 10
11.0386356144
 20
9.1279167121
 30
0.0
 10
11.0560254569
 20
9.0877771921
 30
0.0
 10
11.0755274605
 20
9.0483819283
 30
0.0
 10
11.0896973235
 20
9.0226479491
 30
0.0
 10
11.0970408722
 20
9.009891804
 30
0.0
  0
ENDSEC
  0
SECTION
  2
OBJECTS
  0
DICTIONARY
  5
C
100
AcDbDictionary
280
0
281
1
  3
ACAD_GROUP
350
D
  3
ACAD_MLINESTYLE
350
17
  3
ACAD_LAYOUT
350
1A
  3
ACAD_PLOTSETTINGS
350
19
  3
ACAD_PLOTSTYLENAME
350
E
  0
DICTIONARY
  5
D
102
{ACAD_REACTORS
330
C
102
}
100
AcDbDictionary
280
0
281
1
  0
ACDBDICTIONARYWDFLT
  5
E
102
{ACAD_REACTORS
330
C
102
}
100
AcDbDictionary
281
1
  3
Normal
350
F
100
AcDbDictionaryWithDefault
340
F
  0
DICTIONARY
  5
17
102
{ACAD_REACTORS
330
C
102
}
100
AcDbDictionary
280
0
281
1
  3
Standard
350
18
  0
DICTIONARY
  5
19
102
{ACAD_REACTORS
330
C
102
}
100
AcDbDictionary
281
1
  0
DICTIONARY
  5
1A
102
{ACAD_REACTORS
330
C
102
}
100
AcDbDictionary
281
1
  3
Model
350
2AC
  3
Layout1
350
2AD
  0
ACDBPLACEHOLDER
  5
F
102
{ACAD_REACTORS
330
E
102
}
  0
MLINESTYLE
  5
18
102
{ACAD_REACTORS
330
17
102
}
100
AcDbMlineStyle
  2
STANDARD
 70
0
  3

 62
256
 51
90.0
 52
90.0
 71
2
 49
0.5
 62
256
  6
BYLAYER
 49
-0.5
 62
256
  6
BYLAYER
  0
LAYOUT
  5
2AC
102
{ACAD_REACTORS
330
1A
102
}
100
AcDbPlotSettings
  1

  2
none_device
  4
ANSI_C_(22.00_x_17.00_Inches)
  6

 40
0.0
 41
0.0
 42
0.0
 43
0.0
 44
558.8
 45
431.8
 46
0.0
 47
0.0
 48
0.0
 49
0.0
140
0.0
141
0.0
142
1.0
143
1.0
 70
1024
 72
0
 73
0
 74
0
  7

 75
0
147
1.0
148
0.0
149
0.0
100
AcDbLayout
  1
Model
 70
0
 71
0
 10
0.0
 20
0.0
 11
22.0
 21
17.0
 12
0.0
 22
0.0
 32
0.0
 14
0.0
 24
0.0
 34
0.0
 15
0.0
 25
0.0
 35
0.0
146
0.0
 13
0.0
 23
0.0
 33
0.0
 16
1.0
 26
0.0
 36
0.0
 17
0.0
 27
1.0
 37
0.0
 76
0
330
205
345
0
346
0
  0
LAYOUT
  5
2AD
102
{ACAD_REACTORS
330
1A
102
}
100
AcDbPlotSettings
  1

  2
none_device
  4
ANSI_C_(22.00_x_17.00_Inches)
  6

 40
0.0
 41
0.0
 42
0.0
 43
0.0
 44
558.8
 45
431.8
 46
0.0
 47
0.0
 48
0.0
 49
0.0
140
0.0
141
0.0
142
1.0
143
1.0
 70
0
 72
0
 73
0
 74
0
  7

 75
0
147
1.0
148
0.0
149
0.0
100
AcDbLayout
  1
Layout1
 70
0
 71
1
 10
0.0
 20
0.0
 11
22.0
 21
17.0
 12
0.0
 22
0.0
 32
0.0
 14
0.0
 24
0.0
 34
0.0
 15
0.0
 25
0.0
 35
0.0
146
0.0
 13
0.0
 23
0.0
 33
0.0
 16
1.0
 26
0.0
 36
0.0
 17
0.0
 27
1.0
 37
0.0
 76
0
330
206
345
0
346
0
  0
ENDSEC
  0
EOF
