  0
SECTION
  2
HEADER
  9
$ACADVER
  1
AC1015
  9
$DWGCODEPAGE
  3
ANSI_1252
  9
$EXTMAX
 10
11.6929133858
 20
8.2677165354
 30
0.0
  9
$EXTMIN
 10
0.0
 20
-0.0
 30
0.0
  9
$LIMMIN
 10
0.0
 20
-0.0
  9
$LIMMAX
 10
11.6929133858
 20
8.2677165354
  9
$VIEWCTR
 10
5.8464566929
 20
4.1338582677
  9
$VIEWSIZE
 40
8.2677165354
  9
$CLAYER
  8
0
  9
$LTSCALE
 40
0.6431102362
  9
$CELTYPE
  6
BYLAYER
  9
$DIMSCALE
 40
1.0
  9
$DIMASZ
 40
0.1
  9
$DIMEXO
 40
0.0730807087
  9
$DIMDLI
 40
0.4443307087
  9
$DIMEXE
 40
0.2104724409
  9
$DIMCEN
 40
0.1052362205
  9
$DIMLFAC
 40
1.0
  9
$DIMBLK
  1
_FILLED
  9
$DIMTXT
 40
0.08
  9
$DIMTOL
 70
1
  9
$DIMLIM
 70
0
  9
$DIMTFAC
 40
1.0
  9
$DIMTP
 40
0.01
  9
$DIMTM
 40
0.01
  9
$PDMODE
 70
3
  9
$PDSIZE
 40
0.06
  9
$HANDSEED
  5
261
  9
$TILEMODE
 70
1
  9
$MEASUREMENT
 70
0
  9
$INSUNITS
 70
1
  0
ENDSEC
  0
SECTION
  2
CLASSES
  0
CLASS
  1
ACDBDICTIONARYWDFLT
  2
AcDbDictionaryWithDefault
  3
AutoCAD 2000
 90
0
280
0
281
0
  0
CLASS
  1
ACDBPLACEHOLDER
  2
AcDbPlaceHolder
  3
AutoCAD 2000
 90
0
280
0
281
0
  0
CLASS
  1
LAYOUT
  2
AcDbLayout
  3
AutoCAD 2000
 90
0
280
0
281
0
  0
ENDSEC
  0
SECTION
  2
TABLES
  0
TABLE
  2
VPORT
  5
8
100
AcDbSymbolTable
 70
2
  0
VPORT
  5
1F4
100
AcDbSymbolTableRecord
100
AcDbViewportTableRecord
  2
*ACTIVE
 70
0
 10
0.0
 20
0.0
 11
1.0
 21
1.0
 12
5.8464566929
 22
4.1338582677
 13
0.0
 23
0.0
 14
1.0
 24
1.0
 15
0.0
 25
0.0
 16
0.0
 26
0.0
 36
1.0
 17
0.0
 27
0.0
 37
0.0
 40
8.2677165354
 41
1.4142857143
 42
50.0
 43
0.0
 44
0.0
 50
0.0
 51
0.0
 71
0
 72
100
 73
1
 74
1
 75
0
 76
0
 77
0
 78
0
  0
ENDTAB
  0
TABLE
  2
LTYPE
  5
5
100
AcDbSymbolTable
 70
6
  0
LTYPE
  5
14
100
AcDbSymbolTableRecord
100
AcDbLinetypeTableRecord
  2
BYBLOCK
 70
0
  3

 72
65
 73
0
 40
0.0
  0
LTYPE
  5
15
100
AcDbSymbolTableRecord
100
AcDbLinetypeTableRecord
  2
BYLAYER
 70
0
  3

 72
65
 73
0
 40
0.0
  0
LTYPE
  5
16
100
AcDbSymbolTableRecord
100
AcDbLinetypeTableRecord
  2
CONTINUOUS
 70
64
  3
Solid line
 72
65
 73
0
 40
0.0
  0
LTYPE
  5
1F5
100
AcDbSymbolTableRecord
100
AcDbLinetypeTableRecord
  2
CENTER
 70
64
  3
____ _ ____ _ ____ _ ____ _ ____ _ ____ _ ____
 72
65
 73
4
 40
0.6
 49
0.375
 74
0
 49
-0.075
 74
0
 49
0.075
 74
0
 49
-0.075
 74
0
  0
LTYPE
  5
1F6
100
AcDbSymbolTableRecord
100
AcDbLinetypeTableRecord
  2
HIDDEN
 70
64
  3
- - - - - - - - - - - - - - - - - - - -
 72
65
 73
2
 40
0.2
 49
0.1
 74
0
 49
-0.1
 74
0
  0
LTYPE
  5
1F7
100
AcDbSymbolTableRecord
100
AcDbLinetypeTableRecord
  2
PHANTOM
 70
64
  3
_____ _ _ _____ _ _ _____ _ _ _____
 72
65
 73
6
 40
0.8
 49
0.45
 74
0
 49
-0.05
 74
0
 49
0.1
 74
0
 49
-0.05
 74
0
 49
0.1
 74
0
 49
-0.05
 74
0
  0
LTYPE
  5
1F8
100
AcDbSymbolTableRecord
100
AcDbLinetypeTableRecord
  2
DOT
 70
64
  3
. . . . . . . . . . . . . . . . . . . .
 72
65
 73
2
 40
0.2
 49
0.1
 74
0
 49
-0.1
 74
0
  0
LTYPE
  5
1F9
100
AcDbSymbolTableRecord
100
AcDbLinetypeTableRecord
  2
DASHED
 70
64
  3
- - - - - - - - - - - - - - - - - - - -
 72
65
 73
2
 40
0.2
 49
0.1
 74
0
 49
-0.1
 74
0
  0
ENDTAB
  0
TABLE
  2
LAYER
  5
2
100
AcDbSymbolTable
 70
36
  0
LAYER
  5
10
100
AcDbSymbolTableRecord
100
AcDbLayerTableRecord
  2
0
 70
0
 62
7
  6
CONTINUOUS
370
-3
390
F
  0
LAYER
  5
1FA
100
AcDbSymbolTableRecord
100
AcDbLayerTableRecord
  2
DEFAULT_1
 70
0
 62
7
  6
CENTER
370
-3
390
F
  0
LAYER
  5
1FB
100
AcDbSymbolTableRecord
100
AcDbLayerTableRecord
  2
DEFAULT_2
 70
0
 62
8
  6
HIDDEN
370
-3
390
F
  0
LAYER
  5
1FC
100
AcDbSymbolTableRecord
100
AcDbLayerTableRecord
  2
DEFAULT_3
 70
0
 62
7
  6
PHANTOM
370
-3
390
F
  0
LAYER
  5
1FD
100
AcDbSymbolTableRecord
100
AcDbLayerTableRecord
  2
3_ALL_SYMBOLS
 70
0
 62
7
  6
CONTINUOUS
370
-3
390
F
  0
LAYER
  5
1FE
100
AcDbSymbolTableRecord
100
AcDbLayerTableRecord
  2
DEFAULT_COORDINATE_SYSTEM
 70
0
 62
7
  6
CONTINUOUS
370
-3
390
F
  0
LAYER
  5
1FF
100
AcDbSymbolTableRecord
100
AcDbLayerTableRecord
  2
DEFAULT_DATUM_AXES
 70
0
 62
7
  6
CONTINUOUS
370
-3
390
F
  0
LAYER
  5
200
100
AcDbSymbolTableRecord
100
AcDbLayerTableRecord
  2
DEFAULT_DATUM_CURVES
 70
0
 62
7
  6
CONTINUOUS
370
-3
390
F
  0
LAYER
  5
201
100
AcDbSymbolTableRecord
100
AcDbLayerTableRecord
  2
DEFAULT_DATUM_PLANES
 70
0
 62
7
  6
CONTINUOUS
370
-3
390
F
  0
ENDTAB
  0
TABLE
  2
STYLE
  5
3
100
AcDbSymbolTable
 70
1
  0
STYLE
  5
11
100
AcDbSymbolTableRecord
100
AcDbTextStyleTableRecord
  2
STANDARD
 70
0
 40
0.0
 41
0.8
 50
0.0
 71
0
 42
0.2
  3
txt
  4

  0
STYLE
  5
202
100
AcDbSymbolTableRecord
100
AcDbTextStyleTableRecord
  2
TEXTSTYLE_1
 70
0
 40
0.0
 41
0.8
 50
0.0
 71
0
 42
0.2
  3
gdt
  4

  0
ENDTAB
  0
TABLE
  2
VIEW
  5
6
100
AcDbSymbolTable
 70
0
  0
ENDTAB
  0
TABLE
  2
UCS
  5
7
100
AcDbSymbolTable
 70
0
  0
ENDTAB
  0
TABLE
  2
APPID
  5
9
100
AcDbSymbolTable
 70
1
  0
APPID
  5
203
100
AcDbSymbolTableRecord
100
AcDbRegAppTableRecord
  2
ACAD
 70
0
  0
ENDTAB
  0
TABLE
  2
BLOCK_RECORD
  5
1
100
AcDbSymbolTable
 70
0
  0
BLOCK_RECORD
  5
204
100
AcDbSymbolTableRecord
100
AcDbBlockTableRecord
  2
*Model_Space
  0
BLOCK_RECORD
  5
205
100
AcDbSymbolTableRecord
100
AcDbBlockTableRecord
  2
*Paper_Space
  0
ENDTAB
  0
TABLE
  2
DIMSTYLE
  5
A
100
AcDbSymbolTable
 70
1
100
AcDbDimStyleTable
 71
0
  0
DIMSTYLE
105
206
100
AcDbSymbolTableRecord
100
AcDbDimStyleTableRecord
  2
STANDARD
 70
0
  3

  4

 40
1.0
 41
0.1
 42
0.0625
 43
0.38
 44
0.18
 45
0.0
 46
0.0
 47
0.01
 48
0.01
140
0.08
141
0.09
142
0.0
143
25.4
144
1.0
145
0.0
146
1.0
147
0.09
 71
1.0
 72
0.0
 73
1
 74
1
 75
0
 76
0
 77
0
 78
4
170
0
171
2
172
0
173
0
174
0
175
0
176
0
177
0
178
0
270
2
271
2
272
2
273
2
274
2
275
0
280
0
281
0
282
0
283
1
284
4
285
0
286
0
287
3
288
0
340
11
  0
ENDTAB
  0
ENDSEC
  0
SECTION
  2
BLOCKS
  0
BLOCK
  5
20
100
AcDbEntity
  8
0
100
AcDbBlockBegin
  2
*Model_Space
 70
0
 10
0.0
 20
0.0
 30
0.0
  3
*Model_Space
  1

  0
ENDBLK
  5
21
100
AcDbEntity
  8
0
100
AcDbBlockEnd
  0
BLOCK
  5
1C
100
AcDbEntity
  8
0
100
AcDbBlockBegin
  2
*Paper_Space
 70
0
 10
0.0
 20
0.0
 30
0.0
  3
*Paper_Space
  1

  0
ENDBLK
  5
1D
100
AcDbEntity
  8
0
100
AcDbBlockEnd
  0
ENDSEC
  0
SECTION
  2
ENTITIES
  0
LINE
  5
207
100
AcDbEntity
  8
0
100
AcDbLine
 62
6
  6
CONTINUOUS
 10
2.5144017876
 20
7.4224723408
 11
2.5144017876
 21
0.9224723408
  0
LINE
  5
208
100
AcDbEntity
  8
0
100
AcDbLine
 62
6
  6
CONTINUOUS
 10
2.6294017876
 20
7.3074723408
 11
2.6294017876
 21
1.0374723408
  0
LINE
  5
209
100
AcDbEntity
  8
0
100
AcDbLine
 62
6
  6
CONTINUOUS
 10
2.5144017876
 20
0.9224723408
 11
9.0144017876
 21
0.9224723408
  0
LINE
  5
20A
100
AcDbEntity
  8
0
100
AcDbLine
 62
6
  6
CONTINUOUS
 10
2.6294017876
 20
1.0374723408
 11
8.8994017876
 21
1.0374723408
  0
LINE
  5
20B
100
AcDbEntity
  8
0
100
AcDbLine
 62
6
  6
CONTINUOUS
 10
6.0994017876
 20
1.6224723408
 11
5.4294017876
 21
1.6224723408
  0
LINE
  5
20C
100
AcDbEntity
  8
0
100
AcDbLine
 62
9
  6
CONTINUOUS
 10
6.0994017876
 20
1.6399357505
 11
5.4294017876
 21
1.6399357505
  0
LINE
  5
20D
100
AcDbEntity
  8
0
100
AcDbLine
 62
7
  6
CONTINUOUS
 10
4.7019017876
 20
5.2049723026
 11
4.7019017876
 21
3.139972379
  0
LINE
  5
20E
100
AcDbEntity
  8
0
100
AcDbLine
 62
9
  6
CONTINUOUS
 10
4.885235121
 20
5.0236390075
 11
4.885235121
 21
3.3213056741
  0
LINE
  5
20F
100
AcDbEntity
  8
0
100
AcDbLine
 62
7
  6
CONTINUOUS
 10
4.7319018258
 20
3.1099723408
 11
5.3994017876
 21
3.1099723408
  0
LINE
  5
210
100
AcDbEntity
  8
0
100
AcDbLine
 62
7
  6
CONTINUOUS
 10
6.1294017876
 20
3.1099723408
 11
6.7969017495
 21
3.1099723408
  0
LINE
  5
211
100
AcDbEntity
  8
0
100
AcDbLine
 62
9
  6
CONTINUOUS
 10
5.4294017876
 20
3.1151852531
 11
6.0994017876
 21
3.1151852531
  0
LINE
  5
212
100
AcDbEntity
  8
0
100
AcDbLine
 62
9
  6
CONTINUOUS
 10
4.913235121
 20
3.2933056741
 11
5.3994017876
 21
3.2933056741
  0
LINE
  5
213
100
AcDbEntity
  8
0
100
AcDbLine
 62
9
  6
CONTINUOUS
 10
6.1294017876
 20
3.2933056741
 11
6.6155684543
 21
3.2933056741
  0
LINE
  5
214
100
AcDbEntity
  8
0
100
AcDbLine
 62
9
  6
CONTINUOUS
 10
5.0519017876
 20
3.4899723408
 11
5.0519017876
 21
4.8549723408
  0
LINE
  5
215
100
AcDbEntity
  8
0
100
AcDbLine
 62
9
  6
CONTINUOUS
 10
5.0819017876
 20
3.4599723408
 11
5.0819017876
 21
4.8849723408
  0
LINE
  5
216
100
AcDbEntity
  8
0
100
AcDbLine
 62
9
  6
CONTINUOUS
 10
6.4469017876
 20
3.4599723408
 11
6.1294017876
 21
3.4599723408
  0
LINE
  5
217
100
AcDbEntity
  8
0
100
AcDbLine
 62
9
  6
CONTINUOUS
 10
5.3994017876
 20
3.4599723408
 11
5.0819017876
 21
3.4599723408
  0
LINE
  5
218
100
AcDbEntity
  8
0
100
AcDbLine
 62
9
  6
CONTINUOUS
 10
6.4769017876
 20
3.4899723408
 11
6.1294017876
 21
3.4899723408
  0
LINE
  5
219
100
AcDbEntity
  8
0
100
AcDbLine
 62
9
  6
CONTINUOUS
 10
5.0519017876
 20
3.4899723408
 11
5.3994017876
 21
3.4899723408
  0
LINE
  5
21A
100
AcDbEntity
  8
0
100
AcDbLine
 62
6
  6
CONTINUOUS
 10
5.3894017876
 20
3.9471253861
 11
5.3894017876
 21
4.3978192955
  0
LINE
  5
21B
100
AcDbEntity
  8
0
100
AcDbLine
 62
9
  6
CONTINUOUS
 10
5.3994017876
 20
1.6524723408
 11
5.3994017876
 21
3.10805185
  0
LINE
  5
21C
100
AcDbEntity
  8
0
100
AcDbLine
 62
6
  6
CONTINUOUS
 10
5.3994017876
 20
3.10805185
 11
5.3994017876
 21
4.8424723408
  0
LINE
  5
21D
100
AcDbEntity
  8
0
100
AcDbLine
 62
9
  6
CONTINUOUS
 10
5.4294017876
 20
1.6224723408
 11
5.4294017876
 21
4.8724723408
  0
LINE
  5
21E
100
AcDbEntity
  8
0
100
AcDbLine
 62
9
  6
CONTINUOUS
 10
5.3994017876
 20
4.0724723408
 11
6.1294017876
 21
4.0724723408
  0
LINE
  5
21F
100
AcDbEntity
  8
0
100
AcDbLine
 62
9
  6
CONTINUOUS
 10
6.0994017876
 20
1.6224723408
 11
6.0994017876
 21
4.8724723408
  0
LINE
  5
220
100
AcDbEntity
  8
0
100
AcDbLine
 62
9
  6
CONTINUOUS
 10
6.1294017876
 20
4.0724723408
 11
6.1294017876
 21
3.10805185
  0
LINE
  5
221
100
AcDbEntity
  8
0
100
AcDbLine
 62
6
  6
CONTINUOUS
 10
6.1294017876
 20
3.10805185
 11
6.1294017876
 21
1.6524723408
  0
LINE
  5
222
100
AcDbEntity
  8
0
100
AcDbLine
 62
6
  6
CONTINUOUS
 10
6.1294017876
 20
4.0724723408
 11
6.1294017876
 21
4.8424723408
  0
LINE
  5
223
100
AcDbEntity
  8
0
100
AcDbLine
 62
6
  6
CONTINUOUS
 10
6.1394017876
 20
3.9471253861
 11
6.1394017876
 21
4.3978192955
  0
LINE
  5
224
100
AcDbEntity
  8
0
100
AcDbLine
 62
9
  6
CONTINUOUS
 10
6.4469017876
 20
3.4599723408
 11
6.4469017876
 21
4.8849723408
  0
LINE
  5
225
100
AcDbEntity
  8
0
100
AcDbLine
 62
9
  6
CONTINUOUS
 10
6.4769017876
 20
4.8549723408
 11
6.4769017876
 21
3.4899723408
  0
LINE
  5
226
100
AcDbEntity
  8
0
100
AcDbLine
 62
9
  6
CONTINUOUS
 10
6.6435684543
 20
5.0236390075
 11
6.6435684543
 21
3.3213056741
  0
LINE
  5
227
100
AcDbEntity
  8
0
100
AcDbLine
 62
9
  6
CONTINUOUS
 10
5.3994017876
 20
4.8424723408
 11
6.1294017876
 21
4.8424723408
  0
LINE
  5
228
100
AcDbEntity
  8
0
100
AcDbLine
 62
9
  6
CONTINUOUS
 10
5.0519017876
 20
4.8549723408
 11
5.4025164196
 21
4.8549723408
  0
LINE
  5
229
100
AcDbEntity
  8
0
100
AcDbLine
 62
9
  6
CONTINUOUS
 10
6.1265957845
 20
4.8549723408
 11
6.4769017876
 21
4.8549723408
  0
LINE
  5
22A
100
AcDbEntity
  8
0
100
AcDbLine
 62
6
  6
CONTINUOUS
 10
6.0994017876
 20
4.8724723408
 11
5.4294017876
 21
4.8724723408
  0
LINE
  5
22B
100
AcDbEntity
  8
0
100
AcDbLine
 62
9
  6
CONTINUOUS
 10
5.0819017876
 20
4.8849723408
 11
6.4469017876
 21
4.8849723408
  0
LINE
  5
22C
100
AcDbEntity
  8
0
100
AcDbLine
 62
9
  6
CONTINUOUS
 10
6.6155684543
 20
5.0516390075
 11
4.913235121
 21
5.0516390075
  0
LINE
  5
22D
100
AcDbEntity
  8
0
100
AcDbLine
 62
7
  6
CONTINUOUS
 10
6.8269017876
 20
5.2049723026
 11
6.8269017876
 21
3.139972379
  0
LINE
  5
22E
100
AcDbEntity
  8
0
100
AcDbLine
 62
7
  6
CONTINUOUS
 10
6.7969017495
 20
5.2349723408
 11
4.7319018258
 21
5.2349723408
  0
LINE
  5
22F
100
AcDbEntity
  8
0
100
AcDbLine
 62
6
  6
CONTINUOUS
 10
8.8994017876
 20
1.0374723408
 11
8.8994017876
 21
7.3074723408
  0
LINE
  5
230
100
AcDbEntity
  8
0
100
AcDbLine
 62
6
  6
CONTINUOUS
 10
9.0144017876
 20
0.9224723408
 11
9.0144017876
 21
7.4224723408
  0
LINE
  5
231
100
AcDbEntity
  8
0
100
AcDbLine
 62
6
  6
CONTINUOUS
 10
8.8994017876
 20
7.3074723408
 11
2.6294017876
 21
7.3074723408
  0
LINE
  5
232
100
AcDbEntity
  8
0
100
AcDbLine
 62
6
  6
CONTINUOUS
 10
9.0144017876
 20
7.4224723408
 11
2.5144017876
 21
7.4224723408
  0
ARC
  5
233
100
AcDbEntity
  8
0
100
AcDbCircle
 62
6
  6
CONTINUOUS
 10
5.4294017876
 20
1.6524723408
 40
0.03
100
AcDbArc
 50
180.0
 51
270.0
  0
ARC
  5
234
100
AcDbEntity
  8
0
100
AcDbCircle
 62
7
  6
CONTINUOUS
 10
4.7319018258
 20
3.139972379
 40
0.0299999996
100
AcDbArc
 50
180.0
 51
270.0
  0
ARC
  5
235
100
AcDbEntity
  8
0
100
AcDbCircle
 62
6
  6
CONTINUOUS
 10
5.4294017876
 20
4.8424723408
 40
0.03
100
AcDbArc
 50
90.0
 51
180.0
  0
ARC
  5
236
100
AcDbEntity
  8
0
100
AcDbCircle
 62
7
  6
CONTINUOUS
 10
4.7319018258
 20
5.2049723026
 40
0.0299999996
100
AcDbArc
 50
90.0
 51
180.0
  0
ARC
  5
237
100
AcDbEntity
  8
0
100
AcDbCircle
 62
6
  6
CONTINUOUS
 10
5.0819016945
 20
3.4899722476
 40
0.0299999989
100
AcDbArc
 50
179.9998220837
 51
270.0001779163
  0
ARC
  5
238
100
AcDbEntity
  8
0
100
AcDbCircle
 62
6
  6
CONTINUOUS
 10
5.0819016945
 20
4.8549724339
 40
0.0299999989
100
AcDbArc
 50
89.9998220837
 51
180.0001779163
  0
ARC
  5
239
100
AcDbEntity
  8
0
100
AcDbCircle
 62
6
  6
CONTINUOUS
 10
6.0994017876
 20
1.6524723408
 40
0.03
100
AcDbArc
 50
270.0
 51
360.0
  0
ARC
  5
23A
100
AcDbEntity
  8
0
100
AcDbCircle
 62
7
  6
CONTINUOUS
 10
6.7969017495
 20
3.139972379
 40
0.0299999996
100
AcDbArc
 50
270.0
 51
360.0
  0
ARC
  5
23B
100
AcDbEntity
  8
0
100
AcDbCircle
 62
6
  6
CONTINUOUS
 10
5.7644017876
 20
4.1724723408
 40
0.4375
100
AcDbArc
 50
31.0027191339
 51
33.3000975889
  0
ARC
  5
23C
100
AcDbEntity
  8
0
100
AcDbCircle
 62
6
  6
CONTINUOUS
 10
5.7644017876
 20
4.1724723408
 40
0.4375
100
AcDbArc
 50
146.6999024111
 51
148.9972808661
  0
ARC
  5
23D
100
AcDbEntity
  8
0
100
AcDbCircle
 62
6
  6
CONTINUOUS
 10
5.7644017876
 20
4.1724723408
 40
0.4375
100
AcDbArc
 50
211.0027191339
 51
213.3000975889
  0
ARC
  5
23E
100
AcDbEntity
  8
0
100
AcDbCircle
 62
6
  6
CONTINUOUS
 10
5.7644017876
 20
4.1724723408
 40
0.4375
100
AcDbArc
 50
326.6999024111
 51
328.9972808661
  0
ARC
  5
23F
100
AcDbEntity
  8
0
100
AcDbCircle
 62
6
  6
CONTINUOUS
 10
6.0994017876
 20
4.8424723408
 40
0.03
100
AcDbArc
 50
0.0
 51
90.0
  0
ARC
  5
240
100
AcDbEntity
  8
0
100
AcDbCircle
 62
7
  6
CONTINUOUS
 10
6.7969017495
 20
5.2049723026
 40
0.0299999996
100
AcDbArc
 50
0.0
 51
90.0
  0
ARC
  5
241
100
AcDbEntity
  8
0
100
AcDbCircle
 62
6
  6
CONTINUOUS
 10
6.4469018808
 20
3.4899722476
 40
0.0299999989
100
AcDbArc
 50
269.9998220837
 51
0.0001779163
  0
ARC
  5
242
100
AcDbEntity
  8
0
100
AcDbCircle
 62
6
  6
CONTINUOUS
 10
6.4469018808
 20
4.8549724339
 40
0.0299999989
100
AcDbArc
 50
359.9998220837
 51
90.0
  0
LINE
  5
243
100
AcDbEntity
  8
0
100
AcDbLine
 62
6
  6
CONTINUOUS
 10
2.6294017876
 20
7.3074723408
 11
2.5144017876
 21
7.4224723408
  0
LINE
  5
244
100
AcDbEntity
  8
0
100
AcDbLine
 62
6
  6
CONTINUOUS
 10
8.8994017876
 20
1.0374723408
 11
9.0144017876
 21
0.9224723408
  0
LINE
  5
245
100
AcDbEntity
  8
0
100
AcDbLine
 62
9
  6
CONTINUOUS
 10
6.4769017876
 20
3.4899723408
 11
6.6435684543
 21
3.3213056741
  0
LINE
  5
246
100
AcDbEntity
  8
0
100
AcDbLine
 62
9
  6
CONTINUOUS
 10
6.4469017876
 20
3.4599723408
 11
6.6155684543
 21
3.2933056741
  0
LINE
  5
247
100
AcDbEntity
  8
0
100
AcDbLine
 62
9
  6
CONTINUOUS
 10
6.6435684543
 20
3.3213056741
 11
6.8269017877
 21
3.1399723789
  0
LINE
  5
248
100
AcDbEntity
  8
0
100
AcDbLine
 62
9
  6
CONTINUOUS
 10
6.6155684543
 20
3.2933056741
 11
6.7969017496
 21
3.1099723408
  0
SPLINE
  5
249
100
AcDbEntity
  8
0
100
AcDbSpline
 62
9
  6
CONTINUOUS
 70
0
 71
3
 72
17
 73
13
 74
11
 42
0.0000001
 43
0.0000001
 44
0.0000000001
 12
-0.0054231424
 22
-0.0420757725
 32
0.0
 13
-0.0420757725
 23
-0.0054231423
 33
0.0
 40
0.0
 40
0.0
 40
0.0
 40
0.0
 40
0.1218918884
 40
0.1840087141
 40
0.2466572088
 40
0.3729261402
 40
0.5000000002
 40
0.6270738601
 40
0.7533427914
 40
0.815991286
 40
0.8781081116
 40
1.0
 40
1.0
 40
1.0
 40
1.0
 10
6.6435684211
 20
3.3213056741
 30
0.0
 10
6.6433480754
 20
3.319596109
 30
0.0
 10
6.6427813915
 20
3.3170392624
 30
0.0
 10
6.6416110388
 20
3.3137507308
 30
0.0
 10
6.6401484846
 20
3.310511876
 30
0.0
 10
6.6378091461
 20
3.3066800027
 30
0.0
 10
6.6343038693
 20
3.3025702592
 30
0.0
 10
6.6301941258
 20
3.2990649825
 30
0.0
 10
6.6263622525
 20
3.296725644
 30
0.0
 10
6.6231233976
 20
3.2952630898
 30
0.0
 10
6.6198348661
 20
3.2940927372
 30
0.0
 10
6.6172780194
 20
3.2935260533
 30
0.0
 10
6.6155684543
 20
3.2933057076
 30
0.0
 11
6.6435684211
 21
3.3213056741
 31
0.0
 11
6.6424628498
 21
3.3162541201
 31
0.0
 11
6.6415801224
 21
3.3137711284
 31
0.0
 11
6.6404863805
 21
3.3113488215
 31
0.0
 11
6.6377011234
 21
3.3067730407
 31
0.0
 11
6.6342029117
 21
3.3026712169
 31
0.0
 11
6.6301010878
 21
3.2991730052
 31
0.0
 11
6.6255253069
 21
3.2963877481
 31
0.0
 11
6.6231030001
 21
3.2952940062
 31
0.0
 11
6.6206200084
 21
3.2944112789
 31
0.0
 11
6.6155684543
 21
3.2933057076
 31
0.0
  0
LINE
  5
24A
100
AcDbEntity
  8
0
100
AcDbLine
 62
9
  6
CONTINUOUS
 10
5.0819017876
 20
3.4599723408
 11
4.913235121
 21
3.2933056741
  0
LINE
  5
24B
100
AcDbEntity
  8
0
100
AcDbLine
 62
9
  6
CONTINUOUS
 10
5.0519017876
 20
3.4899723408
 11
4.885235121
 21
3.3213056741
  0
LINE
  5
24C
100
AcDbEntity
  8
0
100
AcDbLine
 62
9
  6
CONTINUOUS
 10
4.913235121
 20
3.2933056741
 11
4.7319018257
 21
3.1099723408
  0
LINE
  5
24D
100
AcDbEntity
  8
0
100
AcDbLine
 62
9
  6
CONTINUOUS
 10
4.885235121
 20
3.3213056741
 11
4.7019017876
 21
3.1399723789
  0
SPLINE
  5
24E
100
AcDbEntity
  8
0
100
AcDbSpline
 62
9
  6
CONTINUOUS
 70
0
 71
3
 72
17
 73
13
 74
11
 42
0.0000001
 43
0.0000001
 44
0.0000000001
 12
-0.0420757725
 22
0.0054231424
 32
0.0
 13
-0.0054231423
 23
0.0420757725
 33
0.0
 40
0.0
 40
0.0
 40
0.0
 40
0.0
 40
0.1218918884
 40
0.1840087141
 40
0.2466572088
 40
0.3729261402
 40
0.5000000002
 40
0.6270738601
 40
0.7533427914
 40
0.815991286
 40
0.8781081116
 40
1.0
 40
1.0
 40
1.0
 40
1.0
 10
4.913235121
 20
3.2933057073
 30
0.0
 10
4.9115255559
 20
3.293526053
 30
0.0
 10
4.9089687092
 20
3.2940927369
 30
0.0
 10
4.9056801777
 20
3.2952630896
 30
0.0
 10
4.9024413228
 20
3.2967256438
 30
0.0
 10
4.8986094495
 20
3.2990649823
 30
0.0
 10
4.8944997061
 20
3.3025702592
 30
0.0
 10
4.8909944293
 20
3.3066800026
 30
0.0
 10
4.8886550909
 20
3.3105118759
 30
0.0
 10
4.8871925367
 20
3.3137507308
 30
0.0
 10
4.886022184
 20
3.3170392624
 30
0.0
 10
4.8854555001
 20
3.319596109
 30
0.0
 10
4.8852351545
 20
3.3213056741
 30
0.0
 11
4.913235121
 21
3.2933057073
 31
0.0
 11
4.9081835669
 21
3.2944112786
 31
0.0
 11
4.9057005752
 21
3.295294006
 31
0.0
 11
4.9032782684
 21
3.2963877479
 31
0.0
 11
4.8987024876
 21
3.2991730051
 31
0.0
 11
4.8946006637
 21
3.3026712168
 31
0.0
 11
4.8911024521
 21
3.3067730407
 31
0.0
 11
4.888317195
 21
3.3113488215
 31
0.0
 11
4.8872234531
 21
3.3137711283
 31
0.0
 11
4.8863407257
 21
3.3162541201
 31
0.0
 11
4.8852351545
 21
3.3213056741
 31
0.0
  0
LINE
  5
24F
100
AcDbEntity
  8
0
100
AcDbLine
 62
9
  6
CONTINUOUS
 10
5.0519017876
 20
4.8549723408
 11
4.885235121
 21
5.0236390075
  0
LINE
  5
250
100
AcDbEntity
  8
0
100
AcDbLine
 62
9
  6
CONTINUOUS
 10
5.0819017876
 20
4.8849723408
 11
4.913235121
 21
5.0516390075
  0
LINE
  5
251
100
AcDbEntity
  8
0
100
AcDbLine
 62
9
  6
CONTINUOUS
 10
4.885235121
 20
5.0236390075
 11
4.7019017876
 21
5.2049723027
  0
LINE
  5
252
100
AcDbEntity
  8
0
100
AcDbLine
 62
9
  6
CONTINUOUS
 10
4.913235121
 20
5.0516390075
 11
4.7319018257
 21
5.2349723408
  0
SPLINE
  5
253
100
AcDbEntity
  8
0
100
AcDbSpline
 62
9
  6
CONTINUOUS
 70
0
 71
3
 72
17
 73
13
 74
11
 42
0.0000001
 43
0.0000001
 44
0.0000000001
 12
0.0054231424
 22
0.0420757725
 32
0.0
 13
0.0420757725
 23
0.0054231423
 33
0.0
 40
0.0
 40
0.0
 40
0.0
 40
0.0
 40
0.1218918884
 40
0.1840087141
 40
0.2466572088
 40
0.3729261402
 40
0.5000000002
 40
0.6270738601
 40
0.7533427914
 40
0.815991286
 40
0.8781081116
 40
1.0
 40
1.0
 40
1.0
 40
1.0
 10
4.8852351542
 20
5.0236390075
 30
0.0
 10
4.8854554999
 20
5.0253485726
 30
0.0
 10
4.8860221838
 20
5.0279054192
 30
0.0
 10
4.8871925364
 20
5.0311939507
 30
0.0
 10
4.8886550907
 20
5.0344328056
 30
0.0
 10
4.8909944292
 20
5.0382646789
 30
0.0
 10
4.894499706
 20
5.0423744223
 30
0.0
 10
4.8986094495
 20
5.0458796991
 30
0.0
 10
4.9024413228
 20
5.0482190376
 30
0.0
 10
4.9056801777
 20
5.0496815918
 30
0.0
 10
4.9089687092
 20
5.0508519444
 30
0.0
 10
4.9115255559
 20
5.0514186283
 30
0.0
 10
4.913235121
 20
5.051638974
 30
0.0
 11
4.8852351542
 21
5.0236390075
 31
0.0
 11
4.8863407255
 21
5.0286905615
 31
0.0
 11
4.8872234528
 21
5.0311735532
 31
0.0
 11
4.8883171948
 21
5.0335958601
 31
0.0
 11
4.8911024519
 21
5.0381716409
 31
0.0
 11
4.8946006636
 21
5.0422734647
 31
0.0
 11
4.8987024875
 21
5.0457716764
 31
0.0
 11
4.9032782683
 21
5.0485569335
 31
0.0
 11
4.9057005752
 21
5.0496506754
 31
0.0
 11
4.9081835669
 21
5.0505334027
 31
0.0
 11
4.913235121
 21
5.051638974
 31
0.0
  0
LINE
  5
254
100
AcDbEntity
  8
0
100
AcDbLine
 62
6
  6
CONTINUOUS
 10
8.8994017876
 20
7.3074723408
 11
9.0144017876
 21
7.4224723408
  0
SPLINE
  5
255
100
AcDbEntity
  8
0
100
AcDbSpline
 62
9
  6
CONTINUOUS
 70
0
 71
3
 72
24
 73
20
 74
18
 42
0.0000001
 43
0.0000001
 44
0.0000000001
 12
0.0
 22
-0.0348187949
 32
0.0
 13
-0.0348187949
 23
-0.0
 33
0.0
 40
0.0
 40
0.0
 40
0.0
 40
0.0
 40
0.0176434409
 40
0.0355194952
 40
0.0726262607
 40
0.1126217605
 40
0.1564427603
 40
0.2046881404
 40
0.2576635585
 40
0.31547869
 40
0.3780217878
 40
0.4450084188
 40
0.5160853263
 40
0.5908280896
 40
0.6687383815
 40
0.749290396
 40
0.8318761334
 40
0.9157164032
 40
1.0
 40
1.0
 40
1.0
 40
1.0
 10
6.1294017876
 20
1.6524723408
 30
0.0
 10
6.1294017876
 20
1.6522675663
 30
0.0
 10
6.1293770669
 20
1.6518548934
 30
0.0
 10
6.1292287778
 20
1.6510235209
 30
0.0
 10
6.1288502561
 20
1.6499783439
 30
0.0
 10
6.1281168246
 20
1.6487728893
 30
0.0
 10
6.127107472
 20
1.6476113875
 30
0.0
 10
6.125835722
 20
1.6465019319
 30
0.0
 10
6.1243140636
 20
1.6454513639
 30
0.0
 10
6.1225552711
 20
1.6444695072
 30
0.0
 10
6.1205761438
 20
1.6435642288
 30
0.0
 10
6.1183957889
 20
1.6427429403
 30
0.0
 10
6.11603427
 20
1.6420146598
 30
0.0
 10
6.1135134648
 20
1.6413866871
 30
0.0
 10
6.1108567576
 20
1.6408637891
 30
0.0
 10
6.1080886181
 20
1.6404518135
 30
0.0
 10
6.1052365768
 20
1.6401555736
 30
0.0
 10
6.1023315292
 20
1.6399761636
 30
0.0
 10
6.1003800054
 20
1.6399357505
 30
0.0
 10
6.0994017876
 20
1.6399357505
 30
0.0
 11
6.1294017876
 21
1.6524723408
 31
0.0
 11
6.129365434
 21
1.651859094
 31
0.0
 11
6.1292567477
 21
1.6512462341
 31
0.0
 11
6.128824625
 21
1.6500286269
 31
0.0
 11
6.1281099156
 21
1.6488334234
 31
0.0
 11
6.1271178201
 21
1.6476742016
 31
0.0
 11
6.1258588027
 21
1.6465621055
 31
0.0
 11
6.1243457075
 21
1.6455071782
 31
0.0
 11
6.1225916579
 21
1.6445194064
 31
0.0
 11
6.1206138835
 21
1.6436079911
 31
0.0
 11
6.1184328277
 21
1.6427815188
 31
0.0
 11
6.1160690555
 21
1.6420485272
 31
0.0
 11
6.1135445804
 21
1.6414162403
 31
0.0
 11
6.1108833431
 21
1.6408901341
 31
0.0
 11
6.1081094279
 21
1.6404755598
 31
0.0
 11
6.1052494431
 21
1.6401769073
 31
0.0
 11
6.1023358152
 21
1.6399963501
 31
0.0
 11
6.0994017876
 21
1.6399357505
 31
0.0
  0
LINE
  5
256
100
AcDbEntity
  8
0
100
AcDbLine
 62
9
  6
CONTINUOUS
 10
6.4469017876
 20
4.8849723408
 11
6.6155684543
 21
5.0516390075
  0
LINE
  5
257
100
AcDbEntity
  8
0
100
AcDbLine
 62
9
  6
CONTINUOUS
 10
6.4769017876
 20
4.8549723408
 11
6.6435684543
 21
5.0236390075
  0
LINE
  5
258
100
AcDbEntity
  8
0
100
AcDbLine
 62
9
  6
CONTINUOUS
 10
6.6155684543
 20
5.0516390075
 11
6.7969017496
 21
5.2349723408
  0
LINE
  5
259
100
AcDbEntity
  8
0
100
AcDbLine
 62
9
  6
CONTINUOUS
 10
6.6435684543
 20
5.0236390075
 11
6.8269017877
 21
5.2049723027
  0
SPLINE
  5
25A
100
AcDbEntity
  8
0
100
AcDbSpline
 62
9
  6
CONTINUOUS
 70
0
 71
3
 72
17
 73
13
 74
11
 42
0.0000001
 43
0.0000001
 44
0.0000000001
 12
0.0420757725
 22
-0.0054231424
 32
0.0
 13
0.0054231423
 23
-0.0420757725
 33
0.0
 40
0.0
 40
0.0
 40
0.0
 40
0.0
 40
0.1218918884
 40
0.1840087141
 40
0.2466572088
 40
0.3729261402
 40
0.5000000002
 40
0.6270738601
 40
0.7533427914
 40
0.815991286
 40
0.8781081116
 40
1.0
 40
1.0
 40
1.0
 40
1.0
 10
6.6155684543
 20
5.0516389742
 30
0.0
 10
6.6172780194
 20
5.0514186286
 30
0.0
 10
6.6198348661
 20
5.0508519446
 30
0.0
 10
6.6231233976
 20
5.049681592
 30
0.0
 10
6.6263622525
 20
5.0482190378
 30
0.0
 10
6.6301941257
 20
5.0458796993
 30
0.0
 10
6.6343038692
 20
5.0423744224
 30
0.0
 10
6.637809146
 20
5.0382646789
 30
0.0
 10
6.6401484844
 20
5.0344328056
 30
0.0
 10
6.6416110386
 20
5.0311939507
 30
0.0
 10
6.6427813912
 20
5.0279054192
 30
0.0
 10
6.6433480751
 20
5.0253485726
 30
0.0
 10
6.6435684208
 20
5.0236390075
 30
0.0
 11
6.6155684543
 21
5.0516389742
 31
0.0
 11
6.6206200084
 21
5.0505334029
 31
0.0
 11
6.6231030001
 21
5.0496506756
 31
0.0
 11
6.6255253069
 21
5.0485569337
 31
0.0
 11
6.6301010877
 21
5.0457716765
 31
0.0
 11
6.6342029116
 21
5.0422734648
 31
0.0
 11
6.6377011232
 21
5.0381716409
 31
0.0
 11
6.6404863803
 21
5.0335958601
 31
0.0
 11
6.6415801222
 21
5.0311735532
 31
0.0
 11
6.6424628495
 21
5.0286905615
 31
0.0
 11
6.6435684208
 21
5.0236390075
 31
0.0
  0
SPLINE
  5
25B
100
AcDbEntity
  8
0
100
AcDbSpline
 62
9
  6
CONTINUOUS
 70
0
 71
3
 72
27
 73
23
 74
21
 42
0.0000001
 43
0.0000001
 44
0.0000000001
 12
0.0
 22
0.0319965307
 32
0.0
 13
-0.0319965307
 23
0.0
 33
0.0
 40
0.0
 40
0.0
 40
0.0
 40
0.0
 40
0.0109646143
 40
0.0223803588
 40
0.0346182384
 40
0.0479723764
 40
0.0626624932
 40
0.0788474017
 40
0.0966393741
 40
0.1161048872
 40
0.1372741507
 40
0.1601573553
 40
0.2110313025
 40
0.2685965273
 40
0.3324975982
 40
0.4022283359
 40
0.4772439839
 40
0.5569379592
 40
0.6406346362
 40
0.8171744182
 40
0.9082943124
 40
1.0
 40
1.0
 40
1.0
 40
1.0
 10
6.1294017876
 20
3.10805185
 30
0.0
 10
6.1294017876
 20
3.1081687932
 30
0.0
 10
6.129376253
 20
3.1084081578
 30
0.0
 10
6.1292637224
 20
3.1087620303
 30
0.0
 10
6.1290786477
 20
3.1091126886
 30
0.0
 10
6.1288225995
 20
3.1094593364
 30
0.0
 10
6.128496571
 20
3.1098016533
 30
0.0
 10
6.128101207
 20
3.1101391393
 30
0.0
 10
6.1276370703
 20
3.110470991
 30
0.0
 10
6.1271052714
 20
3.1107966412
 30
0.0
 10
6.1265072358
 20
3.1111156306
 30
0.0
 10
6.1255906432
 20
3.1115464404
 30
0.0
 10
6.1242847015
 20
3.1120569302
 30
0.0
 10
6.122531506
 20
3.1126122354
 30
0.0
 10
6.1205570127
 20
3.1131250689
 30
0.0
 10
6.1183803894
 20
3.1135908952
 30
0.0
 10
6.1160220806
 20
3.1140042331
 30
0.0
 10
6.1135040665
 20
3.114360844
 30
0.0
 10
6.1099006227
 20
3.1147640275
 30
0.0
 10
6.1061605477
 20
3.1150276763
 30
0.0
 10
6.1023299038
 20
3.1151622952
 30
0.0
 10
6.1003798756
 20
3.1151852531
 30
0.0
 10
6.0994017876
 20
3.1151852531
 30
0.0
 11
6.1294017876
 21
3.10805185
 31
0.0
 11
6.129365435
 21
3.1084007911
 31
0.0
 11
6.1292567513
 21
3.1087495114
 31
0.0
 11
6.1290762982
 21
3.1090970218
 31
0.0
 11
6.1288246373
 21
3.1094423335
 31
0.0
 11
6.12850233
 21
3.1097844575
 31
0.0
 11
6.1281099379
 21
3.1101224048
 31
0.0
 11
6.1276480602
 21
3.1104551965
 31
0.0
 11
6.1271178581
 21
3.1107820015
 31
0.0
 11
6.1265209253
 21
3.1111021028
 31
0.0
 11
6.125858867
 21
3.1114147863
 31
0.0
 11
6.1243457937
 21
3.1120150436
 31
0.0
 11
6.1225917548
 21
3.1125770907
 31
0.0
 11
6.1206140056
 21
3.1130956934
 31
0.0
 11
6.1184329875
 21
3.1135659628
 31
0.0
 11
6.1160692611
 21
3.1139830383
 31
0.0
 11
6.1135448392
 21
3.1143428171
 31
0.0
 11
6.1108836208
 21
3.1146421801
 31
0.0
 11
6.1052495582
 21
3.1150480182
 31
0.0
 11
6.1023358488
 21
3.1151507664
 31
0.0
 11
6.0994017876
 21
3.1151852531
 31
0.0
  0
SPLINE
  5
25C
100
AcDbEntity
  8
0
100
AcDbSpline
 62
9
  6
CONTINUOUS
 70
0
 71
3
 72
27
 73
23
 74
21
 42
0.0000001
 43
0.0000001
 44
0.0000000001
 12
0.0
 22
0.0319965307
 32
0.0
 13
0.0319965307
 23
-0.0
 33
0.0
 40
0.0
 40
0.0
 40
0.0
 40
0.0
 40
0.0109646143
 40
0.0223803589
 40
0.0346182386
 40
0.0479723767
 40
0.0626624937
 40
0.0788474023
 40
0.0966393748
 40
0.1161048881
 40
0.1372741517
 40
0.1601573565
 40
0.211031304
 40
0.2685965289
 40
0.3324975999
 40
0.4022283378
 40
0.4772439858
 40
0.556937961
 40
0.6406346376
 40
0.8171744186
 40
0.9082943125
 40
1.0
 40
1.0
 40
1.0
 40
1.0
 10
5.3994017876
 20
3.10805185
 30
0.0
 10
5.3994017876
 20
3.1081687932
 30
0.0
 10
5.3994273223
 20
3.1084081578
 30
0.0
 10
5.3995398529
 20
3.1087620303
 30
0.0
 10
5.3997249276
 20
3.1091126886
 30
0.0
 10
5.3999809758
 20
3.1094593364
 30
0.0
 10
5.4003070043
 20
3.1098016533
 30
0.0
 10
5.4007023683
 20
3.1101391393
 30
0.0
 10
5.401166505
 20
3.110470991
 30
0.0
 10
5.4016983039
 20
3.1107966413
 30
0.0
 10
5.4022963395
 20
3.1111156306
 30
0.0
 10
5.4032129322
 20
3.1115464404
 30
0.0
 10
5.4045188738
 20
3.1120569302
 30
0.0
 10
5.4062720693
 20
3.1126122354
 30
0.0
 10
5.4082465626
 20
3.113125069
 30
0.0
 10
5.410423186
 20
3.1135908952
 30
0.0
 10
5.4127814947
 20
3.1140042331
 30
0.0
 10
5.4152995089
 20
3.1143608441
 30
0.0
 10
5.4189029526
 20
3.1147640275
 30
0.0
 10
5.4226430276
 20
3.1150276763
 30
0.0
 10
5.4264736715
 20
3.1151622952
 30
0.0
 10
5.4284236997
 20
3.1151852531
 30
0.0
 10
5.4294017876
 20
3.1151852531
 30
0.0
 11
5.3994017876
 21
3.10805185
 31
0.0
 11
5.3994381403
 21
3.1084007911
 31
0.0
 11
5.399546824
 21
3.1087495114
 31
0.0
 11
5.3997272771
 21
3.1090970218
 31
0.0
 11
5.399978938
 21
3.1094423335
 31
0.0
 11
5.4003012453
 21
3.1097844575
 31
0.0
 11
5.4006936374
 21
3.1101224049
 31
0.0
 11
5.4011555151
 21
3.1104551965
 31
0.0
 11
5.4016857173
 21
3.1107820015
 31
0.0
 11
5.40228265
 21
3.1111021028
 31
0.0
 11
5.4029447083
 21
3.1114147863
 31
0.0
 11
5.4044577816
 21
3.1120150436
 31
0.0
 11
5.4062118206
 21
3.1125770907
 31
0.0
 11
5.4081895697
 21
3.1130956934
 31
0.0
 11
5.4103705878
 21
3.1135659628
 31
0.0
 11
5.4127343142
 21
3.1139830384
 31
0.0
 11
5.4152587361
 21
3.1143428171
 31
0.0
 11
5.4179199545
 21
3.1146421801
 31
0.0
 11
5.4235540171
 21
3.1150480182
 31
0.0
 11
5.4264677265
 21
3.1151507664
 31
0.0
 11
5.4294017876
 21
3.1151852531
 31
0.0
  0
SPLINE
  5
25D
100
AcDbEntity
  8
0
100
AcDbSpline
 62
9
  6
CONTINUOUS
 70
0
 71
3
 72
23
 73
19
 74
17
 42
0.0000001
 43
0.0000001
 44
0.0000000001
 12
0.0
 22
-0.0348174035
 32
0.0
 13
0.0348174035
 23
-0.0
 33
0.0
 40
0.0
 40
0.0
 40
0.0
 40
0.0
 40
0.0176441262
 40
0.0355208266
 40
0.072628781
 40
0.1126254087
 40
0.156447552
 40
0.2046941165
 40
0.2576710403
 40
0.3154881746
 40
0.3780331407
 40
0.4450214582
 40
0.5160999257
 40
0.5908442337
 40
0.6687571562
 40
0.8318660778
 40
0.9157120634
 40
1.0
 40
1.0
 40
1.0
 40
1.0
 10
5.3994017876
 20
1.6524723408
 30
0.0
 10
5.3994017876
 20
1.6522675666
 30
0.0
 10
5.3994265075
 20
1.6518548946
 30
0.0
 10
5.3995747926
 20
1.651023526
 30
0.0
 10
5.3999533054
 20
1.649978356
 30
0.0
 10
5.4006867278
 20
1.6487729141
 30
0.0
 10
5.4016960658
 20
1.6476114284
 30
0.0
 10
5.4029677893
 20
1.6465019775
 30
0.0
 10
5.4044894278
 20
1.6454514138
 30
0.0
 10
5.4062482054
 20
1.6444695674
 30
0.0
 10
5.4082273048
 20
1.6435642842
 30
0.0
 10
5.4104076249
 20
1.6427429905
 30
0.0
 10
5.4127690903
 20
1.6420147205
 30
0.0
 10
5.4152898951
 20
1.641386718
 30
0.0
 10
5.4188867817
 20
1.6406788011
 30
0.0
 10
5.422634282
 20
1.6402132411
 30
0.0
 10
5.4264719262
 20
1.6399761688
 30
0.0
 10
5.4284235586
 20
1.6399357505
 30
0.0
 10
5.4294017876
 20
1.6399357505
 30
0.0
 11
5.3994017876
 21
1.6524723408
 31
0.0
 11
5.3994381403
 21
1.6518590947
 31
0.0
 11
5.399546824
 21
1.6512462367
 31
0.0
 11
5.399978938
 21
1.6500286373
 31
0.0
 11
5.4006936374
 21
1.6488334468
 31
0.0
 11
5.4016857172
 21
1.6476742395
 31
0.0
 11
5.4029447083
 21
1.6465621527
 31
0.0
 11
5.4044577816
 21
1.6455072313
 31
0.0
 11
5.4062118205
 21
1.6445194623
 31
0.0
 11
5.4081895697
 21
1.6436080446
 31
0.0
 11
5.4103705878
 21
1.6427815703
 31
0.0
 11
5.4127343142
 21
1.6420485813
 31
0.0
 11
5.4152587361
 21
1.6414162887
 31
0.0
 11
5.4179199545
 21
1.6408901735
 31
0.0
 11
5.4235540171
 21
1.6401769338
 31
0.0
 11
5.4264677265
 21
1.6399963592
 31
0.0
 11
5.4294017876
 21
1.6399357505
 31
0.0
  0
LINE
  5
25E
100
AcDbEntity
  8
0
100
AcDbLine
 62
6
  6
CONTINUOUS
 10
2.6294017876
 20
1.0374723408
 11
2.5144017876
 21
0.9224723408
  0
ENDSEC
  0
SECTION
  2
OBJECTS
  0
DICTIONARY
  5
C
100
AcDbDictionary
280
0
281
1
  3
ACAD_GROUP
350
D
  3
ACAD_MLINESTYLE
350
17
  3
ACAD_LAYOUT
350
1A
  3
ACAD_PLOTSETTINGS
350
19
  3
ACAD_PLOTSTYLENAME
350
E
  0
DICTIONARY
  5
D
102
{ACAD_REACTORS
330
C
102
}
100
AcDbDictionary
280
0
281
1
  0
ACDBDICTIONARYWDFLT
  5
E
102
{ACAD_REACTORS
330
C
102
}
100
AcDbDictionary
281
1
  3
Normal
350
F
100
AcDbDictionaryWithDefault
340
F
  0
DICTIONARY
  5
17
102
{ACAD_REACTORS
330
C
102
}
100
AcDbDictionary
280
0
281
1
  3
Standard
350
18
  0
DICTIONARY
  5
19
102
{ACAD_REACTORS
330
C
102
}
100
AcDbDictionary
281
1
  0
DICTIONARY
  5
1A
102
{ACAD_REACTORS
330
C
102
}
100
AcDbDictionary
281
1
  3
Model
350
25F
  3
Layout1
350
260
  0
ACDBPLACEHOLDER
  5
F
102
{ACAD_REACTORS
330
E
102
}
  0
MLINESTYLE
  5
18
102
{ACAD_REACTORS
330
17
102
}
100
AcDbMlineStyle
  2
STANDARD
 70
0
  3

 62
256
 51
90.0
 52
90.0
 71
2
 49
0.5
 62
256
  6
BYLAYER
 49
-0.5
 62
256
  6
BYLAYER
  0
LAYOUT
  5
25F
102
{ACAD_REACTORS
330
1A
102
}
100
AcDbPlotSettings
  1

  2
none_device
  4
ISO_A4_(297.00_x_210.00_MM)
  6

 40
0.0
 41
0.0
 42
0.0
 43
0.0
 44
297.0
 45
210.0
 46
0.0
 47
0.0
 48
0.0
 49
0.0
140
0.0
141
0.0
142
1.0
143
1.0
 70
1024
 72
0
 73
0
 74
0
  7

 75
0
147
1.0
148
0.0
149
0.0
100
AcDbLayout
  1
Model
 70
0
 71
0
 10
0.0
 20
0.0
 11
11.6929133858
 21
8.2677165354
 12
0.0
 22
0.0
 32
0.0
 14
0.0
 24
0.0
 34
0.0
 15
0.0
 25
0.0
 35
0.0
146
0.0
 13
0.0
 23
0.0
 33
0.0
 16
1.0
 26
0.0
 36
0.0
 17
0.0
 27
1.0
 37
0.0
 76
0
330
204
345
0
346
0
  0
LAYOUT
  5
260
102
{ACAD_REACTORS
330
1A
102
}
100
AcDbPlotSettings
  1

  2
none_device
  4
ISO_A4_(297.00_x_210.00_MM)
  6

 40
0.0
 41
0.0
 42
0.0
 43
0.0
 44
297.0
 45
210.0
 46
0.0
 47
0.0
 48
0.0
 49
0.0
140
0.0
141
0.0
142
1.0
143
1.0
 70
0
 72
0
 73
0
 74
0
  7

 75
0
147
1.0
148
0.0
149
0.0
100
AcDbLayout
  1
Layout1
 70
0
 71
1
 10
0.0
 20
0.0
 11
11.6929133858
 21
8.2677165354
 12
0.0
 22
0.0
 32
0.0
 14
0.0
 24
0.0
 34
0.0
 15
0.0
 25
0.0
 35
0.0
146
0.0
 13
0.0
 23
0.0
 33
0.0
 16
1.0
 26
0.0
 36
0.0
 17
0.0
 27
1.0
 37
0.0
 76
0
330
205
345
0
346
0
  0
ENDSEC
  0
EOF
