  0
SECTION
  2
HEADER
  9
$ACADVER
  1
AC1015
  9
$DWGCODEPAGE
  3
ANSI_1252
  9
$EXTMAX
 10
11.6929133858
 20
8.2677165354
 30
0.0
  9
$EXTMIN
 10
0.0
 20
0.0
 30
0.0
  9
$LIMMIN
 10
0.0
 20
0.0
  9
$LIMMAX
 10
11.6929133858
 20
8.2677165354
  9
$VIEWCTR
 10
5.8464566929
 20
4.1338582677
  9
$VIEWSIZE
 40
8.2677165354
  9
$CLAYER
  8
0
  9
$LTSCALE
 40
0.6431102362
  9
$CELTYPE
  6
BYLAYER
  9
$DIMSCALE
 40
1.0
  9
$DIMASZ
 40
0.1
  9
$DIMEXO
 40
0.0730807087
  9
$DIMDLI
 40
0.4443307087
  9
$DIMEXE
 40
0.2104724409
  9
$DIMCEN
 40
0.1052362205
  9
$DIMLFAC
 40
1.0
  9
$DIMBLK
  1
_FILLED
  9
$DIMTXT
 40
0.08
  9
$DIMTOL
 70
1
  9
$DIMLIM
 70
0
  9
$DIMTFAC
 40
1.0
  9
$DIMTP
 40
0.01
  9
$DIMTM
 40
0.01
  9
$PDMODE
 70
3
  9
$PDSIZE
 40
0.06
  9
$HANDSEED
  5
258
  9
$TILEMODE
 70
1
  9
$MEASUREMENT
 70
0
  9
$INSUNITS
 70
1
  0
ENDSEC
  0
SECTION
  2
CLASSES
  0
CLASS
  1
ACDBDICTIONARYWDFLT
  2
AcDbDictionaryWithDefault
  3
AutoCAD 2000
 90
0
280
0
281
0
  0
CLASS
  1
ACDBPLACEHOLDER
  2
AcDbPlaceHolder
  3
AutoCAD 2000
 90
0
280
0
281
0
  0
CLASS
  1
LAYOUT
  2
AcDbLayout
  3
AutoCAD 2000
 90
0
280
0
281
0
  0
ENDSEC
  0
SECTION
  2
TABLES
  0
TABLE
  2
VPORT
  5
8
100
AcDbSymbolTable
 70
2
  0
VPORT
  5
1F4
100
AcDbSymbolTableRecord
100
AcDbViewportTableRecord
  2
*ACTIVE
 70
0
 10
0.0
 20
0.0
 11
1.0
 21
1.0
 12
5.8464566929
 22
4.1338582677
 13
0.0
 23
0.0
 14
1.0
 24
1.0
 15
0.0
 25
0.0
 16
0.0
 26
0.0
 36
1.0
 17
0.0
 27
0.0
 37
0.0
 40
8.2677165354
 41
1.4142857143
 42
50.0
 43
0.0
 44
0.0
 50
0.0
 51
0.0
 71
0
 72
100
 73
1
 74
1
 75
0
 76
0
 77
0
 78
0
  0
ENDTAB
  0
TABLE
  2
LTYPE
  5
5
100
AcDbSymbolTable
 70
6
  0
LTYPE
  5
14
100
AcDbSymbolTableRecord
100
AcDbLinetypeTableRecord
  2
BYBLOCK
 70
0
  3

 72
65
 73
0
 40
0.0
  0
LTYPE
  5
15
100
AcDbSymbolTableRecord
100
AcDbLinetypeTableRecord
  2
BYLAYER
 70
0
  3

 72
65
 73
0
 40
0.0
  0
LTYPE
  5
16
100
AcDbSymbolTableRecord
100
AcDbLinetypeTableRecord
  2
CONTINUOUS
 70
64
  3
Solid line
 72
65
 73
0
 40
0.0
  0
LTYPE
  5
1F5
100
AcDbSymbolTableRecord
100
AcDbLinetypeTableRecord
  2
CENTER
 70
64
  3
____ _ ____ _ ____ _ ____ _ ____ _ ____ _ ____
 72
65
 73
4
 40
0.6
 49
0.375
 74
0
 49
-0.075
 74
0
 49
0.075
 74
0
 49
-0.075
 74
0
  0
LTYPE
  5
1F6
100
AcDbSymbolTableRecord
100
AcDbLinetypeTableRecord
  2
HIDDEN
 70
64
  3
- - - - - - - - - - - - - - - - - - - -
 72
65
 73
2
 40
0.2
 49
0.1
 74
0
 49
-0.1
 74
0
  0
LTYPE
  5
1F7
100
AcDbSymbolTableRecord
100
AcDbLinetypeTableRecord
  2
PHANTOM
 70
64
  3
_____ _ _ _____ _ _ _____ _ _ _____
 72
65
 73
6
 40
0.8
 49
0.45
 74
0
 49
-0.05
 74
0
 49
0.1
 74
0
 49
-0.05
 74
0
 49
0.1
 74
0
 49
-0.05
 74
0
  0
LTYPE
  5
1F8
100
AcDbSymbolTableRecord
100
AcDbLinetypeTableRecord
  2
DOT
 70
64
  3
. . . . . . . . . . . . . . . . . . . .
 72
65
 73
2
 40
0.2
 49
0.1
 74
0
 49
-0.1
 74
0
  0
LTYPE
  5
1F9
100
AcDbSymbolTableRecord
100
AcDbLinetypeTableRecord
  2
DASHED
 70
64
  3
- - - - - - - - - - - - - - - - - - - -
 72
65
 73
2
 40
0.2
 49
0.1
 74
0
 49
-0.1
 74
0
  0
ENDTAB
  0
TABLE
  2
LAYER
  5
2
100
AcDbSymbolTable
 70
36
  0
LAYER
  5
10
100
AcDbSymbolTableRecord
100
AcDbLayerTableRecord
  2
0
 70
0
 62
7
  6
CONTINUOUS
370
-3
390
F
  0
LAYER
  5
1FA
100
AcDbSymbolTableRecord
100
AcDbLayerTableRecord
  2
DEFAULT_1
 70
0
 62
7
  6
CENTER
370
-3
390
F
  0
LAYER
  5
1FB
100
AcDbSymbolTableRecord
100
AcDbLayerTableRecord
  2
DEFAULT_2
 70
0
 62
8
  6
HIDDEN
370
-3
390
F
  0
LAYER
  5
1FC
100
AcDbSymbolTableRecord
100
AcDbLayerTableRecord
  2
DEFAULT_3
 70
0
 62
7
  6
PHANTOM
370
-3
390
F
  0
LAYER
  5
1FD
100
AcDbSymbolTableRecord
100
AcDbLayerTableRecord
  2
3_ALL_SYMBOLS
 70
0
 62
7
  6
CONTINUOUS
370
-3
390
F
  0
LAYER
  5
1FE
100
AcDbSymbolTableRecord
100
AcDbLayerTableRecord
  2
DEFAULT_COORDINATE_SYSTEM
 70
0
 62
7
  6
CONTINUOUS
370
-3
390
F
  0
LAYER
  5
1FF
100
AcDbSymbolTableRecord
100
AcDbLayerTableRecord
  2
DEFAULT_DATUM_AXES
 70
0
 62
7
  6
CONTINUOUS
370
-3
390
F
  0
LAYER
  5
200
100
AcDbSymbolTableRecord
100
AcDbLayerTableRecord
  2
DEFAULT_DATUM_CURVES
 70
0
 62
7
  6
CONTINUOUS
370
-3
390
F
  0
LAYER
  5
201
100
AcDbSymbolTableRecord
100
AcDbLayerTableRecord
  2
DEFAULT_DATUM_PLANES
 70
0
 62
7
  6
CONTINUOUS
370
-3
390
F
  0
ENDTAB
  0
TABLE
  2
STYLE
  5
3
100
AcDbSymbolTable
 70
1
  0
STYLE
  5
11
100
AcDbSymbolTableRecord
100
AcDbTextStyleTableRecord
  2
STANDARD
 70
0
 40
0.0
 41
0.8
 50
0.0
 71
0
 42
0.2
  3
txt
  4

  0
STYLE
  5
202
100
AcDbSymbolTableRecord
100
AcDbTextStyleTableRecord
  2
TEXTSTYLE_1
 70
0
 40
0.0
 41
0.8
 50
0.0
 71
0
 42
0.2
  3
gdt
  4

  0
ENDTAB
  0
TABLE
  2
VIEW
  5
6
100
AcDbSymbolTable
 70
0
  0
ENDTAB
  0
TABLE
  2
UCS
  5
7
100
AcDbSymbolTable
 70
0
  0
ENDTAB
  0
TABLE
  2
APPID
  5
9
100
AcDbSymbolTable
 70
1
  0
APPID
  5
203
100
AcDbSymbolTableRecord
100
AcDbRegAppTableRecord
  2
ACAD
 70
0
  0
ENDTAB
  0
TABLE
  2
BLOCK_RECORD
  5
1
100
AcDbSymbolTable
 70
0
  0
BLOCK_RECORD
  5
204
100
AcDbSymbolTableRecord
100
AcDbBlockTableRecord
  2
*Model_Space
  0
BLOCK_RECORD
  5
205
100
AcDbSymbolTableRecord
100
AcDbBlockTableRecord
  2
*Paper_Space
  0
ENDTAB
  0
TABLE
  2
DIMSTYLE
  5
A
100
AcDbSymbolTable
 70
1
100
AcDbDimStyleTable
 71
0
  0
DIMSTYLE
105
206
100
AcDbSymbolTableRecord
100
AcDbDimStyleTableRecord
  2
STANDARD
 70
0
  3

  4

 40
1.0
 41
0.1
 42
0.0625
 43
0.38
 44
0.18
 45
0.0
 46
0.0
 47
0.01
 48
0.01
140
0.08
141
0.09
142
0.0
143
25.4
144
1.0
145
0.0
146
1.0
147
0.09
 71
1.0
 72
0.0
 73
1
 74
1
 75
0
 76
0
 77
0
 78
4
170
0
171
2
172
0
173
0
174
0
175
0
176
0
177
0
178
0
270
2
271
2
272
2
273
2
274
2
275
0
280
0
281
0
282
0
283
1
284
4
285
0
286
0
287
3
288
0
340
11
  0
ENDTAB
  0
ENDSEC
  0
SECTION
  2
BLOCKS
  0
BLOCK
  5
20
100
AcDbEntity
  8
0
100
AcDbBlockBegin
  2
*Model_Space
 70
0
 10
0.0
 20
0.0
 30
0.0
  3
*Model_Space
  1

  0
ENDBLK
  5
21
100
AcDbEntity
  8
0
100
AcDbBlockEnd
  0
BLOCK
  5
1C
100
AcDbEntity
  8
0
100
AcDbBlockBegin
  2
*Paper_Space
 70
0
 10
0.0
 20
0.0
 30
0.0
  3
*Paper_Space
  1

  0
ENDBLK
  5
1D
100
AcDbEntity
  8
0
100
AcDbBlockEnd
  0
ENDSEC
  0
SECTION
  2
ENTITIES
  0
LINE
  5
207
100
AcDbEntity
  8
0
100
AcDbLine
 62
6
  6
CONTINUOUS
 10
7.7679637782
 20
0.893511786
 11
7.9559637782
 21
0.893511786
  0
LINE
  5
208
100
AcDbEntity
  8
0
100
AcDbLine
 62
9
  6
CONTINUOUS
 10
4.5249700913
 20
1.623511786
 11
4.5536300859
 21
1.6146458563
  0
LINE
  5
209
100
AcDbEntity
  8
0
100
AcDbLine
 62
6
  6
CONTINUOUS
 10
4.2860952994
 20
1.593511786
 11
4.5249700913
 21
1.593511786
  0
LINE
  5
20A
100
AcDbEntity
  8
0
100
AcDbLine
 62
9
  6
CONTINUOUS
 10
4.2860952994
 20
1.623511786
 11
4.5249700838
 21
1.623511786
  0
LINE
  5
20B
100
AcDbEntity
  8
0
100
AcDbLine
 62
6
  6
CONTINUOUS
 10
4.2329637782
 20
4.813511786
 11
4.2329637782
 21
4.043511786
  0
LINE
  5
20C
100
AcDbEntity
  8
0
100
AcDbLine
 62
9
  6
CONTINUOUS
 10
4.2629637782
 20
4.043511786
 11
4.2629637782
 21
4.843511786
  0
LINE
  5
20D
100
AcDbEntity
  8
0
100
AcDbLine
 62
9
  6
CONTINUOUS
 10
4.2860952994
 20
1.623511786
 11
4.2860952994
 21
1.593511786
  0
LINE
  5
20E
100
AcDbEntity
  8
0
100
AcDbLine
 62
9
  6
CONTINUOUS
 10
4.5914659582
 20
2.4959478275
 11
4.5327560573
 21
2.8900918876
  0
LINE
  5
20F
100
AcDbEntity
  8
0
100
AcDbLine
 62
6
  6
CONTINUOUS
 10
4.6211385802
 20
2.5003677259
 11
4.5624286794
 21
2.894511786
  0
LINE
  5
210
100
AcDbEntity
  8
0
100
AcDbLine
 62
9
  6
CONTINUOUS
 10
4.5249700913
 20
1.623511786
 11
4.5249700913
 21
1.593511786
  0
LINE
  5
211
100
AcDbEntity
  8
0
100
AcDbLine
 62
9
  6
CONTINUOUS
 10
4.6129637782
 20
4.143511786
 11
4.6129637782
 21
4.843511786
  0
LINE
  5
212
100
AcDbEntity
  8
0
100
AcDbLine
 62
6
  6
CONTINUOUS
 10
4.6429637782
 20
4.2259738985
 11
4.6429637782
 21
4.813511786
  0
LINE
  5
213
100
AcDbEntity
  8
0
100
AcDbLine
 62
9
  6
CONTINUOUS
 10
4.6729637782
 20
4.458511786
 11
4.6729637782
 21
4.21880328
  0
LINE
  5
214
100
AcDbEntity
  8
0
100
AcDbLine
 62
9
  6
CONTINUOUS
 10
4.5914659582
 20
2.4959478275
 11
4.6211385802
 21
2.5003677259
  0
LINE
  5
215
100
AcDbEntity
  8
0
100
AcDbLine
 62
9
  6
CONTINUOUS
 10
4.1466355722
 20
3.0790912952
 11
4.1174960019
 21
3.0862246983
  0
LINE
  5
216
100
AcDbEntity
  8
0
100
AcDbLine
 62
9
  6
CONTINUOUS
 10
4.5327560573
 20
2.8900918876
 11
4.5624286794
 21
2.894511786
  0
LINE
  5
217
100
AcDbEntity
  8
0
100
AcDbLine
 62
6
  6
CONTINUOUS
 10
5.0929637782
 20
4.458511786
 11
5.0929637782
 21
3.828511786
  0
LINE
  5
218
100
AcDbEntity
  8
0
100
AcDbLine
 62
6
  6
CONTINUOUS
 10
5.1229637782
 20
3.7060154259
 11
5.1229637782
 21
4.5810081461
  0
LINE
  5
219
100
AcDbEntity
  8
0
100
AcDbLine
 62
9
  6
CONTINUOUS
 10
5.2429637782
 20
4.826011786
 11
5.2429637782
 21
3.461011786
  0
LINE
  5
21A
100
AcDbEntity
  8
0
100
AcDbLine
 62
9
  6
CONTINUOUS
 10
5.2729637782
 20
4.856011786
 11
5.2729637782
 21
3.431011786
  0
LINE
  5
21B
100
AcDbEntity
  8
0
100
AcDbLine
 62
9
  6
CONTINUOUS
 10
4.5567793486
 20
3.6196851049
 11
4.5860969466
 21
3.6133228376
  0
LINE
  5
21C
100
AcDbEntity
  8
0
100
AcDbLine
 62
6
  6
CONTINUOUS
 10
5.2729637782
 20
3.431011786
 11
5.7581560957
 21
3.431011786
  0
LINE
  5
21D
100
AcDbEntity
  8
0
100
AcDbLine
 62
9
  6
CONTINUOUS
 10
5.2429637782
 20
3.461011786
 11
5.7581560957
 21
3.461011786
  0
LINE
  5
21E
100
AcDbEntity
  8
0
100
AcDbLine
 62
9
  6
CONTINUOUS
 10
5.7581560957
 20
3.431011786
 11
5.7581560957
 21
4.856011786
  0
LINE
  5
21F
100
AcDbEntity
  8
0
100
AcDbLine
 62
6
  6
CONTINUOUS
 10
5.2429637782
 20
3.706011786
 11
5.1229637782
 21
3.706011786
  0
LINE
  5
220
100
AcDbEntity
  8
0
100
AcDbLine
 62
6
  6
CONTINUOUS
 10
5.0929637782
 20
3.828511786
 11
4.6493306707
 21
3.828511786
  0
LINE
  5
221
100
AcDbEntity
  8
0
100
AcDbLine
 62
6
  6
CONTINUOUS
 10
5.2429637782
 20
3.9181648313
 11
5.1229637782
 21
3.9181648313
  0
LINE
  5
222
100
AcDbEntity
  8
0
100
AcDbLine
 62
9
  6
CONTINUOUS
 10
4.2629637782
 20
4.043511786
 11
4.2329637782
 21
4.043511786
  0
LINE
  5
223
100
AcDbEntity
  8
0
100
AcDbLine
 62
9
  6
CONTINUOUS
 10
4.6129637782
 20
4.143511786
 11
4.672124576
 21
4.143511786
  0
LINE
  5
224
100
AcDbEntity
  8
0
100
AcDbLine
 62
6
  6
CONTINUOUS
 10
5.2429637782
 20
4.3688587407
 11
5.1229637782
 21
4.3688587407
  0
LINE
  5
225
100
AcDbEntity
  8
0
100
AcDbLine
 62
6
  6
CONTINUOUS
 10
5.0929637782
 20
4.458511786
 11
4.6729637782
 21
4.458511786
  0
LINE
  5
226
100
AcDbEntity
  8
0
100
AcDbLine
 62
6
  6
CONTINUOUS
 10
5.2429637782
 20
4.581011786
 11
5.1229637782
 21
4.581011786
  0
LINE
  5
227
100
AcDbEntity
  8
0
100
AcDbLine
 62
9
  6
CONTINUOUS
 10
6.6556835635
 20
4.9946784527
 11
6.6556835635
 21
3.2923451193
  0
LINE
  5
228
100
AcDbEntity
  8
0
100
AcDbLine
 62
9
  6
CONTINUOUS
 10
4.2329637782
 20
4.813511786
 11
4.6429637782
 21
4.813511786
  0
LINE
  5
229
100
AcDbEntity
  8
0
100
AcDbLine
 62
9
  6
CONTINUOUS
 10
5.2429637782
 20
4.826011786
 11
5.7581560957
 21
4.826011786
  0
LINE
  5
22A
100
AcDbEntity
  8
0
100
AcDbLine
 62
6
  6
CONTINUOUS
 10
4.6129637782
 20
4.843511786
 11
4.2629637782
 21
4.843511786
  0
LINE
  5
22B
100
AcDbEntity
  8
0
100
AcDbLine
 62
9
  6
CONTINUOUS
 10
5.2729637782
 20
4.856011786
 11
5.7581560957
 21
4.856011786
  0
LINE
  5
22C
100
AcDbEntity
  8
0
100
AcDbLine
 62
6
  6
CONTINUOUS
 10
7.6429637782
 20
1.008511786
 11
7.6429637782
 21
7.278511786
  0
LINE
  5
22D
100
AcDbEntity
  8
0
100
AcDbLine
 62
6
  6
CONTINUOUS
 10
7.7679637782
 20
0.893511786
 11
7.7679637782
 21
7.393511786
  0
LINE
  5
22E
100
AcDbEntity
  8
0
100
AcDbLine
 62
9
  6
CONTINUOUS
 10
4.2860952994
 20
1.623511786
 11
4.2588403199
 21
1.6109751957
  0
LINE
  5
22F
100
AcDbEntity
  8
0
100
AcDbLine
 62
6
  6
CONTINUOUS
 10
7.9559637782
 20
0.893511786
 11
7.9559637782
 21
7.393511786
  0
LINE
  5
230
100
AcDbEntity
  8
0
100
AcDbLine
 62
6
  6
CONTINUOUS
 10
7.7679637782
 20
7.393511786
 11
7.9559637782
 21
7.393511786
  0
ARC
  5
231
100
AcDbEntity
  8
0
100
AcDbCircle
 62
9
  6
CONTINUOUS
 10
0.2070294202
 20
4.043511786
 40
4.0559343726
100
AcDbArc
 50
346.2444427842
 51
360.0
  0
ARC
  5
232
100
AcDbEntity
  8
0
100
AcDbCircle
 62
6
  6
CONTINUOUS
 10
0.2070294202
 20
4.043511786
 40
4.0259343579
100
AcDbArc
 50
346.2444427842
 51
360.0
  0
ARC
  5
233
100
AcDbEntity
  8
0
100
AcDbCircle
 62
9
  6
CONTINUOUS
 10
2.6429637782
 20
2.205707833
 40
2.0
100
AcDbArc
 50
342.8106195197
 51
8.4722246009
  0
ARC
  5
234
100
AcDbEntity
  8
0
100
AcDbCircle
 62
9
  6
CONTINUOUS
 10
2.6429637782
 20
2.205707833
 40
1.97
100
AcDbArc
 50
342.8106194549
 51
8.4722246009
  0
ARC
  5
235
100
AcDbEntity
  8
0
100
AcDbCircle
 62
9
  6
CONTINUOUS
 10
2.1429637782
 20
4.143511786
 40
2.5
100
AcDbArc
 50
347.7559857074
 51
358.132186573
  0
ARC
  5
236
100
AcDbEntity
  8
0
100
AcDbCircle
 62
9
  6
CONTINUOUS
 10
2.1429637782
 20
4.143511786
 40
2.4700000103
100
AcDbArc
 50
347.7559857074
 51
360.0
  0
ARC
  5
237
100
AcDbEntity
  8
0
100
AcDbCircle
 62
6
  6
CONTINUOUS
 10
5.7581560957
 20
0.931011786
 40
2.5
100
AcDbArc
 50
68.9605302187
 51
90.0
  0
ARC
  5
238
100
AcDbEntity
  8
0
100
AcDbCircle
 62
9
  6
CONTINUOUS
 10
5.757818555
 20
0.9871794395
 40
2.4738406549
100
AcDbArc
 50
68.7190221609
 51
89.9921823102
  0
ARC
  5
239
100
AcDbEntity
  8
0
100
AcDbCircle
 62
9
  6
CONTINUOUS
 10
4.2860952994
 20
1.623511786
 40
0.03
100
AcDbArc
 50
204.7012151867
 51
270.0
  0
ARC
  5
23A
100
AcDbEntity
  8
0
100
AcDbCircle
 62
9
  6
CONTINUOUS
 10
4.5249700913
 20
1.623511786
 40
0.03
100
AcDbArc
 50
270.0
 51
342.8106195197
  0
ARC
  5
23B
100
AcDbEntity
  8
0
100
AcDbCircle
 62
9
  6
CONTINUOUS
 10
5.2729637782
 20
3.461011786
 40
0.03
100
AcDbArc
 50
180.0
 51
270.0
  0
ARC
  5
23C
100
AcDbEntity
  8
0
100
AcDbCircle
 62
6
  6
CONTINUOUS
 10
4.6493307662
 20
3.7985121585
 40
0.0299999676
100
AcDbArc
 50
90.0001824025
 51
172.1632499441
  0
ARC
  5
23D
100
AcDbEntity
  8
0
100
AcDbCircle
 62
6
  6
CONTINUOUS
 10
7.6429637782
 20
0.8830770034
 40
0.1254347826
100
AcDbArc
 50
4.7718880608
 51
90.0
  0
ARC
  5
23E
100
AcDbEntity
  8
0
100
AcDbCircle
 62
9
  6
CONTINUOUS
 10
6.3029637782
 20
2.5512194658
 40
2.25
100
AcDbArc
 50
166.2444427842
 51
204.7012151867
  0
ARC
  5
23F
100
AcDbEntity
  8
0
100
AcDbCircle
 62
9
  6
CONTINUOUS
 10
6.3029637782
 20
2.5512194658
 40
2.22
100
AcDbArc
 50
166.2444427842
 51
204.7012151867
  0
ARC
  5
240
100
AcDbEntity
  8
0
100
AcDbCircle
 62
9
  6
CONTINUOUS
 10
6.5406034814
 20
3.1891716788
 40
2.0300000124
100
AcDbArc
 50
167.7559857074
 51
188.4722246009
  0
ARC
  5
241
100
AcDbEntity
  8
0
100
AcDbCircle
 62
6
  6
CONTINUOUS
 10
6.5406034814
 20
3.1891716788
 40
2.0
100
AcDbArc
 50
167.7559857074
 51
188.4722246009
  0
ARC
  5
242
100
AcDbEntity
  8
0
100
AcDbCircle
 62
9
  6
CONTINUOUS
 10
7.6426377131
 20
2.3991191116
 40
2.776882709
100
AcDbArc
 50
89.9932722822
 51
110.8191659366
  0
ARC
  5
243
100
AcDbEntity
  8
0
100
AcDbCircle
 62
6
  6
CONTINUOUS
 10
7.6429637782
 20
2.456011786
 40
2.75
100
AcDbArc
 50
90.0
 51
111.0394697813
  0
ARC
  5
244
100
AcDbEntity
  8
0
100
AcDbCircle
 62
9
  6
CONTINUOUS
 10
7.6426377138
 20
5.8879044619
 40
2.7768827109
100
AcDbArc
 50
249.1808340612
 51
270.006727703
  0
ARC
  5
245
100
AcDbEntity
  8
0
100
AcDbCircle
 62
6
  6
CONTINUOUS
 10
7.6429637782
 20
5.831011786
 40
2.75
100
AcDbArc
 50
248.9605302187
 51
270.0
  0
ARC
  5
246
100
AcDbEntity
  8
0
100
AcDbCircle
 62
6
  6
CONTINUOUS
 10
5.7581560957
 20
7.356011786
 40
2.5
100
AcDbArc
 50
270.0
 51
291.0394697813
  0
ARC
  5
247
100
AcDbEntity
  8
0
100
AcDbCircle
 62
9
  6
CONTINUOUS
 10
5.7578185535
 20
7.2998441284
 40
2.4738406506
100
AcDbArc
 50
270.0078177243
 51
291.2809779054
  0
ARC
  5
248
100
AcDbEntity
  8
0
100
AcDbCircle
 62
6
  6
CONTINUOUS
 10
7.6429637782
 20
7.4039465686
 40
0.1254347826
100
AcDbArc
 50
270.0
 51
355.2281119392
  0
ARC
  5
249
100
AcDbEntity
  8
0
100
AcDbCircle
 62
6
  6
CONTINUOUS
 10
4.6729637782
 20
4.488511786
 40
0.03
100
AcDbArc
 50
180.6045653228
 51
270.0
  0
ARC
  5
24A
100
AcDbEntity
  8
0
100
AcDbCircle
 62
9
  6
CONTINUOUS
 10
4.2629637782
 20
4.813511786
 40
0.03
100
AcDbArc
 50
90.0
 51
180.0
  0
ARC
  5
24B
100
AcDbEntity
  8
0
100
AcDbCircle
 62
6
  6
CONTINUOUS
 10
4.6129637782
 20
4.813511786
 40
0.03
100
AcDbArc
 50
0.0
 51
90.0
  0
ARC
  5
24C
100
AcDbEntity
  8
0
100
AcDbCircle
 62
6
  6
CONTINUOUS
 10
5.2729637782
 20
4.826011786
 40
0.03
100
AcDbArc
 50
90.0
 51
180.0
  0
SPLINE
  5
24D
100
AcDbEntity
  8
0
100
AcDbSpline
 62
9
  6
CONTINUOUS
 70
0
 71
3
 72
27
 73
23
 74
21
 42
0.0000001
 43
0.0000001
 44
0.0000000001
 12
0.0010348424
 22
0.0317601544
 32
0.0
 13
0.0317619978
 23
-0.0009766286
 33
0.0
 40
0.0
 40
0.0
 40
0.0
 40
0.0
 40
0.0110148876
 40
0.0224840308
 40
0.0347743466
 40
0.0481752157
 40
0.0629016373
 40
0.0791079548
 40
0.0969029968
 40
0.1163627166
 40
0.1375343019
 40
0.1604252332
 40
0.2112923023
 40
0.2687562091
 40
0.3324973045
 40
0.4021127786
 40
0.4770478122
 40
0.5566934841
 40
0.6404259603
 40
0.7275589047
 40
0.817182338
 40
1.0
 40
1.0
 40
1.0
 40
1.0
 10
4.6416354662
 20
4.0620274858
 30
0.0
 10
4.6416392658
 20
4.0621440973
 30
0.0
 10
4.6416724149
 20
4.0623819579
 30
0.0
 10
4.6417955506
 20
4.0627313122
 30
0.0
 10
4.6419903995
 20
4.0630753443
 30
0.0
 10
4.6422552894
 20
4.0634133324
 30
0.0
 10
4.6425891242
 20
4.063745
 30
0.0
 10
4.6429911573
 20
4.0640698668
 30
0.0
 10
4.6434607832
 20
4.0643873072
 30
0.0
 10
4.6439973896
 20
4.0646965118
 30
0.0
 10
4.6446000387
 20
4.0649965341
 30
0.0
 10
4.6455223273
 20
4.0653980059
 30
0.0
 10
4.6468326303
 20
4.0658663652
 30
0.0
 10
4.6485863188
 20
4.0663663358
 30
0.0
 10
4.6505574903
 20
4.0668170682
 30
0.0
 10
4.6527284897
 20
4.0672134327
 30
0.0
 10
4.6550793948
 20
4.06755256
 30
0.0
 10
4.6575886745
 20
4.0678311427
 30
0.0
 10
4.6602338275
 20
4.0680458369
 30
0.0
 10
4.6629894061
 20
4.0681934108
 30
0.0
 10
4.6667968654
 20
4.068301231
 30
0.0
 10
4.6696839961
 20
4.0682798507
 30
0.0
 10
4.6716195475
 20
4.0682203357
 30
0.0
 11
4.6416354662
 21
4.0620274858
 31
0.0
 11
4.6416828972
 21
4.0623742774
 31
0.0
 11
4.6418020683
 21
4.0627186983
 31
0.0
 11
4.6419922806
 21
4.0630597968
 31
0.0
 11
4.6422528349
 21
4.0633966213
 31
0.0
 11
4.6425830321
 21
4.0637282203
 31
0.0
 11
4.6429821731
 21
4.0640536422
 31
0.0
 11
4.6434495588
 21
4.0643719354
 31
0.0
 11
4.6439844902
 21
4.0646821482
 31
0.0
 11
4.6445860492
 21
4.0649833886
 31
0.0
 11
4.6452524425
 21
4.0652750022
 31
0.0
 11
4.6467716832
 21
4.0658269691
 31
0.0
 11
4.6485261145
 21
4.0663332895
 31
0.0
 11
4.6504996387
 21
4.0667892039
 31
0.0
 11
4.6526751582
 21
4.0671902247
 31
0.0
 11
4.6550315762
 21
4.0675329508
 31
0.0
 11
4.6575467959
 21
4.0678142532
 31
0.0
 11
4.6601987205
 21
4.0680310026
 31
0.0
 11
4.6629635036
 21
4.0681805456
 31
0.0
 11
4.6658102994
 21
4.0682621319
 31
0.0
 11
4.6716195475
 21
4.0682203357
 31
0.0
  0
SPLINE
  5
24E
100
AcDbEntity
  8
0
100
AcDbSpline
 62
9
  6
CONTINUOUS
 70
0
 71
3
 72
51
 73
47
 74
45
 42
0.0000001
 43
0.0000001
 44
0.0000000001
 12
-0.0085961034
 22
-0.2407185544
 32
0.0
 13
-0.1383499248
 23
-0.1971766057
 33
0.0
 40
0.0
 40
0.0
 40
0.0
 40
0.0
 40
0.1044288453
 40
0.2060074938
 40
0.3040245108
 40
0.3978309313
 40
0.4867876321
 40
0.5702927127
 40
0.6477723457
 40
0.7186950836
 40
0.7515369062
 40
0.7825554895
 40
0.8116962464
 40
0.8389044558
 40
0.864127886
 40
0.8873230166
 40
0.9084480971
 40
0.9274612969
 40
0.9443234725
 40
0.9519386571
 40
0.9590054078
 40
0.9655203485
 40
0.9714801011
 40
0.9768812855
 40
0.9817205199
 40
0.9859948486
 40
0.989702872
 40
0.9913441922
 40
0.9928435438
 40
0.9942007958
 40
0.9954158176
 40
0.9964884782
 40
0.9974186468
 40
0.9982061926
 40
0.9988509847
 40
0.9991198072
 40
0.9993528922
 40
0.9995502234
 40
0.9997117843
 40
0.9998375587
 40
0.9998870208
 40
0.9999275301
 40
0.9999590847
 40
0.9999816824
 40
0.9999953214
 40
1.0
 40
1.0
 40
1.0
 40
1.0
 10
4.6716195475
 20
4.068220292
 30
0.0
 10
4.6713203205
 20
4.0598409717
 30
0.0
 10
4.6706312433
 20
4.0433143861
 30
0.0
 10
4.6693277358
 20
4.0189383667
 30
0.0
 10
4.6678020929
 20
3.9954298737
 30
0.0
 10
4.6660960894
 20
3.9729500628
 30
0.0
 10
4.6642560853
 20
3.9516501734
 30
0.0
 10
4.6623328269
 20
3.9316742785
 30
0.0
 10
4.6603782374
 20
3.9131569098
 30
0.0
 10
4.6587285566
 20
3.8986983304
 30
0.0
 10
4.6574383733
 20
3.8879536653
 30
0.0
 10
4.6565211319
 20
3.8805430734
 30
0.0
 10
4.6556355441
 20
3.8735843874
 30
0.0
 10
4.6547878815
 20
3.8670899608
 30
0.0
 10
4.6539842742
 20
3.86107124
 30
0.0
 10
4.6532299812
 20
3.8555387109
 30
0.0
 10
4.6525301642
 20
3.8505020094
 30
0.0
 10
4.6518899165
 20
3.8459704069
 30
0.0
 10
4.651394672
 20
3.8425138167
 30
0.0
 10
4.6510319481
 20
3.8400072274
 30
0.0
 10
4.6507867578
 20
3.8383230706
 30
0.0
 10
4.6505594663
 20
3.8367706254
 30
0.0
 10
4.6503505009
 20
3.8353506527
 30
0.0
 10
4.6501602892
 20
3.8340639132
 30
0.0
 10
4.6499892509
 20
3.8329111338
 30
0.0
 10
4.6498377868
 20
3.8318928836
 30
0.0
 10
4.6497238156
 20
3.8311286441
 30
0.0
 10
4.6496425452
 20
3.8305847966
 30
0.0
 10
4.6495891005
 20
3.8302276318
 30
0.0
 10
4.6495406565
 20
3.8299043276
 30
0.0
 10
4.6494972296
 20
3.8296149134
 30
0.0
 10
4.6494588364
 20
3.8293594186
 30
0.0
 10
4.6494254935
 20
3.8291378726
 30
0.0
 10
4.6493972173
 20
3.8289503047
 30
0.0
 10
4.6493768195
 20
3.8288152491
 30
0.0
 10
4.6493630462
 20
3.8287242158
 30
0.0
 10
4.649354636
 20
3.8286687071
 30
0.0
 10
4.649347507
 20
3.8286217141
 30
0.0
 10
4.6493416535
 20
3.8285832439
 30
0.0
 10
4.6493375882
 20
3.8285565069
 30
0.0
 10
4.6493349537
 20
3.8285393901
 30
0.0
 10
4.6493335055
 20
3.8285297321
 30
0.0
 10
4.649332266
 20
3.8285222551
 30
0.0
 10
4.6493316165
 20
3.8285167976
 30
0.0
 10
4.6493307775
 20
3.8285136921
 30
0.0
 10
4.6493308865
 20
3.8285120935
 30
0.0
 10
4.6493306707
 20
3.828511786
 30
0.0
 11
4.6716195475
 21
4.068220292
 31
0.0
 11
4.6705718116
 21
4.0430881383
 31
0.0
 11
4.6692653018
 21
4.0186555944
 31
0.0
 11
4.6677363194
 21
3.9950956019
 31
0.0
 11
4.6660264482
 21
3.9725650517
 31
0.0
 11
4.6641824167
 21
3.9512173707
 31
0.0
 11
4.6622546912
 21
3.9311959253
 31
0.0
 11
4.6602957232
 21
3.9126363504
 31
0.0
 11
4.6583591464
 21
3.8956631703
 31
0.0
 11
4.657416016
 21
3.8878089175
 31
0.0
 11
4.6564982347
 21
3.8803939929
 31
0.0
 11
4.6556121094
 21
3.8734309591
 31
0.0
 11
4.6547639467
 21
3.8669323788
 31
0.0
 11
4.653959826
 21
3.8609102096
 31
0.0
 11
4.6532050596
 21
3.8553743686
 31
0.0
 11
4.6525047983
 21
3.850334343
 31
0.0
 11
4.6518641928
 21
3.8457996203
 31
0.0
 11
4.6512880771
 21
3.8417790613
 31
0.0
 11
4.6510253718
 21
3.8399636864
 31
0.0
 11
4.6507801397
 21
3.8382792619
 31
0.0
 11
4.6505528096
 21
3.8367265485
 31
0.0
 11
4.6503438102
 21
3.8353063066
 31
0.0
 11
4.6501535703
 21
3.8340192967
 31
0.0
 11
4.6499825185
 21
3.8328662796
 31
0.0
 11
4.6498310292
 21
3.8318479195
 31
0.0
 11
4.649699279
 21
3.8309645312
 31
0.0
 11
4.6496408472
 21
3.8305735251
 31
0.0
 11
4.6495873996
 21
3.8302163501
 31
0.0
 11
4.6495389525
 21
3.8298930357
 31
0.0
 11
4.6494955225
 21
3.8296036113
 31
0.0
 11
4.649457126
 21
3.8293481064
 31
0.0
 11
4.6494237794
 21
3.8291265503
 31
0.0
 11
4.6493954993
 21
3.8289389724
 31
0.0
 11
4.649372302
 21
3.8287854022
 31
0.0
 11
4.6493626146
 21
3.8287213791
 31
0.0
 11
4.6493542041
 21
3.828665869
 31
0.0
 11
4.6493470725
 21
3.8286188755
 31
0.0
 11
4.6493412219
 21
3.8285804023
 31
0.0
 11
4.6493366544
 21
3.8285504531
 31
0.0
 11
4.6493348524
 21
3.8285386761
 31
0.0
 11
4.649333372
 21
3.8285290315
 31
0.0
 11
4.6493322133
 21
3.8285215197
 31
0.0
 11
4.6493313767
 21
3.8285161412
 31
0.0
 11
4.6493308624
 21
3.8285128965
 31
0.0
 11
4.6493306707
 21
3.828511786
 31
0.0
  0
SPLINE
  5
24F
100
AcDbEntity
  8
0
100
AcDbSpline
 62
9
  6
CONTINUOUS
 70
0
 71
3
 72
13
 73
9
 74
7
 42
0.0000001
 43
0.0000001
 44
0.0000000001
 12
0.000011392
 22
-0.081492543
 32
0.0
 13
-0.0026561764
 23
-0.0814492444
 33
0.0
 40
0.0
 40
0.0
 40
0.0
 40
0.0
 40
0.2505755092
 40
0.3758048761
 40
0.5009513734
 40
0.6259819846
 40
0.7508589312
 40
1.0
 40
1.0
 40
1.0
 40
1.0
 10
4.6425441771
 20
4.143511786
 30
0.0
 10
4.6425451286
 20
4.1367051075
 30
0.0
 10
4.6425335402
 20
4.1264966543
 30
0.0
 10
4.6424728031
 20
4.1128888417
 30
0.0
 10
4.642399535
 20
4.1026914849
 30
0.0
 10
4.6422947158
 20
4.0925039538
 30
0.0
 10
4.6420957376
 20
4.0789491674
 30
0.0
 10
4.6418560746
 20
4.0687916024
 30
0.0
 10
4.641635487
 20
4.0620274851
 30
0.0
 11
4.6425441771
 21
4.143511786
 31
0.0
 11
4.6425145701
 21
4.1230917718
 31
0.0
 11
4.6424681627
 21
4.1128866176
 31
0.0
 11
4.6423942346
 21
4.1026883792
 31
0.0
 11
4.6422872141
 21
4.0924998787
 31
0.0
 11
4.642135191
 21
4.0823244742
 31
0.0
 11
4.641635487
 21
4.0620274851
 31
0.0
  0
SPLINE
  5
250
100
AcDbEntity
  8
0
100
AcDbSpline
 62
9
  6
CONTINUOUS
 70
0
 71
3
 72
13
 73
9
 74
7
 42
0.0000001
 43
0.0000001
 44
0.0000000001
 12
0.0000227627
 22
-0.0752967347
 32
0.0
 13
-0.0026830055
 23
-0.075248922
 33
0.0
 40
0.0
 40
0.0
 40
0.0
 40
0.0
 40
0.2522364074
 40
0.3781220231
 40
0.5036781075
 40
0.6287740198
 40
0.7532774414
 40
1.0
 40
1.0
 40
1.0
 40
1.0
 10
4.672124576
 20
4.143511786
 30
0.0
 10
4.6721264898
 20
4.1371809267
 30
0.0
 10
4.6721449826
 20
4.127690489
 30
0.0
 10
4.6721608246
 20
4.1150487221
 30
0.0
 10
4.6721577561
 20
4.1055980412
 30
0.0
 10
4.6721314467
 20
4.0961820351
 30
0.0
 10
4.6720318958
 20
4.083725353
 30
0.0
 10
4.6718402002
 20
4.0744088275
 30
0.0
 10
4.6716195475
 20
4.068220292
 30
0.0
 11
4.672124576
 21
4.143511786
 31
0.0
 11
4.6721482252
 21
4.124519222
 31
0.0
 11
4.6721583391
 21
4.1150404511
 31
0.0
 11
4.6721538542
 21
4.1055864886
 31
0.0
 11
4.6721232265
 21
4.0961672242
 31
0.0
 11
4.6720432231
 21
4.0867928641
 31
0.0
 11
4.6716195475
 21
4.068220292
 31
0.0
  0
LINE
  5
251
100
AcDbEntity
  8
0
100
AcDbLine
 62
9
  6
CONTINUOUS
 10
4.6429637782
 20
4.2259738985
 11
4.6425441771
 21
4.143511786
  0
SPLINE
  5
252
100
AcDbEntity
  8
0
100
AcDbSpline
 62
9
  6
CONTINUOUS
 70
0
 71
3
 72
27
 73
23
 74
21
 42
0.0000001
 43
0.0000001
 44
0.0000000001
 12
0.0000000001
 22
-0.032012167
 32
0.0
 13
0.032012167
 23
-0.0000001114
 33
0.0
 40
0.0
 40
0.0
 40
0.0
 40
0.0
 40
0.0109937466
 40
0.0224449862
 40
0.0347226837
 40
0.048117266
 40
0.0628440352
 40
0.0790572057
 40
0.0968652689
 40
0.1163437606
 40
0.137539362
 40
0.1604587609
 40
0.2113926923
 40
0.2689310193
 40
0.332747537
 40
0.402432826
 40
0.4774245155
 40
0.5571059555
 40
0.640845679
 40
0.7279496043
 40
0.8174992179
 40
1.0
 40
1.0
 40
1.0
 40
1.0
 10
4.6429637782
 20
4.2259738985
 30
0.0
 10
4.6429637782
 20
4.2258565873
 30
0.0
 10
4.6429894321
 20
4.2256164186
 30
0.0
 10
4.6431022757
 20
4.2252612939
 30
0.0
 10
4.6432876743
 20
4.2249092048
 30
0.0
 10
4.6435439504
 20
4.2245609295
 30
0.0
 10
4.6438700022
 20
4.2242167798
 30
0.0
 10
4.6442650893
 20
4.2238772676
 30
0.0
 10
4.6447286177
 20
4.223543049
 30
0.0
 10
4.6452599904
 20
4.2232149676
 30
0.0
 10
4.6458582822
 20
4.2228940165
 30
0.0
 10
4.6467757611
 20
4.2224608424
 30
0.0
 10
4.6480823504
 20
4.2219480932
 30
0.0
 10
4.6498348609
 20
4.2213895303
 30
0.0
 10
4.6518079014
 20
4.2208737071
 30
0.0
 10
4.6539836537
 20
4.2204064014
 30
0.0
 10
4.656341923
 20
4.2199911631
 30
0.0
 10
4.6588608953
 20
4.2196320366
 30
0.0
 10
4.6615177751
 20
4.2193331341
 30
0.0
 10
4.6642867856
 20
4.2190985463
 30
0.0
 10
4.6681127475
 20
4.2188714785
 30
0.0
 10
4.671016363
 20
4.2188032867
 30
0.0
 10
4.6729637782
 20
4.2188032799
 30
0.0
 11
4.6429637782
 21
4.2259738985
 31
0.0
 11
4.6430002544
 21
4.2256238602
 31
0.0
 11
4.6431092289
 21
4.2252738535
 31
0.0
 11
4.6432900206
 21
4.2249248672
 31
0.0
 11
4.6435419481
 21
4.2245778902
 31
0.0
 11
4.6438643302
 21
4.2242339113
 31
0.0
 11
4.6442564858
 21
4.2238939195
 31
0.0
 11
4.6447177335
 21
4.2235589035
 31
0.0
 11
4.6452473923
 21
4.2232298524
 31
0.0
 11
4.6458445559
 21
4.2229077017
 31
0.0
 11
4.6465074188
 21
4.2225931736
 31
0.0
 11
4.6480221206
 21
4.2219896617
 31
0.0
 11
4.6497752539
 21
4.2214246688
 31
0.0
 11
4.6517505749
 21
4.2209035472
 31
0.0
 11
4.6539308151
 21
4.220431404
 31
0.0
 11
4.6562946069
 21
4.220012367
 31
0.0
 11
4.6588195578
 21
4.2196503186
 31
0.0
 11
4.6614832754
 21
4.2193491416
 31
0.0
 11
4.6642615831
 21
4.2191122887
 31
0.0
 11
4.6671231677
 21
4.2189414923
 31
0.0
 11
4.6729637782
 21
4.2188032799
 31
0.0
  0
SPLINE
  5
253
100
AcDbEntity
  8
0
100
AcDbSpline
 62
9
  6
CONTINUOUS
 70
0
 71
3
 72
13
 73
9
 74
7
 42
0.0000001
 43
0.0000001
 44
0.0000000001
 12
-0.0000109195
 22
-0.0752968722
 32
0.0
 13
-0.0000227104
 23
-0.0752968696
 33
0.0
 40
0.0
 40
0.0
 40
0.0
 40
0.0
 40
0.2467227469
 40
0.3712221672
 40
0.4963148731
 40
0.6218722843
 40
0.7477608697
 40
1.0
 40
1.0
 40
1.0
 40
1.0
 10
4.6729637782
 20
4.21880328
 30
0.0
 10
4.6729628801
 20
4.2126107963
 30
0.0
 10
4.6728630793
 20
4.203293597
 30
0.0
 10
4.6726555659
 20
4.1908384031
 30
0.0
 10
4.6724915232
 20
4.1814239567
 30
0.0
 10
4.6723459396
 20
4.1719743377
 30
0.0
 10
4.6721879171
 20
4.1593333542
 30
0.0
 10
4.6721264855
 20
4.1498427249
 30
0.0
 10
4.672124576
 20
4.143511786
 30
0.0
 11
4.6729637782
 21
4.21880328
 31
0.0
 11
4.6728057443
 21
4.2002265009
 31
0.0
 11
4.6726546238
 21
4.190853302
 31
0.0
 11
4.6724948877
 21
4.181435567
 31
0.0
 11
4.6723506384
 21
4.171982587
 31
0.0
 11
4.6722338974
 21
4.1625042891
 31
0.0
 11
4.672124576
 21
4.143511786
 31
0.0
  0
SPLINE
  5
254
100
AcDbEntity
  8
0
100
AcDbSpline
 62
9
  6
CONTINUOUS
 70
0
 71
3
 72
23
 73
19
 74
17
 42
0.0000001
 43
0.0000001
 44
0.0000000001
 12
-0.0094062608
 22
-0.0280719783
 32
0.0
 13
0.0276322102
 23
-0.0106289541
 33
0.0
 40
0.0
 40
0.0
 40
0.0
 40
0.0
 40
0.1781620141
 40
0.2645686741
 40
0.3481878574
 40
0.4283336093
 40
0.5045186675
 40
0.5763184308
 40
0.6433354072
 40
0.7052362874
 40
0.7618313148
 40
0.813033144
 40
0.8588847136
 40
0.8996616667
 40
0.9360108966
 40
0.968951917
 40
0.9846126062
 40
1.0
 40
1.0
 40
1.0
 40
1.0
 10
6.6556835763
 20
3.2923451193
 30
0.0
 10
6.6551249635
 20
3.2906779993
 30
0.0
 10
6.6543708624
 20
3.288175886
 30
0.0
 10
6.653542115
 20
3.2848407028
 30
0.0
 10
6.6530304481
 20
3.2824248519
 30
0.0
 10
6.6526285046
 20
3.2800906071
 30
0.0
 10
6.6523383889
 20
3.277857324
 30
0.0
 10
6.6521614635
 20
3.2757421041
 30
0.0
 10
6.6520989555
 20
3.2737612428
 30
0.0
 10
6.6521523173
 20
3.2719299535
 30
0.0
 10
6.652320147
 20
3.2702620077
 30
0.0
 10
6.6526010394
 20
3.2687696598
 30
0.0
 10
6.6529939696
 20
3.2674640739
 30
0.0
 10
6.653500184
 20
3.2663558726
 30
0.0
 10
6.6541154888
 20
3.2654532497
 30
0.0
 10
6.6547293584
 20
3.2648698608
 30
0.0
 10
6.6552630308
 20
3.2645293912
 30
0.0
 10
6.6555418472
 20
3.2643996701
 30
0.0
 10
6.6556835764
 20
3.2643451528
 30
0.0
 11
6.6556835763
 21
3.2923451193
 31
0.0
 11
6.6541657358
 21
3.2872935653
 31
0.0
 11
6.6535501867
 21
3.2848105736
 31
0.0
 11
6.6530391481
 21
3.2823882667
 31
0.0
 11
6.6526384451
 21
3.2800495525
 31
0.0
 11
6.6523504149
 21
3.2778124859
 31
0.0
 11
6.6521765224
 21
3.2756939085
 31
0.0
 11
6.6521182327
 21
3.2737106621
 31
0.0
 11
6.6521765224
 21
3.2718789534
 31
0.0
 11
6.652350415
 21
3.2702124504
 31
0.0
 11
6.6526384452
 21
3.268724186
 31
0.0
 11
6.6530391482
 21
3.2674271933
 31
0.0
 11
6.6535501868
 21
3.2663334514
 31
0.0
 11
6.6541657359
 21
3.2654507241
 31
0.0
 11
6.6548790982
 21
3.2647857212
 31
0.0
 11
6.6552703664
 21
3.2645369634
 31
0.0
 11
6.6556835764
 21
3.2643451528
 31
0.0
  0
SPLINE
  5
255
100
AcDbEntity
  8
0
100
AcDbSpline
 62
9
  6
CONTINUOUS
 70
0
 71
3
 72
23
 73
19
 74
17
 42
0.0000001
 43
0.0000001
 44
0.0000000001
 12
-0.0276322104
 22
-0.0106289544
 32
0.0
 13
0.0094062608
 23
-0.0280719785
 33
0.0
 40
0.0
 40
0.0
 40
0.0
 40
0.0
 40
0.0153873938
 40
0.031048083
 40
0.0639891034
 40
0.1003383335
 40
0.1411152869
 40
0.1869668568
 40
0.2381686863
 40
0.2947637141
 40
0.3566645947
 40
0.4236815714
 40
0.4954813348
 40
0.571666393
 40
0.6518121447
 40
0.7354313276
 40
0.8218379872
 40
1.0
 40
1.0
 40
1.0
 40
1.0
 10
6.6556835763
 20
5.0226784194
 30
0.0
 10
6.6555418471
 20
5.0226239021
 30
0.0
 10
6.6552630307
 20
5.022494181
 30
0.0
 10
6.6547293583
 20
5.0221537114
 30
0.0
 10
6.6541154887
 20
5.0215703225
 30
0.0
 10
6.6535001839
 20
5.0206676996
 30
0.0
 10
6.6529939695
 20
5.0195594983
 30
0.0
 10
6.6526010394
 20
5.0182539123
 30
0.0
 10
6.6523201469
 20
5.0167615644
 30
0.0
 10
6.6521523172
 20
5.0150936186
 30
0.0
 10
6.6520989555
 20
5.0132623293
 30
0.0
 10
6.6521614635
 20
5.0112814679
 30
0.0
 10
6.652338389
 20
5.009166248
 30
0.0
 10
6.6526285047
 20
5.0069329649
 30
0.0
 10
6.6530304482
 20
5.0045987201
 30
0.0
 10
6.6535421151
 20
5.0021828691
 30
0.0
 10
6.6543708625
 20
4.998847686
 30
0.0
 10
6.6551249636
 20
4.9963455727
 30
0.0
 10
6.6556835764
 20
4.9946784527
 30
0.0
 11
6.6556835763
 21
5.0226784194
 31
0.0
 11
6.6552703663
 21
5.0224866089
 31
0.0
 11
6.6548790981
 21
5.022237851
 31
0.0
 11
6.6541657358
 21
5.0215728481
 31
0.0
 11
6.6535501867
 21
5.0206901208
 31
0.0
 11
6.6530391481
 21
5.0195963789
 31
0.0
 11
6.6526384451
 21
5.0182993861
 31
0.0
 11
6.6523504149
 21
5.0168111217
 31
0.0
 11
6.6521765224
 21
5.0151446187
 31
0.0
 11
6.6521182327
 21
5.01331291
 31
0.0
 11
6.6521765224
 21
5.0113296635
 31
0.0
 11
6.652350415
 21
5.0092110861
 31
0.0
 11
6.6526384452
 21
5.0069740195
 31
0.0
 11
6.6530391482
 21
5.0046353053
 31
0.0
 11
6.6535501868
 21
5.0022129984
 31
0.0
 11
6.6541657359
 21
4.9997300067
 31
0.0
 11
6.6556835764
 21
4.9946784527
 31
0.0
  0
ENDSEC
  0
SECTION
  2
OBJECTS
  0
DICTIONARY
  5
C
100
AcDbDictionary
280
0
281
1
  3
ACAD_GROUP
350
D
  3
ACAD_MLINESTYLE
350
17
  3
ACAD_LAYOUT
350
1A
  3
ACAD_PLOTSETTINGS
350
19
  3
ACAD_PLOTSTYLENAME
350
E
  0
DICTIONARY
  5
D
102
{ACAD_REACTORS
330
C
102
}
100
AcDbDictionary
280
0
281
1
  0
ACDBDICTIONARYWDFLT
  5
E
102
{ACAD_REACTORS
330
C
102
}
100
AcDbDictionary
281
1
  3
Normal
350
F
100
AcDbDictionaryWithDefault
340
F
  0
DICTIONARY
  5
17
102
{ACAD_REACTORS
330
C
102
}
100
AcDbDictionary
280
0
281
1
  3
Standard
350
18
  0
DICTIONARY
  5
19
102
{ACAD_REACTORS
330
C
102
}
100
AcDbDictionary
281
1
  0
DICTIONARY
  5
1A
102
{ACAD_REACTORS
330
C
102
}
100
AcDbDictionary
281
1
  3
Model
350
256
  3
Layout1
350
257
  0
ACDBPLACEHOLDER
  5
F
102
{ACAD_REACTORS
330
E
102
}
  0
MLINESTYLE
  5
18
102
{ACAD_REACTORS
330
17
102
}
100
AcDbMlineStyle
  2
STANDARD
 70
0
  3

 62
256
 51
90.0
 52
90.0
 71
2
 49
0.5
 62
256
  6
BYLAYER
 49
-0.5
 62
256
  6
BYLAYER
  0
LAYOUT
  5
256
102
{ACAD_REACTORS
330
1A
102
}
100
AcDbPlotSettings
  1

  2
none_device
  4
ISO_A4_(297.00_x_210.00_MM)
  6

 40
0.0
 41
0.0
 42
0.0
 43
0.0
 44
297.0
 45
210.0
 46
0.0
 47
0.0
 48
0.0
 49
0.0
140
0.0
141
0.0
142
1.0
143
1.0
 70
1024
 72
0
 73
0
 74
0
  7

 75
0
147
1.0
148
0.0
149
0.0
100
AcDbLayout
  1
Model
 70
0
 71
0
 10
0.0
 20
0.0
 11
11.6929133858
 21
8.2677165354
 12
0.0
 22
0.0
 32
0.0
 14
0.0
 24
0.0
 34
0.0
 15
0.0
 25
0.0
 35
0.0
146
0.0
 13
0.0
 23
0.0
 33
0.0
 16
1.0
 26
0.0
 36
0.0
 17
0.0
 27
1.0
 37
0.0
 76
0
330
204
345
0
346
0
  0
LAYOUT
  5
257
102
{ACAD_REACTORS
330
1A
102
}
100
AcDbPlotSettings
  1

  2
none_device
  4
ISO_A4_(297.00_x_210.00_MM)
  6

 40
0.0
 41
0.0
 42
0.0
 43
0.0
 44
297.0
 45
210.0
 46
0.0
 47
0.0
 48
0.0
 49
0.0
140
0.0
141
0.0
142
1.0
143
1.0
 70
0
 72
0
 73
0
 74
0
  7

 75
0
147
1.0
148
0.0
149
0.0
100
AcDbLayout
  1
Layout1
 70
0
 71
1
 10
0.0
 20
0.0
 11
11.6929133858
 21
8.2677165354
 12
0.0
 22
0.0
 32
0.0
 14
0.0
 24
0.0
 34
0.0
 15
0.0
 25
0.0
 35
0.0
146
0.0
 13
0.0
 23
0.0
 33
0.0
 16
1.0
 26
0.0
 36
0.0
 17
0.0
 27
1.0
 37
0.0
 76
0
330
205
345
0
346
0
  0
ENDSEC
  0
EOF
