999
DXF file: E:\BT Custom\CADOUTPUT\_RIGHT.dxf
999
Pro/ENGINEER 2018400 by Parametric Technology Corporation
  0
SECTION
  2
HEADER
  9
$ACADVER
  1
AC1018
  9
$DWGCODEPAGE
  3
ANSI_1252
  9
$EXTMAX
 10
22.0
 20
17.0
 30
0.0
  9
$EXTMIN
 10
0.0
 20
0.0
 30
0.0
  9
$LIMMIN
 10
0.0
 20
0.0
  9
$LIMMAX
 10
22.0
 20
17.0
  9
$VIEWCTR
 10
11.0
 20
8.5
  9
$VIEWSIZE
 40
17.0
  9
$CLAYER
  8
0
  9
$LTSCALE
 40
1.21
  9
$CELTYPE
  6
BYLAYER
  9
$DIMSCALE
 40
1.0
  9
$DIMASZ
 40
0.1
  9
$DIMEXO
 40
0.0625
  9
$DIMDLI
 40
0.836
  9
$DIMEXE
 40
0.125
  9
$DIMCEN
 40
0.198
  9
$DIMLFAC
 40
1.0
  9
$DIMBLK
  1
_FILLED
  9
$DIMALT
 70
1
  9
$DIMALTD
 70
2
  9
$DIMALTTD
 70
2
  9
$DIMALTF
 40
25.4
  9
$DIMTXT
 40
0.08
  9
$DIMTOL
 70
1
  9
$DIMLIM
 70
0
  9
$DIMTFAC
 40
1.0
  9
$DIMTP
 40
0.001
  9
$DIMTM
 40
0.001
  9
$DIMGAP
 40
0.09
  9
$DIMDSEP
 70
46
  9
$AUNITS
 70
0
  9
$PDMODE
 70
3
  9
$PDSIZE
 40
0.06
  9
$HANDSEED
  5
2C2
  9
$TILEMODE
 70
1
  9
$MEASUREMENT
 70
0
  9
$INSUNITS
 70
1
  0
ENDSEC
  0
SECTION
  2
CLASSES
  0
CLASS
  1
ACDBDICTIONARYWDFLT
  2
AcDbDictionaryWithDefault
  3
AutoCAD 2000
 90
0
 91
1
280
0
281
0
  0
CLASS
  1
ACDBPLACEHOLDER
  2
AcDbPlaceHolder
  3
AutoCAD 2000
 90
0
 91
1
280
0
281
0
  0
CLASS
  1
LAYOUT
  2
AcDbLayout
  3
AutoCAD 2000
 90
0
 91
0
280
0
281
0
  0
ENDSEC
  0
SECTION
  2
TABLES
  0
TABLE
  2
VPORT
  5
8
100
AcDbSymbolTable
 70
2
  0
VPORT
  5
1F4
100
AcDbSymbolTableRecord
100
AcDbViewportTableRecord
  2
*ACTIVE
 70
0
 10
0.0
 20
0.0
 11
1.0
 21
1.0
 12
11.0
 22
8.5
 13
0.0
 23
0.0
 14
1.0
 24
1.0
 15
0.0
 25
0.0
 16
0.0
 26
0.0
 36
1.0
 17
0.0
 27
0.0
 37
0.0
 40
17.0
 41
1.2941176471
 42
50.0
 43
0.0
 44
0.0
 50
0.0
 51
0.0
 71
0
 72
100
 73
1
 74
1
 75
0
 76
0
 77
0
 78
0
  0
ENDTAB
  0
TABLE
  2
LTYPE
  5
5
100
AcDbSymbolTable
 70
6
  0
LTYPE
  5
14
100
AcDbSymbolTableRecord
100
AcDbLinetypeTableRecord
  2
BYBLOCK
 70
0
  3

 72
65
 73
0
 40
0.0
  0
LTYPE
  5
15
100
AcDbSymbolTableRecord
100
AcDbLinetypeTableRecord
  2
BYLAYER
 70
0
  3

 72
65
 73
0
 40
0.0
  0
LTYPE
  5
16
100
AcDbSymbolTableRecord
100
AcDbLinetypeTableRecord
  2
CONTINUOUS
 70
64
  3
Solid line
 72
65
 73
0
 40
0.0
  0
LTYPE
  5
1F5
100
AcDbSymbolTableRecord
100
AcDbLinetypeTableRecord
  2
CENTER
 70
64
  3
____ _ ____ _ ____ _ ____ _ ____ _ ____ _ ____
 72
65
 73
4
 40
0.6
 49
0.375
 74
0
 49
-0.075
 74
0
 49
0.075
 74
0
 49
-0.075
 74
0
  0
LTYPE
  5
1F6
100
AcDbSymbolTableRecord
100
AcDbLinetypeTableRecord
  2
HIDDEN
 70
64
  3
- - - - - - - - - - - - - - - - - - - -
 72
65
 73
2
 40
0.2
 49
0.1
 74
0
 49
-0.1
 74
0
  0
LTYPE
  5
1F7
100
AcDbSymbolTableRecord
100
AcDbLinetypeTableRecord
  2
PHANTOM
 70
64
  3
_____ _ _ _____ _ _ _____ _ _ _____
 72
65
 73
6
 40
0.8
 49
0.45
 74
0
 49
-0.05
 74
0
 49
0.1
 74
0
 49
-0.05
 74
0
 49
0.1
 74
0
 49
-0.05
 74
0
  0
LTYPE
  5
1F8
100
AcDbSymbolTableRecord
100
AcDbLinetypeTableRecord
  2
DOT
 70
64
  3
. . . . . . . . . . . . . . . . . . . .
 72
65
 73
2
 40
0.2
 49
0.1
 74
0
 49
-0.1
 74
0
  0
LTYPE
  5
1F9
100
AcDbSymbolTableRecord
100
AcDbLinetypeTableRecord
  2
DASHED
 70
64
  3
- - - - - - - - - - - - - - - - - - - -
 72
65
 73
2
 40
0.2
 49
0.1
 74
0
 49
-0.1
 74
0
  0
ENDTAB
  0
TABLE
  2
LAYER
  5
2
100
AcDbSymbolTable
 70
36
  0
LAYER
  5
10
100
AcDbSymbolTableRecord
100
AcDbLayerTableRecord
  2
0
 70
0
 62
7
  6
CONTINUOUS
370
-3
390
F
  0
LAYER
  5
1FA
100
AcDbSymbolTableRecord
100
AcDbLayerTableRecord
  2
DEFAULT_1
 70
0
 62
7
  6
CENTER
370
-3
390
F
  0
LAYER
  5
1FB
100
AcDbSymbolTableRecord
100
AcDbLayerTableRecord
  2
DEFAULT_2
 70
0
 62
8
  6
HIDDEN
370
-3
390
F
  0
LAYER
  5
1FC
100
AcDbSymbolTableRecord
100
AcDbLayerTableRecord
  2
DEFAULT_3
 70
0
 62
7
  6
PHANTOM
370
-3
390
F
  0
LAYER
  5
1FD
100
AcDbSymbolTableRecord
100
AcDbLayerTableRecord
  2
ALL_FEATURES
 70
0
 62
7
  6
CONTINUOUS
370
-3
390
F
  0
LAYER
  5
1FE
100
AcDbSymbolTableRecord
100
AcDbLayerTableRecord
  2
AXES_FEATURES
 70
0
 62
7
  6
CONTINUOUS
370
-3
390
F
  0
LAYER
  5
1FF
100
AcDbSymbolTableRecord
100
AcDbLayerTableRecord
  2
DEFAULT_COORDINATE_SYSTEM
 70
0
 62
7
  6
CONTINUOUS
370
-3
390
F
  0
LAYER
  5
200
100
AcDbSymbolTableRecord
100
AcDbLayerTableRecord
  2
DEFAULT_DATUM_AXES
 70
0
 62
7
  6
CONTINUOUS
370
-3
390
F
  0
LAYER
  5
201
100
AcDbSymbolTableRecord
100
AcDbLayerTableRecord
  2
DEFAULT_DATUM_PLANES
 70
0
 62
7
  6
CONTINUOUS
370
-3
390
F
  0
LAYER
  5
202
100
AcDbSymbolTableRecord
100
AcDbLayerTableRecord
  2
DIMENSIONS
 70
0
 62
7
  6
CONTINUOUS
370
-3
390
F
  0
ENDTAB
  0
TABLE
  2
STYLE
  5
3
100
AcDbSymbolTable
 70
1
  0
STYLE
  5
11
100
AcDbSymbolTableRecord
100
AcDbTextStyleTableRecord
  2
STANDARD
 70
0
 40
0.0
 41
0.8
 50
0.0
 71
0
 42
0.2
  3
txt
  4

  0
STYLE
  5
203
100
AcDbSymbolTableRecord
100
AcDbTextStyleTableRecord
  2
TEXTSTYLE_1
 70
0
 40
0.0
 41
0.8
 50
0.0
 71
0
 42
0.2
  3
gdt
  4

  0
ENDTAB
  0
TABLE
  2
VIEW
  5
6
100
AcDbSymbolTable
 70
0
  0
ENDTAB
  0
TABLE
  2
UCS
  5
7
100
AcDbSymbolTable
 70
0
  0
ENDTAB
  0
TABLE
  2
APPID
  5
9
100
AcDbSymbolTable
 70
1
  0
APPID
  5
204
100
AcDbSymbolTableRecord
100
AcDbRegAppTableRecord
  2
ACAD
 70
0
  0
ENDTAB
  0
TABLE
  2
BLOCK_RECORD
  5
1
100
AcDbSymbolTable
 70
0
  0
BLOCK_RECORD
  5
205
100
AcDbSymbolTableRecord
100
AcDbBlockTableRecord
  2
*Model_Space
  0
BLOCK_RECORD
  5
206
100
AcDbSymbolTableRecord
100
AcDbBlockTableRecord
  2
*Paper_Space
  0
BLOCK_RECORD
  5
207
100
AcDbSymbolTableRecord
100
AcDbBlockTableRecord
  2
_FILLED
  0
ENDTAB
  0
TABLE
  2
DIMSTYLE
  5
A
100
AcDbSymbolTable
 70
1
100
AcDbDimStyleTable
 71
0
  0
DIMSTYLE
105
208
100
AcDbSymbolTableRecord
100
AcDbDimStyleTableRecord
  2
STANDARD
 70
0
  3

  4

 40
1.0
 41
0.1
 42
0.0625
 43
0.38
 44
0.125
 45
0.0
 46
0.0
 47
0.001
 48
0.001
140
0.08
141
0.09
142
0.0
143
25.4
144
1.0
145
0.0
146
1.0
147
0.09
 71
1.0
 72
0.0
 73
1
 74
1
 75
0
 76
0
 77
0
 78
4
 79
1
170
1
171
2
172
0
173
0
174
0
175
0
176
0
177
0
178
0
270
2
179
3
271
3
272
3
273
2
274
2
275
0
280
0
281
0
282
0
283
1
284
4
285
0
286
0
287
3
288
0
340
11
278
46
341
207
342
207
343
207
344
207
  0
ENDTAB
  0
ENDSEC
  0
SECTION
  2
BLOCKS
  0
BLOCK
  5
20
100
AcDbEntity
  8
0
100
AcDbBlockBegin
  2
*Model_Space
 70
0
 10
0.0
 20
0.0
 30
0.0
  3
*Model_Space
  1

  0
ENDBLK
  5
21
100
AcDbEntity
  8
0
100
AcDbBlockEnd
  0
BLOCK
  5
1C
100
AcDbEntity
  8
0
100
AcDbBlockBegin
  2
*Paper_Space
 70
0
 10
0.0
 20
0.0
 30
0.0
  3
*Paper_Space
  1

  0
ENDBLK
  5
1D
100
AcDbEntity
  8
0
100
AcDbBlockEnd
  0
BLOCK
  5
209
100
AcDbEntity
  8
0
100
AcDbBlockBegin
  2
_FILLED
 70
64
 10
0.0
 20
0.0
  3
_FILLED
  1

  0
SOLID
  5
20A
100
AcDbEntity
  8
0
  6
BYBLOCK
 62
0
100
AcDbTrace
 10
0.0
 20
0.0
 11
-1.0
 21
0.2
 12
-1.0
 22
-0.2
 13
-1.0
 23
-0.2
  0
ENDBLK
  5
20B
100
AcDbEntity
  8
0
  6
BYBLOCK
 62
0
100
AcDbBlockEnd
  0
ENDSEC
  0
SECTION
  2
ENTITIES
  0
LINE
  5
20C
100
AcDbEntity
  8
0
100
AcDbLine
 62
9
  6
CONTINUOUS
 10
8.9531741959
 20
8.6147471475
 11
8.9531741959
 21
9.4050364606
  0
LINE
  5
20D
100
AcDbEntity
  8
0
100
AcDbLine
 62
7
  6
CONTINUOUS
 10
8.9769834891
 20
8.5553822314
 11
8.9769834891
 21
9.4644013767
  0
LINE
  5
20E
100
AcDbEntity
  8
0
100
AcDbLine
 62
7
  6
CONTINUOUS
 10
8.9960641371
 20
8.4966576518
 11
8.9960641371
 21
9.5231259563
  0
LINE
  5
20F
100
AcDbEntity
  8
0
100
AcDbLine
 62
7
  6
CONTINUOUS
 10
9.015699392
 20
8.482391804
 11
9.015699392
 21
9.537391804
  0
LINE
  5
210
100
AcDbEntity
  8
0
100
AcDbLine
 62
7
  6
CONTINUOUS
 10
8.9769834891
 20
9.4644017602
 11
8.9960641371
 21
9.5231259563
  0
LINE
  5
211
100
AcDbEntity
  8
0
100
AcDbLine
 62
7
  6
CONTINUOUS
 10
8.9769834891
 20
8.5553818479
 11
8.9960641371
 21
8.4966576518
  0
LINE
  5
212
100
AcDbEntity
  8
0
100
AcDbLine
 62
7
  6
CONTINUOUS
 10
9.0869834891
 20
8.482391804
 11
9.0869834891
 21
9.537391804
  0
LINE
  5
213
100
AcDbEntity
  8
0
100
AcDbLine
 62
7
  6
CONTINUOUS
 10
9.1024834891
 20
8.5092385916
 11
9.1024834891
 21
9.5105450165
  0
LINE
  5
214
100
AcDbEntity
  8
0
100
AcDbLine
 62
7
  6
CONTINUOUS
 10
9.1179834891
 20
8.482391804
 11
9.1179834891
 21
9.537391804
  0
LINE
  5
215
100
AcDbEntity
  8
0
100
AcDbLine
 62
7
  6
CONTINUOUS
 10
9.1979834891
 20
8.452391804
 11
9.1979834891
 21
9.567391804
  0
LINE
  5
216
100
AcDbEntity
  8
0
100
AcDbLine
 62
7
  6
CONTINUOUS
 10
9.2069834891
 20
9.3698133814
 11
9.2069834891
 21
9.3583955232
  0
LINE
  5
217
100
AcDbEntity
  8
0
100
AcDbLine
 62
7
  6
CONTINUOUS
 10
9.2069834891
 20
8.6613882011
 11
9.2069834891
 21
8.6499702266
  0
LINE
  5
218
100
AcDbEntity
  8
0
100
AcDbLine
 62
7
  6
CONTINUOUS
 10
9.1024834891
 20
9.5105450165
 11
9.1179834891
 21
9.537391804
  0
LINE
  5
219
100
AcDbEntity
  8
0
100
AcDbLine
 62
7
  6
CONTINUOUS
 10
8.9960641371
 20
9.5231259563
 11
9.015699392
 21
9.537391804
  0
LINE
  5
21A
100
AcDbEntity
  8
0
100
AcDbLine
 62
7
  6
CONTINUOUS
 10
8.9960641371
 20
8.4966576518
 11
9.015699392
 21
8.482391804
  0
LINE
  5
21B
100
AcDbEntity
  8
0
100
AcDbLine
 62
7
  6
CONTINUOUS
 10
9.1024834891
 20
8.5092385916
 11
9.1179834891
 21
8.482391804
  0
LINE
  5
21C
100
AcDbEntity
  8
0
100
AcDbLine
 62
7
  6
CONTINUOUS
 10
9.5989834891
 20
9.3698133814
 11
9.5989834891
 21
9.3583955231
  0
LINE
  5
21D
100
AcDbEntity
  8
0
100
AcDbLine
 62
7
  6
CONTINUOUS
 10
9.5989834891
 20
8.6613882078
 11
9.5989834891
 21
8.6499702266
  0
LINE
  5
21E
100
AcDbEntity
  8
0
100
AcDbLine
 62
7
  6
CONTINUOUS
 10
9.0869834891
 20
8.482391804
 11
9.1024834891
 21
8.5092385916
  0
LINE
  5
21F
100
AcDbEntity
  8
0
100
AcDbLine
 62
7
  6
CONTINUOUS
 10
9.5227734428
 20
9.5933901637
 11
9.5638103319
 21
9.6229766896
  0
LINE
  5
220
100
AcDbEntity
  8
0
100
AcDbLine
 62
9
  6
CONTINUOUS
 10
9.5227705282
 20
9.5933880623
 11
9.5227734428
 21
9.5933901637
  0
LINE
  5
221
100
AcDbEntity
  8
0
100
AcDbLine
 62
7
  6
CONTINUOUS
 10
11.4572362464
 20
7.822391804
 11
11.7639834891
 21
7.822391804
  0
LINE
  5
222
100
AcDbEntity
  8
0
100
AcDbLine
 62
7
  6
CONTINUOUS
 10
9.5227734428
 20
8.4263934444
 11
9.5638103319
 21
8.3968069185
  0
LINE
  5
223
100
AcDbEntity
  8
0
100
AcDbLine
 62
7
  6
CONTINUOUS
 10
9.0869834891
 20
9.537391804
 11
9.1024834891
 21
9.5105450165
  0
LINE
  5
224
100
AcDbEntity
  8
0
100
AcDbLine
 62
7
  6
CONTINUOUS
 10
9.6079834891
 20
8.452391804
 11
9.6079834891
 21
9.567391804
  0
LINE
  5
225
100
AcDbEntity
  8
0
100
AcDbLine
 62
7
  6
CONTINUOUS
 10
9.6869834891
 20
8.482391804
 11
9.6869834891
 21
9.537391804
  0
LINE
  5
226
100
AcDbEntity
  8
0
100
AcDbLine
 62
7
  6
CONTINUOUS
 10
9.7379834891
 20
8.6393918359
 11
9.7379834891
 21
9.3803917721
  0
LINE
  5
227
100
AcDbEntity
  8
0
100
AcDbLine
 62
7
  6
CONTINUOUS
 10
10.0969834891
 20
8.6663918336
 11
10.0969834891
 21
9.3533917745
  0
LINE
  5
228
100
AcDbEntity
  8
0
100
AcDbLine
 62
7
  6
CONTINUOUS
 10
10.1169834891
 20
9.439891804
 11
10.1169834891
 21
8.579891804
  0
LINE
  5
229
100
AcDbEntity
  8
0
100
AcDbLine
 62
7
  6
CONTINUOUS
 10
9.6869834891
 20
8.482391804
 11
9.7379834891
 21
8.639391804
  0
LINE
  5
22A
100
AcDbEntity
  8
0
100
AcDbLine
 62
7
  6
CONTINUOUS
 10
10.2369834891
 20
8.4325415349
 11
10.6297916394
 21
8.34535012
  0
LINE
  5
22B
100
AcDbEntity
  8
0
100
AcDbLine
 62
7
  6
CONTINUOUS
 10
9.6869834891
 20
9.537391804
 11
9.7379834891
 21
9.380391804
  0
LINE
  5
22C
100
AcDbEntity
  8
0
100
AcDbLine
 62
7
  6
CONTINUOUS
 10
10.2369834891
 20
8.4325415349
 11
10.2369834891
 21
9.5872420732
  0
LINE
  5
22D
100
AcDbEntity
  8
0
100
AcDbLine
 62
7
  6
CONTINUOUS
 10
9.2831935354
 20
8.4263934444
 11
9.2421566464
 21
8.3968069185
  0
LINE
  5
22E
100
AcDbEntity
  8
0
100
AcDbLine
 62
7
  6
CONTINUOUS
 10
9.015699392
 20
8.482391804
 11
9.0869834891
 21
8.482391804
  0
LINE
  5
22F
100
AcDbEntity
  8
0
100
AcDbLine
 62
7
  6
CONTINUOUS
 10
10.2369834891
 20
8.579891804
 11
10.1169834891
 21
8.579891804
  0
LINE
  5
230
100
AcDbEntity
  8
0
100
AcDbLine
 62
7
  6
CONTINUOUS
 10
9.7379834891
 20
8.666391804
 11
10.0969834891
 21
8.666391804
  0
LINE
  5
231
100
AcDbEntity
  8
0
100
AcDbLine
 62
7
  6
CONTINUOUS
 10
8.9332407901
 20
8.702391804
 11
8.9327782175
 21
8.702391804
  0
LINE
  5
232
100
AcDbEntity
  8
0
100
AcDbLine
 62
7
  6
CONTINUOUS
 10
8.9293922518
 20
8.722391804
 11
8.9289616687
 21
8.722391804
  0
LINE
  5
233
100
AcDbEntity
  8
0
100
AcDbLine
 62
7
  6
CONTINUOUS
 10
10.2369834891
 20
8.7212166695
 11
10.6297916394
 21
8.677620962
  0
LINE
  5
234
100
AcDbEntity
  8
0
100
AcDbLine
 62
7
  6
CONTINUOUS
 10
9.2831935354
 20
9.5933901637
 11
9.2421566464
 21
9.6229766896
  0
LINE
  5
235
100
AcDbEntity
  8
0
100
AcDbLine
 62
9
  6
CONTINUOUS
 10
9.2831935354
 20
9.5933901637
 11
9.2831960422
 21
9.5933883564
  0
LINE
  5
236
100
AcDbEntity
  8
0
100
AcDbLine
 62
9
  6
CONTINUOUS
 10
10.6297916394
 20
8.34535012
 11
10.6297916394
 21
9.6744334881
  0
LINE
  5
237
100
AcDbEntity
  8
0
100
AcDbLine
 62
7
  6
CONTINUOUS
 10
11.4422153624
 20
10.1796034494
 11
11.4572362464
 21
10.197391804
  0
LINE
  5
238
100
AcDbEntity
  8
0
100
AcDbLine
 62
7
  6
CONTINUOUS
 10
11.4422153624
 20
9.5947476267
 11
11.4572362464
 21
9.603641804
  0
LINE
  5
239
100
AcDbEntity
  8
0
100
AcDbLine
 62
7
  6
CONTINUOUS
 10
10.1169834891
 20
8.809891804
 11
10.0969834891
 21
8.809891804
  0
LINE
  5
23A
100
AcDbEntity
  8
0
100
AcDbLine
 62
9
  6
CONTINUOUS
 10
8.9108091065
 20
8.9037713055
 11
8.9098040343
 21
8.9037713055
  0
LINE
  5
23B
100
AcDbEntity
  8
0
100
AcDbLine
 62
7
  6
CONTINUOUS
 10
8.9089684748
 20
8.9280955468
 11
8.9079646002
 21
8.9280955468
  0
LINE
  5
23C
100
AcDbEntity
  8
0
100
AcDbLine
 62
7
  6
CONTINUOUS
 10
8.9047449457
 20
8.942391804
 11
8.9037438084
 21
8.942391804
  0
LINE
  5
23D
100
AcDbEntity
  8
0
100
AcDbLine
 62
7
  6
CONTINUOUS
 10
11.4422153624
 20
8.4250359814
 11
11.4572362464
 21
8.416141804
  0
LINE
  5
23E
100
AcDbEntity
  8
0
100
AcDbLine
 62
7
  6
CONTINUOUS
 10
11.4422153624
 20
7.8401801587
 11
11.4572362464
 21
7.822391804
  0
LINE
  5
23F
100
AcDbEntity
  8
0
100
AcDbLine
 62
7
  6
CONTINUOUS
 10
10.1169834891
 20
9.209891804
 11
10.0969834891
 21
9.209891804
  0
LINE
  5
240
100
AcDbEntity
  8
0
100
AcDbLine
 62
7
  6
CONTINUOUS
 10
8.9288683338
 20
9.297391804
 11
8.9290203739
 21
9.297391804
  0
LINE
  5
241
100
AcDbEntity
  8
0
100
AcDbLine
 62
7
  6
CONTINUOUS
 10
10.2369834891
 20
9.2985669386
 11
10.6297916394
 21
9.342162646
  0
LINE
  5
242
100
AcDbEntity
  8
0
100
AcDbLine
 62
7
  6
CONTINUOUS
 10
9.7379834891
 20
9.353391804
 11
10.0969834891
 21
9.353391804
  0
LINE
  5
243
100
AcDbEntity
  8
0
100
AcDbLine
 62
7
  6
CONTINUOUS
 10
10.2369834891
 20
9.439891804
 11
10.1169834891
 21
9.439891804
  0
LINE
  5
244
100
AcDbEntity
  8
0
100
AcDbLine
 62
7
  6
CONTINUOUS
 10
9.015699392
 20
9.537391804
 11
9.0869834891
 21
9.537391804
  0
LINE
  5
245
100
AcDbEntity
  8
0
100
AcDbLine
 62
9
  6
CONTINUOUS
 10
11.4422153624
 20
7.8401801587
 11
11.4422153624
 21
10.1796034494
  0
LINE
  5
246
100
AcDbEntity
  8
0
100
AcDbLine
 62
7
  6
CONTINUOUS
 10
10.2369834891
 20
9.5872420732
 11
10.6297916394
 21
9.6744334881
  0
LINE
  5
247
100
AcDbEntity
  8
0
100
AcDbLine
 62
7
  6
CONTINUOUS
 10
11.7639834891
 20
11.7667305437
 11
11.7639834891
 21
6.2530530644
  0
LINE
  5
248
100
AcDbEntity
  8
0
100
AcDbLine
 62
9
  6
CONTINUOUS
 10
11.8899834891
 20
6.0359724342
 11
11.8899834891
 21
11.9838111739
  0
LINE
  5
249
100
AcDbEntity
  8
0
100
AcDbLine
 62
7
  6
CONTINUOUS
 10
12.015983461
 20
12.2007241561
 11
12.015983461
 21
5.819059452
  0
LINE
  5
24A
100
AcDbEntity
  8
0
100
AcDbLine
 62
9
  6
CONTINUOUS
 10
12.0159834751
 20
5.8189756262
 11
12.0159834751
 21
12.2008079819
  0
LINE
  5
24B
100
AcDbEntity
  8
0
100
AcDbLine
 62
9
  6
CONTINUOUS
 10
12.1419862413
 20
5.6019708621
 11
12.1419862413
 21
12.417812746
  0
LINE
  5
24C
100
AcDbEntity
  8
0
100
AcDbLine
 62
7
  6
CONTINUOUS
 10
11.4572362464
 20
10.197391804
 11
11.7639834891
 21
10.197391804
  0
LINE
  5
24D
100
AcDbEntity
  8
0
100
AcDbLine
 62
7
  6
CONTINUOUS
 10
12.2679834891
 20
12.634891804
 11
12.2679834891
 21
5.384891804
  0
LINE
  5
24E
100
AcDbEntity
  8
0
100
AcDbLine
 62
7
  6
CONTINUOUS
 10
12.5179834891
 20
5.134891804
 11
12.5179834891
 21
12.884891804
  0
ARC
  5
24F
100
AcDbEntity
  8
0
100
AcDbCircle
 62
7
  6
CONTINUOUS
 10
9.6352757232
 20
8.2796125132
 40
1.36
100
AcDbArc
 50
108.7559867836
 51
112.3561036556
  0
ARC
  5
250
100
AcDbEntity
  8
0
100
AcDbCircle
 62
7
  6
CONTINUOUS
 10
9.1649016736
 20
8.2815930232
 40
1.36
100
AcDbArc
 50
67.4255442891
 51
70.9862257999
  0
ARC
  5
251
100
AcDbEntity
  8
0
100
AcDbCircle
 62
7
  6
CONTINUOUS
 10
9.4029834891
 20
7.5297529152
 40
0.9451388889
100
AcDbArc
 50
77.4730187713
 51
80.8771536127
  0
ARC
  5
252
100
AcDbEntity
  8
0
100
AcDbCircle
 62
7
  6
CONTINUOUS
 10
9.4029834891
 20
7.5297529152
 40
0.9451388889
100
AcDbArc
 50
99.1225460975
 51
102.5269812287
  0
ARC
  5
253
100
AcDbEntity
  8
0
100
AcDbCircle
 62
7
  6
CONTINUOUS
 10
9.1871517464
 20
8.967201831
 40
0.2845086729
100
AcDbArc
 50
188.0656916127
 51
192.8822188955
  0
ARC
  5
254
100
AcDbEntity
  8
0
100
AcDbCircle
 62
7
  6
CONTINUOUS
 10
9.1879411816
 20
8.9671955499
 40
0.2842970517
100
AcDbArc
 50
188.0526429593
 51
192.8710017429
  0
ARC
  5
255
100
AcDbEntity
  8
0
100
AcDbCircle
 62
7
  6
CONTINUOUS
 10
9.1850454071
 20
8.9850785804
 40
0.2828795497
100
AcDbArc
 50
189.0970237849
 51
191.6211328597
  0
ARC
  5
256
100
AcDbEntity
  8
0
100
AcDbCircle
 62
7
  6
CONTINUOUS
 10
9.182469334
 20
8.9846567759
 40
0.2802691884
100
AcDbArc
 50
188.6529897294
 51
189.0951421191
  0
ARC
  5
257
100
AcDbEntity
  8
0
100
AcDbCircle
 62
7
  6
CONTINUOUS
 10
9.1794411634
 20
8.9660099871
 40
0.2767071559
100
AcDbArc
 50
184.8964065992
 51
188.0453591785
  0
ARC
  5
258
100
AcDbEntity
  8
0
100
AcDbCircle
 62
7
  6
CONTINUOUS
 10
9.180163648
 20
8.9659989578
 40
0.276428579
100
AcDbArc
 50
184.8990586774
 51
187.9252709018
  0
ARC
  5
259
100
AcDbEntity
  8
0
100
AcDbCircle
 62
7
  6
CONTINUOUS
 10
9.1776797607
 20
8.9840016733
 40
0.2754355423
100
AcDbArc
 50
182.5323677353
 51
188.6371922066
  0
ARC
  5
25A
100
AcDbEntity
  8
0
100
AcDbCircle
 62
7
  6
CONTINUOUS
 10
9.4029834976
 20
8.173738038
 40
0.2750000027
100
AcDbArc
 50
125.7906215029
 51
54.2093738727
  0
ARC
  5
25B
100
AcDbEntity
  8
0
100
AcDbCircle
 62
7
  6
CONTINUOUS
 10
9.1748449688
 20
8.9838225131
 40
0.2725956081
100
AcDbArc
 50
182.0427864427
 51
182.5210737259
  0
ARC
  5
25C
100
AcDbEntity
  8
0
100
AcDbCircle
 62
9
  6
CONTINUOUS
 10
9.5004805364
 20
8.649953352
 40
0.0985029542
100
AcDbArc
 50
0.0098153819
 51
8.6737249072
  0
ARC
  5
25D
100
AcDbEntity
  8
0
100
AcDbCircle
 62
9
  6
CONTINUOUS
 10
9.3054864372
 20
8.6499533523
 40
0.0985029495
100
AcDbArc
 50
171.3263192261
 51
179.9901847504
  0
ARC
  5
25E
100
AcDbEntity
  8
0
100
AcDbCircle
 62
7
  6
CONTINUOUS
 10
8.9821838361
 20
8.622391804
 40
0.03
100
AcDbArc
 50
194.7630312681
 51
260.0138853066
  0
ARC
  5
25F
100
AcDbEntity
  8
0
100
AcDbCircle
 62
7
  6
CONTINUOUS
 10
10.4526535046
 20
9.009891804
 40
1.5506700155
100
AcDbArc
 50
165.2369687319
 51
168.5623542416
  0
ARC
  5
260
100
AcDbEntity
  8
0
100
AcDbCircle
 62
7
  6
CONTINUOUS
 10
10.4526535046
 20
9.009891804
 40
1.5506700155
100
AcDbArc
 50
191.4376457584
 51
194.7630312681
  0
ARC
  5
261
100
AcDbEntity
  8
0
100
AcDbCircle
 62
7
  6
CONTINUOUS
 10
10.4526535046
 20
9.009891804
 40
1.5506700155
100
AcDbArc
 50
173.1868951481
 51
181.3224037183
  0
ARC
  5
262
100
AcDbEntity
  8
0
100
AcDbCircle
 62
7
  6
CONTINUOUS
 10
10.4511725097
 20
9.0101399206
 40
1.549169075
100
AcDbArc
 50
181.3328088409
 51
190.7044842941
  0
ARC
  5
263
100
AcDbEntity
  8
0
100
AcDbCircle
 62
7
  6
CONTINUOUS
 10
10.4511768486
 20
9.0107650045
 40
1.5489428357
100
AcDbArc
 50
182.5299636964
 51
191.4835297517
  0
ARC
  5
264
100
AcDbEntity
  8
0
100
AcDbCircle
 62
7
  6
CONTINUOUS
 10
10.4511495689
 20
9.0101381115
 40
1.548146065
100
AcDbArc
 50
182.1437240133
 51
182.506867173
  0
ARC
  5
265
100
AcDbEntity
  8
0
100
AcDbCircle
 62
7
  6
CONTINUOUS
 10
9.6352757232
 20
9.7401710949
 40
1.36
100
AcDbArc
 50
247.6438963444
 51
251.2440132164
  0
ARC
  5
266
100
AcDbEntity
  8
0
100
AcDbCircle
 62
7
  6
CONTINUOUS
 10
9.1649016736
 20
9.7381905849
 40
1.36
100
AcDbArc
 50
289.0137742001
 51
292.5744557109
  0
ARC
  5
267
100
AcDbEntity
  8
0
100
AcDbCircle
 62
7
  6
CONTINUOUS
 10
10.1607630477
 20
9.0333429041
 40
1.2563702143
100
AcDbArc
 50
179.9553193942
 51
181.0695311604
  0
ARC
  5
268
100
AcDbEntity
  8
0
100
AcDbCircle
 62
7
  6
CONTINUOUS
 10
10.069689148
 20
9.0309469839
 40
1.1662685552
100
AcDbArc
 50
181.0344431208
 51
185.0593995243
  0
ARC
  5
269
100
AcDbEntity
  8
0
100
AcDbCircle
 62
7
  6
CONTINUOUS
 10
10.0699382403
 20
9.0309470323
 40
1.1655167199
100
AcDbArc
 50
181.0351128559
 51
185.0626740762
  0
ARC
  5
26A
100
AcDbEntity
  8
0
100
AcDbCircle
 62
7
  6
CONTINUOUS
 10
10.0328897201
 20
9.037309651
 40
1.128468408
100
AcDbArc
 50
181.3922246299
 51
185.5507794028
  0
ARC
  5
26B
100
AcDbEntity
  8
0
100
AcDbCircle
 62
7
  6
CONTINUOUS
 10
9.959959255
 20
9.0310442696
 40
1.055274204
100
AcDbArc
 50
185.5952146503
 51
185.7968517873
  0
ARC
  5
26C
100
AcDbEntity
  8
0
100
AcDbCircle
 62
7
  6
CONTINUOUS
 10
9.4029834891
 20
10.4900306929
 40
0.9451388889
100
AcDbArc
 50
279.1231077298
 51
282.5269812287
  0
ARC
  5
26D
100
AcDbEntity
  8
0
100
AcDbCircle
 62
7
  6
CONTINUOUS
 10
9.4029834891
 20
10.4900306929
 40
0.9451388889
100
AcDbArc
 50
257.4730187713
 51
260.8777117496
  0
ARC
  5
26E
100
AcDbEntity
  8
0
100
AcDbCircle
 62
7
  6
CONTINUOUS
 10
9.4029834891
 20
9.8460455381
 40
0.275
100
AcDbArc
 50
305.7906204957
 51
234.2093491955
  0
ARC
  5
26F
100
AcDbEntity
  8
0
100
AcDbCircle
 62
7
  6
CONTINUOUS
 10
9.4929775738
 20
9.6493514375
 40
0.1060059153
100
AcDbArc
 50
0.0004019428
 51
2.0002239612
  0
ARC
  5
270
100
AcDbEntity
  8
0
100
AcDbCircle
 62
7
  6
CONTINUOUS
 10
9.3129879619
 20
9.6493514518
 40
0.1060044728
100
AcDbArc
 50
178.0190205962
 51
179.9996058044
  0
ARC
  5
271
100
AcDbEntity
  8
0
100
AcDbCircle
 62
9
  6
CONTINUOUS
 10
9.5004599282
 20
9.3698316762
 40
0.0985235626
100
AcDbArc
 50
351.3275134882
 51
359.989360775
  0
ARC
  5
272
100
AcDbEntity
  8
0
100
AcDbCircle
 62
9
  6
CONTINUOUS
 10
9.305507049
 20
9.3698316762
 40
0.0985235615
100
AcDbArc
 50
180.0106391932
 51
188.6724756811
  0
ARC
  5
273
100
AcDbEntity
  8
0
100
AcDbCircle
 62
7
  6
CONTINUOUS
 10
8.9821838361
 20
9.397391804
 40
0.03
100
AcDbArc
 50
99.9861146934
 51
165.2369687319
  0
ARC
  5
274
100
AcDbEntity
  8
0
100
AcDbCircle
 62
7
  6
CONTINUOUS
 10
12.2659944384
 20
5.819059452
 40
0.2500109774
100
AcDbArc
 50
180.0192106228
 51
240.2635604814
  0
ARC
  5
275
100
AcDbEntity
  8
0
100
AcDbCircle
 62
7
  6
CONTINUOUS
 10
12.0139834891
 20
6.2530530644
 40
0.25
100
AcDbArc
 50
180.0
 51
240.2642868924
  0
ARC
  5
276
100
AcDbEntity
  8
0
100
AcDbCircle
 62
7
  6
CONTINUOUS
 10
11.7659834891
 20
5.818891804
 40
0.25
100
AcDbArc
 50
0.0192106228
 51
60.2642868924
  0
ARC
  5
277
100
AcDbEntity
  8
0
100
AcDbCircle
 62
7
  6
CONTINUOUS
 10
12.0179834891
 20
5.384891804
 40
0.25
100
AcDbArc
 50
0.0
 51
60.2635604814
  0
ARC
  5
278
100
AcDbEntity
  8
0
100
AcDbCircle
 62
7
  6
CONTINUOUS
 10
12.5179834891
 20
5.384891804
 40
0.25
100
AcDbArc
 50
180.0
 51
270.0
  0
ARC
  5
279
100
AcDbEntity
  8
0
100
AcDbCircle
 62
7
  6
CONTINUOUS
 10
12.2659944384
 20
12.2007241561
 40
0.2500109774
100
AcDbArc
 50
119.7364395186
 51
179.9807893772
  0
ARC
  5
27A
100
AcDbEntity
  8
0
100
AcDbCircle
 62
7
  6
CONTINUOUS
 10
12.0139834891
 20
11.7667305437
 40
0.25
100
AcDbArc
 50
119.7357131076
 51
180.0
  0
ARC
  5
27B
100
AcDbEntity
  8
0
100
AcDbCircle
 62
7
  6
CONTINUOUS
 10
11.7659834891
 20
12.200891804
 40
0.25
100
AcDbArc
 50
299.7357131076
 51
359.9807893772
  0
ARC
  5
27C
100
AcDbEntity
  8
0
100
AcDbCircle
 62
7
  6
CONTINUOUS
 10
12.0179834891
 20
12.634891804
 40
0.25
100
AcDbArc
 50
299.7364395186
 51
360.0
  0
ARC
  5
27D
100
AcDbEntity
  8
0
100
AcDbCircle
 62
7
  6
CONTINUOUS
 10
12.5179834891
 20
12.634891804
 40
0.25
100
AcDbArc
 50
90.0
 51
180.0
  0
LINE
  5
27E
100
AcDbEntity
  8
0
100
AcDbLine
 62
7
  6
CONTINUOUS
 10
8.9327780996
 20
9.317391804
 11
8.9323357566
 21
9.3150530074
  0
LINE
  5
27F
100
AcDbEntity
  8
0
100
AcDbLine
 62
7
  6
CONTINUOUS
 10
8.9323357566
 20
9.3150530074
 11
8.9293632217
 21
9.2993186927
  0
SPLINE
  5
280
100
AcDbEntity
  8
0
100
AcDbSpline
 62
7
  6
CONTINUOUS
 70
0
 71
3
 72
20
 73
16
 74
0
 42
0.0000001
 43
0.0000001
 44
0.0000000001
 40
0.0
 40
0.0
 40
0.0
 40
0.0
 40
0.0594092085
 40
0.1188851608
 40
0.1785216135
 40
0.2383869283
 40
0.2985600338
 40
0.3591200932
 40
0.4201425703
 40
0.481702453
 40
0.5438691568
 40
0.6067056906
 40
0.7345425187
 40
0.8655975488
 40
1.0
 40
1.0
 40
1.0
 40
1.0
 10
9.5989834891
 20
9.3698133814
 30
0.0
 10
9.5989834891
 20
9.3728098567
 30
0.0
 10
9.5987456718
 20
9.3788088828
 30
0.0
 10
9.5976783046
 20
9.3877585666
 30
0.0
 10
9.5959092754
 20
9.3966202357
 30
0.0
 10
9.5934511169
 20
9.4053521053
 30
0.0
 10
9.5903219999
 20
9.4139159115
 30
0.0
 10
9.5865428894
 20
9.4222770905
 30
0.0
 10
9.5821369809
 20
9.4304048492
 30
0.0
 10
9.5771297188
 20
9.4382722167
 30
0.0
 10
9.5715466774
 20
9.4458557961
 30
0.0
 10
9.5633256732
 20
9.4556148511
 30
0.0
 10
9.5517062882
 20
9.4670064756
 30
0.0
 10
9.5359839144
 20
9.4791662059
 30
0.0
 10
9.5245406287
 20
9.4861736318
 30
0.0
 10
9.5185890527
 20
9.4894191309
 30
0.0
  0
SPLINE
  5
281
100
AcDbEntity
  8
0
100
AcDbSpline
 62
7
  6
CONTINUOUS
 70
0
 71
3
 72
20
 73
16
 74
0
 42
0.0000001
 43
0.0000001
 44
0.0000000001
 40
0.0
 40
0.0
 40
0.0
 40
0.0
 40
0.1344015467
 40
0.2654556999
 40
0.3932920878
 40
0.4561284808
 40
0.5182952177
 40
0.5798551097
 40
0.6408776945
 40
0.7014379083
 40
0.7616112467
 40
0.8214768394
 40
0.881113639
 40
0.940590301
 40
1.0
 40
1.0
 40
1.0
 40
1.0
 10
9.2873725418
 20
9.4894161895
 30
0.0
 10
9.2814213466
 20
9.4861706609
 30
0.0
 10
9.2699788051
 20
9.4791632367
 30
0.0
 10
9.2542574783
 20
9.4670036533
 30
0.0
 10
9.2426389008
 20
9.455612256
 30
0.0
 10
9.2344184492
 20
9.4458534476
 30
0.0
 10
9.2288358003
 20
9.4382700597
 30
0.0
 10
9.2238288654
 20
9.4304029236
 30
0.0
 10
9.2194232621
 20
9.4222754098
 30
0.0
 10
9.2156444114
 20
9.4139144948
 30
0.0
 10
9.2125154991
 20
9.4053509717
 30
0.0
 10
9.2100575101
 20
9.3966193918
 30
0.0
 10
9.208288587
 20
9.3877580066
 30
0.0
 10
9.2072212955
 20
9.3788086033
 30
0.0
 10
9.2069834891
 20
9.3728097601
 30
0.0
 10
9.2069834891
 20
9.3698133814
 30
0.0
  0
SPLINE
  5
282
100
AcDbEntity
  8
0
100
AcDbSpline
 62
7
  6
CONTINUOUS
 70
0
 71
3
 72
37
 73
33
 74
0
 42
0.0000001
 43
0.0000001
 44
0.0000000001
 40
0.0
 40
0.0
 40
0.0
 40
0.0
 40
0.004626055
 40
0.0082704017
 40
0.0109492542
 40
0.012678457
 40
0.0134734728
 40
0.0135280347
 40
0.0135306865
 40
0.0137066479
 40
0.014733089
 40
0.0166431918
 40
0.0194183855
 40
0.0230404158
 40
0.0274913583
 40
0.0327536326
 40
0.0388100167
 40
0.0456432932
 40
0.0615650524
 40
0.0803683474
 40
0.1019060644
 40
0.1260356795
 40
0.1526151742
 40
0.2125468883
 40
0.2805921138
 40
0.3557110024
 40
0.4369187502
 40
0.5232565973
 40
0.6137353177
 40
0.7073742616
 40
0.8033441529
 40
1.0
 40
1.0
 40
1.0
 40
1.0
 10
9.2838405334
 20
9.4818634155
 30
0.0
 10
9.2838072639
 20
9.4818265613
 30
0.0
 10
9.2837486019
 20
9.4817610101
 30
0.0
 10
9.2836696243
 20
9.4816703447
 30
0.0
 10
9.2836173445
 20
9.4816096257
 30
0.0
 10
9.2835740762
 20
9.4815569886
 30
0.0
 10
9.2835662811
 20
9.4815482125
 30
0.0
 10
9.2835549677
 20
9.4815337968
 30
0.0
 10
9.2835565236
 20
9.4815359065
 30
0.0
 10
9.2835644811
 20
9.4815456777
 30
0.0
 10
9.2835848936
 20
9.4815726815
 30
0.0
 10
9.2836218276
 20
9.4816212402
 30
0.0
 10
9.2836748313
 20
9.4816931085
 30
0.0
 10
9.283743023
 20
9.4817874121
 30
0.0
 10
9.283825563
 20
9.481904364
 30
0.0
 10
9.283921593
 20
9.4820437277
 30
0.0
 10
9.2840302611
 20
9.4822054306
 30
0.0
 10
9.2841996745
 20
9.4824641203
 30
0.0
 10
9.2844372907
 20
9.4828416369
 30
0.0
 10
9.2847475039
 20
9.4833597642
 30
0.0
 10
9.2850895072
 20
9.4839613415
 30
0.0
 10
9.2854570217
 20
9.4846441931
 30
0.0
 10
9.2859953167
 20
9.4857027397
 30
0.0
 10
9.2866952199
 20
9.4872073449
 30
0.0
 10
9.2875230844
 20
9.4892245766
 30
0.0
 10
9.2883347711
 20
9.4914926376
 30
0.0
 10
9.289100274
 20
9.4939829929
 30
0.0
 10
9.2897894139
 20
9.4966661706
 30
0.0
 10
9.2903844862
 20
9.499508179
 30
0.0
 10
9.2908662048
 20
9.502476586
 30
0.0
 10
9.2913392984
 20
9.5065961132
 30
0.0
 10
9.2914834891
 20
9.5097392799
 30
0.0
 10
9.2914834891
 20
9.5118499084
 30
0.0
  0
SPLINE
  5
283
100
AcDbEntity
  8
0
100
AcDbSpline
 62
7
  6
CONTINUOUS
 70
0
 71
3
 72
19
 73
15
 74
0
 42
0.0000001
 43
0.0000001
 44
0.0000000001
 40
0.0
 40
0.0
 40
0.0
 40
0.0
 40
0.1721490038
 40
0.3392908767
 40
0.4983619512
 40
0.6448211194
 40
0.7117283704
 40
0.7735706456
 40
0.8296987255
 40
0.8794388901
 40
0.922082495
 40
0.9568844407
 40
0.9831013964
 40
1.0
 40
1.0
 40
1.0
 40
1.0
 10
9.5144834891
 20
9.5118499084
 30
0.0
 10
9.5144834891
 20
9.5100399457
 30
0.0
 10
9.5146247681
 20
9.5064711906
 30
0.0
 10
9.5152351832
 20
9.5012618836
 30
0.0
 10
9.5162042234
 20
9.4963826144
 30
0.0
 10
9.5172573158
 20
9.4926065556
 30
0.0
 10
9.518205407
 20
9.489872043
 30
0.0
 10
9.5189133685
 20
9.4880612348
 30
0.0
 10
9.519618555
 20
9.4864445887
 30
0.0
 10
9.5202997694
 20
9.4850391243
 30
0.0
 10
9.5209289067
 20
9.4838587862
 30
0.0
 10
9.5214782711
 20
9.4829171205
 30
0.0
 10
9.5219189609
 20
9.4822263168
 30
0.0
 10
9.5221762276
 20
9.4818529275
 30
0.0
 10
9.5222805713
 20
9.4817091245
 30
0.0
  0
SPLINE
  5
284
100
AcDbEntity
  8
0
100
AcDbSpline
 62
7
  6
CONTINUOUS
 70
0
 71
3
 72
12
 73
8
 74
0
 42
0.0000001
 43
0.0000001
 44
0.0000000001
 40
0.0
 40
0.0
 40
0.0
 40
0.0
 40
0.2214110621
 40
0.3420522899
 40
0.4676924996
 40
0.7294172757
 40
1.0
 40
1.0
 40
1.0
 40
1.0
 10
9.5181094599
 20
9.5335261588
 30
0.0
 10
9.5175558433
 20
9.5319935338
 30
0.0
 10
9.5168089475
 20
9.5295850857
 30
0.0
 10
9.5160001349
 20
9.5262386261
 30
0.0
 10
9.5152757759
 20
9.522569489
 30
0.0
 10
9.5146528808
 20
9.51776101
 30
0.0
 10
9.5144834891
 20
9.5138413531
 30
0.0
 10
9.5144834891
 20
9.5118499084
 30
0.0
  0
SPLINE
  5
285
100
AcDbEntity
  8
0
100
AcDbSpline
 62
7
  6
CONTINUOUS
 70
0
 71
3
 72
13
 73
9
 74
0
 42
0.0000001
 43
0.0000001
 44
0.0000000001
 40
0.0
 40
0.0
 40
0.0
 40
0.0
 40
0.2707290499
 40
0.5322756739
 40
0.6578191918
 40
0.7784395359
 40
0.8929117274
 40
1.0
 40
1.0
 40
1.0
 40
1.0
 10
9.2914834891
 20
9.5118499084
 30
0.0
 10
9.2914834891
 20
9.5138415584
 30
0.0
 10
9.2913132611
 20
9.5177591712
 30
0.0
 10
9.2906926834
 20
9.5225649029
 30
0.0
 10
9.289968473
 20
9.5262301073
 30
0.0
 10
9.2893440391
 20
9.5288094759
 30
0.0
 10
9.2886483665
 20
9.5312295138
 30
0.0
 10
9.2881289648
 20
9.5327751383
 30
0.0
 10
9.2878612571
 20
9.5335160655
 30
0.0
  0
SPLINE
  5
286
100
AcDbEntity
  8
0
100
AcDbSpline
 62
7
  6
CONTINUOUS
 70
0
 71
3
 72
47
 73
43
 74
0
 42
0.0000001
 43
0.0000001
 44
0.0000000001
 40
0.0
 40
0.0
 40
0.0
 40
0.0
 40
0.0135073682
 40
0.0270340125
 40
0.0406019363
 40
0.0542306977
 40
0.0679394469
 40
0.0817470969
 40
0.0956717137
 40
0.1097300487
 40
0.1382966605
 40
0.1675658496
 40
0.1976139151
 40
0.2284844472
 40
0.2601871407
 40
0.2926984351
 40
0.3259638727
 40
0.3599013463
 40
0.3944052522
 40
0.4293508257
 40
0.4645989134
 40
0.5000006631
 40
0.5354024023
 40
0.5706504606
 40
0.6055959823
 40
0.6400998205
 40
0.674037205
 40
0.7073025425
 40
0.7398137198
 40
0.7715162914
 40
0.8023866931
 40
0.8324346302
 40
0.861703694
 40
0.8902701915
 40
0.9043284729
 40
0.918253045
 40
0.9320606537
 40
0.9457693682
 40
0.9593980963
 40
0.9729660016
 40
0.9864926487
 40
1.0
 40
1.0
 40
1.0
 40
1.0
 10
9.2069834891
 20
9.6493521811
 30
0.0
 10
9.2069834891
 20
9.6469373217
 30
0.0
 10
9.2071489416
 20
9.6421025379
 30
0.0
 10
9.2078916634
 20
9.6348764273
 30
0.0
 10
9.2091260419
 20
9.6276955984
 30
0.0
 10
9.2108461807
 20
9.6205821292
 30
0.0
 10
9.2130450848
 20
9.6135569766
 30
0.0
 10
9.2157134781
 20
9.6066399293
 30
0.0
 10
9.2188411779
 20
9.5998491638
 30
0.0
 10
9.2236327178
 20
9.5909406526
 30
0.0
 10
9.2307403982
 20
9.5801925848
 30
0.0
 10
9.2408541249
 20
9.5681286464
 30
0.0
 10
9.2524840842
 20
9.5569194978
 30
0.0
 10
9.2655071298
 20
9.546651124
 30
0.0
 10
9.2797952671
 20
9.5373986178
 30
0.0
 10
9.2952136038
 20
9.5292302207
 30
0.0
 10
9.3116198953
 20
9.5222070686
 30
0.0
 10
9.3288641751
 20
9.5163829703
 30
0.0
 10
9.346789085
 20
9.5118036162
 30
0.0
 10
9.3652307249
 20
9.5085056753
 30
0.0
 10
9.3840199247
 20
9.5065159954
 30
0.0
 10
9.4029838445
 20
9.5058509498
 30
0.0
 10
9.4219477574
 20
9.5065160431
 30
0.0
 10
9.4407369357
 20
9.5085057696
 30
0.0
 10
9.4591785409
 20
9.5118037533
 30
0.0
 10
9.4771034028
 20
9.5163831446
 30
0.0
 10
9.4943476241
 20
9.5222072723
 30
0.0
 10
9.5107538475
 20
9.5292304443
 30
0.0
 10
9.5261721105
 20
9.5373988507
 30
0.0
 10
9.5404601708
 20
9.5466513541
 30
0.0
 10
9.5534831407
 20
9.5569197137
 30
0.0
 10
9.5651130289
 20
9.5681288366
 30
0.0
 10
9.5752266943
 20
9.5801927404
 30
0.0
 10
9.5823343297
 20
9.5909407743
 30
0.0
 10
9.5871258483
 20
9.5998492538
 30
0.0
 10
9.5902535278
 20
9.6066400011
 30
0.0
 10
9.5929219137
 20
9.6135570281
 30
0.0
 10
9.5951208051
 20
9.6205821642
 30
0.0
 10
9.5968409423
 20
9.6276956177
 30
0.0
 10
9.5980753161
 20
9.6348764386
 30
0.0
 10
9.5988180364
 20
9.6421025434
 30
0.0
 10
9.5989834891
 20
9.6469373248
 30
0.0
 10
9.5989834891
 20
9.6493521811
 30
0.0
  0
SPLINE
  5
287
100
AcDbEntity
  8
0
100
AcDbSpline
 62
7
  6
CONTINUOUS
 70
0
 71
3
 72
20
 73
16
 74
0
 42
0.0000001
 43
0.0000001
 44
0.0000000001
 40
0.0
 40
0.0
 40
0.0
 40
0.0
 40
0.0594098672
 40
0.1188866152
 40
0.1785237335
 40
0.2383896397
 40
0.2985632774
 40
0.3591237821
 40
0.4201465883
 40
0.4817066491
 40
0.5438734353
 40
0.6067098473
 40
0.7345460194
 40
0.8655997836
 40
1.0
 40
1.0
 40
1.0
 40
1.0
 10
9.2069834891
 20
8.6499702266
 30
0.0
 10
9.2069834891
 20
8.6469741499
 30
0.0
 10
9.2072212429
 20
8.6409759156
 30
0.0
 10
9.2082883286
 20
8.6320274008
 30
0.0
 10
9.2100568954
 20
8.623166864
 30
0.0
 10
9.212514411
 20
8.6144360797
 30
0.0
 10
9.2156427268
 20
8.6058732975
 30
0.0
 10
9.2194208701
 20
8.5975130621
 30
0.0
 10
9.2238256682
 20
8.5893861637
 30
0.0
 10
9.2288316926
 20
8.5815195681
 30
0.0
 10
9.2344133589
 20
8.5739366544
 30
0.0
 10
9.242632373
 20
8.5641783746
 30
0.0
 10
9.2542489902
 20
8.5527874347
 30
0.0
 10
9.2699677493
 20
8.5406280633
 30
0.0
 10
9.2814084998
 20
8.5336205473
 30
0.0
 10
9.2873587689
 20
8.5303749273
 30
0.0
  0
SPLINE
  5
288
100
AcDbEntity
  8
0
100
AcDbSpline
 62
7
  6
CONTINUOUS
 70
0
 71
3
 72
20
 73
16
 74
0
 42
0.0000001
 43
0.0000001
 44
0.0000000001
 40
0.0
 40
0.0
 40
0.0
 40
0.0
 40
0.1344028338
 40
0.2654584314
 40
0.3932955093
 40
0.4561320114
 40
0.5182986629
 40
0.5798583881
 40
0.6408806889
 40
0.7014405379
 40
0.7616134469
 40
0.8214785682
 40
0.8811148363
 40
0.9405908314
 40
1.0
 40
1.0
 40
1.0
 40
1.0
 10
9.5185789138
 20
8.530358952
 30
0.0
 10
9.5245311455
 20
8.5336043687
 30
0.0
 10
9.5359757376
 20
8.540611715
 30
0.0
 10
9.5516999985
 20
8.5527715875
 30
0.0
 10
9.5633208398
 20
8.5641635602
 30
0.0
 10
9.5715429089
 20
8.5739230024
 30
0.0
 10
9.5771266711
 20
8.5815069285
 30
0.0
 10
9.5821346062
 20
8.5893746882
 30
0.0
 10
9.5865411086
 20
8.5975028969
 30
0.0
 10
9.5903207427
 20
8.6058645756
 30
0.0
 10
9.5934503037
 20
8.6144289288
 30
0.0
 10
9.5959088143
 20
8.6231613888
 30
0.0
 10
9.5976781115
 20
8.6320236913
 30
0.0
 10
9.5987456314
 20
8.6409740411
 30
0.0
 10
9.5989834891
 20
8.6469735249
 30
0.0
 10
9.5989834891
 20
8.6499702266
 30
0.0
  0
SPLINE
  5
289
100
AcDbEntity
  8
0
100
AcDbSpline
 62
7
  6
CONTINUOUS
 70
0
 71
3
 72
41
 73
37
 74
0
 42
0.0000001
 43
0.0000001
 44
0.0000000001
 40
0.0
 40
0.0
 40
0.0
 40
0.0
 40
0.0015597807
 40
0.0019802391
 40
0.0026707974
 40
0.0044401521
 40
0.0072564214
 40
0.0110885533
 40
0.0159063767
 40
0.0216795398
 40
0.0283750102
 40
0.0359597086
 40
0.0444012221
 40
0.0536678569
 40
0.0745521943
 40
0.0983645036
 40
0.124857722
 40
0.1537936429
 40
0.1849429781
 40
0.2180818732
 40
0.2529923507
 40
0.2894645237
 40
0.3272982206
 40
0.3662972937
 40
0.4062692467
 40
0.4470272682
 40
0.4883911801
 40
0.530182021
 40
0.5722219079
 40
0.6143353047
 40
0.6980728556
 40
0.779989981
 40
0.8198229492
 40
0.8586531429
 40
0.9325184099
 40
1.0
 40
1.0
 40
1.0
 40
1.0
 10
9.5223431117
 20
8.5381668367
 30
0.0
 10
9.5223612814
 20
8.5381882553
 30
0.0
 10
9.5223775782
 20
8.5382071731
 30
0.0
 10
9.5224217237
 20
8.5382618847
 30
0.0
 10
9.5223650197
 20
8.5381895901
 30
0.0
 10
9.5223266192
 20
8.5381369356
 30
0.0
 10
9.5222273881
 20
8.5380019187
 30
0.0
 10
9.5221127339
 20
8.5378384093
 30
0.0
 10
9.5219650882
 20
8.5376216205
 30
0.0
 10
9.5217949948
 20
8.5373619781
 30
0.0
 10
9.5216017379
 20
8.537056567
 30
0.0
 10
9.5213886098
 20
8.5367073993
 30
0.0
 10
9.5211575601
 20
8.5363148442
 30
0.0
 10
9.5208148439
 20
8.535710268
 30
0.0
 10
9.5203577444
 20
8.5348525307
 30
0.0
 10
9.5197920719
 20
8.5337019211
 30
0.0
 10
9.5192039948
 20
8.5324015412
 30
0.0
 10
9.5186089983
 20
8.5309601974
 30
0.0
 10
9.5180200869
 20
8.5293878617
 30
0.0
 10
9.5174479013
 20
8.5276953656
 30
0.0
 10
9.516903546
 20
8.5258933029
 30
0.0
 10
9.5163981692
 20
8.5239922899
 30
0.0
 10
9.5159387565
 20
8.5220040139
 30
0.0
 10
9.5155319144
 20
8.5199400357
 30
0.0
 10
9.515184281
 20
8.5178118617
 30
0.0
 10
9.5149026239
 20
8.5156310022
 30
0.0
 10
9.5146894278
 20
8.5134094941
 30
0.0
 10
9.514547001
 20
8.5111592044
 30
0.0
 10
9.5144775084
 20
8.5088919392
 30
0.0
 10
9.5144858866
 20
8.5058682371
 30
0.0
 10
9.514680191
 20
8.5021291689
 30
0.0
 10
9.5151109045
 20
8.4984511966
 30
0.0
 10
9.5155921593
 20
8.4955994369
 30
0.0
 10
9.5161371767
 20
8.4929070444
 30
0.0
 10
9.5169320903
 20
8.4897589372
 30
0.0
 10
9.5177187646
 20
8.4873360543
 30
0.0
 10
9.5181330656
 20
8.4861937092
 30
0.0
  0
SPLINE
  5
28A
100
AcDbEntity
  8
0
100
AcDbSpline
 62
7
  6
CONTINUOUS
 70
0
 71
3
 72
25
 73
21
 74
0
 42
0.0000001
 43
0.0000001
 44
0.0000000001
 40
0.0
 40
0.0
 40
0.0
 40
0.0
 40
0.0270702635
 40
0.0541614603
 40
0.0813155125
 40
0.1085743394
 40
0.1359785078
 40
0.1635678885
 40
0.2194232925
 40
0.2764472086
 40
0.3348681043
 40
0.3948547229
 40
0.4565079156
 40
0.5198573231
 40
0.5848623273
 40
0.6514166171
 40
0.7193550724
 40
0.7884622473
 40
0.858482336
 40
1.0
 40
1.0
 40
1.0
 40
1.0
 10
9.5989176467
 20
8.3666966919
 30
0.0
 10
9.5990040937
 20
8.3691483638
 30
0.0
 10
9.5990065843
 20
8.3740613219
 30
0.0
 10
9.59849869
 20
8.3814185045
 30
0.0
 10
9.5974811424
 20
8.3887402303
 30
0.0
 10
9.5959592217
 20
8.3960026613
 30
0.0
 10
9.5939390195
 20
8.403183691
 30
0.0
 10
9.5905810474
 20
8.4126578466
 30
0.0
 10
9.5851575372
 20
8.4242161923
 30
0.0
 10
9.5768581864
 20
8.437378108
 30
0.0
 10
9.5668519997
 20
8.4497760573
 30
0.0
 10
9.5552613173
 20
8.4613045768
 30
0.0
 10
9.5422136842
 20
8.4718739496
 30
0.0
 10
9.5278427833
 20
8.4814037374
 30
0.0
 10
9.512289225
 20
8.4898216942
 30
0.0
 10
9.4957012544
 20
8.4970629624
 30
0.0
 10
9.4782360346
 20
8.5030703669
 30
0.0
 10
9.4600558471
 20
8.5077956825
 30
0.0
 10
9.4350176768
 20
8.5123485805
 30
0.0
 10
9.4158082811
 20
8.5137106476
 30
0.0
 10
9.4029834891
 20
8.5137106476
 30
0.0
  0
SPLINE
  5
28B
100
AcDbEntity
  8
0
100
AcDbSpline
 62
7
  6
CONTINUOUS
 70
0
 71
3
 72
25
 73
21
 74
0
 42
0.0000001
 43
0.0000001
 44
0.0000000001
 40
0.0
 40
0.0
 40
0.0
 40
0.0
 40
0.0647327057
 40
0.1353523015
 40
0.210456205
 40
0.2887053539
 40
0.4495021092
 40
0.5296580079
 40
0.607972997
 40
0.6831778435
 40
0.7539334243
 40
0.8188408198
 40
0.8763978112
 40
0.925010738
 40
0.9454428387
 40
0.9629962065
 40
0.9774513774
 40
0.9885893869
 40
0.9961813898
 40
1.0
 40
1.0
 40
1.0
 40
1.0
 10
9.2878590851
 20
8.4862623837
 30
0.0
 10
9.2882533386
 20
8.4873544955
 30
0.0
 10
9.2890038168
 20
8.4896653799
 30
0.0
 10
9.2899403153
 20
8.4933246581
 30
0.0
 10
9.2906952959
 20
8.4972733039
 30
0.0
 10
9.2914014809
 20
8.5028665214
 30
0.0
 10
9.2915851079
 20
8.5086070947
 30
0.0
 10
9.2912305918
 20
8.514325489
 30
0.0
 10
9.2907121174
 20
8.5184876862
 30
0.0
 10
9.2899622093
 20
8.5224425491
 30
0.0
 10
9.2890304886
 20
8.526110872
 30
0.0
 10
9.2879640476
 20
8.5294108538
 30
0.0
 10
9.286843634
 20
8.5322696397
 30
0.0
 10
9.2858822045
 20
8.5343287416
 30
0.0
 10
9.2851578685
 20
8.5357030515
 30
0.0
 10
9.2846931963
 20
8.5365210708
 30
0.0
 10
9.284289646
 20
8.5371815804
 30
0.0
 10
9.283964214
 20
8.5376800857
 30
0.0
 10
9.2837332968
 20
8.538012197
 30
0.0
 10
9.2836116061
 20
8.5381768132
 30
0.0
 10
9.2835695949
 20
8.5382309097
 30
0.0
  0
SPLINE
  5
28C
100
AcDbEntity
  8
0
100
AcDbSpline
 62
7
  6
CONTINUOUS
 70
0
 71
3
 72
25
 73
21
 74
0
 42
0.0000001
 43
0.0000001
 44
0.0000000001
 40
0.0
 40
0.0
 40
0.0
 40
0.0
 40
0.1415053651
 40
0.2115203297
 40
0.2806236366
 40
0.3485597736
 40
0.4151134721
 40
0.480119652
 40
0.5434718796
 40
0.6051292466
 40
0.6651209363
 40
0.723547192
 40
0.7805760576
 40
0.8364352327
 40
0.8640258054
 40
0.8914305747
 40
0.9186893506
 40
0.9458426159
 40
0.9729322138
 40
1.0
 40
1.0
 40
1.0
 40
1.0
 10
9.4029834891
 20
8.5137106476
 30
0.0
 10
9.3901675433
 20
8.5137106476
 30
0.0
 10
9.3709713672
 20
8.5123504515
 30
0.0
 10
9.3459496366
 20
8.5078038268
 30
0.0
 10
9.3277805668
 20
8.5030849524
 30
0.0
 10
9.3103250186
 20
8.4970856508
 30
0.0
 10
9.2937449589
 20
8.4898540223
 30
0.0
 10
9.2781972533
 20
8.4814470963
 30
0.0
 10
9.2638298726
 20
8.4719295647
 30
0.0
 10
9.2507831681
 20
8.4613734885
 30
0.0
 10
9.2391905773
 20
8.4498590884
 30
0.0
 10
9.2291794071
 20
8.4374758211
 30
0.0
 10
9.2208717845
 20
8.4243288115
 30
0.0
 10
9.2154384165
 20
8.4127827036
 30
0.0
 10
9.2120708015
 20
8.4033178817
 30
0.0
 10
9.2100425657
 20
8.3961436398
 30
0.0
 10
9.2085117282
 20
8.3888876874
 30
0.0
 10
9.2074845014
 20
8.381572048
 30
0.0
 10
9.2069660586
 20
8.3742205092
 30
0.0
 10
9.2069610916
 20
8.3693108904
 30
0.0
 10
9.2070436831
 20
8.36686079
 30
0.0
  0
LINE
  5
28D
100
AcDbEntity
  8
0
100
AcDbLine
 62
7
  6
CONTINUOUS
 10
8.9293632217
 20
9.2993186927
 11
8.9290289724
 21
9.2975418563
  0
SPLINE
  5
28E
100
AcDbEntity
  8
0
100
AcDbSpline
 62
7
  6
CONTINUOUS
 70
0
 71
3
 72
11
 73
7
 74
0
 42
0.0000001
 43
0.0000001
 44
0.0000000001
 40
0.0
 40
0.0
 40
0.0
 40
0.0
 40
0.2563734133
 40
0.5094579542
 40
0.757797792
 40
1.0
 40
1.0
 40
1.0
 40
1.0
 10
8.9290289724
 20
9.2975418563
 30
0.0
 10
8.9244750751
 20
9.2732535678
 30
0.0
 10
8.9166103494
 20
9.2247572834
 30
0.0
 10
8.9085567485
 20
9.1521283994
 30
0.0
 10
8.9043663325
 20
9.0805416693
 30
0.0
 10
8.9041702693
 20
9.0332300636
 30
0.0
 10
8.9047544403
 20
9.009891804
 30
0.0
  0
SPLINE
  5
28F
100
AcDbEntity
  8
0
100
AcDbSpline
 62
7
  6
CONTINUOUS
 70
0
 71
3
 72
16
 73
12
 74
0
 42
0.0000001
 43
0.0000001
 44
0.0000000001
 40
0.0
 40
0.0
 40
0.0
 40
0.0
 40
0.1352149296
 40
0.2787132504
 40
0.424852083
 40
0.5678051742
 40
0.7018519136
 40
0.8216114163
 40
0.9223037571
 40
0.9642313576
 40
1.0
 40
1.0
 40
1.0
 40
1.0
 10
8.9100814488
 20
8.9244598531
 30
0.0
 10
8.9101749831
 20
8.9235385477
 30
0.0
 10
8.9103485406
 20
8.9216375178
 30
0.0
 10
8.9105653627
 20
8.9187358303
 30
0.0
 10
8.9107407345
 20
8.9157782412
 30
0.0
 10
8.9108675084
 20
8.9128829654
 30
0.0
 10
8.910940832
 20
8.9101665196
 30
0.0
 10
8.9109579028
 20
8.9077385922
 30
0.0
 10
8.9109248244
 20
8.9059415595
 30
0.0
 10
8.9108641572
 20
8.9047212589
 30
0.0
 10
8.9108235616
 20
8.9041905786
 30
0.0
 10
8.9107998271
 20
8.9039467639
 30
0.0
  0
LINE
  5
290
100
AcDbEntity
  8
0
100
AcDbLine
 62
7
  6
CONTINUOUS
 10
8.9107998271
 20
8.9039467639
 11
8.9104911582
 21
8.90247182
  0
LINE
  5
291
100
AcDbEntity
  8
0
100
AcDbLine
 62
7
  6
CONTINUOUS
 10
8.9104911582
 20
8.90247182
 11
8.9103755604
 21
8.9023918599
  0
LINE
  5
292
100
AcDbEntity
  8
0
100
AcDbLine
 62
7
  6
CONTINUOUS
 10
8.9327282357
 20
9.3171281933
 11
8.9327780996
 21
9.317391804
  0
LINE
  5
293
100
AcDbEntity
  8
0
100
AcDbLine
 62
7
  6
CONTINUOUS
 10
8.9053679039
 20
8.9426375513
 11
8.9053902644
 21
8.9424903533
  0
SPLINE
  5
294
100
AcDbEntity
  8
0
100
AcDbSpline
 62
7
  6
CONTINUOUS
 70
0
 71
3
 72
21
 73
17
 74
0
 42
0.0000001
 43
0.0000001
 44
0.0000000001
 40
0.0
 40
0.0
 40
0.0
 40
0.0
 40
0.0625015542
 40
0.1250048167
 40
0.1875066481
 40
0.2500091988
 40
0.3125116405
 40
0.3750141413
 40
0.437516728
 40
0.500019403
 40
0.5625221681
 40
0.6250249632
 40
0.687527785
 40
0.7500308253
 40
0.8750140981
 40
1.0
 40
1.0
 40
1.0
 40
1.0
 10
10.6297916394
 20
9.6744334881
 30
0.0
 10
10.6495963746
 20
9.6788295345
 30
0.0
 10
10.6890149553
 20
9.6885108076
 30
0.0
 10
10.7474339462
 20
9.7056448061
 30
0.0
 10
10.8050427289
 20
9.7253355809
 30
0.0
 10
10.861737572
 20
9.747518195
 30
0.0
 10
10.9174236323
 20
9.7721234674
 30
0.0
 10
10.9720114682
 20
9.7990764915
 30
0.0
 10
11.0254186444
 20
9.8282984315
 30
0.0
 10
11.077569235
 20
9.8597072205
 30
0.0
 10
11.1283939117
 20
9.8932184363
 30
0.0
 10
11.1778295022
 20
9.9287457962
 30
0.0
 10
11.2258200172
 20
9.96620267
 30
0.0
 10
11.2878039846
 20
10.0185931515
 30
0.0
 10
11.3614444888
 20
10.0884796156
 30
0.0
 10
11.4160421046
 20
10.1486079906
 30
0.0
 10
11.4422153624
 20
10.1796034494
 30
0.0
  0
SPLINE
  5
295
100
AcDbEntity
  8
0
100
AcDbSpline
 62
7
  6
CONTINUOUS
 70
0
 71
3
 72
21
 73
17
 74
0
 42
0.0000001
 43
0.0000001
 44
0.0000000001
 40
0.0
 40
0.0
 40
0.0
 40
0.0
 40
0.0625015542
 40
0.1250048167
 40
0.1875066481
 40
0.2500091988
 40
0.3125116405
 40
0.3750141413
 40
0.437516728
 40
0.500019403
 40
0.5625221681
 40
0.6250249632
 40
0.687527785
 40
0.7500308253
 40
0.8750140981
 40
1.0
 40
1.0
 40
1.0
 40
1.0
 10
10.6297916394
 20
8.34535012
 30
0.0
 10
10.6495963746
 20
8.3409540736
 30
0.0
 10
10.6890149553
 20
8.3312728005
 30
0.0
 10
10.7474339462
 20
8.314138802
 30
0.0
 10
10.8050427289
 20
8.2944480272
 30
0.0
 10
10.861737572
 20
8.2722654131
 30
0.0
 10
10.9174236323
 20
8.2476601407
 30
0.0
 10
10.9720114682
 20
8.2207071166
 30
0.0
 10
11.0254186444
 20
8.1914851766
 30
0.0
 10
11.077569235
 20
8.1600763876
 30
0.0
 10
11.1283939117
 20
8.1265651718
 30
0.0
 10
11.1778295022
 20
8.0910378119
 30
0.0
 10
11.2258200172
 20
8.0535809381
 30
0.0
 10
11.2878039846
 20
8.0011904566
 30
0.0
 10
11.3614444888
 20
7.9313039925
 30
0.0
 10
11.4160421046
 20
7.8711756174
 30
0.0
 10
11.4422153624
 20
7.8401801587
 30
0.0
  0
SPLINE
  5
296
100
AcDbEntity
  8
0
100
AcDbSpline
 62
7
  6
CONTINUOUS
 70
0
 71
3
 72
11
 73
7
 74
0
 42
0.0000001
 43
0.0000001
 44
0.0000000001
 40
0.0
 40
0.0
 40
0.0
 40
0.0
 40
0.4764595729
 40
0.6031683246
 40
0.7327431819
 40
1.0
 40
1.0
 40
1.0
 40
1.0
 10
9.1979834891
 20
8.6156797735
 30
0.0
 10
9.1979834891
 20
8.6242051129
 30
0.0
 10
9.1993293134
 20
8.6350293674
 30
0.0
 10
9.2024344523
 20
8.6477644194
 30
0.0
 10
9.2050681429
 20
8.6567582612
 30
0.0
 10
9.2075123376
 20
8.6634359979
 30
0.0
 10
9.2093298205
 20
8.6678592082
 30
0.0
  0
SPLINE
  5
297
100
AcDbEntity
  8
0
100
AcDbSpline
 62
7
  6
CONTINUOUS
 70
0
 71
3
 72
39
 73
35
 74
0
 42
0.0000001
 43
0.0000001
 44
0.0000000001
 40
0.0
 40
0.0
 40
0.0
 40
0.0
 40
0.0280191234
 40
0.0568811888
 40
0.0864697836
 40
0.1166722156
 40
0.1473844269
 40
0.1785135169
 40
0.2099786658
 40
0.2417109999
 40
0.2736525173
 40
0.3057550506
 40
0.3379791664
 40
0.3702929338
 40
0.4026706779
 40
0.4350917888
 40
0.4675395688
 40
0.4999999977
 40
0.5324604267
 40
0.5649082066
 40
0.5973293178
 40
0.6297070621
 40
0.6620208295
 40
0.6942449455
 40
0.7263474788
 40
0.7582889964
 40
0.7900213308
 40
0.8214864798
 40
0.8526155702
 40
0.8833277818
 40
0.9135302143
 40
0.9431188097
 40
0.9719808757
 40
1.0
 40
1.0
 40
1.0
 40
1.0
 10
9.2093298205
 20
8.6678592082
 30
0.0
 10
9.211110447
 20
8.6721927208
 30
0.0
 10
9.2150632394
 20
8.6808545221
 30
0.0
 10
9.2219780529
 20
8.6935643752
 30
0.0
 10
9.2299170279
 20
8.7060955533
 30
0.0
 10
9.238823364
 20
8.7183426129
 30
0.0
 10
9.2486448128
 20
8.7302051677
 30
0.0
 10
9.2593334652
 20
8.7415844576
 30
0.0
 10
9.2708454604
 20
8.7523817224
 30
0.0
 10
9.2831395095
 20
8.7624958419
 30
0.0
 10
9.2961744459
 20
8.7718215774
 30
0.0
 10
9.3099058173
 20
8.7802486544
 30
0.0
 10
9.3242818184
 20
8.7876621269
 30
0.0
 10
9.3392387316
 20
8.7939446584
 30
0.0
 10
9.3546965123
 20
8.7989813254
 30
0.0
 10
9.3705556529
 20
8.8026671078
 30
0.0
 10
9.386696694
 20
8.8049163911
 30
0.0
 10
9.4029834821
 20
8.8056727382
 30
0.0
 10
9.4192702702
 20
8.8049163924
 30
0.0
 10
9.4354113115
 20
8.8026671104
 30
0.0
 10
9.4512704524
 20
8.7989813292
 30
0.0
 10
9.4667282336
 20
8.7939446632
 30
0.0
 10
9.4816851473
 20
8.7876621328
 30
0.0
 10
9.4960611489
 20
8.7802486612
 30
0.0
 10
9.5097925209
 20
8.771821585
 30
0.0
 10
9.5228274579
 20
8.7624958502
 30
0.0
 10
9.5351215076
 20
8.7523817313
 30
0.0
 10
9.5466335036
 20
8.7415844671
 30
0.0
 10
9.5573221567
 20
8.7302051777
 30
0.0
 10
9.5671436062
 20
8.7183426233
 30
0.0
 10
9.5760499431
 20
8.7060955639
 30
0.0
 10
9.5839889189
 20
8.693564386
 30
0.0
 10
9.5909037334
 20
8.6808545331
 30
0.0
 10
9.5948565265
 20
8.6721927318
 30
0.0
 10
9.5966371532
 20
8.6678592192
 30
0.0
  0
SPLINE
  5
298
100
AcDbEntity
  8
0
100
AcDbSpline
 62
7
  6
CONTINUOUS
 70
0
 71
3
 72
11
 73
7
 74
0
 42
0.0000001
 43
0.0000001
 44
0.0000000001
 40
0.0
 40
0.0
 40
0.0
 40
0.0
 40
0.2672568211
 40
0.3968316864
 40
0.5235404346
 40
1.0
 40
1.0
 40
1.0
 40
1.0
 10
9.5966371532
 20
8.6678592192
 30
0.0
 10
9.5984546369
 20
8.663436008
 30
0.0
 10
9.6008988327
 20
8.6567582697
 30
0.0
 10
9.6035325241
 20
8.6477644259
 30
0.0
 10
9.6066376644
 20
8.6350293714
 30
0.0
 10
9.6079834891
 20
8.6242051146
 30
0.0
 10
9.6079834891
 20
8.6156797735
 30
0.0
  0
SPLINE
  5
299
100
AcDbEntity
  8
0
100
AcDbSpline
 62
7
  6
CONTINUOUS
 70
0
 71
3
 72
11
 73
7
 74
0
 42
0.0000001
 43
0.0000001
 44
0.0000000001
 40
0.0
 40
0.0
 40
0.0
 40
0.0
 40
0.4764595589
 40
0.6031683175
 40
0.7327431742
 40
1.0
 40
1.0
 40
1.0
 40
1.0
 10
9.6079834891
 20
9.4041038346
 30
0.0
 10
9.6079834891
 20
9.3955785023
 30
0.0
 10
9.6066376669
 20
9.3847542565
 30
0.0
 10
9.6035325328
 20
9.3720192142
 30
0.0
 10
9.6008988458
 20
9.3630253789
 30
0.0
 10
9.5984546544
 20
9.3563476468
 30
0.0
 10
9.596637174
 20
9.3519244394
 30
0.0
  0
SPLINE
  5
29A
100
AcDbEntity
  8
0
100
AcDbSpline
 62
7
  6
CONTINUOUS
 70
0
 71
3
 72
39
 73
35
 74
0
 42
0.0000001
 43
0.0000001
 44
0.0000000001
 40
0.0
 40
0.0
 40
0.0
 40
0.0
 40
0.0280191214
 40
0.0568811877
 40
0.0864697794
 40
0.116672211
 40
0.1473844235
 40
0.1785135115
 40
0.2099786655
 40
0.2417109989
 40
0.2736525179
 40
0.3057550527
 40
0.3379791682
 40
0.3702929365
 40
0.4026706792
 40
0.4350917894
 40
0.4675395704
 40
0.500000001
 40
0.5324604314
 40
0.5649082123
 40
0.5973293225
 40
0.6297070651
 40
0.6620208334
 40
0.6942449489
 40
0.7263474836
 40
0.7582890026
 40
0.7900213359
 40
0.8214864897
 40
0.8526155775
 40
0.88332779
 40
0.9135302214
 40
0.9431188129
 40
0.9719808789
 40
1.0
 40
1.0
 40
1.0
 40
1.0
 10
9.596637174
 20
9.3519244394
 30
0.0
 10
9.5948565484
 20
9.3475909258
 30
0.0
 10
9.590903757
 20
9.3389291221
 30
0.0
 10
9.5839889447
 20
9.3262192659
 30
0.0
 10
9.5760499706
 20
9.3136880842
 30
0.0
 10
9.5671436344
 20
9.3014410212
 30
0.0
 10
9.5573221855
 20
9.2895784628
 30
0.0
 10
9.5466335316
 20
9.278199169
 30
0.0
 10
9.5351215348
 20
9.2674019006
 30
0.0
 10
9.5228274834
 20
9.2572877772
 30
0.0
 10
9.5097925445
 20
9.2479620388
 30
0.0
 10
9.4960611706
 20
9.2395349589
 30
0.0
 10
9.4816851665
 20
9.2321214843
 30
0.0
 10
9.4667282506
 20
9.225838951
 30
0.0
 10
9.451270467
 20
9.2208022829
 30
0.0
 10
9.4354113234
 20
9.2171164998
 30
0.0
 10
9.4192702786
 20
9.2148672163
 30
0.0
 10
9.4029834865
 20
9.2141108697
 30
0.0
 10
9.3866966945
 20
9.2148672168
 30
0.0
 10
9.3705556498
 20
9.2171165008
 30
0.0
 10
9.3546965063
 20
9.2208022843
 30
0.0
 10
9.3392387228
 20
9.2258389528
 30
0.0
 10
9.3242818071
 20
9.2321214864
 30
0.0
 10
9.3099058032
 20
9.2395349614
 30
0.0
 10
9.2961744295
 20
9.2479620416
 30
0.0
 10
9.2831394909
 20
9.2572877802
 30
0.0
 10
9.2708454397
 20
9.2674019038
 30
0.0
 10
9.2593334432
 20
9.2781991724
 30
0.0
 10
9.2486447896
 20
9.2895784664
 30
0.0
 10
9.238823341
 20
9.301441025
 30
0.0
 10
9.2299170051
 20
9.3136880881
 30
0.0
 10
9.2219780313
 20
9.3262192699
 30
0.0
 10
9.2150632192
 20
9.3389291261
 30
0.0
 10
9.2111104281
 20
9.3475909298
 30
0.0
 10
9.2093298026
 20
9.3519244434
 30
0.0
  0
SPLINE
  5
29B
100
AcDbEntity
  8
0
100
AcDbSpline
 62
7
  6
CONTINUOUS
 70
0
 71
3
 72
11
 73
7
 74
0
 42
0.0000001
 43
0.0000001
 44
0.0000000001
 40
0.0
 40
0.0
 40
0.0
 40
0.0
 40
0.2672568241
 40
0.3968316794
 40
0.5235404375
 40
1.0
 40
1.0
 40
1.0
 40
1.0
 10
9.2093298026
 20
9.3519244434
 30
0.0
 10
9.2075123225
 20
9.3563476504
 30
0.0
 10
9.2050681315
 20
9.363025382
 30
0.0
 10
9.2024344448
 20
9.3720192165
 30
0.0
 10
9.1993293112
 20
9.3847542578
 30
0.0
 10
9.1979834891
 20
9.3955785028
 30
0.0
 10
9.1979834891
 20
9.4041038345
 30
0.0
  0
SPLINE
  5
29C
100
AcDbEntity
  8
0
100
AcDbSpline
 62
7
  6
CONTINUOUS
 70
0
 71
3
 72
23
 73
19
 74
0
 42
0.0000001
 43
0.0000001
 44
0.0000000001
 40
0.0
 40
0.0
 40
0.0
 40
0.0
 40
0.0639950163
 40
0.125801092
 40
0.1857306549
 40
0.2442064085
 40
0.3017101326
 40
0.358767569
 40
0.4159120961
 40
0.4736536013
 40
0.5324574966
 40
0.5927304817
 40
0.6548126076
 40
0.7189797657
 40
0.7854475408
 40
0.8543750724
 40
0.925872084
 40
1.0
 40
1.0
 40
1.0
 40
1.0
 10
9.1979834891
 20
9.4041038345
 30
0.0
 10
9.1979834891
 20
9.4070916791
 30
0.0
 10
9.1982406289
 20
9.4129693361
 30
0.0
 10
9.1994470521
 20
9.4215702028
 30
0.0
 10
9.2014588717
 20
9.4297557955
 30
0.0
 10
9.2042595662
 20
9.4374934183
 30
0.0
 10
9.2078270907
 20
9.4447599681
 30
0.0
 10
9.2121332999
 20
9.451540633
 30
0.0
 10
9.2171467633
 20
9.4578294471
 30
0.0
 10
9.2228346984
 20
9.4636283296
 30
0.0
 10
9.2291644537
 20
9.4689463118
 30
0.0
 10
9.236105189
 20
9.4737977119
 30
0.0
 10
9.2436285812
 20
9.4782004009
 30
0.0
 10
9.2517087477
 20
9.4821747494
 30
0.0
 10
9.2603221763
 20
9.4857422788
 30
0.0
 10
9.2694471897
 20
9.4889251128
 30
0.0
 10
9.2790629049
 20
9.4917453257
 30
0.0
 10
9.28566759
 20
9.4933688632
 30
0.0
 10
9.2890436235
 20
9.4941307552
 30
0.0
  0
SPLINE
  5
29D
100
AcDbEntity
  8
0
100
AcDbSpline
 62
7
  6
CONTINUOUS
 70
0
 71
3
 72
23
 73
19
 74
0
 42
0.0000001
 43
0.0000001
 44
0.0000000001
 40
0.0
 40
0.0
 40
0.0
 40
0.0
 40
0.0741132229
 40
0.1455970712
 40
0.2145132811
 40
0.280971845
 40
0.3451321155
 40
0.4072098243
 40
0.4674809796
 40
0.5262856285
 40
0.5840303575
 40
0.6411803506
 40
0.6982450949
 40
0.7557574478
 40
0.8142425586
 40
0.8741816047
 40
0.9359967563
 40
1.0
 40
1.0
 40
1.0
 40
1.0
 10
9.5170176014
 20
9.4941094683
 30
0.0
 10
9.5203903672
 20
9.4933470504
 30
0.0
 10
9.5269886407
 20
9.4917225104
 30
0.0
 10
9.5365948689
 20
9.4889009857
 30
0.0
 10
9.5457107887
 20
9.4857170783
 30
0.0
 10
9.5543155477
 20
9.4821487529
 30
0.0
 10
9.5623874944
 20
9.4781739249
 30
0.0
 10
9.5699031442
 20
9.4737711183
 30
0.0
 10
9.5768366442
 20
9.4689200086
 30
0.0
 10
9.5831597069
 20
9.4636027725
 30
0.0
 10
9.5888415385
 20
9.4578051418
 30
0.0
 10
9.5938495391
 20
9.4515181239
 30
0.0
 10
9.5981509883
 20
9.4447398308
 30
0.0
 10
9.6017145212
 20
9.4374762427
 30
0.0
 10
9.6045120522
 20
9.4297421641
 30
0.0
 10
9.6065215853
 20
9.4215606704
 30
0.0
 10
9.6077266354
 20
9.4129644106
 30
0.0
 10
9.6079834891
 20
9.4070900032
 30
0.0
 10
9.6079834891
 20
9.4041038346
 30
0.0
  0
SPLINE
  5
29E
100
AcDbEntity
  8
0
100
AcDbSpline
 62
7
  6
CONTINUOUS
 70
0
 71
3
 72
23
 73
19
 74
0
 42
0.0000001
 43
0.0000001
 44
0.0000000001
 40
0.0
 40
0.0
 40
0.0
 40
0.0
 40
0.0639931069
 40
0.1257970903
 40
0.1857244495
 40
0.24419803
 40
0.3016997489
 40
0.3587554906
 40
0.4158987508
 40
0.4736395054
 40
0.5324432323
 40
0.5927166466
 40
0.6547997912
 40
0.7189685508
 40
0.7854384647
 40
0.8543686108
 40
0.9258686736
 40
1.0
 40
1.0
 40
1.0
 40
1.0
 10
9.6079834891
 20
8.6156797735
 30
0.0
 10
9.6079834891
 20
8.6126915405
 30
0.0
 10
9.6077262827
 20
8.6068131296
 30
0.0
 10
9.6065195415
 20
8.5982111946
 30
0.0
 10
9.6045071912
 20
8.5900246517
 30
0.0
 10
9.6017057632
 20
8.5822862081
 30
0.0
 10
9.5981373135
 20
8.5750189722
 30
0.0
 10
9.5938300003
 20
8.5682377581
 30
0.0
 10
9.5888152705
 20
8.5619485279
 30
0.0
 10
9.5831259201
 20
8.5561493554
 30
0.0
 10
9.5767946124
 20
8.5508312005
 30
0.0
 10
9.5698521994
 20
8.545979733
 30
0.0
 10
9.5623270118
 20
8.5415770716
 30
0.0
 10
9.5542449391
 20
8.5376028348
 30
0.0
 10
9.5456295004
 20
8.5340354902
 30
0.0
 10
9.5365023787
 20
8.5308529053
 30
0.0
 10
9.5268844638
 20
8.5280329969
 30
0.0
 10
9.5202782918
 20
8.5264096919
 30
0.0
 10
9.5169015003
 20
8.5256479218
 30
0.0
  0
SPLINE
  5
29F
100
AcDbEntity
  8
0
100
AcDbSpline
 62
7
  6
CONTINUOUS
 70
0
 71
3
 72
23
 73
19
 74
0
 42
0.0000001
 43
0.0000001
 44
0.0000000001
 40
0.0
 40
0.0
 40
0.0
 40
0.0
 40
0.074128421
 40
0.1456258806
 40
0.214553787
 40
0.2810218789
 40
0.3451892757
 40
0.4072715459
 40
0.4675445978
 40
0.5263484733
 40
0.584089865
 40
0.6412342065
 40
0.6982913935
 40
0.7557948195
 40
0.8142702526
 40
0.8741994833
 40
0.936005272
 40
1.0
 40
1.0
 40
1.0
 40
1.0
 10
9.2890468287
 20
8.5256521296
 30
0.0
 10
9.2856706838
 20
8.5264140038
 30
0.0
 10
9.2790657804
 20
8.5280375073
 30
0.0
 10
9.2694497427
 20
8.5308576754
 30
0.0
 10
9.2603244203
 20
8.5340404728
 30
0.0
 10
9.2517106971
 20
8.5376079752
 30
0.0
 10
9.2436302508
 20
8.5415823072
 30
0.0
 10
9.2361065953
 20
8.5459849922
 30
0.0
 10
9.229165614
 20
8.5508364026
 30
0.0
 10
9.2228356306
 20
8.5561544101
 30
0.0
 10
9.2171474879
 20
8.5619533353
 30
0.0
 10
9.2121338392
 20
8.5682422104
 30
0.0
 10
9.2078274679
 20
8.5750229556
 30
0.0
 10
9.204259808
 20
8.5822896058
 30
0.0
 10
9.2014590063
 20
8.5900273483
 30
0.0
 10
9.1994471081
 20
8.5982130806
 30
0.0
 10
9.1982406391
 20
8.6068141042
 30
0.0
 10
9.1979834891
 20
8.6126918724
 30
0.0
 10
9.1979834891
 20
8.6156797735
 30
0.0
  0
SPLINE
  5
2A0
100
AcDbEntity
  8
0
100
AcDbSpline
 62
7
  6
CONTINUOUS
 70
0
 71
3
 72
15
 73
11
 74
0
 42
0.0000001
 43
0.0000001
 44
0.0000000001
 40
0.0
 40
0.0
 40
0.0
 40
0.0
 40
0.1031182385
 40
0.1423028849
 40
0.1876607444
 40
0.2976003469
 40
0.4338459211
 40
0.5965603522
 40
0.785430951
 40
1.0
 40
1.0
 40
1.0
 40
1.0
 10
8.9103755604
 20
8.9023918599
 30
0.0
 10
8.9103229922
 20
8.9023918479
 30
0.0
 10
8.9102606269
 20
8.9024533288
 30
0.0
 10
8.9102079363
 20
8.9025304815
 30
0.0
 10
8.9101582352
 20
8.9026170965
 30
0.0
 10
8.9100971211
 20
8.9027524536
 30
0.0
 10
8.910025182
 20
8.9029483596
 30
0.0
 10
8.9099515792
 20
8.9031859434
 30
0.0
 10
8.9098763529
 20
8.9034646478
 30
0.0
 10
8.9098284058
 20
8.9036646708
 30
0.0
 10
8.9098040343
 20
8.9037713055
 30
0.0
  0
SPLINE
  5
2A1
100
AcDbEntity
  8
0
100
AcDbSpline
 62
9
  6
CONTINUOUS
 70
0
 71
3
 72
23
 73
19
 74
0
 42
0.0000001
 43
0.0000001
 44
0.0000000001
 40
0.0
 40
0.0
 40
0.0
 40
0.0
 40
0.1169601202
 40
0.1473153348
 40
0.1780601718
 40
0.2405988799
 40
0.3043477221
 40
0.3690325876
 40
0.4343549186
 40
0.5
 40
0.5656450814
 40
0.6309674124
 40
0.6956522779
 40
0.7594011201
 40
0.8219398282
 40
0.8526846652
 40
0.8830398798
 40
1.0
 40
1.0
 40
1.0
 40
1.0
 10
9.2421566695
 20
9.6229767056
 30
0.0
 10
9.2529313908
 20
9.6152083515
 30
0.0
 10
9.2674886283
 20
9.6067179069
 30
0.0
 10
9.2858981612
 20
9.5983533821
 30
0.0
 10
9.2989113151
 20
9.5930665083
 30
0.0
 10
9.3158232293
 20
9.5873461279
 30
0.0
 10
9.3368547742
 20
9.5819677629
 30
0.0
 10
9.3585345463
 20
9.5780882418
 30
0.0
 10
9.3806496023
 20
9.5757453726
 30
0.0
 10
9.4029834891
 20
9.5749618722
 30
0.0
 10
9.425317376
 20
9.5757453726
 30
0.0
 10
9.447432432
 20
9.5780882418
 30
0.0
 10
9.4691122041
 20
9.5819677629
 30
0.0
 10
9.490143749
 20
9.5873461279
 30
0.0
 10
9.5070556632
 20
9.5930665083
 30
0.0
 10
9.520068817
 20
9.5983533821
 30
0.0
 10
9.53847835
 20
9.6067179069
 30
0.0
 10
9.5530355875
 20
9.6152083515
 30
0.0
 10
9.5638103088
 20
9.6229767056
 30
0.0
  0
LINE
  5
2A2
100
AcDbEntity
  8
0
100
AcDbLine
 62
7
  6
CONTINUOUS
 10
8.9064473615
 20
8.9273703963
 11
8.9063753087
 21
8.9278845964
  0
SPLINE
  5
2A3
100
AcDbEntity
  8
0
100
AcDbSpline
 62
7
  6
CONTINUOUS
 70
0
 71
3
 72
11
 73
7
 74
0
 42
0.0000001
 43
0.0000001
 44
0.0000000001
 40
0.0
 40
0.0
 40
0.0
 40
0.0
 40
0.2425290515
 40
0.4909412459
 40
0.7438965388
 40
1.0
 40
1.0
 40
1.0
 40
1.0
 10
8.9036106676
 20
9.009891804
 30
0.0
 10
8.9031729995
 20
9.0332575875
 30
0.0
 10
8.9036272654
 20
9.0805897725
 30
0.0
 10
8.908106885
 20
9.1521613922
 30
0.0
 10
8.9163566859
 20
9.2247124809
 30
0.0
 10
8.9242929591
 20
9.2731417587
 30
0.0
 10
8.9288683338
 20
9.297391804
 30
0.0
  0
SPLINE
  5
2A4
100
AcDbEntity
  8
0
100
AcDbSpline
 62
9
  6
CONTINUOUS
 70
0
 71
3
 72
13
 73
9
 74
0
 42
0.0000001
 43
0.0000001
 44
0.0000000001
 40
0.0
 40
0.0
 40
0.0
 40
0.0
 40
0.2361352217
 40
0.3587517123
 40
0.4838706734
 40
0.6110624635
 40
0.739849785
 40
1.0
 40
1.0
 40
1.0
 40
1.0
 10
9.2716369081
 20
8.7528392577
 30
0.0
 10
9.28078182
 20
8.7586774866
 30
0.0
 10
9.2954622324
 20
8.7663701231
 30
0.0
 10
9.3161863018
 20
8.7744490422
 30
0.0
 10
9.3326591498
 20
8.7795432277
 30
0.0
 10
9.3497194604
 20
8.7835491577
 30
0.0
 10
9.3731301156
 20
8.7874082982
 30
0.0
 10
9.391030457
 20
8.7885631558
 30
0.0
 10
9.4029834891
 20
8.7885631558
 30
0.0
  0
SPLINE
  5
2A5
100
AcDbEntity
  8
0
100
AcDbSpline
 62
9
  6
CONTINUOUS
 70
0
 71
3
 72
39
 73
35
 74
0
 42
0.0000001
 43
0.0000001
 44
0.0000000001
 40
0.0
 40
0.0
 40
0.0
 40
0.0
 40
0.0257298653
 40
0.0517038015
 40
0.0781504681
 40
0.1052684834
 40
0.1332177514
 40
0.1621138629
 40
0.1920269281
 40
0.2229830461
 40
0.2549676492
 40
0.2879298181
 40
0.3217870274
 40
0.3564299867
 40
0.3917274112
 40
0.4275306541
 40
0.4636781943
 40
0.5
 40
0.5363218057
 40
0.5724693459
 40
0.6082725888
 40
0.6435700134
 40
0.6782129728
 40
0.7120701822
 40
0.7450323511
 40
0.7770169542
 40
0.807973072
 40
0.837886137
 40
0.8667822486
 40
0.8947315165
 40
0.9218495318
 40
0.9482961984
 40
0.9742701346
 40
1.0
 40
1.0
 40
1.0
 40
1.0
 10
9.5896614251
 20
9.3854828915
 30
0.0
 10
9.5896614251
 20
9.3811596884
 30
0.0
 10
9.5890544459
 20
9.3724604048
 30
0.0
 10
9.5863377318
 20
9.3595738617
 30
0.0
 10
9.5818441131
 20
9.3469462622
 30
0.0
 10
9.5756226128
 20
9.3347048842
 30
0.0
 10
9.5677388266
 20
9.3229664175
 30
0.0
 10
9.5582730273
 20
9.3118419964
 30
0.0
 10
9.5473191903
 20
9.3014355768
 30
0.0
 10
9.5349841518
 20
9.2918441252
 30
0.0
 10
9.5213869495
 20
9.2831570159
 30
0.0
 10
9.506658031
 20
9.275455412
 30
0.0
 10
9.4909382992
 20
9.2688115111
 30
0.0
 10
9.4743779657
 20
9.2632878079
 30
0.0
 10
9.4571352357
 20
9.2589364147
 30
0.0
 10
9.4393748583
 20
9.2557984821
 30
0.0
 10
9.421266574
 20
9.2539037376
 30
0.0
 10
9.4029834891
 20
9.2532701519
 30
0.0
 10
9.3847004042
 20
9.2539037376
 30
0.0
 10
9.3665921199
 20
9.2557984821
 30
0.0
 10
9.3488317426
 20
9.2589364147
 30
0.0
 10
9.3315890125
 20
9.2632878079
 30
0.0
 10
9.3150286789
 20
9.2688115111
 30
0.0
 10
9.2993089472
 20
9.275455412
 30
0.0
 10
9.2845800286
 20
9.283157016
 30
0.0
 10
9.2709828264
 20
9.2918441253
 30
0.0
 10
9.258647788
 20
9.3014355768
 30
0.0
 10
9.247693951
 20
9.3118419963
 30
0.0
 10
9.2382281517
 20
9.3229664175
 30
0.0
 10
9.2303443655
 20
9.3347048842
 30
0.0
 10
9.2241228652
 20
9.3469462621
 30
0.0
 10
9.2196292465
 20
9.3595738617
 30
0.0
 10
9.2169125323
 20
9.3724604048
 30
0.0
 10
9.2163055532
 20
9.3811596884
 30
0.0
 10
9.2163055532
 20
9.3854828915
 30
0.0
  0
SPLINE
  5
2A6
100
AcDbEntity
  8
0
100
AcDbSpline
 62
9
  6
CONTINUOUS
 70
0
 71
3
 72
21
 73
17
 74
0
 42
0.0000001
 43
0.0000001
 44
0.0000000001
 40
0.0
 40
0.0
 40
0.0
 40
0.0
 40
0.1180513556
 40
0.1793511351
 40
0.241901969
 40
0.3054890462
 40
0.3698738119
 40
0.4348000827
 40
0.5000000092
 40
0.5651999354
 40
0.630126205
 40
0.6945109692
 40
0.7580980443
 40
0.8206488756
 40
0.8819486519
 40
1.0
 40
1.0
 40
1.0
 40
1.0
 10
9.5343294573
 20
9.2669439592
 30
0.0
 10
9.525184564
 20
9.2611057916
 30
0.0
 10
9.5105041643
 20
9.2534132334
 30
0.0
 10
9.4897802638
 20
9.245334411
 30
0.0
 10
9.4733072113
 20
9.2402402497
 30
0.0
 10
9.4562480573
 20
9.2362344914
 30
0.0
 10
9.4387426494
 20
9.2333490079
 30
0.0
 10
9.4209381992
 20
9.2316081251
 30
0.0
 10
9.4029834673
 20
9.2310262076
 30
0.0
 10
9.3850287355
 20
9.2316081279
 30
0.0
 10
9.3672242859
 20
9.2333490135
 30
0.0
 10
9.3497188789
 20
9.2362344997
 30
0.0
 10
9.3326597262
 20
9.2402402608
 30
0.0
 10
9.3161866752
 20
9.2453344247
 30
0.0
 10
9.2954627774
 20
9.2534132504
 30
0.0
 10
9.2807823799
 20
9.2611058109
 30
0.0
 10
9.2716374884
 20
9.26694398
 30
0.0
  0
SPLINE
  5
2A7
100
AcDbEntity
  8
0
100
AcDbSpline
 62
9
  6
CONTINUOUS
 70
0
 71
3
 72
19
 73
15
 74
0
 42
0.0000001
 43
0.0000001
 44
0.0000000001
 40
0.0
 40
0.0
 40
0.0
 40
0.0
 40
0.0565491594
 40
0.1132880955
 40
0.1703739693
 40
0.2279799471
 40
0.2862642912
 40
0.3453677544
 40
0.4054165672
 40
0.4665201158
 40
0.5921674477
 40
0.7228768916
 40
0.8588462647
 40
1.0
 40
1.0
 40
1.0
 40
1.0
 10
9.2163055532
 20
9.3854828915
 30
0.0
 10
9.2163055532
 20
9.3879632089
 30
0.0
 10
9.2165041513
 20
9.3929344225
 30
0.0
 10
9.2173954386
 20
9.4003613858
 30
0.0
 10
9.2188780653
 20
9.4077408787
 30
0.0
 10
9.2209466993
 20
9.4150480951
 30
0.0
 10
9.2235942546
 20
9.4222601644
 30
0.0
 10
9.2268123156
 20
9.4293537917
 30
0.0
 10
9.2305901686
 20
9.4363067736
 30
0.0
 10
9.2364098053
 20
9.4454429467
 30
0.0
 10
9.2450674747
 20
9.4564028979
 30
0.0
 10
9.2573503493
 20
9.4685110103
 30
0.0
 10
9.2714658491
 20
9.4795558008
 30
0.0
 10
9.2817970178
 20
9.4860063655
 30
0.0
 10
9.2872009485
 20
9.489027665
 30
0.0
  0
SPLINE
  5
2A8
100
AcDbEntity
  8
0
100
AcDbSpline
 62
9
  6
CONTINUOUS
 70
0
 71
3
 72
19
 73
15
 74
0
 42
0.0000001
 43
0.0000001
 44
0.0000000001
 40
0.0
 40
0.0
 40
0.0
 40
0.0
 40
0.1411459427
 40
0.2771089003
 40
0.4078141453
 40
0.5334600558
 40
0.5945639915
 40
0.6546139278
 40
0.7137192152
 40
0.7720060155
 40
0.8296149898
 40
0.8867042984
 40
0.9434469659
 40
1.0
 40
1.0
 40
1.0
 40
1.0
 10
9.5188271413
 20
9.4889934833
 30
0.0
 10
9.5242267972
 20
9.4859719839
 30
0.0
 10
9.5345496423
 20
9.4795215146
 30
0.0
 10
9.5486533168
 20
9.4684784145
 30
0.0
 10
9.5609255761
 20
9.4563733789
 30
0.0
 10
9.5695755155
 20
9.4454171121
 30
0.0
 10
9.5753898896
 20
9.4362844171
 30
0.0
 10
9.5791643192
 20
9.4293342026
 30
0.0
 10
9.5823794441
 20
9.4222435366
 30
0.0
 10
9.5850245698
 20
9.415034593
 30
0.0
 10
9.5870912962
 20
9.4077306344
 30
0.0
 10
9.5885725511
 20
9.4003545001
 30
0.0
 10
9.5894630113
 20
9.392930962
 30
0.0
 10
9.5896614251
 20
9.38796206
 30
0.0
 10
9.5896614251
 20
9.3854828915
 30
0.0
  0
SPLINE
  5
2A9
100
AcDbEntity
  8
0
100
AcDbSpline
 62
7
  6
CONTINUOUS
 70
0
 71
3
 72
20
 73
16
 74
0
 42
0.0000001
 43
0.0000001
 44
0.0000000001
 40
0.0
 40
0.0
 40
0.0
 40
0.0
 40
0.1383635638
 40
0.2739295347
 40
0.4060482057
 40
0.470646054
 40
0.534187867
 40
0.5966238702
 40
0.6579113983
 40
0.7180149538
 40
0.7769060686
 40
0.8345625468
 40
0.8909684228
 40
0.9461167108
 40
1.0
 40
1.0
 40
1.0
 40
1.0
 10
10.6297916394
 20
8.677620962
 30
0.0
 10
10.6690729997
 20
8.6732613308
 30
0.0
 10
10.7466561154
 20
8.662839342
 30
0.0
 10
10.8607916777
 20
8.6419832417
 30
0.0
 10
10.9532669906
 20
8.6204176127
 30
0.0
 10
11.024983248
 20
8.6008133519
 30
0.0
 10
11.0771170879
 20
8.5851264153
 30
0.0
 10
11.127928299
 20
8.5683886045
 30
0.0
 10
11.1773542327
 20
8.5506426217
 30
0.0
 10
11.225338029
 20
8.5319319843
 30
0.0
 10
11.271828784
 20
8.5123002829
 30
0.0
 10
11.316780941
 20
8.4917911457
 30
0.0
 10
11.3601549662
 20
8.4704476313
 30
0.0
 10
11.4019143195
 20
8.4483129626
 30
0.0
 10
11.4289715574
 20
8.4328779133
 30
0.0
 10
11.4422153624
 20
8.4250359814
 30
0.0
  0
SPLINE
  5
2AA
100
AcDbEntity
  8
0
100
AcDbSpline
 62
7
  6
CONTINUOUS
 70
0
 71
3
 72
20
 73
16
 74
0
 42
0.0000001
 43
0.0000001
 44
0.0000000001
 40
0.0
 40
0.0
 40
0.0
 40
0.0
 40
0.1383635638
 40
0.2739295347
 40
0.4060482057
 40
0.470646054
 40
0.534187867
 40
0.5966238702
 40
0.6579113983
 40
0.7180149538
 40
0.7769060686
 40
0.8345625468
 40
0.8909684228
 40
0.9461167108
 40
1.0
 40
1.0
 40
1.0
 40
1.0
 10
10.6297916394
 20
9.342162646
 30
0.0
 10
10.6690729997
 20
9.3465222773
 30
0.0
 10
10.7466561154
 20
9.3569442661
 30
0.0
 10
10.8607916777
 20
9.3778003664
 30
0.0
 10
10.9532669906
 20
9.3993659954
 30
0.0
 10
11.024983248
 20
9.4189702562
 30
0.0
 10
11.0771170879
 20
9.4346571927
 30
0.0
 10
11.127928299
 20
9.4513950036
 30
0.0
 10
11.1773542327
 20
9.4691409864
 30
0.0
 10
11.225338029
 20
9.4878516238
 30
0.0
 10
11.271828784
 20
9.5074833252
 30
0.0
 10
11.316780941
 20
9.5279924624
 30
0.0
 10
11.3601549662
 20
9.5493359768
 30
0.0
 10
11.4019143195
 20
9.5714706455
 30
0.0
 10
11.4289715574
 20
9.5869056948
 30
0.0
 10
11.4422153624
 20
9.5947476267
 30
0.0
  0
SPLINE
  5
2AB
100
AcDbEntity
  8
0
100
AcDbSpline
 62
7
  6
CONTINUOUS
 70
0
 71
3
 72
39
 73
35
 74
0
 42
0.0000001
 43
0.0000001
 44
0.0000000001
 40
0.0
 40
0.0
 40
0.0
 40
0.0
 40
0.025658709
 40
0.0517384384
 40
0.078416209
 40
0.1058378788
 40
0.1341137299
 40
0.1633168099
 40
0.1934834653
 40
0.2246155973
 40
0.2566836378
 40
0.2896301481
 40
0.3233735018
 40
0.3578115763
 40
0.3928254407
 40
0.4282828087
 40
0.4640415438
 40
0.4999529322
 40
0.5358650093
 40
0.5716257967
 40
0.6070865357
 40
0.6421050165
 40
0.6765488476
 40
0.7102989627
 40
0.7432530708
 40
0.7753293436
 40
0.8064701078
 40
0.8366455264
 40
0.8658572026
 40
0.8941411591
 40
0.9215701082
 40
0.9482539949
 40
0.9743383845
 40
1.0
 40
1.0
 40
1.0
 40
1.0
 10
9.2147544643
 20
9.645910825
 30
0.0
 10
9.2153112742
 20
9.6418007783
 30
0.0
 10
9.2169759521
 20
9.6335772319
 30
0.0
 10
9.2210464947
 20
9.6215405125
 30
0.0
 10
9.2266670459
 20
9.609828016
 30
0.0
 10
9.2337852597
 20
9.5985420671
 30
0.0
 10
9.2423372814
 20
9.587776379
 30
0.0
 10
9.252248053
 20
9.5776204309
 30
0.0
 10
9.2634320619
 20
9.5681579587
 30
0.0
 10
9.2757938534
 20
9.5594670031
 30
0.0
 10
9.2892285981
 20
9.5516193136
 30
0.0
 10
9.303622766
 20
9.5446798589
 30
0.0
 10
9.3188549166
 20
9.5387062478
 30
0.0
 10
9.3347966205
 20
9.5337482056
 30
0.0
 10
9.3513134712
 20
9.5298471038
 30
0.0
 10
9.3682661935
 20
9.5270355472
 30
0.0
 10
9.3855118017
 20
9.5253370767
 30
0.0
 10
9.4029048149
 20
9.5247659147
 30
0.0
 10
9.4202984918
 20
9.5253268567
 30
0.0
 10
9.4375460857
 20
9.5270151927
 30
0.0
 10
9.4545020987
 20
9.5298167853
 30
0.0
 10
9.4710235169
 20
9.5337081768
 30
0.0
 10
9.4869710265
 20
9.5386568431
 30
0.0
 10
9.5022101718
 20
9.5446214901
 30
0.0
 10
9.5166124648
 20
9.5515524659
 30
0.0
 10
9.5300563975
 20
9.5593922308
 30
0.0
 10
9.5424283647
 20
9.56807588
 30
0.0
 10
9.5536234554
 20
9.5775317228
 30
0.0
 10
9.563546127
 20
9.5876817729
 30
0.0
 10
9.5721107758
 20
9.5984423447
 30
0.0
 10
9.5792422446
 20
9.6097240076
 30
0.0
 10
9.5848765793
 20
9.6214330947
 30
0.0
 10
9.5889613117
 20
9.6334673233
 30
0.0
 10
9.5906357579
 20
9.6416901257
 30
0.0
 10
9.5911974319
 20
9.6457999847
 30
0.0
  0
SPLINE
  5
2AC
100
AcDbEntity
  8
0
100
AcDbSpline
 62
9
  6
CONTINUOUS
 70
0
 71
3
 72
39
 73
35
 74
0
 42
0.0000001
 43
0.0000001
 44
0.0000000001
 40
0.0
 40
0.0
 40
0.0
 40
0.0
 40
0.0257318335
 40
0.0519928753
 40
0.0789191576
 40
0.1066180224
 40
0.1351654967
 40
0.1646064376
 40
0.1949557731
 40
0.2262007253
 40
0.2583034792
 40
0.2912040735
 40
0.3248233635
 40
0.3590659645
 40
0.3938231262
 40
0.4289755227
 40
0.4643959645
 40
0.4999520521
 40
0.5355087853
 40
0.5709311519
 40
0.606086715
 40
0.6408482231
 40
0.6750962622
 40
0.7087219682
 40
0.7416298156
 40
0.7737404913
 40
0.8049938374
 40
0.8353518136
 40
0.8648013905
 40
0.8933572204
 40
0.9210638667
 40
0.9479970576
 40
0.9742638401
 40
1.0
 40
1.0
 40
1.0
 40
1.0
 10
9.2248098605
 20
9.6365636278
 30
0.0
 10
9.2257262717
 20
9.6328692567
 30
0.0
 10
9.2280322547
 20
9.6255098829
 30
0.0
 10
9.2327984863
 20
9.6148272535
 30
0.0
 10
9.2388625938
 20
9.604485567
 30
0.0
 10
9.2461750159
 20
9.5945650216
 30
0.0
 10
9.2546782189
 20
9.5851391519
 30
0.0
 10
9.2643061011
 20
9.5762781686
 30
0.0
 10
9.2749847397
 20
9.5680477588
 30
0.0
 10
9.2866326962
 20
9.5605090156
 30
0.0
 10
9.2991615161
 20
9.5537179848
 30
0.0
 10
9.3124762608
 20
9.5477252769
 30
0.0
 10
9.3264761359
 20
9.5425756616
 30
0.0
 10
9.3410551922
 20
9.5383076899
 30
0.0
 10
9.3561030966
 20
9.5349533726
 30
0.0
 10
9.3715059508
 20
9.5325379047
 30
0.0
 10
9.3871471486
 20
9.5310794492
 30
0.0
 10
9.402908262
 20
9.5305889806
 30
0.0
 10
9.4186699451
 20
9.531070191
 30
0.0
 10
9.4343128476
 20
9.5325194581
 30
0.0
 10
9.4497185284
 20
9.5349258764
 30
0.0
 10
9.4647703597
 20
9.5382713509
 30
0.0
 10
9.479354413
 20
9.5425307528
 30
0.0
 10
9.4933603174
 20
9.5476721353
 30
0.0
 10
9.5066820781
 20
9.5536570076
 30
0.0
 10
9.5192188485
 20
9.5604406576
 30
0.0
 10
9.5308756312
 20
9.5679725286
 30
0.0
 10
9.5415639071
 20
9.5761966248
 30
0.0
 10
9.5512021685
 20
9.5850518993
 30
0.0
 10
9.559716419
 20
9.5944727078
 30
0.0
 10
9.5670404799
 20
9.6043888794
 30
0.0
 10
9.5731167352
 20
9.6147269174
 30
0.0
 10
9.5778955392
 20
9.6254066617
 30
0.0
 10
9.5802102596
 20
9.6327648427
 30
0.0
 10
9.5811310472
 20
9.636458785
 30
0.0
  0
SPLINE
  5
2AD
100
AcDbEntity
  8
0
100
AcDbSpline
 62
9
  6
CONTINUOUS
 70
0
 71
3
 72
36
 73
32
 74
0
 42
0.0000001
 43
0.0000001
 44
0.0000000001
 40
0.0
 40
0.0
 40
0.0
 40
0.0
 40
0.0659211522
 40
0.097644077
 40
0.1285182097
 40
0.15856184
 40
0.1878154347
 40
0.2163424436
 40
0.24422926
 40
0.2715840874
 40
0.2985345394
 40
0.3252238437
 40
0.3518057418
 40
0.3784384015
 40
0.40527789
 40
0.4324718671
 40
0.4601540783
 40
0.4884400547
 40
0.5174241835
 40
0.547178189
 40
0.5777507581
 40
0.6091680476
 40
0.6414348168
 40
0.6745359382
 40
0.7084382115
 40
0.7430922805
 40
0.7784345809
 40
0.8508383385
 40
0.8877500948
 40
0.924989922
 40
1.0
 40
1.0
 40
1.0
 40
1.0
 10
9.2873596451
 20
8.5306672799
 30
0.0
 10
9.2799944805
 20
8.5347759469
 30
0.0
 10
9.2694610338
 20
8.5415956815
 30
0.0
 10
9.2567476997
 20
8.5520415073
 30
0.0
 10
9.2482007201
 20
8.5602722232
 30
0.0
 10
9.2405760237
 20
8.5689478711
 30
0.0
 10
9.2339190055
 20
8.5780182954
 30
0.0
 10
9.2282708246
 20
8.5874299354
 30
0.0
 10
9.2236666287
 20
8.5971270636
 30
0.0
 10
9.2201356717
 20
8.6070516916
 30
0.0
 10
9.2177008146
 20
8.6171438386
 30
0.0
 10
9.2163781347
 20
8.6273418489
 30
0.0
 10
9.2161764833
 20
8.6375828884
 30
0.0
 10
9.2170971669
 20
8.6478036211
 30
0.0
 10
9.2191340077
 20
8.657940962
 30
0.0
 10
9.2222735172
 20
8.6679327682
 30
0.0
 10
9.2264952565
 20
8.6777184006
 30
0.0
 10
9.2317722577
 20
8.687239107
 30
0.0
 10
9.2380713511
 20
8.6964383254
 30
0.0
 10
9.2453536073
 20
8.7052618198
 30
0.0
 10
9.2535746228
 20
8.7136578168
 30
0.0
 10
9.2626847652
 20
8.7215771661
 30
0.0
 10
9.2726293932
 20
8.728973504
 30
0.0
 10
9.2833491309
 20
8.7358035562
 30
0.0
 10
9.2947799237
 20
8.7420272374
 30
0.0
 10
9.3068544095
 20
8.7476082786
 30
0.0
 10
9.3238480923
 20
8.7542000834
 30
0.0
 10
9.3416909853
 20
8.7593020256
 30
0.0
 10
9.3600987154
 20
8.7629063834
 30
0.0
 10
9.3790096457
 20
8.7655195361
 30
0.0
 10
9.3933870206
 20
8.766301951
 30
0.0
 10
9.4029834891
 20
8.766301951
 30
0.0
  0
SPLINE
  5
2AE
100
AcDbEntity
  8
0
100
AcDbSpline
 62
9
  6
CONTINUOUS
 70
0
 71
3
 72
36
 73
32
 74
0
 42
0.0000001
 43
0.0000001
 44
0.0000000001
 40
0.0
 40
0.0
 40
0.0
 40
0.0
 40
0.0750093036
 40
0.1122486839
 40
0.1491599185
 40
0.2215623214
 40
0.2569037654
 40
0.291556843
 40
0.3254579871
 40
0.3585578459
 40
0.3908232307
 40
0.4222390346
 40
0.4528100467
 40
0.4825624631
 40
0.5115450195
 40
0.5398294971
 40
0.567510346
 40
0.5947031633
 40
0.62154176
 40
0.6481738549
 40
0.6747555639
 40
0.7014450883
 40
0.7283961854
 40
0.7557520799
 40
0.7836403644
 40
0.8121692058
 40
0.8414249477
 40
0.8714709815
 40
0.9023477081
 40
0.9340733469
 40
1.0
 40
1.0
 40
1.0
 40
1.0
 10
9.4029834891
 20
8.766301951
 30
0.0
 10
9.412581108
 20
8.766301951
 30
0.0
 10
9.4269602024
 20
8.7655193491
 30
0.0
 10
9.4458733321
 20
8.7629055705
 30
0.0
 10
9.4642830829
 20
8.7593003623
 30
0.0
 10
9.4821277979
 20
8.7541972272
 30
0.0
 10
9.4991229958
 20
8.7476038921
 30
0.0
 10
9.5111983874
 20
8.7420215843
 30
0.0
 10
9.5226298642
 20
8.735796515
 30
0.0
 10
9.533350044
 20
8.72896497
 30
0.0
 10
9.5432948541
 20
8.7215670529
 30
0.0
 10
9.5524049026
 20
8.7136460571
 30
0.0
 10
9.5606255351
 20
8.7052483669
 30
0.0
 10
9.5679071091
 20
8.6964231543
 30
0.0
 10
9.5742052134
 20
8.6872222153
 30
0.0
 10
9.5794809146
 20
8.6776998098
 30
0.0
 10
9.5837010411
 20
8.667912524
 30
0.0
 10
9.5868386272
 20
8.6579191356
 30
0.0
 10
9.5888732406
 20
8.6477803096
 30
0.0
 10
9.5897914037
 20
8.6375582147
 30
0.0
 10
9.5895869541
 20
8.6273159605
 30
0.0
 10
9.5882612176
 20
8.6171169061
 30
0.0
 10
9.5858230669
 20
8.6070239067
 30
0.0
 10
9.5822886051
 20
8.5970986369
 30
0.0
 10
9.5776807208
 20
8.5874010939
 30
0.0
 10
9.5720286973
 20
8.5779892808
 30
0.0
 10
9.5653677138
 20
8.5689189377
 30
0.0
 10
9.5577389608
 20
8.5602436372
 30
0.0
 10
9.5491878682
 20
8.5520135445
 30
0.0
 10
9.536468962
 20
8.5415689498
 30
0.0
 10
9.5259314614
 20
8.5347505421
 30
0.0
 10
9.5185636513
 20
8.5306429194
 30
0.0
  0
SPLINE
  5
2AF
100
AcDbEntity
  8
0
100
AcDbSpline
 62
9
  6
CONTINUOUS
 70
0
 71
3
 72
13
 73
9
 74
0
 42
0.0000001
 43
0.0000001
 44
0.0000000001
 40
0.0
 40
0.0
 40
0.0
 40
0.0
 40
0.2601502315
 40
0.388937559
 40
0.5161293524
 40
0.6412483132
 40
0.7638647994
 40
1.0
 40
1.0
 40
1.0
 40
1.0
 10
9.4029834891
 20
8.7885631558
 30
0.0
 10
9.4149365314
 20
8.7885631558
 30
0.0
 10
9.4328368879
 20
8.7874082963
 30
0.0
 10
9.4562475621
 20
8.7835491492
 30
0.0
 10
9.4733078857
 20
8.7795432125
 30
0.0
 10
9.4897807452
 20
8.7744490186
 30
0.0
 10
9.510504827
 20
8.7663700865
 30
0.0
 10
9.5251852465
 20
8.7586774376
 30
0.0
 10
9.5343301614
 20
8.7528391994
 30
0.0
  0
SPLINE
  5
2B0
100
AcDbEntity
  8
0
100
AcDbSpline
 62
9
  6
CONTINUOUS
 70
0
 71
3
 72
13
 73
9
 74
0
 42
0.0000001
 43
0.0000001
 44
0.0000000001
 40
0.0
 40
0.0
 40
0.0
 40
0.0
 40
0.2618206985
 40
0.391214951
 40
0.5187366308
 40
0.6438376519
 40
0.7660355944
 40
1.0
 40
1.0
 40
1.0
 40
1.0
 10
9.4029834891
 20
8.4619618817
 30
0.0
 10
9.4140552591
 20
8.4619618817
 30
0.0
 10
9.4306315456
 20
8.4608052549
 30
0.0
 10
9.4522378116
 20
8.4569385352
 30
0.0
 10
9.4679038025
 20
8.4529325835
 30
0.0
 10
9.482935072
 20
8.4478477782
 30
0.0
 10
9.5016489705
 20
8.4398198352
 30
0.0
 10
9.5147480244
 20
8.4321796219
 30
0.0
 10
9.5227734391
 20
8.4263934419
 30
0.0
  0
SPLINE
  5
2B1
100
AcDbEntity
  8
0
100
AcDbSpline
 62
9
  6
CONTINUOUS
 70
0
 71
3
 72
14
 73
10
 74
0
 42
0.0000001
 43
0.0000001
 44
0.0000000001
 40
0.0
 40
0.0
 40
0.0
 40
0.0
 40
0.1312944193
 40
0.2619410286
 40
0.3913145238
 40
0.5188152353
 40
0.6438958261
 40
0.7660737943
 40
1.0
 40
1.0
 40
1.0
 40
1.0
 10
9.4029834891
 20
8.4445601674
 30
0.0
 10
9.4104388461
 20
8.4445601674
 30
0.0
 10
9.4253181299
 20
8.444038276
 30
0.0
 10
9.4474322543
 20
8.4416953587
 30
0.0
 10
9.4691123074
 20
8.437815789
 30
0.0
 10
9.4901434512
 20
8.4324376827
 30
0.0
 10
9.5103244468
 20
8.4256109067
 30
0.0
 10
9.5354491263
 20
8.4148328513
 30
0.0
 10
9.5530355328
 20
8.4045751764
 30
0.0
 10
9.5638103254
 20
8.396806914
 30
0.0
  0
SPLINE
  5
2B2
100
AcDbEntity
  8
0
100
AcDbSpline
 62
9
  6
CONTINUOUS
 70
0
 71
3
 72
13
 73
9
 74
0
 42
0.0000001
 43
0.0000001
 44
0.0000000001
 40
0.0
 40
0.0
 40
0.0
 40
0.0
 40
0.2618206985
 40
0.391214951
 40
0.5187366308
 40
0.6438376519
 40
0.7660355944
 40
1.0
 40
1.0
 40
1.0
 40
1.0
 10
9.4029834891
 20
8.4619618817
 30
0.0
 10
9.3919117192
 20
8.4619618817
 30
0.0
 10
9.3753354327
 20
8.4608052549
 30
0.0
 10
9.3537291667
 20
8.4569385352
 30
0.0
 10
9.3380631757
 20
8.4529325835
 30
0.0
 10
9.3230319063
 20
8.4478477782
 30
0.0
 10
9.3043180078
 20
8.4398198352
 30
0.0
 10
9.2912189539
 20
8.4321796219
 30
0.0
 10
9.2831935391
 20
8.4263934419
 30
0.0
  0
SPLINE
  5
2B3
100
AcDbEntity
  8
0
100
AcDbSpline
 62
9
  6
CONTINUOUS
 70
0
 71
3
 72
14
 73
10
 74
0
 42
0.0000001
 43
0.0000001
 44
0.0000000001
 40
0.0
 40
0.0
 40
0.0
 40
0.0
 40
0.1312944193
 40
0.2619410286
 40
0.3913145238
 40
0.5188152353
 40
0.6438958261
 40
0.7660737943
 40
1.0
 40
1.0
 40
1.0
 40
1.0
 10
9.4029834891
 20
8.4445601674
 30
0.0
 10
9.3955281321
 20
8.4445601674
 30
0.0
 10
9.3806488483
 20
8.444038276
 30
0.0
 10
9.358534724
 20
8.4416953587
 30
0.0
 10
9.3368546709
 20
8.437815789
 30
0.0
 10
9.3158235271
 20
8.4324376827
 30
0.0
 10
9.2956425315
 20
8.4256109067
 30
0.0
 10
9.270517852
 20
8.4148328513
 30
0.0
 10
9.2529314454
 20
8.4045751764
 30
0.0
 10
9.2421566529
 20
8.396806914
 30
0.0
  0
SPLINE
  5
2B4
100
AcDbEntity
  8
0
100
AcDbSpline
 62
9
  6
CONTINUOUS
 70
0
 71
3
 72
21
 73
17
 74
0
 42
0.0000001
 43
0.0000001
 44
0.0000000001
 40
0.0
 40
0.0
 40
0.0
 40
0.0
 40
0.1169634429
 40
0.1780524868
 40
0.2405927485
 40
0.3043431082
 40
0.3690294683
 40
0.4343532816
 40
0.4999998427
 40
0.5656464095
 40
0.6309702397
 40
0.6956566273
 40
0.7594070247
 40
0.8219473331
 40
0.8830364314
 40
1.0
 40
1.0
 40
1.0
 40
1.0
 10
9.2831960459
 20
9.5933883589
 30
0.0
 10
9.2912213916
 20
9.5876024759
 30
0.0
 10
9.3043202809
 20
9.5799626535
 30
0.0
 10
9.3230337144
 20
9.5719351367
 30
0.0
 10
9.3380649287
 20
9.5668505558
 30
0.0
 10
9.3537293544
 20
9.5628449675
 30
0.0
 10
9.3698768988
 20
9.5599554304
 30
0.0
 10
9.3863485453
 20
9.558210464
 30
0.0
 10
9.4029831982
 20
9.5576268888
 30
0.0
 10
9.4196178539
 20
9.5582104232
 30
0.0
 10
9.4360895089
 20
9.5599553493
 30
0.0
 10
9.4522370675
 20
9.5628448469
 30
0.0
 10
9.4679015127
 20
9.5668503968
 30
0.0
 10
9.4829327518
 20
9.5719349408
 30
0.0
 10
9.5016462257
 20
9.5799624123
 30
0.0
 10
9.5147451511
 20
9.5876022021
 30
0.0
 10
9.5227705246
 20
9.5933880649
 30
0.0
  0
SPLINE
  5
2B5
100
AcDbEntity
  8
0
100
AcDbSpline
 62
7
  6
CONTINUOUS
 70
0
 71
3
 72
24
 73
20
 74
0
 42
0.0000001
 43
0.0000001
 44
0.0000000001
 40
0.0
 40
0.0
 40
0.0
 40
0.0
 40
0.1432506358
 40
0.2141618914
 40
0.284189012
 40
0.353067421
 40
0.4205594333
 40
0.4864608649
 40
0.5506082536
 40
0.6128864033
 40
0.6732356342
 40
0.7316589197
 40
0.7882280098
 40
0.8430877004
 40
0.8964571949
 40
0.92268355
 40
0.9486516833
 40
0.9744075749
 40
1.0
 40
1.0
 40
1.0
 40
1.0
 10
9.4029834891
 20
8.4948287827
 30
0.0
 10
9.4145538305
 20
8.4948287827
 30
0.0
 10
9.4318809363
 20
8.4937071655
 30
0.0
 10
9.4545386703
 20
8.4899591595
 30
0.0
 10
9.4710476046
 20
8.4860686219
 30
0.0
 10
9.4869819876
 20
8.4811226082
 30
0.0
 10
9.5022093301
 20
8.4751621637
 30
0.0
 10
9.516601
 20
8.4682368648
 30
0.0
 10
9.5300358837
 20
8.4604041153
 30
0.0
 10
9.5424005867
 20
8.451728667
 30
0.0
 10
9.5535904416
 20
8.4422820206
 30
0.0
 10
9.5635100661
 20
8.4321420527
 30
0.0
 10
9.57207412
 20
8.4213919263
 30
0.0
 10
9.5792072329
 20
8.4101220005
 30
0.0
 10
9.5839346084
 20
8.4003140054
 30
0.0
 10
9.5869224403
 20
8.3923234314
 30
0.0
 10
9.5887602798
 20
8.3862971032
 30
0.0
 10
9.5902036534
 20
8.3802173055
 30
0.0
 10
9.5909024875
 20
8.3761257687
 30
0.0
 10
9.5911844432
 20
8.3740779907
 30
0.0
  0
SPLINE
  5
2B6
100
AcDbEntity
  8
0
100
AcDbSpline
 62
7
  6
CONTINUOUS
 70
0
 71
3
 72
9
 73
5
 74
0
 42
0.0000001
 43
0.0000001
 44
0.0000000001
 40
0.0
 40
0.0
 40
0.0
 40
0.0
 40
0.4938824915
 40
1.0
 40
1.0
 40
1.0
 40
1.0
 10
9.2012895786
 20
9.3769992645
 30
0.0
 10
9.2025187039
 20
9.3817798072
 30
0.0
 10
9.2056796321
 20
9.3912971852
 30
0.0
 10
9.2100583868
 20
9.4003147302
 30
0.0
 10
9.212541435
 20
9.4047216479
 30
0.0
  0
SPLINE
  5
2B7
100
AcDbEntity
  8
0
100
AcDbSpline
 62
7
  6
CONTINUOUS
 70
0
 71
3
 72
9
 73
5
 74
0
 42
0.0000001
 43
0.0000001
 44
0.0000000001
 40
0.0
 40
0.0
 40
0.0
 40
0.0
 40
0.5061224834
 40
1.0
 40
1.0
 40
1.0
 40
1.0
 10
9.5934157974
 20
9.4047389415
 30
0.0
 10
9.595901214
 20
9.4003294681
 30
0.0
 10
9.600284012
 20
9.3913064899
 30
0.0
 10
9.6034474708
 20
9.3817829299
 30
0.0
 10
9.6046773959
 20
9.3769992794
 30
0.0
  0
SPLINE
  5
2B8
100
AcDbEntity
  8
0
100
AcDbSpline
 62
7
  6
CONTINUOUS
 70
0
 71
3
 72
24
 73
20
 74
0
 42
0.0000001
 43
0.0000001
 44
0.0000000001
 40
0.0
 40
0.0
 40
0.0
 40
0.0
 40
0.1432420614
 40
0.2141495462
 40
0.2841735312
 40
0.3530496022
 40
0.4205402057
 40
0.4864412379
 40
0.5505892598
 40
0.612869028
 40
0.673220737
 40
0.7316471458
 40
0.7882196987
 40
0.8430827962
 40
0.8964551694
 40
0.9226825913
 40
0.9486514609
 40
0.9744076936
 40
1.0
 40
1.0
 40
1.0
 40
1.0
 10
9.4029834891
 20
8.4948287827
 30
0.0
 10
9.3914170288
 20
8.4948287827
 30
0.0
 10
9.3740957171
 20
8.4937079148
 30
0.0
 10
9.3514452594
 20
8.4899624182
 30
0.0
 10
9.3349412988
 20
8.4860744561
 30
0.0
 10
9.3190113193
 20
8.481131679
 30
0.0
 10
9.3037876849
 20
8.4751750785
 30
0.0
 10
9.2893989099
 20
8.4682541664
 30
0.0
 10
9.2759660023
 20
8.460426273
 30
0.0
 10
9.2636022629
 20
8.4517560674
 30
0.0
 10
9.2524122789
 20
8.4423149608
 30
0.0
 10
9.2424913667
 20
8.4321807334
 30
0.0
 10
9.2339248147
 20
8.4214364458
 30
0.0
 10
9.2267879574
 20
8.4101723461
 30
0.0
 10
9.2220563621
 20
8.400369092
 30
0.0
 10
9.2190645188
 20
8.3923821308
 30
0.0
 10
9.2172233914
 20
8.3863584453
 30
0.0
 10
9.2157764265
 20
8.3802811959
 30
0.0
 10
9.2150749849
 20
8.3761912507
 30
0.0
 10
9.2147916809
 20
8.3741442436
 30
0.0
  0
SPLINE
  5
2B9
100
AcDbEntity
  8
0
100
AcDbSpline
 62
9
  6
CONTINUOUS
 70
0
 71
3
 72
22
 73
18
 74
0
 42
0.0000001
 43
0.0000001
 44
0.0000000001
 40
0.0
 40
0.0
 40
0.0
 40
0.0
 40
0.1418937636
 40
0.2122046088
 40
0.2817271307
 40
0.3502214628
 40
0.4174704365
 40
0.4832830953
 40
0.5475010396
 40
0.6100040891
 40
0.6707163352
 40
0.7296119219
 40
0.786720374
 40
0.842130964
 40
0.8959953586
 40
0.948527542
 40
1.0
 40
1.0
 40
1.0
 40
1.0
 10
9.4029834891
 20
8.4890325143
 30
0.0
 10
9.4134764138
 20
8.4890325143
 30
0.0
 10
9.4291925103
 20
8.4880678616
 30
0.0
 10
9.449784804
 20
8.484845096
 30
0.0
 10
9.4648338438
 20
8.4814959374
 30
0.0
 10
9.4794136887
 20
8.4772332694
 30
0.0
 10
9.4934153464
 20
8.4720889862
 30
0.0
 10
9.5067325454
 20
8.4661015915
 30
0.0
 10
9.5192645911
 20
8.4593158067
 30
0.0
 10
9.5309165169
 20
8.4517821854
 30
0.0
 10
9.5415998622
 20
8.4435567224
 30
0.0
 10
9.5512331747
 20
8.4347004581
 30
0.0
 10
9.5597425008
 20
8.4252790213
 30
0.0
 10
9.5670617299
 20
8.4153625806
 30
0.0
 10
9.5731332343
 20
8.4050246135
 30
0.0
 10
9.5779075644
 20
8.3943452794
 30
0.0
 10
9.5802192698
 20
8.3869876109
 30
0.0
 10
9.5811386953
 20
8.3832939787
 30
0.0
  0
SPLINE
  5
2BA
100
AcDbEntity
  8
0
100
AcDbSpline
 62
9
  6
CONTINUOUS
 70
0
 71
3
 72
22
 73
18
 74
0
 42
0.0000001
 43
0.0000001
 44
0.0000000001
 40
0.0
 40
0.0
 40
0.0
 40
0.0
 40
0.141885908
 40
0.2121932496
 40
0.2817127929
 40
0.3502048092
 40
0.4174522456
 40
0.4832642242
 40
0.5474823813
 40
0.6099865219
 40
0.6707006635
 40
0.729598811
 40
0.78671028
 40
0.8421240623
 40
0.8959914767
 40
0.9485261054
 40
1.0
 40
1.0
 40
1.0
 40
1.0
 10
9.4029834891
 20
8.4890325143
 30
0.0
 10
9.3924938132
 20
8.4890325143
 30
0.0
 10
9.3767825692
 20
8.4880684567
 30
0.0
 10
9.3561964077
 20
8.4848476831
 30
0.0
 10
9.3411516027
 20
8.4815005738
 30
0.0
 10
9.326575562
 20
8.4772404871
 30
0.0
 10
9.3125771823
 20
8.4720992788
 30
0.0
 10
9.2992626445
 20
8.4661154059
 30
0.0
 10
9.2867325604
 20
8.4593335365
 30
0.0
 10
9.275081823
 20
8.4518041646
 30
0.0
 10
9.2643988279
 20
8.4435832197
 30
0.0
 10
9.2547649728
 20
8.4347316719
 30
0.0
 10
9.246254167
 20
8.425315075
 30
0.0
 10
9.2389324874
 20
8.4154035183
 30
0.0
 10
9.2328575391
 20
8.4050703962
 30
0.0
 10
9.2280787634
 20
8.3943957769
 30
0.0
 10
9.2257633688
 20
8.387041044
 30
0.0
 10
9.2248419459
 20
8.3833487975
 30
0.0
  0
SPLINE
  5
2BB
100
AcDbEntity
  8
0
100
AcDbSpline
 62
7
  6
CONTINUOUS
 70
0
 71
3
 72
9
 73
5
 74
0
 42
0.0000001
 43
0.0000001
 44
0.0000000001
 40
0.0
 40
0.0
 40
0.0
 40
0.0
 40
0.4938808088
 40
1.0
 40
1.0
 40
1.0
 40
1.0
 10
9.2012895755
 20
8.6427843555
 30
0.0
 10
9.2025189721
 20
8.6380027556
 30
0.0
 10
9.2056807593
 20
8.6284832747
 30
0.0
 10
9.2100608876
 20
8.6194638811
 30
0.0
 10
9.2125447406
 20
8.6150560939
 30
0.0
  0
SPLINE
  5
2BC
100
AcDbEntity
  8
0
100
AcDbSpline
 62
7
  6
CONTINUOUS
 70
0
 71
3
 72
9
 73
5
 74
0
 42
0.0000001
 43
0.0000001
 44
0.0000000001
 40
0.0
 40
0.0
 40
0.0
 40
0.0
 40
0.5061206685
 40
1.0
 40
1.0
 40
1.0
 40
1.0
 10
9.5934193374
 20
8.6150509473
 30
0.0
 10
9.5959038933
 20
8.619459492
 30
0.0
 10
9.6002852222
 20
8.6284804957
 30
0.0
 10
9.6034477616
 20
8.6380018092
 30
0.0
 10
9.6046773963
 20
8.6427843303
 30
0.0
  0
ELLIPSE
  5
2BD
100
AcDbEntity
  8
0
100
AcDbEllipse
 62
7
  6
CONTINUOUS
 10
10.4544847187
 20
9.009891804
 30
0.0
 11
0.0
 21
1.1875
 31
0.0
 40
0.9750549296
 41
-2.0943951024
 42
-1.0471975512
  0
ELLIPSE
  5
2BE
100
AcDbEntity
  8
0
100
AcDbEllipse
 62
7
  6
CONTINUOUS
 10
10.4544847187
 20
9.009891804
 30
0.0
 11
1.1162095399
 21
1.1492470711
 31
0.0
 40
0.2678505055
 41
-0.7926884546
 42
0.2545090966
  0
ELLIPSE
  5
2BF
100
AcDbEntity
  8
0
100
AcDbEllipse
 62
7
  6
CONTINUOUS
 10
10.4544847187
 20
9.009891804
 30
0.0
 11
1.1162095399
 21
-1.1492470711
 31
0.0
 40
0.2678505055
 41
-0.2545090966
 42
0.7926884546
  0
ENDSEC
  0
SECTION
  2
OBJECTS
  0
DICTIONARY
  5
C
100
AcDbDictionary
280
0
281
1
  3
ACAD_GROUP
350
D
  3
ACAD_MLINESTYLE
350
17
  3
ACAD_LAYOUT
350
1A
  3
ACAD_PLOTSETTINGS
350
19
  3
ACAD_PLOTSTYLENAME
350
E
  0
DICTIONARY
  5
D
102
{ACAD_REACTORS
330
C
102
}
100
AcDbDictionary
280
0
281
1
  0
ACDBDICTIONARYWDFLT
  5
E
102
{ACAD_REACTORS
330
C
102
}
100
AcDbDictionary
281
1
  3
Normal
350
F
100
AcDbDictionaryWithDefault
340
F
  0
DICTIONARY
  5
17
102
{ACAD_REACTORS
330
C
102
}
100
AcDbDictionary
280
0
281
1
  3
Standard
350
18
  0
DICTIONARY
  5
19
102
{ACAD_REACTORS
330
C
102
}
100
AcDbDictionary
281
1
  0
DICTIONARY
  5
1A
102
{ACAD_REACTORS
330
C
102
}
100
AcDbDictionary
281
1
  3
Model
350
2C0
  3
Layout1
350
2C1
  0
ACDBPLACEHOLDER
  5
F
102
{ACAD_REACTORS
330
E
102
}
  0
MLINESTYLE
  5
18
102
{ACAD_REACTORS
330
17
102
}
100
AcDbMlineStyle
  2
STANDARD
 70
0
  3

 62
256
 51
90.0
 52
90.0
 71
2
 49
0.5
 62
256
  6
BYLAYER
 49
-0.5
 62
256
  6
BYLAYER
  0
LAYOUT
  5
2C0
102
{ACAD_REACTORS
330
1A
102
}
100
AcDbPlotSettings
  1

  2
none_device
  4
ANSI_C_(22.00_x_17.00_Inches)
  6

 40
0.0
 41
0.0
 42
0.0
 43
0.0
 44
558.8
 45
431.8
 46
0.0
 47
0.0
 48
0.0
 49
0.0
140
0.0
141
0.0
142
1.0
143
1.0
 70
1024
 72
0
 73
0
 74
0
  7

 75
0
147
1.0
148
0.0
149
0.0
100
AcDbLayout
  1
Model
 70
0
 71
0
 10
0.0
 20
0.0
 11
22.0
 21
17.0
 12
0.0
 22
0.0
 32
0.0
 14
0.0
 24
0.0
 34
0.0
 15
0.0
 25
0.0
 35
0.0
146
0.0
 13
0.0
 23
0.0
 33
0.0
 16
1.0
 26
0.0
 36
0.0
 17
0.0
 27
1.0
 37
0.0
 76
0
330
205
345
0
346
0
  0
LAYOUT
  5
2C1
102
{ACAD_REACTORS
330
1A
102
}
100
AcDbPlotSettings
  1

  2
none_device
  4
ANSI_C_(22.00_x_17.00_Inches)
  6

 40
0.0
 41
0.0
 42
0.0
 43
0.0
 44
558.8
 45
431.8
 46
0.0
 47
0.0
 48
0.0
 49
0.0
140
0.0
141
0.0
142
1.0
143
1.0
 70
0
 72
0
 73
0
 74
0
  7

 75
0
147
1.0
148
0.0
149
0.0
100
AcDbLayout
  1
Layout1
 70
0
 71
1
 10
0.0
 20
0.0
 11
22.0
 21
17.0
 12
0.0
 22
0.0
 32
0.0
 14
0.0
 24
0.0
 34
0.0
 15
0.0
 25
0.0
 35
0.0
146
0.0
 13
0.0
 23
0.0
 33
0.0
 16
1.0
 26
0.0
 36
0.0
 17
0.0
 27
1.0
 37
0.0
 76
0
330
206
345
0
346
0
  0
ENDSEC
  0
EOF
