999
DXF file: E:\BT Custom\CADOUTPUT\_FRONT.dxf
999
Pro/ENGINEER 2018400 by Parametric Technology Corporation
  0
SECTION
  2
HEADER
  9
$ACADVER
  1
AC1018
  9
$DWGCODEPAGE
  3
ANSI_1252
  9
$EXTMAX
 10
22.0
 20
17.0
 30
0.0
  9
$EXTMIN
 10
0.0
 20
0.0
 30
0.0
  9
$LIMMIN
 10
0.0
 20
0.0
  9
$LIMMAX
 10
22.0
 20
17.0
  9
$VIEWCTR
 10
11.0
 20
8.5
  9
$VIEWSIZE
 40
17.0
  9
$CLAYER
  8
0
  9
$LTSCALE
 40
1.21
  9
$CELTYPE
  6
BYLAYER
  9
$DIMSCALE
 40
1.0
  9
$DIMASZ
 40
0.1
  9
$DIMEXO
 40
0.0625
  9
$DIMDLI
 40
0.836
  9
$DIMEXE
 40
0.125
  9
$DIMCEN
 40
0.198
  9
$DIMLFAC
 40
1.0
  9
$DIMBLK
  1
_FILLED
  9
$DIMALT
 70
1
  9
$DIMALTD
 70
2
  9
$DIMALTTD
 70
2
  9
$DIMALTF
 40
25.4
  9
$DIMTXT
 40
0.08
  9
$DIMTOL
 70
1
  9
$DIMLIM
 70
0
  9
$DIMTFAC
 40
1.0
  9
$DIMTP
 40
0.001
  9
$DIMTM
 40
0.001
  9
$DIMGAP
 40
0.09
  9
$DIMDSEP
 70
46
  9
$AUNITS
 70
0
  9
$PDMODE
 70
3
  9
$PDSIZE
 40
0.06
  9
$HANDSEED
  5
518
  9
$TILEMODE
 70
1
  9
$MEASUREMENT
 70
0
  9
$INSUNITS
 70
1
  0
ENDSEC
  0
SECTION
  2
CLASSES
  0
CLASS
  1
ACDBDICTIONARYWDFLT
  2
AcDbDictionaryWithDefault
  3
AutoCAD 2000
 90
0
 91
1
280
0
281
0
  0
CLASS
  1
ACDBPLACEHOLDER
  2
AcDbPlaceHolder
  3
AutoCAD 2000
 90
0
 91
1
280
0
281
0
  0
CLASS
  1
LAYOUT
  2
AcDbLayout
  3
AutoCAD 2000
 90
0
 91
0
280
0
281
0
  0
ENDSEC
  0
SECTION
  2
TABLES
  0
TABLE
  2
VPORT
  5
8
100
AcDbSymbolTable
 70
2
  0
VPORT
  5
1F4
100
AcDbSymbolTableRecord
100
AcDbViewportTableRecord
  2
*ACTIVE
 70
0
 10
0.0
 20
0.0
 11
1.0
 21
1.0
 12
11.0
 22
8.5
 13
0.0
 23
0.0
 14
1.0
 24
1.0
 15
0.0
 25
0.0
 16
0.0
 26
0.0
 36
1.0
 17
0.0
 27
0.0
 37
0.0
 40
17.0
 41
1.2941176471
 42
50.0
 43
0.0
 44
0.0
 50
0.0
 51
0.0
 71
0
 72
100
 73
1
 74
1
 75
0
 76
0
 77
0
 78
0
  0
ENDTAB
  0
TABLE
  2
LTYPE
  5
5
100
AcDbSymbolTable
 70
6
  0
LTYPE
  5
14
100
AcDbSymbolTableRecord
100
AcDbLinetypeTableRecord
  2
BYBLOCK
 70
0
  3

 72
65
 73
0
 40
0.0
  0
LTYPE
  5
15
100
AcDbSymbolTableRecord
100
AcDbLinetypeTableRecord
  2
BYLAYER
 70
0
  3

 72
65
 73
0
 40
0.0
  0
LTYPE
  5
16
100
AcDbSymbolTableRecord
100
AcDbLinetypeTableRecord
  2
CONTINUOUS
 70
64
  3
Solid line
 72
65
 73
0
 40
0.0
  0
LTYPE
  5
1F5
100
AcDbSymbolTableRecord
100
AcDbLinetypeTableRecord
  2
CENTER
 70
64
  3
____ _ ____ _ ____ _ ____ _ ____ _ ____ _ ____
 72
65
 73
4
 40
0.6
 49
0.375
 74
0
 49
-0.075
 74
0
 49
0.075
 74
0
 49
-0.075
 74
0
  0
LTYPE
  5
1F6
100
AcDbSymbolTableRecord
100
AcDbLinetypeTableRecord
  2
HIDDEN
 70
64
  3
- - - - - - - - - - - - - - - - - - - -
 72
65
 73
2
 40
0.2
 49
0.1
 74
0
 49
-0.1
 74
0
  0
LTYPE
  5
1F7
100
AcDbSymbolTableRecord
100
AcDbLinetypeTableRecord
  2
PHANTOM
 70
64
  3
_____ _ _ _____ _ _ _____ _ _ _____
 72
65
 73
6
 40
0.8
 49
0.45
 74
0
 49
-0.05
 74
0
 49
0.1
 74
0
 49
-0.05
 74
0
 49
0.1
 74
0
 49
-0.05
 74
0
  0
LTYPE
  5
1F8
100
AcDbSymbolTableRecord
100
AcDbLinetypeTableRecord
  2
DOT
 70
64
  3
. . . . . . . . . . . . . . . . . . . .
 72
65
 73
2
 40
0.2
 49
0.1
 74
0
 49
-0.1
 74
0
  0
LTYPE
  5
1F9
100
AcDbSymbolTableRecord
100
AcDbLinetypeTableRecord
  2
DASHED
 70
64
  3
- - - - - - - - - - - - - - - - - - - -
 72
65
 73
2
 40
0.2
 49
0.1
 74
0
 49
-0.1
 74
0
  0
ENDTAB
  0
TABLE
  2
LAYER
  5
2
100
AcDbSymbolTable
 70
36
  0
LAYER
  5
10
100
AcDbSymbolTableRecord
100
AcDbLayerTableRecord
  2
0
 70
0
 62
7
  6
CONTINUOUS
370
-3
390
F
  0
LAYER
  5
1FA
100
AcDbSymbolTableRecord
100
AcDbLayerTableRecord
  2
DEFAULT_1
 70
0
 62
7
  6
CENTER
370
-3
390
F
  0
LAYER
  5
1FB
100
AcDbSymbolTableRecord
100
AcDbLayerTableRecord
  2
DEFAULT_2
 70
0
 62
8
  6
HIDDEN
370
-3
390
F
  0
LAYER
  5
1FC
100
AcDbSymbolTableRecord
100
AcDbLayerTableRecord
  2
DEFAULT_3
 70
0
 62
7
  6
PHANTOM
370
-3
390
F
  0
LAYER
  5
1FD
100
AcDbSymbolTableRecord
100
AcDbLayerTableRecord
  2
ALL_FEATURES
 70
0
 62
7
  6
CONTINUOUS
370
-3
390
F
  0
LAYER
  5
1FE
100
AcDbSymbolTableRecord
100
AcDbLayerTableRecord
  2
AXES_FEATURES
 70
0
 62
7
  6
CONTINUOUS
370
-3
390
F
  0
LAYER
  5
1FF
100
AcDbSymbolTableRecord
100
AcDbLayerTableRecord
  2
DEFAULT_COORDINATE_SYSTEM
 70
0
 62
7
  6
CONTINUOUS
370
-3
390
F
  0
LAYER
  5
200
100
AcDbSymbolTableRecord
100
AcDbLayerTableRecord
  2
DEFAULT_DATUM_AXES
 70
0
 62
7
  6
CONTINUOUS
370
-3
390
F
  0
LAYER
  5
201
100
AcDbSymbolTableRecord
100
AcDbLayerTableRecord
  2
DEFAULT_DATUM_PLANES
 70
0
 62
7
  6
CONTINUOUS
370
-3
390
F
  0
LAYER
  5
202
100
AcDbSymbolTableRecord
100
AcDbLayerTableRecord
  2
DIMENSIONS
 70
0
 62
7
  6
CONTINUOUS
370
-3
390
F
  0
ENDTAB
  0
TABLE
  2
STYLE
  5
3
100
AcDbSymbolTable
 70
1
  0
STYLE
  5
11
100
AcDbSymbolTableRecord
100
AcDbTextStyleTableRecord
  2
STANDARD
 70
0
 40
0.0
 41
0.8
 50
0.0
 71
0
 42
0.2
  3
txt
  4

  0
STYLE
  5
203
100
AcDbSymbolTableRecord
100
AcDbTextStyleTableRecord
  2
TEXTSTYLE_1
 70
0
 40
0.0
 41
0.8
 50
0.0
 71
0
 42
0.2
  3
gdt
  4

  0
ENDTAB
  0
TABLE
  2
VIEW
  5
6
100
AcDbSymbolTable
 70
0
  0
ENDTAB
  0
TABLE
  2
UCS
  5
7
100
AcDbSymbolTable
 70
0
  0
ENDTAB
  0
TABLE
  2
APPID
  5
9
100
AcDbSymbolTable
 70
1
  0
APPID
  5
204
100
AcDbSymbolTableRecord
100
AcDbRegAppTableRecord
  2
ACAD
 70
0
  0
ENDTAB
  0
TABLE
  2
BLOCK_RECORD
  5
1
100
AcDbSymbolTable
 70
0
  0
BLOCK_RECORD
  5
205
100
AcDbSymbolTableRecord
100
AcDbBlockTableRecord
  2
*Model_Space
  0
BLOCK_RECORD
  5
206
100
AcDbSymbolTableRecord
100
AcDbBlockTableRecord
  2
*Paper_Space
  0
BLOCK_RECORD
  5
207
100
AcDbSymbolTableRecord
100
AcDbBlockTableRecord
  2
_FILLED
  0
ENDTAB
  0
TABLE
  2
DIMSTYLE
  5
A
100
AcDbSymbolTable
 70
1
100
AcDbDimStyleTable
 71
0
  0
DIMSTYLE
105
208
100
AcDbSymbolTableRecord
100
AcDbDimStyleTableRecord
  2
STANDARD
 70
0
  3

  4

 40
1.0
 41
0.1
 42
0.0625
 43
0.38
 44
0.125
 45
0.0
 46
0.0
 47
0.001
 48
0.001
140
0.08
141
0.09
142
0.0
143
25.4
144
1.0
145
0.0
146
1.0
147
0.09
 71
1.0
 72
0.0
 73
1
 74
1
 75
0
 76
0
 77
0
 78
4
 79
1
170
1
171
2
172
0
173
0
174
0
175
0
176
0
177
0
178
0
270
2
179
3
271
3
272
3
273
2
274
2
275
0
280
0
281
0
282
0
283
1
284
4
285
0
286
0
287
3
288
0
340
11
278
46
341
207
342
207
343
207
344
207
  0
ENDTAB
  0
ENDSEC
  0
SECTION
  2
BLOCKS
  0
BLOCK
  5
20
100
AcDbEntity
  8
0
100
AcDbBlockBegin
  2
*Model_Space
 70
0
 10
0.0
 20
0.0
 30
0.0
  3
*Model_Space
  1

  0
ENDBLK
  5
21
100
AcDbEntity
  8
0
100
AcDbBlockEnd
  0
BLOCK
  5
1C
100
AcDbEntity
  8
0
100
AcDbBlockBegin
  2
*Paper_Space
 70
0
 10
0.0
 20
0.0
 30
0.0
  3
*Paper_Space
  1

  0
ENDBLK
  5
1D
100
AcDbEntity
  8
0
100
AcDbBlockEnd
  0
BLOCK
  5
209
100
AcDbEntity
  8
0
100
AcDbBlockBegin
  2
_FILLED
 70
64
 10
0.0
 20
0.0
  3
_FILLED
  1

  0
SOLID
  5
20A
100
AcDbEntity
  8
0
  6
BYBLOCK
 62
0
100
AcDbTrace
 10
0.0
 20
0.0
 11
-1.0
 21
0.2
 12
-1.0
 22
-0.2
 13
-1.0
 23
-0.2
  0
ENDBLK
  5
20B
100
AcDbEntity
  8
0
  6
BYBLOCK
 62
0
100
AcDbBlockEnd
  0
ENDSEC
  0
SECTION
  2
ENTITIES
  0
LINE
  5
20C
100
AcDbEntity
  8
0
100
AcDbLine
 62
7
  6
CONTINUOUS
 10
10.8929951596
 20
15.1091588678
 11
10.9092486885
 21
15.1139461013
  0
LINE
  5
20D
100
AcDbEntity
  8
0
100
AcDbLine
 62
7
  6
CONTINUOUS
 10
10.8889317716
 20
15.1378822687
 11
10.872678266
 21
15.1283078017
  0
LINE
  5
20E
100
AcDbEntity
  8
0
100
AcDbLine
 62
7
  6
CONTINUOUS
 10
10.9580092519
 20
14.9511801398
 11
10.941755723
 21
14.9463929063
  0
LINE
  5
20F
100
AcDbEntity
  8
0
100
AcDbLine
 62
7
  6
CONTINUOUS
 10
11.6105991475
 20
4.1789032579
 11
10.2647855111
 21
4.1789032579
  0
LINE
  5
210
100
AcDbEntity
  8
0
100
AcDbLine
 62
7
  6
CONTINUOUS
 10
10.8808050188
 20
15.0995844009
 11
10.8929951596
 21
15.1091588678
  0
LINE
  5
211
100
AcDbEntity
  8
0
100
AcDbLine
 62
7
  6
CONTINUOUS
 10
10.9620726167
 20
14.922456736
 11
10.9783261456
 21
14.9320312042
  0
LINE
  5
212
100
AcDbEntity
  8
0
100
AcDbLine
 62
7
  6
CONTINUOUS
 10
10.9701993927
 20
14.9607546101
 11
10.9580092519
 21
14.9511801398
  0
LINE
  5
213
100
AcDbEntity
  8
0
100
AcDbLine
 62
7
  6
CONTINUOUS
 10
9.7264897107
 20
13.1391811266
 11
9.7448608837
 21
13.1497877283
  0
LINE
  5
214
100
AcDbEntity
  8
0
100
AcDbLine
 62
7
  6
CONTINUOUS
 10
11.2573105689
 20
14.0230009612
 11
11.275681742
 21
14.0336075629
  0
LINE
  5
215
100
AcDbEntity
  8
0
100
AcDbLine
 62
7
  6
CONTINUOUS
 10
9.7380118927
 20
13.1812632473
 11
9.7567420396
 21
13.1912222431
  0
LINE
  5
216
100
AcDbEntity
  8
0
100
AcDbLine
 62
7
  6
CONTINUOUS
 10
11.2987450837
 20
14.0111198052
 11
11.3174752306
 21
14.021078801
  0
LINE
  5
217
100
AcDbEntity
  8
0
100
AcDbLine
 62
7
  6
CONTINUOUS
 10
9.7509957007
 20
13.2229176144
 11
9.7700620016
 21
13.2322168707
  0
LINE
  5
218
100
AcDbEntity
  8
0
100
AcDbLine
 62
7
  6
CONTINUOUS
 10
11.3397397113
 20
13.9977998433
 11
11.3588060123
 21
14.0070990996
  0
LINE
  5
219
100
AcDbEntity
  8
0
100
AcDbLine
 62
7
  6
CONTINUOUS
 10
9.7654253156
 20
13.2640934784
 11
9.7848045413
 21
13.2727216656
  0
LINE
  5
21A
100
AcDbEntity
  8
0
100
AcDbLine
 62
7
  6
CONTINUOUS
 10
11.3802445061
 20
13.9830573036
 11
11.3996237318
 21
13.9916854908
  0
LINE
  5
21B
100
AcDbEntity
  8
0
100
AcDbLine
 62
7
  6
CONTINUOUS
 10
9.7812831574
 20
13.3047406729
 11
9.8009516971
 21
13.3126872788
  0
LINE
  5
21C
100
AcDbEntity
  8
0
100
AcDbLine
 62
7
  6
CONTINUOUS
 10
11.4202101194
 20
13.9669101477
 11
11.4398786591
 21
13.9748567536
  0
LINE
  5
21D
100
AcDbEntity
  8
0
100
AcDbLine
 62
7
  6
CONTINUOUS
 10
9.7985499057
 20
13.3448096755
 11
9.8184837964
 21
13.3520650184
  0
LINE
  5
21E
100
AcDbEntity
  8
0
100
AcDbLine
 62
7
  6
CONTINUOUS
 10
11.459587859
 20
13.9493780485
 11
11.4795217497
 21
13.9566333914
  0
LINE
  5
21F
100
AcDbEntity
  8
0
100
AcDbLine
 62
7
  6
CONTINUOUS
 10
12.5691777796
 20
14.3517120528
 11
12.5555758379
 21
14.3469248193
  0
LINE
  5
220
100
AcDbEntity
  8
0
100
AcDbLine
 62
7
  6
CONTINUOUS
 10
9.8172045235
 20
13.3842516683
 11
9.8373794788
 21
13.3908069087
  0
LINE
  5
221
100
AcDbEntity
  8
0
100
AcDbLine
 62
7
  6
CONTINUOUS
 10
11.4983297493
 20
13.930482366
 11
11.5185047047
 21
13.9370376064
  0
LINE
  5
222
100
AcDbEntity
  8
0
100
AcDbLine
 62
7
  6
CONTINUOUS
 10
9.8372242831
 20
13.4230185974
 11
9.857615723
 21
13.4288657487
  0
LINE
  5
223
100
AcDbEntity
  8
0
100
AcDbLine
 62
7
  6
CONTINUOUS
 10
11.5363885893
 20
13.9102461219
 11
11.5567800292
 21
13.9160932732
  0
LINE
  5
224
100
AcDbEntity
  8
0
100
AcDbLine
 62
7
  6
CONTINUOUS
 10
10.872678266
 20
15.1283078017
 11
10.8564247371
 21
15.1091588678
  0
LINE
  5
225
100
AcDbEntity
  8
0
100
AcDbLine
 62
7
  6
CONTINUOUS
 10
10.9783261456
 20
14.9320312042
 11
10.9945796744
 21
14.9511801398
  0
LINE
  5
226
100
AcDbEntity
  8
0
100
AcDbLine
 62
7
  6
CONTINUOUS
 10
9.6887102648
 20
12.880605294
 11
9.7044747472
 21
12.8947996977
  0
LINE
  5
227
100
AcDbEntity
  8
0
100
AcDbLine
 62
7
  6
CONTINUOUS
 10
9.6912312947
 20
12.9241634158
 11
9.7074815513
 21
12.9377990001
  0
LINE
  5
228
100
AcDbEntity
  8
0
100
AcDbLine
 62
7
  6
CONTINUOUS
 10
9.6952709454
 20
12.9676070205
 11
9.7119871778
 21
12.9806671726
  0
LINE
  5
229
100
AcDbEntity
  8
0
100
AcDbLine
 62
7
  6
CONTINUOUS
 10
9.7008242952
 20
13.0108831787
 11
9.7179861373
 21
13.0233519869
  0
LINE
  5
22A
100
AcDbEntity
  8
0
100
AcDbLine
 62
7
  6
CONTINUOUS
 10
9.7078845781
 20
13.0539391652
 11
9.7254711208
 21
13.065801438
  0
LINE
  5
22B
100
AcDbEntity
  8
0
100
AcDbLine
 62
7
  6
CONTINUOUS
 10
11.1896271465
 20
14.0533871473
 11
11.1909108213
 21
14.0542529969
  0
LINE
  5
22C
100
AcDbEntity
  8
0
100
AcDbLine
 62
7
  6
CONTINUOUS
 10
9.7164431924
 20
13.0967225228
 11
9.7344330092
 21
13.1079638079
  0
LINE
  5
22D
100
AcDbEntity
  8
0
100
AcDbLine
 62
7
  6
CONTINUOUS
 10
11.2154866485
 20
14.0334288357
 11
11.2334764653
 21
14.0446701208
  0
LINE
  5
22E
100
AcDbEntity
  8
0
100
AcDbLine
 62
7
  6
CONTINUOUS
 10
12.5737117429
 20
14.3277758854
 11
12.5918476998
 21
14.3373503524
  0
LINE
  5
22F
100
AcDbEntity
  8
0
100
AcDbLine
 62
9
  6
CONTINUOUS
 10
11.7750883628
 20
5.7151579131
 11
11.7751923427
 21
5.7151690889
  0
LINE
  5
230
100
AcDbEntity
  8
0
100
AcDbLine
 62
7
  6
CONTINUOUS
 10
10.1620705178
 20
5.7776664505
 11
10.1621434111
 21
5.7776670727
  0
LINE
  5
231
100
AcDbEntity
  8
0
100
AcDbLine
 62
7
  6
CONTINUOUS
 10
11.7126403405
 20
5.7776695021
 11
10.1621434111
 21
5.7776670727
  0
LINE
  5
232
100
AcDbEntity
  8
0
100
AcDbLine
 62
7
  6
CONTINUOUS
 10
11.7127443
 20
5.7776690362
 11
11.7132412743
 21
5.7776670634
  0
LINE
  5
233
100
AcDbEntity
  8
0
100
AcDbLine
 62
7
  6
CONTINUOUS
 10
11.7132412743
 20
5.7776670634
 11
11.7133138094
 21
5.7776664444
  0
LINE
  5
234
100
AcDbEntity
  8
0
100
AcDbLine
 62
9
  6
CONTINUOUS
 10
10.1002963227
 20
5.7151579131
 11
10.1001923427
 21
5.7151690889
  0
LINE
  5
235
100
AcDbEntity
  8
0
100
AcDbLine
 62
7
  6
CONTINUOUS
 10
9.7055173291
 20
12.6198251753
 11
9.7179861373
 21
12.6369870174
  0
LINE
  5
236
100
AcDbEntity
  8
0
100
AcDbLine
 62
7
  6
CONTINUOUS
 10
9.6989270257
 20
12.6629555992
 11
9.7119871778
 21
12.6796718317
  0
LINE
  5
237
100
AcDbEntity
  8
0
100
AcDbLine
 62
7
  6
CONTINUOUS
 10
9.693845967
 20
12.7062897475
 11
9.7074815513
 21
12.7225400041
  0
LINE
  5
238
100
AcDbEntity
  8
0
100
AcDbLine
 62
7
  6
CONTINUOUS
 10
9.6902803435
 20
12.7497748242
 11
9.7044747472
 21
12.7655393066
  0
LINE
  5
239
100
AcDbEntity
  8
0
100
AcDbLine
 62
7
  6
CONTINUOUS
 10
9.6882344994
 20
12.7933578494
 11
9.7029704288
 21
12.808617351
  0
LINE
  5
23A
100
AcDbEntity
  8
0
100
AcDbLine
 62
7
  6
CONTINUOUS
 10
9.6877109272
 20
12.836985724
 11
9.7029704288
 21
12.8517216533
  0
LINE
  5
23B
100
AcDbEntity
  8
0
100
AcDbLine
 62
7
  6
CONTINUOUS
 10
10.4820054902
 20
12.7806405243
 11
9.5404771088
 21
12.3368609148
  0
LWPOLYLINE
  5
23C
100
AcDbEntity
  8
0
100
AcDbPolyline
 62
7
  6
CONTINUOUS
 90
12
 70
0
 10
10.1620705178
 20
5.7776664505
 10
10.1352012769
 20
5.7724991111
 10
10.1132899947
 20
5.7597726243
 10
10.0982535947
 20
5.7446058596
 10
10.0874305764
 20
5.7287440283
 10
10.0787923846
 20
5.7119032577
 10
10.0712866725
 20
5.6934231506
 10
10.0644061675
 20
5.672736588
 10
10.0579083144
 20
5.6494231895
 10
10.0516757969
 20
5.6231664181
 10
10.0456577303
 20
5.593736483
 10
10.0433579232
 20
5.5813240909
  0
LINE
  5
23D
100
AcDbEntity
  8
0
100
AcDbLine
 62
7
  6
CONTINUOUS
 10
9.7467830439
 20
12.4503866143
 11
9.7567420396
 21
12.4691167612
  0
LINE
  5
23E
100
AcDbEntity
  8
0
100
AcDbLine
 62
7
  6
CONTINUOUS
 10
10.5766396018
 20
14.0111198052
 11
10.5865985976
 21
14.0298499521
  0
LINE
  5
23F
100
AcDbEntity
  8
0
100
AcDbLine
 62
7
  6
CONTINUOUS
 10
10.872678266
 20
15.0852226871
 11
10.8808050188
 21
15.0995844009
  0
LINE
  5
240
100
AcDbEntity
  8
0
100
AcDbLine
 62
7
  6
CONTINUOUS
 10
10.9783261456
 20
14.9751163105
 11
10.9701993927
 21
14.9607546101
  0
LINE
  5
241
100
AcDbEntity
  8
0
100
AcDbLine
 62
7
  6
CONTINUOUS
 10
9.734254282
 20
12.4921801029
 11
9.7448608837
 21
12.510551276
  0
LINE
  5
242
100
AcDbEntity
  8
0
100
AcDbLine
 62
7
  6
CONTINUOUS
 10
10.6180741166
 20
14.0230009612
 11
10.6286807183
 21
14.0413721342
  0
LINE
  5
243
100
AcDbEntity
  8
0
100
AcDbLine
 62
7
  6
CONTINUOUS
 10
9.723191724
 20
12.5343853796
 11
9.7344330092
 21
12.5523751964
  0
LINE
  5
244
100
AcDbEntity
  8
0
100
AcDbLine
 62
7
  6
CONTINUOUS
 10
10.6598980369
 20
14.0334288357
 11
10.6711393221
 21
14.0514186525
  0
LINE
  5
245
100
AcDbEntity
  8
0
100
AcDbLine
 62
7
  6
CONTINUOUS
 10
9.713608848
 20
12.5769510236
 11
9.7254711208
 21
12.5945375663
  0
LINE
  5
246
100
AcDbEntity
  8
0
100
AcDbLine
 62
7
  6
CONTINUOUS
 10
10.6669555634
 20
12.4602976005
 11
9.8118669572
 21
11.8667999087
  0
LINE
  5
247
100
AcDbEntity
  8
0
100
AcDbLine
 62
7
  6
CONTINUOUS
 10
10.4157968265
 20
11.7109609558
 11
10.3958629358
 21
11.7037056129
  0
LINE
  5
248
100
AcDbEntity
  8
0
100
AcDbLine
 62
7
  6
CONTINUOUS
 10
10.3770549362
 20
11.7298566382
 11
10.3568799808
 21
11.7233013979
  0
LINE
  5
249
100
AcDbEntity
  8
0
100
AcDbLine
 62
7
  6
CONTINUOUS
 10
10.3389960962
 20
11.7500928824
 11
10.3186046563
 21
11.7442457311
  0
LINE
  5
24A
100
AcDbEntity
  8
0
100
AcDbLine
 62
7
  6
CONTINUOUS
 10
10.3770549362
 20
13.930482366
 11
10.3836101765
 21
13.9506573214
  0
LINE
  5
24B
100
AcDbEntity
  8
0
100
AcDbLine
 62
7
  6
CONTINUOUS
 10
10.4157968265
 20
13.9493780485
 11
10.4230521694
 21
13.9693119392
  0
LINE
  5
24C
100
AcDbEntity
  8
0
100
AcDbLine
 62
7
  6
CONTINUOUS
 10
10.4551745661
 20
13.9669101477
 11
10.463121172
 21
13.9865786875
  0
LINE
  5
24D
100
AcDbEntity
  8
0
100
AcDbLine
 62
7
  6
CONTINUOUS
 10
10.8564247371
 20
15.1091588678
 11
10.8482979843
 21
15.090009934
  0
LINE
  5
24E
100
AcDbEntity
  8
0
100
AcDbLine
 62
7
  6
CONTINUOUS
 10
10.9945796744
 20
14.9511801398
 11
11.0027064272
 21
14.970329077
  0
LINE
  5
24F
100
AcDbEntity
  8
0
100
AcDbLine
 62
7
  6
CONTINUOUS
 10
10.4951401793
 20
13.9830573036
 11
10.5037683665
 21
14.0024365292
  0
LINE
  5
250
100
AcDbEntity
  8
0
100
AcDbLine
 62
7
  6
CONTINUOUS
 10
10.5356449742
 20
13.9977998433
 11
10.5449442305
 21
14.0168661442
  0
LINE
  5
251
100
AcDbEntity
  8
0
100
AcDbLine
 62
7
  6
CONTINUOUS
 10
12.5782457581
 20
14.3612865197
 11
12.5691777796
 21
14.3517120528
  0
LINE
  5
252
100
AcDbEntity
  8
0
100
AcDbLine
 62
7
  6
CONTINUOUS
 10
12.1745603903
 20
12.6494558256
 11
12.1573985482
 21
12.6369870174
  0
LINE
  5
253
100
AcDbEntity
  8
0
100
AcDbLine
 62
7
  6
CONTINUOUS
 10
10.744509858
 20
11.6104632967
 11
10.7273480159
 21
11.5979944885
  0
LINE
  5
254
100
AcDbEntity
  8
0
100
AcDbLine
 62
7
  6
CONTINUOUS
 10
12.1675001074
 20
12.6063998391
 11
12.1499135647
 21
12.5945375663
  0
LINE
  5
255
100
AcDbEntity
  8
0
100
AcDbLine
 62
7
  6
CONTINUOUS
 10
10.7020604069
 20
11.6179482802
 11
10.6844738642
 21
11.6060860074
  0
LINE
  5
256
100
AcDbEntity
  8
0
100
AcDbLine
 62
7
  6
CONTINUOUS
 10
12.1589414931
 20
12.5636164815
 11
12.1409516763
 21
12.5523751964
  0
LINE
  5
257
100
AcDbEntity
  8
0
100
AcDbLine
 62
7
  6
CONTINUOUS
 10
10.6598980369
 20
11.6269101686
 11
10.6419082202
 21
11.6156688834
  0
LINE
  5
258
100
AcDbEntity
  8
0
100
AcDbLine
 62
7
  6
CONTINUOUS
 10
12.1488949748
 20
12.5211578777
 11
12.1305238018
 21
12.510551276
  0
LINE
  5
259
100
AcDbEntity
  8
0
100
AcDbLine
 62
7
  6
CONTINUOUS
 10
10.6180741166
 20
11.6373380431
 11
10.5997029435
 21
11.6267314414
  0
LINE
  5
25A
100
AcDbEntity
  8
0
100
AcDbLine
 62
7
  6
CONTINUOUS
 10
12.1373727927
 20
12.479075757
 11
12.1186426458
 21
12.4691167612
  0
LINE
  5
25B
100
AcDbEntity
  8
0
100
AcDbLine
 62
7
  6
CONTINUOUS
 10
10.5766396018
 20
11.6492191991
 11
10.5579094549
 21
11.6392602033
  0
LINE
  5
25C
100
AcDbEntity
  8
0
100
AcDbLine
 62
7
  6
CONTINUOUS
 10
12.1243889848
 20
12.4374213899
 11
12.1229972997
 21
12.4367426197
  0
LINE
  5
25D
100
AcDbEntity
  8
0
100
AcDbLine
 62
7
  6
CONTINUOUS
 10
10.5356449742
 20
11.662539161
 11
10.5165786732
 21
11.6532399047
  0
LINE
  5
25E
100
AcDbEntity
  8
0
100
AcDbLine
 62
7
  6
CONTINUOUS
 10
10.4951401793
 20
11.6772817007
 11
10.4757609537
 21
11.6686535135
  0
LINE
  5
25F
100
AcDbEntity
  8
0
100
AcDbLine
 62
7
  6
CONTINUOUS
 10
10.4551745661
 20
11.6934288565
 11
10.4355060264
 21
11.6854822507
  0
LINE
  5
260
100
AcDbEntity
  8
0
100
AcDbLine
 62
7
  6
CONTINUOUS
 10
10.2293770676
 20
13.8417485505
 11
10.2330607017
 21
13.8626394777
  0
LINE
  5
261
100
AcDbEntity
  8
0
100
AcDbLine
 62
7
  6
CONTINUOUS
 10
10.2651121538
 20
13.8658521705
 11
10.2695226268
 21
13.8866018145
  0
LINE
  5
262
100
AcDbEntity
  8
0
100
AcDbLine
 62
7
  6
CONTINUOUS
 10
10.3016666753
 20
13.8886939707
 11
10.3067986137
 21
13.9092770513
  0
LINE
  5
263
100
AcDbEntity
  8
0
100
AcDbLine
 62
7
  6
CONTINUOUS
 10
10.3389960962
 20
13.9102461219
 11
10.3448432475
 21
13.9306375618
  0
LINE
  5
264
100
AcDbEntity
  8
0
100
AcDbLine
 62
7
  6
CONTINUOUS
 10
12.5918476998
 20
14.3373503524
 11
12.6054496416
 21
14.3564992862
  0
LINE
  5
265
100
AcDbEntity
  8
0
100
AcDbLine
 62
7
  6
CONTINUOUS
 10
12.1851043419
 20
12.9105641801
 11
12.1709099383
 21
12.8947996977
  0
LINE
  5
266
100
AcDbEntity
  8
0
100
AcDbLine
 62
7
  6
CONTINUOUS
 10
11.0023225383
 20
11.5969519066
 11
10.9881281346
 21
11.5811874243
  0
LINE
  5
267
100
AcDbEntity
  8
0
100
AcDbLine
 62
7
  6
CONTINUOUS
 10
12.1871501861
 20
12.8669811548
 11
12.1724142567
 21
12.8517216533
  0
LINE
  5
268
100
AcDbEntity
  8
0
100
AcDbLine
 62
7
  6
CONTINUOUS
 10
10.9592444939
 20
11.5954475882
 11
10.9445085646
 21
11.5801880866
  0
LINE
  5
269
100
AcDbEntity
  8
0
100
AcDbLine
 62
7
  6
CONTINUOUS
 10
12.1876737582
 20
12.8233532803
 11
12.1724142567
 21
12.808617351
  0
LINE
  5
26A
100
AcDbEntity
  8
0
100
AcDbLine
 62
7
  6
CONTINUOUS
 10
10.9161401916
 20
11.5954475882
 11
10.90088069
 21
11.5807116588
  0
LINE
  5
26B
100
AcDbEntity
  8
0
100
AcDbLine
 62
7
  6
CONTINUOUS
 10
12.1866744206
 20
12.7797337103
 11
12.1709099383
 21
12.7655393066
  0
LINE
  5
26C
100
AcDbEntity
  8
0
100
AcDbLine
 62
7
  6
CONTINUOUS
 10
10.8730621472
 20
11.5969519066
 11
10.8572976648
 21
11.5827575029
  0
LINE
  5
26D
100
AcDbEntity
  8
0
100
AcDbLine
 62
7
  6
CONTINUOUS
 10
12.1841533907
 20
12.7361755885
 11
12.1679031341
 21
12.7225400041
  0
LINE
  5
26E
100
AcDbEntity
  8
0
100
AcDbLine
 62
7
  6
CONTINUOUS
 10
10.8300628447
 20
11.5999587108
 11
10.8138125881
 21
11.5863231264
  0
LINE
  5
26F
100
AcDbEntity
  8
0
100
AcDbLine
 62
7
  6
CONTINUOUS
 10
12.1801137401
 20
12.6927319838
 11
12.1633975076
 21
12.6796718317
  0
LINE
  5
270
100
AcDbEntity
  8
0
100
AcDbLine
 62
7
  6
CONTINUOUS
 10
10.7871946723
 20
11.6044643372
 11
10.7704784398
 21
11.5914041851
  0
LINE
  5
271
100
AcDbEntity
  8
0
100
AcDbLine
 62
7
  6
CONTINUOUS
 10
12.1103848561
 20
11.4091588678
 11
12.1264490291
 21
11.4139461013
  0
LINE
  5
272
100
AcDbEntity
  8
0
100
AcDbLine
 62
7
  6
CONTINUOUS
 10
12.2991388591
 20
11.4091588678
 11
12.3152030379
 21
11.4139461013
  0
LINE
  5
273
100
AcDbEntity
  8
0
100
AcDbLine
 62
7
  6
CONTINUOUS
 10
12.1786575872
 20
11.2511801398
 11
12.1625934084
 21
11.2463929063
  0
LINE
  5
274
100
AcDbEntity
  8
0
100
AcDbLine
 62
7
  6
CONTINUOUS
 10
12.3633955513
 20
11.2511801398
 11
12.3473313725
 21
11.2463929063
  0
LINE
  5
275
100
AcDbEntity
  8
0
100
AcDbLine
 62
7
  6
CONTINUOUS
 10
10.0337960153
 20
11.9667626286
 11
10.0345363454
 21
11.9879629095
  0
LINE
  5
276
100
AcDbEntity
  8
0
100
AcDbLine
 62
7
  6
CONTINUOUS
 10
10.0954857501
 20
13.7333254994
 11
10.0962260802
 21
13.7545257804
  0
LINE
  5
277
100
AcDbEntity
  8
0
100
AcDbLine
 62
7
  6
CONTINUOUS
 10
10.0042141792
 20
11.9988341196
 11
10.0043221895
 21
12.0003787394
  0
LINE
  5
278
100
AcDbEntity
  8
0
100
AcDbLine
 62
7
  6
CONTINUOUS
 10
10.1275184894
 20
13.7621679074
 11
10.1289982476
 21
13.7833294365
  0
LINE
  5
279
100
AcDbEntity
  8
0
100
AcDbLine
 62
7
  6
CONTINUOUS
 10
10.1605383007
 20
13.7898748189
 11
10.1627556842
 21
13.8109718142
  0
LINE
  5
27A
100
AcDbEntity
  8
0
100
AcDbLine
 62
7
  6
CONTINUOUS
 10
10.1945049544
 20
13.8164124773
 11
10.1974572618
 21
13.8374192353
  0
LINE
  5
27B
100
AcDbEntity
  8
0
100
AcDbLine
 62
7
  6
CONTINUOUS
 10
10.8482979843
 20
15.090009934
 11
10.8442345963
 21
15.0660737532
  0
LINE
  5
27C
100
AcDbEntity
  8
0
100
AcDbLine
 62
7
  6
CONTINUOUS
 10
10.8686148779
 20
15.0660737532
 11
10.872678266
 21
15.0852226871
  0
LINE
  5
27D
100
AcDbEntity
  8
0
100
AcDbLine
 62
7
  6
CONTINUOUS
 10
10.9823895336
 20
14.9942652444
 11
10.9783261456
 21
14.9751163105
  0
LINE
  5
27E
100
AcDbEntity
  8
0
100
AcDbLine
 62
7
  6
CONTINUOUS
 10
12.1521929614
 20
13.1259536247
 11
12.1409516763
 21
13.1079638079
  0
LINE
  5
27F
100
AcDbEntity
  8
0
100
AcDbLine
 62
7
  6
CONTINUOUS
 10
11.2154866485
 20
11.6269101686
 11
11.2042453634
 21
11.6089203518
  0
LINE
  5
280
100
AcDbEntity
  8
0
100
AcDbLine
 62
7
  6
CONTINUOUS
 10
12.1617758375
 20
13.0833879807
 11
12.1499135647
 21
13.065801438
  0
LINE
  5
281
100
AcDbEntity
  8
0
100
AcDbLine
 62
7
  6
CONTINUOUS
 10
11.1733242786
 20
11.6179482802
 11
11.1614620058
 21
11.6003617375
  0
LINE
  5
282
100
AcDbEntity
  8
0
100
AcDbLine
 62
7
  6
CONTINUOUS
 10
12.1698673564
 20
13.0405138289
 11
12.1573985482
 21
13.0233519869
  0
LINE
  5
283
100
AcDbEntity
  8
0
100
AcDbLine
 62
7
  6
CONTINUOUS
 10
11.1308748275
 20
11.6104632967
 11
11.1184060193
 21
11.5933014546
  0
LINE
  5
284
100
AcDbEntity
  8
0
100
AcDbLine
 62
7
  6
CONTINUOUS
 10
12.1764576598
 20
12.997383405
 11
12.1633975076
 21
12.9806671726
  0
LINE
  5
285
100
AcDbEntity
  8
0
100
AcDbLine
 62
7
  6
CONTINUOUS
 10
11.0881900132
 20
11.6044643372
 11
11.0751298611
 21
11.5877481048
  0
LINE
  5
286
100
AcDbEntity
  8
0
100
AcDbLine
 62
7
  6
CONTINUOUS
 10
12.1815387185
 20
12.9540492567
 11
12.1679031341
 21
12.9377990001
  0
LINE
  5
287
100
AcDbEntity
  8
0
100
AcDbLine
 62
7
  6
CONTINUOUS
 10
11.0453218407
 20
11.5999587108
 11
11.0316862564
 21
11.5837084541
  0
LINE
  5
288
100
AcDbEntity
  8
0
100
AcDbLine
 62
7
  6
CONTINUOUS
 10
12.0983367278
 20
11.3995844009
 11
12.1103848561
 21
11.4091588678
  0
LINE
  5
289
100
AcDbEntity
  8
0
100
AcDbLine
 62
7
  6
CONTINUOUS
 10
12.1063688143
 20
11.4378822687
 11
12.0903046412
 21
11.4283078017
  0
LINE
  5
28A
100
AcDbEntity
  8
0
100
AcDbLine
 62
7
  6
CONTINUOUS
 10
12.2951228317
 20
11.4378822687
 11
12.2790586529
 21
11.4283078017
  0
LINE
  5
28B
100
AcDbEntity
  8
0
100
AcDbLine
 62
7
  6
CONTINUOUS
 10
12.1826736262
 20
11.222456736
 11
12.1987377935
 21
11.2320312042
  0
LINE
  5
28C
100
AcDbEntity
  8
0
100
AcDbLine
 62
7
  6
CONTINUOUS
 10
12.3674116017
 20
11.222456736
 11
12.3834757575
 21
11.2320312042
  0
LINE
  5
28D
100
AcDbEntity
  8
0
100
AcDbLine
 62
7
  6
CONTINUOUS
 10
12.7328715024
 20
11.2511801398
 11
12.7168073007
 21
11.2463929063
  0
LWPOLYLINE
  5
28E
100
AcDbEntity
  8
0
100
AcDbPolyline
 62
7
  6
CONTINUOUS
 90
23
 70
0
 10
10.1518359743
 20
4.6197350645
 10
10.151843311
 20
4.6196783455
 10
10.1519658611
 20
4.6186062324
 10
10.1521828359
 20
4.6163507343
 10
10.1524494301
 20
4.6130314694
 10
10.1527402437
 20
4.608674406
 10
10.1530370565
 20
4.603289864
 10
10.1533253134
 20
4.5968795235
 10
10.1535931871
 20
4.5894284118
 10
10.1538303833
 20
4.5809179894
 10
10.1540271385
 20
4.571333316
 10
10.1541743662
 20
4.5606559044
 10
10.1542630344
 20
4.5488690401
 10
10.1542840805
 20
4.5359399705
 10
10.1542276257
 20
4.5218173351
 10
10.1540826479
 20
4.506446502
 10
10.153836523
 20
4.4897715692
 10
10.1534747699
 20
4.4717362016
 10
10.1529805572
 20
4.4522802612
 10
10.1523343835
 20
4.4313475054
 10
10.1515138029
 20
4.4088929502
 10
10.1504930271
 20
4.3848863402
 10
10.1492426767
 20
4.3593169537
  0
LINE
  5
28F
100
AcDbEntity
  8
0
100
AcDbLine
 62
7
  6
CONTINUOUS
 10
10.1627556842
 20
11.8493671901
 11
10.1605383007
 21
11.8704641854
  0
LINE
  5
290
100
AcDbEntity
  8
0
100
AcDbLine
 62
7
  6
CONTINUOUS
 10
9.977987026
 20
13.6073235442
 11
9.9757696424
 21
13.6284205395
  0
LINE
  5
291
100
AcDbEntity
  8
0
100
AcDbLine
 62
7
  6
CONTINUOUS
 10
10.1289982476
 20
11.8770095677
 11
10.1275184894
 21
11.8981710969
  0
LINE
  5
292
100
AcDbEntity
  8
0
100
AcDbLine
 62
7
  6
CONTINUOUS
 10
10.0056939375
 20
13.6403433555
 11
10.0042141792
 21
13.6615048846
  0
LINE
  5
293
100
AcDbEntity
  8
0
100
AcDbLine
 62
7
  6
CONTINUOUS
 10
10.0962260802
 20
11.9058132239
 11
10.0954857501
 21
11.9270135048
  0
LINE
  5
294
100
AcDbEntity
  8
0
100
AcDbLine
 62
7
  6
CONTINUOUS
 10
10.0345363454
 20
13.6723760948
 11
10.0337960153
 21
13.6935763757
  0
LINE
  5
295
100
AcDbEntity
  8
0
100
AcDbLine
 62
7
  6
CONTINUOUS
 10
10.0644791099
 20
11.9357430658
 11
10.0644791099
 21
11.9569562693
  0
LINE
  5
296
100
AcDbEntity
  8
0
100
AcDbLine
 62
7
  6
CONTINUOUS
 10
10.0644791099
 20
13.703382735
 11
10.0644791099
 21
13.7245959384
  0
LINE
  5
297
100
AcDbEntity
  8
0
100
AcDbLine
 62
9
  6
CONTINUOUS
 10
10.1001923427
 20
5.7151690889
 11
10.1001923427
 21
4.5828283573
  0
LINE
  5
298
100
AcDbEntity
  8
0
100
AcDbLine
 62
7
  6
CONTINUOUS
 10
10.1876923427
 20
5.4225580726
 11
10.1876923427
 21
4.4368033828
  0
LINE
  5
299
100
AcDbEntity
  8
0
100
AcDbLine
 62
9
  6
CONTINUOUS
 10
10.1876923427
 20
4.29828638
 11
10.1876923427
 21
4.4368033828
  0
LINE
  5
29A
100
AcDbEntity
  8
0
100
AcDbLine
 62
7
  6
CONTINUOUS
 10
10.1492426767
 20
4.3593169537
 11
10.1473364162
 21
4.325433932
  0
LWPOLYLINE
  5
29B
100
AcDbEntity
  8
0
100
AcDbPolyline
 62
7
  6
CONTINUOUS
 90
4
 70
0
 10
10.1473364198
 20
4.3254339931
 10
10.1451782634
 20
4.289826293
 10
10.1422976753
 20
4.2449801944
 10
10.1394124711
 20
4.2025095327
  0
LINE
  5
29C
100
AcDbEntity
  8
0
100
AcDbLine
 62
7
  6
CONTINUOUS
 10
11.0027064272
 20
14.970329077
 11
11.0067698153
 21
14.9942652444
  0
LINE
  5
29D
100
AcDbEntity
  8
0
100
AcDbLine
 62
7
  6
CONTINUOUS
 10
12.0823795942
 20
13.3323558185
 11
12.0744329883
 21
13.3126872788
  0
LINE
  5
29E
100
AcDbEntity
  8
0
100
AcDbLine
 62
7
  6
CONTINUOUS
 10
11.4202101194
 20
11.6934288565
 11
11.4122635135
 21
11.6737603168
  0
LINE
  5
29F
100
AcDbEntity
  8
0
100
AcDbLine
 62
7
  6
CONTINUOUS
 10
12.0992083314
 20
13.2921008912
 11
12.0905801442
 21
13.2727216656
  0
LINE
  5
2A0
100
AcDbEntity
  8
0
100
AcDbLine
 62
7
  6
CONTINUOUS
 10
11.3802445061
 20
11.6772817007
 11
11.371616319
 21
11.657902475
  0
LINE
  5
2A1
100
AcDbEntity
  8
0
100
AcDbLine
 62
7
  6
CONTINUOUS
 10
12.1146219402
 20
13.2512831717
 11
12.1053226839
 21
13.2322168707
  0
LINE
  5
2A2
100
AcDbEntity
  8
0
100
AcDbLine
 62
7
  6
CONTINUOUS
 10
11.3397397113
 20
11.662539161
 11
11.330440455
 21
11.6434728601
  0
LINE
  5
2A3
100
AcDbEntity
  8
0
100
AcDbLine
 62
7
  6
CONTINUOUS
 10
12.1286016416
 20
13.20995239
 11
12.1186426458
 21
13.1912222431
  0
LINE
  5
2A4
100
AcDbEntity
  8
0
100
AcDbLine
 62
7
  6
CONTINUOUS
 10
11.2987450837
 20
11.6492191991
 11
11.2887860879
 21
11.6304890521
  0
LINE
  5
2A5
100
AcDbEntity
  8
0
100
AcDbLine
 62
7
  6
CONTINUOUS
 10
12.1411304035
 20
13.1681589014
 11
12.1305238018
 21
13.1497877283
  0
LINE
  5
2A6
100
AcDbEntity
  8
0
100
AcDbLine
 62
7
  6
CONTINUOUS
 10
11.2573105689
 20
11.6373380431
 11
11.2467039672
 21
11.6189668701
  0
LINE
  5
2A7
100
AcDbEntity
  8
0
100
AcDbLine
 62
7
  6
CONTINUOUS
 10
12.0903046412
 20
11.4283078017
 11
12.0742404711
 21
11.4091588678
  0
LINE
  5
2A8
100
AcDbEntity
  8
0
100
AcDbLine
 62
7
  6
CONTINUOUS
 10
12.2870907308
 20
11.3995844009
 11
12.2991388591
 21
11.4091588678
  0
LINE
  5
2A9
100
AcDbEntity
  8
0
100
AcDbLine
 62
7
  6
CONTINUOUS
 10
12.1907057156
 20
11.2607546101
 11
12.1786575872
 21
11.2511801398
  0
LINE
  5
2AA
100
AcDbEntity
  8
0
100
AcDbLine
 62
7
  6
CONTINUOUS
 10
12.3754436796
 20
11.2607546101
 11
12.3633955513
 21
11.2511801398
  0
LINE
  5
2AB
100
AcDbEntity
  8
0
100
AcDbLine
 62
7
  6
CONTINUOUS
 10
12.7449196308
 20
11.2607546101
 11
12.7328715024
 21
11.2511801398
  0
LINE
  5
2AC
100
AcDbEntity
  8
0
100
AcDbLine
 62
7
  6
CONTINUOUS
 10
12.7368875299
 20
11.222456736
 11
12.7529516857
 21
11.2320312042
  0
LINE
  5
2AD
100
AcDbEntity
  8
0
100
AcDbLine
 62
7
  6
CONTINUOUS
 10
11.7360792868
 20
4.2008761813
 11
11.7356259189
 21
4.2024860075
  0
LINE
  5
2AE
100
AcDbEntity
  8
0
100
AcDbLine
 62
9
  6
CONTINUOUS
 10
11.7277129228
 20
4.3266982002
 11
11.7280482881
 21
4.3254336127
  0
LINE
  5
2AF
100
AcDbEntity
  8
0
100
AcDbLine
 62
9
  6
CONTINUOUS
 10
11.7269755588
 20
4.3394843527
 11
11.7273015509
 21
4.3382316407
  0
LINE
  5
2B0
100
AcDbEntity
  8
0
100
AcDbLine
 62
7
  6
CONTINUOUS
 10
10.6491923427
 20
15.1426695021
 11
10.6491923427
 21
14.9176695021
  0
LINE
  5
2B1
100
AcDbEntity
  8
0
100
AcDbLine
 62
7
  6
CONTINUOUS
 10
10.6735726244
 20
14.9176695021
 11
10.6735726244
 21
15.0229886519
  0
LINE
  5
2B2
100
AcDbEntity
  8
0
100
AcDbLine
 62
7
  6
CONTINUOUS
 10
10.6735726244
 20
15.0517120528
 11
10.6735726244
 21
15.1426695021
  0
LINE
  5
2B3
100
AcDbEntity
  8
0
100
AcDbLine
 62
7
  6
CONTINUOUS
 10
10.7873472684
 20
15.1426695021
 11
10.7873472684
 21
15.0517120528
  0
LINE
  5
2B4
100
AcDbEntity
  8
0
100
AcDbLine
 62
7
  6
CONTINUOUS
 10
10.7873472684
 20
15.0229886519
 11
10.7873472684
 21
14.9176695021
  0
LINE
  5
2B5
100
AcDbEntity
  8
0
100
AcDbLine
 62
7
  6
CONTINUOUS
 10
10.8117275501
 20
14.9176695021
 11
10.8117275501
 21
15.1426695021
  0
LINE
  5
2B6
100
AcDbEntity
  8
0
100
AcDbLine
 62
7
  6
CONTINUOUS
 10
10.8442345963
 20
15.0660737532
 11
10.8442345963
 21
14.9942652444
  0
LINE
  5
2B7
100
AcDbEntity
  8
0
100
AcDbLine
 62
7
  6
CONTINUOUS
 10
10.8686148779
 20
14.9942652444
 11
10.8686148779
 21
15.0660737532
  0
LINE
  5
2B8
100
AcDbEntity
  8
0
100
AcDbLine
 62
7
  6
CONTINUOUS
 10
10.9823895336
 20
15.0660737532
 11
10.9823895336
 21
14.9942652444
  0
LINE
  5
2B9
100
AcDbEntity
  8
0
100
AcDbLine
 62
7
  6
CONTINUOUS
 10
11.122642416
 20
13.2495703815
 11
11.2090821911
 21
14.2868476829
  0
LINE
  5
2BA
100
AcDbEntity
  8
0
100
AcDbLine
 62
7
  6
CONTINUOUS
 10
10.0433728251
 20
5.5814067124
 11
10.0433577034
 21
5.5813228718
  0
LWPOLYLINE
  5
2BB
100
AcDbEntity
  8
0
100
AcDbPolyline
 62
7
  6
CONTINUOUS
 90
7
 70
0
 10
10.0433725413
 20
5.5814061498
 10
10.0183689691
 20
5.4509392473
 10
9.9671818489
 20
5.2174596889
 10
9.9070422645
 20
4.9754439796
 10
9.8400298986
 20
4.7297619511
 10
9.7673220394
 20
4.4826713893
 10
9.6899649259
 20
4.2373918807
  0
LINE
  5
2BC
100
AcDbEntity
  8
0
100
AcDbLine
 62
7
  6
CONTINUOUS
 10
12.0613719522
 20
14.4426695021
 11
12.0251001097
 21
14.270329077
  0
LINE
  5
2BD
100
AcDbEntity
  8
0
100
AcDbLine
 62
7
  6
CONTINUOUS
 10
12.0013487497
 20
13.4867782502
 11
11.9962168113
 21
13.4661951696
  0
LINE
  5
2BE
100
AcDbEntity
  8
0
100
AcDbLine
 62
7
  6
CONTINUOUS
 10
11.5737180102
 20
11.7716450336
 11
11.5685860718
 21
11.751061953
  0
LINE
  5
2BF
100
AcDbEntity
  8
0
100
AcDbLine
 62
7
  6
CONTINUOUS
 10
12.0236161138
 20
13.4492571886
 11
12.0177689624
 21
13.4288657487
  0
LINE
  5
2C0
100
AcDbEntity
  8
0
100
AcDbLine
 62
7
  6
CONTINUOUS
 10
11.5363885893
 20
11.7500928824
 11
11.530541438
 21
11.7297014425
  0
LINE
  5
2C1
100
AcDbEntity
  8
0
100
AcDbLine
 62
7
  6
CONTINUOUS
 10
12.2744690504
 20
14.2942652444
 11
12.3152748757
 21
14.4235205683
  0
LINE
  5
2C2
100
AcDbEntity
  8
0
100
AcDbLine
 62
7
  6
CONTINUOUS
 10
12.2517991302
 20
14.2176695021
 11
12.2699350612
 21
14.2751163105
  0
LINE
  5
2C3
100
AcDbEntity
  8
0
100
AcDbLine
 62
7
  6
CONTINUOUS
 10
12.5827797214
 20
14.3756482201
 11
12.5782457581
 21
14.3612865197
  0
LINE
  5
2C4
100
AcDbEntity
  8
0
100
AcDbLine
 62
7
  6
CONTINUOUS
 10
12.6054496416
 20
14.3564992862
 11
12.6099836049
 21
14.3708609867
  0
LINE
  5
2C5
100
AcDbEntity
  8
0
100
AcDbLine
 62
7
  6
CONTINUOUS
 10
12.2971389447
 20
14.4426695021
 11
12.2245952467
 21
14.2176695021
  0
LINE
  5
2C6
100
AcDbEntity
  8
0
100
AcDbLine
 62
7
  6
CONTINUOUS
 10
12.044560447
 20
13.4109818641
 11
12.0380052066
 21
13.3908069087
  0
LINE
  5
2C7
100
AcDbEntity
  8
0
100
AcDbLine
 62
7
  6
CONTINUOUS
 10
11.4983297493
 20
11.7298566382
 11
11.4917745089
 21
11.7096816829
  0
LINE
  5
2C8
100
AcDbEntity
  8
0
100
AcDbLine
 62
7
  6
CONTINUOUS
 10
12.7777408691
 20
14.2176695021
 11
12.8412166146
 21
14.3947971674
  0
LINE
  5
2C9
100
AcDbEntity
  8
0
100
AcDbLine
 62
7
  6
CONTINUOUS
 10
12.064156232
 20
13.3719989091
 11
12.0569008891
 21
13.3520650184
  0
LINE
  5
2CA
100
AcDbEntity
  8
0
100
AcDbLine
 62
7
  6
CONTINUOUS
 10
11.459587859
 20
11.7109609558
 11
11.4523325161
 21
11.6910270651
  0
LINE
  5
2CB
100
AcDbEntity
  8
0
100
AcDbLine
 62
7
  6
CONTINUOUS
 10
12.0903046412
 20
11.3852226871
 11
12.0983367278
 21
11.3995844009
  0
LINE
  5
2CC
100
AcDbEntity
  8
0
100
AcDbLine
 62
7
  6
CONTINUOUS
 10
12.3524944574
 20
12.2806786475
 11
12.1209664394
 21
11.8796603568
  0
LINE
  5
2CD
100
AcDbEntity
  8
0
100
AcDbLine
 62
7
  6
CONTINUOUS
 10
12.2790586529
 20
11.4283078017
 11
12.2629944741
 21
11.4091588678
  0
LINE
  5
2CE
100
AcDbEntity
  8
0
100
AcDbLine
 62
7
  6
CONTINUOUS
 10
12.1987377935
 20
11.2320312042
 11
12.2148019722
 21
11.2511801398
  0
LINE
  5
2CF
100
AcDbEntity
  8
0
100
AcDbLine
 62
7
  6
CONTINUOUS
 10
12.3834757575
 20
11.2320312042
 11
12.3995399363
 21
11.2511801398
  0
LWPOLYLINE
  5
2D0
100
AcDbEntity
  8
0
100
AcDbPolyline
 62
7
  6
CONTINUOUS
 90
7
 70
0
 10
12.185419754
 20
4.2373918977
 10
12.1080855126
 20
4.4825963465
 10
12.0354016822
 20
4.729596684
 10
11.9684128122
 20
4.97517458
 10
11.9082926368
 20
5.2170771702
 10
11.8571157154
 20
5.4504453249
 10
11.8320122249
 20
5.5814057023
  0
LINE
  5
2D1
100
AcDbEntity
  8
0
100
AcDbLine
 62
7
  6
CONTINUOUS
 10
10.3067986137
 20
11.751061953
 11
10.3016666753
 21
11.7716450336
  0
LINE
  5
2D2
100
AcDbEntity
  8
0
100
AcDbLine
 62
7
  6
CONTINUOUS
 10
9.8791678742
 20
13.4661951696
 11
9.8740359358
 21
13.4867782502
  0
LINE
  5
2D3
100
AcDbEntity
  8
0
100
AcDbLine
 62
7
  6
CONTINUOUS
 10
10.2695226268
 20
11.7737371898
 11
10.2651121538
 21
11.7944868338
  0
LINE
  5
2D4
100
AcDbEntity
  8
0
100
AcDbLine
 62
7
  6
CONTINUOUS
 10
9.9020096744
 20
13.5027496911
 11
9.8975992014
 21
13.5234993352
  0
LINE
  5
2D5
100
AcDbEntity
  8
0
100
AcDbLine
 62
7
  6
CONTINUOUS
 10
10.2330607017
 20
11.7976995266
 11
10.2293770676
 21
11.8185904538
  0
LINE
  5
2D6
100
AcDbEntity
  8
0
100
AcDbLine
 62
7
  6
CONTINUOUS
 10
9.9261132944
 20
13.5384847773
 11
9.9224296603
 21
13.5593757045
  0
LINE
  5
2D7
100
AcDbEntity
  8
0
100
AcDbLine
 62
7
  6
CONTINUOUS
 10
10.1974572618
 20
11.822919769
 11
10.1945049544
 21
11.843926527
  0
LINE
  5
2D8
100
AcDbEntity
  8
0
100
AcDbLine
 62
7
  6
CONTINUOUS
 10
9.9514493676
 20
13.5733568904
 11
9.9484970603
 21
13.5943636484
  0
LINE
  5
2D9
100
AcDbEntity
  8
0
100
AcDbLine
 62
7
  6
CONTINUOUS
 10
10.7527422695
 20
13.2495703815
 11
10.6663024943
 21
14.2868476829
  0
LWPOLYLINE
  5
2DA
100
AcDbEntity
  8
0
100
AcDbPolyline
 62
7
  6
CONTINUOUS
 90
3
 70
0
 10
11.735972213
 20
4.2025095329
 10
11.7330869831
 20
4.244980071
 10
11.7302063702
 20
4.289826161
  0
LINE
  5
2DB
100
AcDbEntity
  8
0
100
AcDbLine
 62
7
  6
CONTINUOUS
 10
11.7302063702
 20
4.289826161
 11
11.7273015509
 21
4.3382316407
  0
LWPOLYLINE
  5
2DC
100
AcDbEntity
  8
0
100
AcDbPolyline
 62
7
  6
CONTINUOUS
 90
24
 70
0
 10
11.727301558
 20
4.3382315494
 10
11.726216933
 20
4.3578889299
 10
11.7250158935
 20
4.3821847493
 10
11.7240233065
 20
4.4050791416
 10
11.7232136804
 20
4.426581558
 10
11.7225646191
 20
4.4467174342
 10
11.7220563747
 20
4.4655246326
 10
11.7216718682
 20
4.4830504629
 10
11.721396113
 20
4.4993465686
 10
11.7212162573
 20
4.5144584268
 10
11.7211210519
 20
4.5284243934
 10
11.72110038
 20
4.5412843191
 10
11.7211451917
 20
4.5530797299
 10
11.7212471702
 20
4.5638490376
 10
11.7213986347
 20
4.573629944
 10
11.721592368
 20
4.5824560162
 10
11.7218214201
 20
4.5903572231
 10
11.722078421
 20
4.5973511083
 10
11.7223556722
 20
4.6034541506
 10
11.7226433122
 20
4.6086600463
 10
11.7229274698
 20
4.6129298794
 10
11.7231905987
 20
4.6162270746
 10
11.7234085991
 20
4.6185135652
 10
11.7234778958
 20
4.6191503349
  0
LINE
  5
2DD
100
AcDbEntity
  8
0
100
AcDbLine
 62
7
  6
CONTINUOUS
 10
11.0067698153
 20
14.9942652444
 11
11.0067698153
 21
15.0660737532
  0
LINE
  5
2DE
100
AcDbEntity
  8
0
100
AcDbLine
 62
7
  6
CONTINUOUS
 10
11.0392768498
 20
15.1426695021
 11
11.0392768498
 21
15.1187333348
  0
LINE
  5
2DF
100
AcDbEntity
  8
0
100
AcDbLine
 62
7
  6
CONTINUOUS
 10
11.1042909188
 20
15.1187333348
 11
11.1042909188
 21
14.9176695021
  0
LINE
  5
2E0
100
AcDbEntity
  8
0
100
AcDbLine
 62
7
  6
CONTINUOUS
 10
11.1286712005
 20
14.9176695021
 11
11.1286712005
 21
15.1187333348
  0
LINE
  5
2E1
100
AcDbEntity
  8
0
100
AcDbLine
 62
7
  6
CONTINUOUS
 10
11.193685316
 20
15.1187333348
 11
11.193685316
 21
15.1426695021
  0
LINE
  5
2E2
100
AcDbEntity
  8
0
100
AcDbLine
 62
7
  6
CONTINUOUS
 10
11.899615043
 20
13.6284205395
 11
11.8973976595
 21
13.6073235442
  0
LINE
  5
2E3
100
AcDbEntity
  8
0
100
AcDbLine
 62
7
  6
CONTINUOUS
 10
11.7148463848
 20
11.8704641854
 11
11.7126290013
 21
11.8493671901
  0
LINE
  5
2E4
100
AcDbEntity
  8
0
100
AcDbLine
 62
7
  6
CONTINUOUS
 10
11.9268876252
 20
13.5943636484
 11
11.9239353179
 21
13.5733568904
  0
LINE
  5
2E5
100
AcDbEntity
  8
0
100
AcDbLine
 62
7
  6
CONTINUOUS
 10
11.680879731
 20
11.843926527
 11
11.6779274237
 21
11.822919769
  0
LINE
  5
2E6
100
AcDbEntity
  8
0
100
AcDbLine
 62
7
  6
CONTINUOUS
 10
12.1611195272
 20
14.4426695021
 11
12.1339156437
 21
14.270329077
  0
LINE
  5
2E7
100
AcDbEntity
  8
0
100
AcDbLine
 62
7
  6
CONTINUOUS
 10
12.1520515617
 20
14.2176695021
 11
12.1883234107
 21
14.4426695021
  0
LINE
  5
2E8
100
AcDbEntity
  8
0
100
AcDbLine
 62
7
  6
CONTINUOUS
 10
11.9529550252
 20
13.5593757045
 11
11.9492713911
 21
13.5384847773
  0
LINE
  5
2E9
100
AcDbEntity
  8
0
100
AcDbLine
 62
7
  6
CONTINUOUS
 10
11.6460076179
 20
11.8185904538
 11
11.6423239838
 21
11.7976995266
  0
LINE
  5
2EA
100
AcDbEntity
  8
0
100
AcDbLine
 62
7
  6
CONTINUOUS
 10
12.0432360342
 20
14.2176695021
 11
12.0795078767
 21
14.3995844009
  0
LINE
  5
2EB
100
AcDbEntity
  8
0
100
AcDbLine
 62
7
  6
CONTINUOUS
 10
11.9777854841
 20
13.5234993352
 11
11.9733750111
 21
13.5027496911
  0
LINE
  5
2EC
100
AcDbEntity
  8
0
100
AcDbLine
 62
7
  6
CONTINUOUS
 10
11.6102725317
 20
11.7944868338
 11
11.6058620587
 21
11.7737371898
  0
LINE
  5
2ED
100
AcDbEntity
  8
0
100
AcDbLine
 62
9
  6
CONTINUOUS
 10
10.1480829828
 20
4.3382282841
 11
10.1484089569
 21
4.3394806156
  0
LINE
  5
2EE
100
AcDbEntity
  8
0
100
AcDbLine
 62
9
  6
CONTINUOUS
 10
10.1473364198
 20
4.3254339931
 11
10.1476717617
 21
4.3266981827
  0
LINE
  5
2EF
100
AcDbEntity
  8
0
100
AcDbLine
 62
7
  6
CONTINUOUS
 10
12.8276146728
 20
14.4426695021
 11
12.7596049641
 21
14.2416056729
  0
LINE
  5
2F0
100
AcDbEntity
  8
0
100
AcDbLine
 62
7
  6
CONTINUOUS
 10
12.0742404711
 20
11.4091588678
 11
12.0662083856
 21
11.390009934
  0
LINE
  5
2F1
100
AcDbEntity
  8
0
100
AcDbLine
 62
7
  6
CONTINUOUS
 10
12.2629944741
 20
11.4091588678
 11
12.2549623962
 21
11.390009934
  0
LINE
  5
2F2
100
AcDbEntity
  8
0
100
AcDbLine
 62
7
  6
CONTINUOUS
 10
12.2790586529
 20
11.3852226871
 11
12.2870907308
 21
11.3995844009
  0
LINE
  5
2F3
100
AcDbEntity
  8
0
100
AcDbLine
 62
7
  6
CONTINUOUS
 10
12.3834757575
 20
11.2751163105
 11
12.3754436796
 21
11.2607546101
  0
LINE
  5
2F4
100
AcDbEntity
  8
0
100
AcDbLine
 62
7
  6
CONTINUOUS
 10
12.7529516857
 20
11.2320312042
 11
12.7690158875
 21
11.2511801398
  0
LINE
  5
2F5
100
AcDbEntity
  8
0
100
AcDbLine
 62
7
  6
CONTINUOUS
 10
9.522890228
 20
12.2806786475
 11
9.7544182461
 21
11.8796603568
  0
LINE
  5
2F6
100
AcDbEntity
  8
0
100
AcDbLine
 62
7
  6
CONTINUOUS
 10
10.463121172
 20
11.6737603168
 11
10.4551745661
 21
11.6934288565
  0
LINE
  5
2F7
100
AcDbEntity
  8
0
100
AcDbLine
 62
7
  6
CONTINUOUS
 10
9.8009516971
 20
13.3126872788
 11
9.7930050913
 21
13.3323558185
  0
LINE
  5
2F8
100
AcDbEntity
  8
0
100
AcDbLine
 62
7
  6
CONTINUOUS
 10
10.4230521694
 20
11.6910270651
 11
10.4157968265
 21
11.7109609558
  0
LINE
  5
2F9
100
AcDbEntity
  8
0
100
AcDbLine
 62
7
  6
CONTINUOUS
 10
9.8184837964
 20
13.3520650184
 11
9.8112284535
 21
13.3719989091
  0
LINE
  5
2FA
100
AcDbEntity
  8
0
100
AcDbLine
 62
7
  6
CONTINUOUS
 10
10.3836101765
 20
11.7096816829
 11
10.3770549362
 21
11.7298566382
  0
LINE
  5
2FB
100
AcDbEntity
  8
0
100
AcDbLine
 62
7
  6
CONTINUOUS
 10
9.8373794788
 20
13.3908069087
 11
9.8308242385
 21
13.4109818641
  0
LINE
  5
2FC
100
AcDbEntity
  8
0
100
AcDbLine
 62
7
  6
CONTINUOUS
 10
10.3448432475
 20
11.7297014425
 11
10.3389960962
 21
11.7500928824
  0
LINE
  5
2FD
100
AcDbEntity
  8
0
100
AcDbLine
 62
7
  6
CONTINUOUS
 10
9.857615723
 20
13.4288657487
 11
9.8517685717
 21
13.4492571886
  0
LWPOLYLINE
  5
2FE
100
AcDbEntity
  8
0
100
AcDbPolyline
 62
7
  6
CONTINUOUS
 90
12
 70
0
 10
11.8320287087
 20
5.5813133043
 10
11.8290523888
 20
5.597250337
 10
11.8230750725
 20
5.6260243167
 10
11.8168854786
 20
5.6517073414
 10
11.810430047
 20
5.6745297748
 10
11.8035878523
 20
5.6948073031
 10
11.7961113541
 20
5.7129572143
 10
11.7874875727
 20
5.7295372611
 10
11.7766625269
 20
5.7451853181
 10
11.7616350737
 20
5.7601395101
 10
11.739851011
 20
5.7726267247
 10
11.7133138094
 20
5.7776664444
  0
LINE
  5
2FF
100
AcDbEntity
  8
0
100
AcDbLine
 62
7
  6
CONTINUOUS
 10
11.8320119371
 20
5.581406295
 11
11.8320288524
 21
5.5813125077
  0
LINE
  5
300
100
AcDbEntity
  8
0
100
AcDbLine
 62
7
  6
CONTINUOUS
 10
11.7791586052
 20
13.7545257804
 11
11.7798989354
 21
13.7333254994
  0
LINE
  5
301
100
AcDbEntity
  8
0
100
AcDbLine
 62
7
  6
CONTINUOUS
 10
11.84084834
 20
11.9879629095
 11
11.8415886702
 21
11.9667626286
  0
LINE
  5
302
100
AcDbEntity
  8
0
100
AcDbLine
 62
9
  6
CONTINUOUS
 10
11.6876923427
 20
4.4368033828
 11
11.6876923427
 21
4.29828638
  0
LINE
  5
303
100
AcDbEntity
  8
0
100
AcDbLine
 62
7
  6
CONTINUOUS
 10
11.6876923427
 20
4.4368033828
 11
11.6876923427
 21
5.4225580726
  0
LINE
  5
304
100
AcDbEntity
  8
0
100
AcDbLine
 62
9
  6
CONTINUOUS
 10
11.7751923427
 20
4.5828283494
 11
11.7751923427
 21
5.7151690889
  0
LINE
  5
305
100
AcDbEntity
  8
0
100
AcDbLine
 62
7
  6
CONTINUOUS
 10
11.8109055756
 20
13.7245959384
 11
11.8109055756
 21
13.703382735
  0
LINE
  5
306
100
AcDbEntity
  8
0
100
AcDbLine
 62
7
  6
CONTINUOUS
 10
11.8109055756
 20
11.9569562693
 11
11.8109055756
 21
11.9357430658
  0
LINE
  5
307
100
AcDbEntity
  8
0
100
AcDbLine
 62
7
  6
CONTINUOUS
 10
11.8415886702
 20
13.6935763757
 11
11.84084834
 21
13.6723760948
  0
LINE
  5
308
100
AcDbEntity
  8
0
100
AcDbLine
 62
7
  6
CONTINUOUS
 10
11.7798989354
 20
11.9270135048
 11
11.7791586052
 21
11.9058132239
  0
LINE
  5
309
100
AcDbEntity
  8
0
100
AcDbLine
 62
7
  6
CONTINUOUS
 10
11.8711705063
 20
13.6615048846
 11
11.869690748
 21
13.6403433555
  0
LINE
  5
30A
100
AcDbEntity
  8
0
100
AcDbLine
 62
7
  6
CONTINUOUS
 10
11.7478661961
 20
11.8981710969
 11
11.7463864378
 21
11.8770095677
  0
LINE
  5
30B
100
AcDbEntity
  8
0
100
AcDbLine
 62
7
  6
CONTINUOUS
 10
12.0662083856
 20
11.390009934
 11
12.0621923427
 21
11.3660737532
  0
LINE
  5
30C
100
AcDbEntity
  8
0
100
AcDbLine
 62
7
  6
CONTINUOUS
 10
12.2148019722
 20
11.2511801398
 11
12.2188180112
 21
11.2751163105
  0
LINE
  5
30D
100
AcDbEntity
  8
0
100
AcDbLine
 62
7
  6
CONTINUOUS
 10
12.2549623962
 20
11.390009934
 11
12.2509463573
 21
11.3660737532
  0
LINE
  5
30E
100
AcDbEntity
  8
0
100
AcDbLine
 62
7
  6
CONTINUOUS
 10
12.0862885994
 20
11.3660737532
 11
12.0903046412
 21
11.3852226871
  0
LINE
  5
30F
100
AcDbEntity
  8
0
100
AcDbLine
 62
7
  6
CONTINUOUS
 10
12.2750426025
 20
11.3660737532
 11
12.2790586529
 21
11.3852226871
  0
LINE
  5
310
100
AcDbEntity
  8
0
100
AcDbLine
 62
7
  6
CONTINUOUS
 10
12.387491808
 20
11.2942652444
 11
12.3834757575
 21
11.2751163105
  0
LINE
  5
311
100
AcDbEntity
  8
0
100
AcDbLine
 62
7
  6
CONTINUOUS
 10
12.1947217545
 20
11.2751163105
 11
12.1907057156
 21
11.2607546101
  0
LINE
  5
312
100
AcDbEntity
  8
0
100
AcDbLine
 62
7
  6
CONTINUOUS
 10
10.1397587666
 20
4.2024860074
 11
10.1393053987
 21
4.2008761814
  0
LINE
  5
313
100
AcDbEntity
  8
0
100
AcDbLine
 62
7
  6
CONTINUOUS
 10
12.3995399363
 20
11.2511801398
 11
12.4075720142
 21
11.270329077
  0
LINE
  5
314
100
AcDbEntity
  8
0
100
AcDbLine
 62
7
  6
CONTINUOUS
 10
12.7690158875
 20
11.2511801398
 11
12.7770479424
 21
11.270329077
  0
LINE
  5
315
100
AcDbEntity
  8
0
100
AcDbLine
 62
7
  6
CONTINUOUS
 10
12.7529516857
 20
11.2751163105
 11
12.7449196308
 21
11.2607546101
  0
LINE
  5
316
100
AcDbEntity
  8
0
100
AcDbLine
 62
7
  6
CONTINUOUS
 10
10.6711393221
 20
11.6089203518
 11
10.6598980369
 21
11.6269101686
  0
LINE
  5
317
100
AcDbEntity
  8
0
100
AcDbLine
 62
7
  6
CONTINUOUS
 10
9.7344330092
 20
13.1079638079
 11
9.723191724
 21
13.1259536247
  0
LINE
  5
318
100
AcDbEntity
  8
0
100
AcDbLine
 62
7
  6
CONTINUOUS
 10
10.6286807183
 20
11.6189668701
 11
10.6180741166
 21
11.6373380431
  0
LINE
  5
319
100
AcDbEntity
  8
0
100
AcDbLine
 62
7
  6
CONTINUOUS
 10
9.7448608837
 20
13.1497877283
 11
9.734254282
 21
13.1681589014
  0
LINE
  5
31A
100
AcDbEntity
  8
0
100
AcDbLine
 62
7
  6
CONTINUOUS
 10
10.5865985976
 20
11.6304890521
 11
10.5766396018
 21
11.6492191991
  0
LINE
  5
31B
100
AcDbEntity
  8
0
100
AcDbLine
 62
7
  6
CONTINUOUS
 10
9.7567420396
 20
13.1912222431
 11
9.7467830439
 21
13.20995239
  0
LINE
  5
31C
100
AcDbEntity
  8
0
100
AcDbLine
 62
7
  6
CONTINUOUS
 10
10.5449442305
 20
11.6434728601
 11
10.5356449742
 21
11.662539161
  0
LINE
  5
31D
100
AcDbEntity
  8
0
100
AcDbLine
 62
7
  6
CONTINUOUS
 10
9.7700620016
 20
13.2322168707
 11
9.7607627453
 21
13.2512831717
  0
LINE
  5
31E
100
AcDbEntity
  8
0
100
AcDbLine
 62
7
  6
CONTINUOUS
 10
10.5037683665
 20
11.657902475
 11
10.4951401793
 21
11.6772817007
  0
LINE
  5
31F
100
AcDbEntity
  8
0
100
AcDbLine
 62
7
  6
CONTINUOUS
 10
9.7848045413
 20
13.2727216656
 11
9.7761763541
 21
13.2921008912
  0
LINE
  5
320
100
AcDbEntity
  8
0
100
AcDbLine
 62
7
  6
CONTINUOUS
 10
10.8442345963
 20
14.9942652444
 11
10.8482979843
 21
14.970329077
  0
LINE
  5
321
100
AcDbEntity
  8
0
100
AcDbLine
 62
7
  6
CONTINUOUS
 10
11.0067698153
 20
15.0660737532
 11
11.0027064272
 21
15.090009934
  0
LINE
  5
322
100
AcDbEntity
  8
0
100
AcDbLine
 62
7
  6
CONTINUOUS
 10
11.7126290013
 20
13.8109718142
 11
11.7148463848
 21
13.7898748189
  0
LINE
  5
323
100
AcDbEntity
  8
0
100
AcDbLine
 62
7
  6
CONTINUOUS
 10
11.7463864378
 20
13.7833294365
 11
11.7478661961
 21
13.7621679074
  0
LINE
  5
324
100
AcDbEntity
  8
0
100
AcDbLine
 62
7
  6
CONTINUOUS
 10
11.8710624959
 20
12.0003787394
 11
11.8711705063
 21
11.9988341196
  0
LINE
  5
325
100
AcDbEntity
  8
0
100
AcDbLine
 62
7
  6
CONTINUOUS
 10
12.0621923427
 20
11.3660737532
 11
12.0621923427
 21
11.2942652444
  0
LINE
  5
326
100
AcDbEntity
  8
0
100
AcDbLine
 62
7
  6
CONTINUOUS
 10
12.0862885994
 20
11.2942652444
 11
12.0862885994
 21
11.3660737532
  0
LINE
  5
327
100
AcDbEntity
  8
0
100
AcDbLine
 62
7
  6
CONTINUOUS
 10
12.2509463573
 20
11.3660737532
 11
12.2509463573
 21
11.2942652444
  0
LINE
  5
328
100
AcDbEntity
  8
0
100
AcDbLine
 62
7
  6
CONTINUOUS
 10
12.2750426025
 20
11.2942652444
 11
12.2750426025
 21
11.3660737532
  0
LINE
  5
329
100
AcDbEntity
  8
0
100
AcDbLine
 62
7
  6
CONTINUOUS
 10
12.387491808
 20
11.3660737532
 11
12.387491808
 21
11.2942652444
  0
LINE
  5
32A
100
AcDbEntity
  8
0
100
AcDbLine
 62
7
  6
CONTINUOUS
 10
12.4115880647
 20
11.2942652444
 11
12.4115880647
 21
11.3660737532
  0
LINE
  5
32B
100
AcDbEntity
  8
0
100
AcDbLine
 62
7
  6
CONTINUOUS
 10
12.4422263406
 20
14.4426695021
 11
12.4422263406
 21
14.2176695021
  0
LINE
  5
32C
100
AcDbEntity
  8
0
100
AcDbLine
 62
7
  6
CONTINUOUS
 10
12.4437163992
 20
11.4426695021
 11
12.4437163992
 21
11.2176695021
  0
LINE
  5
32D
100
AcDbEntity
  8
0
100
AcDbLine
 62
7
  6
CONTINUOUS
 10
12.4678126789
 20
11.2463929063
 11
12.4678126789
 21
11.4426695021
  0
LINE
  5
32E
100
AcDbEntity
  8
0
100
AcDbLine
 62
7
  6
CONTINUOUS
 10
12.4694302241
 20
14.2176695021
 11
12.4694302241
 21
14.3182014185
  0
LINE
  5
32F
100
AcDbEntity
  8
0
100
AcDbLine
 62
7
  6
CONTINUOUS
 10
12.4694302241
 20
14.3469248193
 11
12.4694302241
 21
14.4187333348
  0
LINE
  5
330
100
AcDbEntity
  8
0
100
AcDbLine
 62
7
  6
CONTINUOUS
 10
12.4075720142
 20
11.270329077
 11
12.4115880647
 21
11.2942652444
  0
LINE
  5
331
100
AcDbEntity
  8
0
100
AcDbLine
 62
7
  6
CONTINUOUS
 10
12.7770479424
 20
11.270329077
 11
12.7810640158
 21
11.2942652444
  0
LINE
  5
332
100
AcDbEntity
  8
0
100
AcDbLine
 62
7
  6
CONTINUOUS
 10
12.7569677591
 20
11.2942652444
 11
12.7529516857
 21
11.2751163105
  0
LINE
  5
333
100
AcDbEntity
  8
0
100
AcDbLine
 62
7
  6
CONTINUOUS
 10
12.7168073007
 20
11.2176695021
 11
12.7368875299
 21
11.222456736
  0
LINE
  5
334
100
AcDbEntity
  8
0
100
AcDbLine
 62
7
  6
CONTINUOUS
 10
12.3473313725
 20
11.2176695021
 11
12.3674116017
 21
11.222456736
  0
LINE
  5
335
100
AcDbEntity
  8
0
100
AcDbLine
 62
7
  6
CONTINUOUS
 10
10.8872565509
 20
11.5811874243
 11
10.8730621472
 21
11.5969519066
  0
LINE
  5
336
100
AcDbEntity
  8
0
100
AcDbLine
 62
7
  6
CONTINUOUS
 10
9.7044747472
 20
12.8947996977
 11
9.6902803435
 21
12.9105641801
  0
LINE
  5
337
100
AcDbEntity
  8
0
100
AcDbLine
 62
7
  6
CONTINUOUS
 10
10.8436984291
 20
11.5837084541
 11
10.8300628447
 21
11.5999587108
  0
LINE
  5
338
100
AcDbEntity
  8
0
100
AcDbLine
 62
7
  6
CONTINUOUS
 10
9.7074815513
 20
12.9377990001
 11
9.693845967
 21
12.9540492567
  0
LINE
  5
339
100
AcDbEntity
  8
0
100
AcDbLine
 62
7
  6
CONTINUOUS
 10
10.8002548244
 20
11.5877481048
 11
10.7871946723
 21
11.6044643372
  0
LINE
  5
33A
100
AcDbEntity
  8
0
100
AcDbLine
 62
7
  6
CONTINUOUS
 10
9.7119871778
 20
12.9806671726
 11
9.6989270257
 21
12.997383405
  0
LINE
  5
33B
100
AcDbEntity
  8
0
100
AcDbLine
 62
7
  6
CONTINUOUS
 10
10.7569786662
 20
11.5933014546
 11
10.744509858
 21
11.6104632967
  0
LINE
  5
33C
100
AcDbEntity
  8
0
100
AcDbLine
 62
7
  6
CONTINUOUS
 10
9.7179861373
 20
13.0233519869
 11
9.7055173291
 21
13.0405138289
  0
LINE
  5
33D
100
AcDbEntity
  8
0
100
AcDbLine
 62
7
  6
CONTINUOUS
 10
10.7139226797
 20
11.6003617375
 11
10.7020604069
 21
11.6179482802
  0
LINE
  5
33E
100
AcDbEntity
  8
0
100
AcDbLine
 62
7
  6
CONTINUOUS
 10
9.7254711208
 20
13.065801438
 11
9.713608848
 21
13.0833879807
  0
LINE
  5
33F
100
AcDbEntity
  8
0
100
AcDbLine
 62
7
  6
CONTINUOUS
 10
10.872678266
 20
14.9751163105
 11
10.8686148779
 21
14.9942652444
  0
LINE
  5
340
100
AcDbEntity
  8
0
100
AcDbLine
 62
7
  6
CONTINUOUS
 10
10.9783261456
 20
15.0852226871
 11
10.9823895336
 21
15.0660737532
  0
LINE
  5
341
100
AcDbEntity
  8
0
100
AcDbLine
 62
7
  6
CONTINUOUS
 10
12.0903046412
 20
11.2751163105
 11
12.0862885994
 21
11.2942652444
  0
LINE
  5
342
100
AcDbEntity
  8
0
100
AcDbLine
 62
7
  6
CONTINUOUS
 10
11.6423239838
 20
13.8626394777
 11
11.6460076179
 21
13.8417485505
  0
LINE
  5
343
100
AcDbEntity
  8
0
100
AcDbLine
 62
7
  6
CONTINUOUS
 10
12.0621923427
 20
11.2942652444
 11
12.0662083856
 21
11.270329077
  0
LINE
  5
344
100
AcDbEntity
  8
0
100
AcDbLine
 62
7
  6
CONTINUOUS
 10
11.6779274237
 20
13.8374192353
 11
11.680879731
 21
13.8164124773
  0
LINE
  5
345
100
AcDbEntity
  8
0
100
AcDbLine
 62
7
  6
CONTINUOUS
 10
12.5827797214
 20
14.390009934
 11
12.5827797214
 21
14.3756482201
  0
LINE
  5
346
100
AcDbEntity
  8
0
100
AcDbLine
 62
7
  6
CONTINUOUS
 10
12.5882939623
 20
11.2176695021
 11
12.5882939623
 21
11.2463929063
  0
LINE
  5
347
100
AcDbEntity
  8
0
100
AcDbLine
 62
7
  6
CONTINUOUS
 10
12.6099836049
 20
14.3708609867
 11
12.6099836049
 21
14.390009934
  0
LINE
  5
348
100
AcDbEntity
  8
0
100
AcDbLine
 62
7
  6
CONTINUOUS
 10
12.6204222739
 20
11.4426695021
 11
12.6204222739
 21
11.2176695021
  0
LINE
  5
349
100
AcDbEntity
  8
0
100
AcDbLine
 62
7
  6
CONTINUOUS
 10
12.6445185306
 20
11.2463929063
 11
12.6445185306
 21
11.4139461013
  0
LINE
  5
34A
100
AcDbEntity
  8
0
100
AcDbLine
 62
7
  6
CONTINUOUS
 10
12.6507894301
 20
14.4426695021
 11
12.6507894301
 21
14.2176695021
  0
LINE
  5
34B
100
AcDbEntity
  8
0
100
AcDbLine
 62
7
  6
CONTINUOUS
 10
12.6779933136
 20
14.2176695021
 11
12.6779933136
 21
14.3947971674
  0
LINE
  5
34C
100
AcDbEntity
  8
0
100
AcDbLine
 62
7
  6
CONTINUOUS
 10
12.7569677591
 20
11.3660737532
 11
12.7569677591
 21
11.2942652444
  0
LINE
  5
34D
100
AcDbEntity
  8
0
100
AcDbLine
 62
7
  6
CONTINUOUS
 10
12.7810640158
 20
11.2942652444
 11
12.7810640158
 21
11.3660737532
  0
LINE
  5
34E
100
AcDbEntity
  8
0
100
AcDbLine
 62
7
  6
CONTINUOUS
 10
12.8412166146
 20
14.3947971674
 11
12.8412166146
 21
14.2176695021
  0
LINE
  5
34F
100
AcDbEntity
  8
0
100
AcDbLine
 62
7
  6
CONTINUOUS
 10
12.8684204981
 20
14.2176695021
 11
12.8684204981
 21
14.4426695021
  0
LINE
  5
350
100
AcDbEntity
  8
0
100
AcDbLine
 62
7
  6
CONTINUOUS
 10
12.1625934084
 20
11.2176695021
 11
12.1826736262
 21
11.222456736
  0
LINE
  5
351
100
AcDbEntity
  8
0
100
AcDbLine
 62
7
  6
CONTINUOUS
 10
12.3152030379
 20
11.4426695021
 11
12.2951228317
 21
11.4378822687
  0
LINE
  5
352
100
AcDbEntity
  8
0
100
AcDbLine
 62
7
  6
CONTINUOUS
 10
12.1264490291
 20
11.4426695021
 11
12.1063688143
 21
11.4378822687
  0
LINE
  5
353
100
AcDbEntity
  8
0
100
AcDbLine
 62
7
  6
CONTINUOUS
 10
12.1264490291
 20
11.2176695021
 11
12.1625934084
 21
11.2176695021
  0
LINE
  5
354
100
AcDbEntity
  8
0
100
AcDbLine
 62
7
  6
CONTINUOUS
 10
12.3152030379
 20
11.2176695021
 11
12.3473313725
 21
11.2176695021
  0
LINE
  5
355
100
AcDbEntity
  8
0
100
AcDbLine
 62
7
  6
CONTINUOUS
 10
12.4437163992
 20
11.2176695021
 11
12.5882939623
 21
11.2176695021
  0
LINE
  5
356
100
AcDbEntity
  8
0
100
AcDbLine
 62
7
  6
CONTINUOUS
 10
12.6204222739
 20
11.2176695021
 11
12.7168073007
 21
11.2176695021
  0
LINE
  5
357
100
AcDbEntity
  8
0
100
AcDbLine
 62
7
  6
CONTINUOUS
 10
12.7168073007
 20
11.2463929063
 11
12.6445185306
 21
11.2463929063
  0
LINE
  5
358
100
AcDbEntity
  8
0
100
AcDbLine
 62
7
  6
CONTINUOUS
 10
12.5882939623
 20
11.2463929063
 11
12.4678126789
 21
11.2463929063
  0
LINE
  5
359
100
AcDbEntity
  8
0
100
AcDbLine
 62
7
  6
CONTINUOUS
 10
12.3473313725
 20
11.2463929063
 11
12.3152030379
 21
11.2463929063
  0
LINE
  5
35A
100
AcDbEntity
  8
0
100
AcDbLine
 62
7
  6
CONTINUOUS
 10
12.1625934084
 20
11.2463929063
 11
12.1264490291
 21
11.2463929063
  0
LINE
  5
35B
100
AcDbEntity
  8
0
100
AcDbLine
 62
7
  6
CONTINUOUS
 10
12.2188180112
 20
11.2751163105
 11
12.1947217545
 21
11.2751163105
  0
LINE
  5
35C
100
AcDbEntity
  8
0
100
AcDbLine
 62
7
  6
CONTINUOUS
 10
11.1480366695
 20
11.5979944885
 11
11.1308748275
 21
11.6104632967
  0
LINE
  5
35D
100
AcDbEntity
  8
0
100
AcDbLine
 62
7
  6
CONTINUOUS
 10
9.7179861373
 20
12.6369870174
 11
9.7008242952
 21
12.6494558256
  0
LINE
  5
35E
100
AcDbEntity
  8
0
100
AcDbLine
 62
7
  6
CONTINUOUS
 10
11.1049062456
 20
11.5914041851
 11
11.0881900132
 21
11.6044643372
  0
LINE
  5
35F
100
AcDbEntity
  8
0
100
AcDbLine
 62
7
  6
CONTINUOUS
 10
9.7119871778
 20
12.6796718317
 11
9.6952709454
 21
12.6927319838
  0
LINE
  5
360
100
AcDbEntity
  8
0
100
AcDbLine
 62
7
  6
CONTINUOUS
 10
11.0615720973
 20
11.5863231264
 11
11.0453218407
 21
11.5999587108
  0
LINE
  5
361
100
AcDbEntity
  8
0
100
AcDbLine
 62
7
  6
CONTINUOUS
 10
9.7074815513
 20
12.7225400041
 11
9.6912312947
 21
12.7361755885
  0
LINE
  5
362
100
AcDbEntity
  8
0
100
AcDbLine
 62
7
  6
CONTINUOUS
 10
11.0180870207
 20
11.5827575029
 11
11.0023225383
 21
11.5969519066
  0
LINE
  5
363
100
AcDbEntity
  8
0
100
AcDbLine
 62
7
  6
CONTINUOUS
 10
9.7044747472
 20
12.7655393066
 11
9.6887102648
 21
12.7797337103
  0
LINE
  5
364
100
AcDbEntity
  8
0
100
AcDbLine
 62
7
  6
CONTINUOUS
 10
10.9745039954
 20
11.5807116588
 11
10.9592444939
 21
11.5954475882
  0
LINE
  5
365
100
AcDbEntity
  8
0
100
AcDbLine
 62
7
  6
CONTINUOUS
 10
9.7029704288
 20
12.808617351
 11
9.6877109272
 21
12.8233532803
  0
LINE
  5
366
100
AcDbEntity
  8
0
100
AcDbLine
 62
7
  6
CONTINUOUS
 10
10.9308761209
 20
11.5801880866
 11
10.9161401916
 21
11.5954475882
  0
LINE
  5
367
100
AcDbEntity
  8
0
100
AcDbLine
 62
7
  6
CONTINUOUS
 10
9.7029704288
 20
12.8517216533
 11
9.6882344994
 21
12.8669811548
  0
LINE
  5
368
100
AcDbEntity
  8
0
100
AcDbLine
 62
7
  6
CONTINUOUS
 10
12.0983367278
 20
11.2607546101
 11
12.0903046412
 21
11.2751163105
  0
LINE
  5
369
100
AcDbEntity
  8
0
100
AcDbLine
 62
7
  6
CONTINUOUS
 10
12.0662083856
 20
11.270329077
 11
12.0742404711
 21
11.2511801398
  0
LINE
  5
36A
100
AcDbEntity
  8
0
100
AcDbLine
 62
7
  6
CONTINUOUS
 10
12.2549623962
 20
11.270329077
 11
12.2629944741
 21
11.2511801398
  0
LINE
  5
36B
100
AcDbEntity
  8
0
100
AcDbLine
 62
7
  6
CONTINUOUS
 10
11.4917745089
 20
13.9506573214
 11
11.4983297493
 21
13.930482366
  0
LINE
  5
36C
100
AcDbEntity
  8
0
100
AcDbLine
 62
7
  6
CONTINUOUS
 10
11.530541438
 20
13.9306375618
 11
11.5363885893
 21
13.9102461219
  0
LINE
  5
36D
100
AcDbEntity
  8
0
100
AcDbLine
 62
7
  6
CONTINUOUS
 10
12.1907057156
 20
11.3995844009
 11
12.1947217545
 21
11.3852226871
  0
LINE
  5
36E
100
AcDbEntity
  8
0
100
AcDbLine
 62
7
  6
CONTINUOUS
 10
11.5685860718
 20
13.9092770513
 11
11.5737180102
 21
13.8886939707
  0
LINE
  5
36F
100
AcDbEntity
  8
0
100
AcDbLine
 62
7
  6
CONTINUOUS
 10
11.6058620587
 20
13.8866018145
 11
11.6102725317
 21
13.8658521705
  0
LINE
  5
370
100
AcDbEntity
  8
0
100
AcDbLine
 62
7
  6
CONTINUOUS
 10
12.2790586529
 20
11.2751163105
 11
12.2750426025
 21
11.2942652444
  0
LINE
  5
371
100
AcDbEntity
  8
0
100
AcDbLine
 62
7
  6
CONTINUOUS
 10
12.3834757575
 20
11.3852226871
 11
12.387491808
 21
11.3660737532
  0
LINE
  5
372
100
AcDbEntity
  8
0
100
AcDbLine
 62
7
  6
CONTINUOUS
 10
12.2188180112
 20
11.3852226871
 11
12.2148019722
 21
11.4091588678
  0
LINE
  5
373
100
AcDbEntity
  8
0
100
AcDbLine
 62
7
  6
CONTINUOUS
 10
12.2509463573
 20
11.2942652444
 11
12.2549623962
 21
11.270329077
  0
LINE
  5
374
100
AcDbEntity
  8
0
100
AcDbLine
 62
7
  6
CONTINUOUS
 10
12.4115880647
 20
11.3660737532
 11
12.4075720142
 21
11.390009934
  0
LINE
  5
375
100
AcDbEntity
  8
0
100
AcDbLine
 62
7
  6
CONTINUOUS
 10
11.9706923427
 20
14.4426695021
 11
12.0069641885
 21
14.2176695021
  0
LINE
  5
376
100
AcDbEntity
  8
0
100
AcDbLine
 62
7
  6
CONTINUOUS
 10
12.0251001097
 20
14.270329077
 11
11.9978962262
 21
14.4426695021
  0
LINE
  5
377
100
AcDbEntity
  8
0
100
AcDbLine
 62
7
  6
CONTINUOUS
 10
12.1947217545
 20
11.3852226871
 11
12.2188180112
 21
11.3852226871
  0
LINE
  5
378
100
AcDbEntity
  8
0
100
AcDbLine
 62
7
  6
CONTINUOUS
 10
12.1264490291
 20
11.4139461013
 11
12.1625934084
 21
11.4139461013
  0
LINE
  5
379
100
AcDbEntity
  8
0
100
AcDbLine
 62
7
  6
CONTINUOUS
 10
12.3152030379
 20
11.4139461013
 11
12.3473313725
 21
11.4139461013
  0
LINE
  5
37A
100
AcDbEntity
  8
0
100
AcDbLine
 62
7
  6
CONTINUOUS
 10
12.6445185306
 20
11.4139461013
 11
12.7168073007
 21
11.4139461013
  0
LINE
  5
37B
100
AcDbEntity
  8
0
100
AcDbLine
 62
7
  6
CONTINUOUS
 10
12.7168073007
 20
11.4426695021
 11
12.6204222739
 21
11.4426695021
  0
LINE
  5
37C
100
AcDbEntity
  8
0
100
AcDbLine
 62
7
  6
CONTINUOUS
 10
12.4678126789
 20
11.4426695021
 11
12.4437163992
 21
11.4426695021
  0
LINE
  5
37D
100
AcDbEntity
  8
0
100
AcDbLine
 62
7
  6
CONTINUOUS
 10
12.3473313725
 20
11.4426695021
 11
12.3152030379
 21
11.4426695021
  0
LINE
  5
37E
100
AcDbEntity
  8
0
100
AcDbLine
 62
7
  6
CONTINUOUS
 10
12.1625934084
 20
11.4426695021
 11
12.1264490291
 21
11.4426695021
  0
LINE
  5
37F
100
AcDbEntity
  8
0
100
AcDbLine
 62
7
  6
CONTINUOUS
 10
12.1063688143
 20
11.222456736
 11
12.1264490291
 21
11.2176695021
  0
LINE
  5
380
100
AcDbEntity
  8
0
100
AcDbLine
 62
7
  6
CONTINUOUS
 10
12.2951228317
 20
11.222456736
 11
12.3152030379
 21
11.2176695021
  0
LINE
  5
381
100
AcDbEntity
  8
0
100
AcDbLine
 62
7
  6
CONTINUOUS
 10
12.1826736262
 20
11.4378822687
 11
12.1625934084
 21
11.4426695021
  0
LINE
  5
382
100
AcDbEntity
  8
0
100
AcDbLine
 62
7
  6
CONTINUOUS
 10
12.3674116017
 20
11.4378822687
 11
12.3473313725
 21
11.4426695021
  0
LINE
  5
383
100
AcDbEntity
  8
0
100
AcDbLine
 62
7
  6
CONTINUOUS
 10
12.7368875299
 20
11.4378822687
 11
12.7168073007
 21
11.4426695021
  0
LINE
  5
384
100
AcDbEntity
  8
0
100
AcDbLine
 62
7
  6
CONTINUOUS
 10
11.5567800292
 20
11.7442457311
 11
11.5363885893
 21
11.7500928824
  0
LINE
  5
385
100
AcDbEntity
  8
0
100
AcDbLine
 62
7
  6
CONTINUOUS
 10
12.1264490291
 20
11.2463929063
 11
12.1103848561
 21
11.2511801398
  0
LINE
  5
386
100
AcDbEntity
  8
0
100
AcDbLine
 62
7
  6
CONTINUOUS
 10
12.3152030379
 20
11.2463929063
 11
12.2991388591
 21
11.2511801398
  0
LINE
  5
387
100
AcDbEntity
  8
0
100
AcDbLine
 62
7
  6
CONTINUOUS
 10
12.1625934084
 20
11.4139461013
 11
12.1786575872
 21
11.4091588678
  0
LINE
  5
388
100
AcDbEntity
  8
0
100
AcDbLine
 62
7
  6
CONTINUOUS
 10
12.3473313725
 20
11.4139461013
 11
12.3633955513
 21
11.4091588678
  0
LINE
  5
389
100
AcDbEntity
  8
0
100
AcDbLine
 62
7
  6
CONTINUOUS
 10
12.7168073007
 20
11.4139461013
 11
12.7328715024
 21
11.4091588678
  0
LINE
  5
38A
100
AcDbEntity
  8
0
100
AcDbLine
 62
7
  6
CONTINUOUS
 10
11.5185047047
 20
11.7233013979
 11
11.4983297493
 21
11.7298566382
  0
LINE
  5
38B
100
AcDbEntity
  8
0
100
AcDbLine
 62
7
  6
CONTINUOUS
 10
11.4795217497
 20
11.7037056129
 11
11.459587859
 21
11.7109609558
  0
LINE
  5
38C
100
AcDbEntity
  8
0
100
AcDbLine
 62
7
  6
CONTINUOUS
 10
11.4398786591
 20
11.6854822507
 11
11.4202101194
 21
11.6934288565
  0
LINE
  5
38D
100
AcDbEntity
  8
0
100
AcDbLine
 62
7
  6
CONTINUOUS
 10
11.3996237318
 20
11.6686535135
 11
11.3802445061
 21
11.6772817007
  0
LINE
  5
38E
100
AcDbEntity
  8
0
100
AcDbLine
 62
7
  6
CONTINUOUS
 10
11.3588060123
 20
11.6532399047
 11
11.3397397113
 21
11.662539161
  0
LINE
  5
38F
100
AcDbEntity
  8
0
100
AcDbLine
 62
7
  6
CONTINUOUS
 10
9.7523873858
 20
12.4367426197
 11
9.7509957007
 21
12.4374213899
  0
LINE
  5
390
100
AcDbEntity
  8
0
100
AcDbLine
 62
7
  6
CONTINUOUS
 10
11.3174752306
 20
11.6392602033
 11
11.2987450837
 21
11.6492191991
  0
LINE
  5
391
100
AcDbEntity
  8
0
100
AcDbLine
 62
7
  6
CONTINUOUS
 10
9.7567420396
 20
12.4691167612
 11
9.7380118927
 21
12.479075757
  0
LINE
  5
392
100
AcDbEntity
  8
0
100
AcDbLine
 62
7
  6
CONTINUOUS
 10
11.275681742
 20
11.6267314414
 11
11.2573105689
 21
11.6373380431
  0
LINE
  5
393
100
AcDbEntity
  8
0
100
AcDbLine
 62
7
  6
CONTINUOUS
 10
9.7448608837
 20
12.510551276
 11
9.7264897107
 21
12.5211578777
  0
LINE
  5
394
100
AcDbEntity
  8
0
100
AcDbLine
 62
7
  6
CONTINUOUS
 10
12.0903046412
 20
11.2320312042
 11
12.1063688143
 21
11.222456736
  0
LINE
  5
395
100
AcDbEntity
  8
0
100
AcDbLine
 62
7
  6
CONTINUOUS
 10
12.2790586529
 20
11.2320312042
 11
12.2951228317
 21
11.222456736
  0
LINE
  5
396
100
AcDbEntity
  8
0
100
AcDbLine
 62
7
  6
CONTINUOUS
 10
12.1987377935
 20
11.4283078017
 11
12.1826736262
 21
11.4378822687
  0
LINE
  5
397
100
AcDbEntity
  8
0
100
AcDbLine
 62
7
  6
CONTINUOUS
 10
11.2334764653
 20
11.6156688834
 11
11.2154866485
 21
11.6269101686
  0
LINE
  5
398
100
AcDbEntity
  8
0
100
AcDbLine
 62
7
  6
CONTINUOUS
 10
9.7344330092
 20
12.5523751964
 11
9.7164431924
 21
12.5636164815
  0
LINE
  5
399
100
AcDbEntity
  8
0
100
AcDbLine
 62
7
  6
CONTINUOUS
 10
11.1909108213
 20
11.6060860074
 11
11.1733242786
 21
11.6179482802
  0
LINE
  5
39A
100
AcDbEntity
  8
0
100
AcDbLine
 62
7
  6
CONTINUOUS
 10
9.7254711208
 20
12.5945375663
 11
9.7078845781
 21
12.6063998391
  0
LINE
  5
39B
100
AcDbEntity
  8
0
100
AcDbLine
 62
7
  6
CONTINUOUS
 10
12.1103848561
 20
11.2511801398
 11
12.0983367278
 21
11.2607546101
  0
LINE
  5
39C
100
AcDbEntity
  8
0
100
AcDbLine
 62
7
  6
CONTINUOUS
 10
12.2991388591
 20
11.2511801398
 11
12.2870907308
 21
11.2607546101
  0
LINE
  5
39D
100
AcDbEntity
  8
0
100
AcDbLine
 62
7
  6
CONTINUOUS
 10
12.1786575872
 20
11.4091588678
 11
12.1907057156
 21
11.3995844009
  0
LINE
  5
39E
100
AcDbEntity
  8
0
100
AcDbLine
 62
7
  6
CONTINUOUS
 10
12.3633955513
 20
11.4091588678
 11
12.3754436796
 21
11.3995844009
  0
LINE
  5
39F
100
AcDbEntity
  8
0
100
AcDbLine
 62
7
  6
CONTINUOUS
 10
12.0742404711
 20
11.2511801398
 11
12.0903046412
 21
11.2320312042
  0
LINE
  5
3A0
100
AcDbEntity
  8
0
100
AcDbLine
 62
7
  6
CONTINUOUS
 10
12.2629944741
 20
11.2511801398
 11
12.2790586529
 21
11.2320312042
  0
LINE
  5
3A1
100
AcDbEntity
  8
0
100
AcDbLine
 62
7
  6
CONTINUOUS
 10
12.2148019722
 20
11.4091588678
 11
12.1987377935
 21
11.4283078017
  0
LINE
  5
3A2
100
AcDbEntity
  8
0
100
AcDbLine
 62
7
  6
CONTINUOUS
 10
12.3995399363
 20
11.4091588678
 11
12.3834757575
 21
11.4283078017
  0
LINE
  5
3A3
100
AcDbEntity
  8
0
100
AcDbLine
 62
7
  6
CONTINUOUS
 10
12.2870907308
 20
11.2607546101
 11
12.2790586529
 21
11.2751163105
  0
LINE
  5
3A4
100
AcDbEntity
  8
0
100
AcDbLine
 62
7
  6
CONTINUOUS
 10
12.3754436796
 20
11.3995844009
 11
12.3834757575
 21
11.3852226871
  0
LINE
  5
3A5
100
AcDbEntity
  8
0
100
AcDbLine
 62
7
  6
CONTINUOUS
 10
11.2887860879
 20
14.0298499521
 11
11.2987450837
 21
14.0111198052
  0
LINE
  5
3A6
100
AcDbEntity
  8
0
100
AcDbLine
 62
7
  6
CONTINUOUS
 10
12.1186426458
 20
12.4691167612
 11
12.1286016416
 21
12.4503866143
  0
LINE
  5
3A7
100
AcDbEntity
  8
0
100
AcDbLine
 62
7
  6
CONTINUOUS
 10
11.330440455
 20
14.0168661442
 11
11.3397397113
 21
13.9977998433
  0
LINE
  5
3A8
100
AcDbEntity
  8
0
100
AcDbLine
 62
7
  6
CONTINUOUS
 10
11.371616319
 20
14.0024365292
 11
11.3802445061
 21
13.9830573036
  0
LINE
  5
3A9
100
AcDbEntity
  8
0
100
AcDbLine
 62
7
  6
CONTINUOUS
 10
10.8482979843
 20
14.970329077
 11
10.8564247371
 21
14.9511801398
  0
LINE
  5
3AA
100
AcDbEntity
  8
0
100
AcDbLine
 62
7
  6
CONTINUOUS
 10
11.0027064272
 20
15.090009934
 11
10.9945796744
 21
15.1091588678
  0
LINE
  5
3AB
100
AcDbEntity
  8
0
100
AcDbLine
 62
7
  6
CONTINUOUS
 10
12.4075720142
 20
11.390009934
 11
12.3995399363
 21
11.4091588678
  0
LINE
  5
3AC
100
AcDbEntity
  8
0
100
AcDbLine
 62
7
  6
CONTINUOUS
 10
12.7770479424
 20
11.390009934
 11
12.7690158875
 21
11.4091588678
  0
LINE
  5
3AD
100
AcDbEntity
  8
0
100
AcDbLine
 62
7
  6
CONTINUOUS
 10
11.4122635135
 20
13.9865786875
 11
11.4202101194
 21
13.9669101477
  0
LINE
  5
3AE
100
AcDbEntity
  8
0
100
AcDbLine
 62
7
  6
CONTINUOUS
 10
11.4523325161
 20
13.9693119392
 11
11.459587859
 21
13.9493780485
  0
LINE
  5
3AF
100
AcDbEntity
  8
0
100
AcDbLine
 62
7
  6
CONTINUOUS
 10
12.1339156437
 20
14.270329077
 11
12.0976437947
 21
14.4426695021
  0
LINE
  5
3B0
100
AcDbEntity
  8
0
100
AcDbLine
 62
7
  6
CONTINUOUS
 10
12.7529516857
 20
11.3852226871
 11
12.7569677591
 21
11.3660737532
  0
LINE
  5
3B1
100
AcDbEntity
  8
0
100
AcDbLine
 62
7
  6
CONTINUOUS
 10
12.0795078767
 20
14.3995844009
 11
12.1157797257
 21
14.2176695021
  0
LINE
  5
3B2
100
AcDbEntity
  8
0
100
AcDbLine
 62
7
  6
CONTINUOUS
 10
12.7810640158
 20
11.3660737532
 11
12.7770479424
 21
11.390009934
  0
LINE
  5
3B3
100
AcDbEntity
  8
0
100
AcDbLine
 62
7
  6
CONTINUOUS
 10
10.3016666753
 20
11.7716450336
 11
10.2810835947
 21
11.7665130952
  0
LINE
  5
3B4
100
AcDbEntity
  8
0
100
AcDbLine
 62
7
  6
CONTINUOUS
 10
10.2651121538
 20
11.7944868338
 11
10.2443625097
 21
11.7900763608
  0
LINE
  5
3B5
100
AcDbEntity
  8
0
100
AcDbLine
 62
7
  6
CONTINUOUS
 10
10.2293770676
 20
11.8185904538
 11
10.2084861404
 21
11.8149068197
  0
LINE
  5
3B6
100
AcDbEntity
  8
0
100
AcDbLine
 62
7
  6
CONTINUOUS
 10
10.1945049544
 20
11.843926527
 11
10.1734981964
 21
11.8409742197
  0
LINE
  5
3B7
100
AcDbEntity
  8
0
100
AcDbLine
 62
7
  6
CONTINUOUS
 10
10.1605383007
 20
11.8704641854
 11
10.1394413054
 21
11.8682468018
  0
LINE
  5
3B8
100
AcDbEntity
  8
0
100
AcDbLine
 62
7
  6
CONTINUOUS
 10
10.1275184894
 20
11.8981710969
 11
10.1063569602
 21
11.8966913386
  0
LINE
  5
3B9
100
AcDbEntity
  8
0
100
AcDbLine
 62
7
  6
CONTINUOUS
 10
11.862048621
 20
11.9887032397
 11
11.84084834
 21
11.9879629095
  0
LINE
  5
3BA
100
AcDbEntity
  8
0
100
AcDbLine
 62
7
  6
CONTINUOUS
 10
10.0954857501
 20
11.9270135048
 11
10.0742854692
 21
11.9262731747
  0
LINE
  5
3BB
100
AcDbEntity
  8
0
100
AcDbLine
 62
7
  6
CONTINUOUS
 10
11.832118779
 20
11.9569562693
 11
11.8109055756
 21
11.9569562693
  0
LINE
  5
3BC
100
AcDbEntity
  8
0
100
AcDbLine
 62
7
  6
CONTINUOUS
 10
10.0644791099
 20
11.9569562693
 11
10.0432659064
 21
11.9569562693
  0
LINE
  5
3BD
100
AcDbEntity
  8
0
100
AcDbLine
 62
7
  6
CONTINUOUS
 10
11.8010992163
 20
11.9262731747
 11
11.7798989354
 21
11.9270135048
  0
LINE
  5
3BE
100
AcDbEntity
  8
0
100
AcDbLine
 62
7
  6
CONTINUOUS
 10
10.0345363454
 20
11.9879629095
 11
10.0133360645
 21
11.9887032397
  0
LINE
  5
3BF
100
AcDbEntity
  8
0
100
AcDbLine
 62
7
  6
CONTINUOUS
 10
11.7690277252
 20
11.8966913386
 11
11.7478661961
 21
11.8981710969
  0
LINE
  5
3C0
100
AcDbEntity
  8
0
100
AcDbLine
 62
7
  6
CONTINUOUS
 10
11.7359433801
 20
11.8682468018
 11
11.7148463848
 21
11.8704641854
  0
LINE
  5
3C1
100
AcDbEntity
  8
0
100
AcDbLine
 62
7
  6
CONTINUOUS
 10
11.701886489
 20
11.8409742197
 11
11.680879731
 21
11.843926527
  0
LINE
  5
3C2
100
AcDbEntity
  8
0
100
AcDbLine
 62
7
  6
CONTINUOUS
 10
11.6668985451
 20
11.8149068197
 11
11.6460076179
 21
11.8185904538
  0
LINE
  5
3C3
100
AcDbEntity
  8
0
100
AcDbLine
 62
7
  6
CONTINUOUS
 10
11.6310221757
 20
11.7900763608
 11
11.6102725317
 21
11.7944868338
  0
LINE
  5
3C4
100
AcDbEntity
  8
0
100
AcDbLine
 62
7
  6
CONTINUOUS
 10
11.5943010908
 20
11.7665130952
 11
11.5737180102
 21
11.7716450336
  0
LINE
  5
3C5
100
AcDbEntity
  8
0
100
AcDbLine
 62
7
  6
CONTINUOUS
 10
12.3834757575
 20
11.4283078017
 11
12.3674116017
 21
11.4378822687
  0
LINE
  5
3C6
100
AcDbEntity
  8
0
100
AcDbLine
 62
7
  6
CONTINUOUS
 10
12.7529516857
 20
11.4283078017
 11
12.7368875299
 21
11.4378822687
  0
LINE
  5
3C7
100
AcDbEntity
  8
0
100
AcDbLine
 62
7
  6
CONTINUOUS
 10
11.208429122
 20
12.4602976005
 11
12.0635177283
 21
11.8667999087
  0
LINE
  5
3C8
100
AcDbEntity
  8
0
100
AcDbLine
 62
7
  6
CONTINUOUS
 10
12.7328715024
 20
11.4091588678
 11
12.7449196308
 21
11.3995844009
  0
LINE
  5
3C9
100
AcDbEntity
  8
0
100
AcDbLine
 62
7
  6
CONTINUOUS
 10
12.7690158875
 20
11.4091588678
 11
12.7529516857
 21
11.4283078017
  0
LINE
  5
3CA
100
AcDbEntity
  8
0
100
AcDbLine
 62
7
  6
CONTINUOUS
 10
12.1633975076
 20
12.6796718317
 11
12.1764576598
 21
12.6629555992
  0
LINE
  5
3CB
100
AcDbEntity
  8
0
100
AcDbLine
 62
7
  6
CONTINUOUS
 10
12.1573985482
 20
12.6369870174
 11
12.1698673564
 21
12.6198251753
  0
LINE
  5
3CC
100
AcDbEntity
  8
0
100
AcDbLine
 62
7
  6
CONTINUOUS
 10
12.1499135647
 20
12.5945375663
 11
12.1617758375
 21
12.5769510236
  0
LINE
  5
3CD
100
AcDbEntity
  8
0
100
AcDbLine
 62
7
  6
CONTINUOUS
 10
11.2042453634
 20
14.0514186525
 11
11.2154866485
 21
14.0334288357
  0
LINE
  5
3CE
100
AcDbEntity
  8
0
100
AcDbLine
 62
7
  6
CONTINUOUS
 10
12.1409516763
 20
12.5523751964
 11
12.1521929614
 21
12.5343853796
  0
LINE
  5
3CF
100
AcDbEntity
  8
0
100
AcDbLine
 62
7
  6
CONTINUOUS
 10
11.2467039672
 20
14.0413721342
 11
11.2573105689
 21
14.0230009612
  0
LINE
  5
3D0
100
AcDbEntity
  8
0
100
AcDbLine
 62
7
  6
CONTINUOUS
 10
12.1305238018
 20
12.510551276
 11
12.1411304035
 21
12.4921801029
  0
LINE
  5
3D1
100
AcDbEntity
  8
0
100
AcDbLine
 62
7
  6
CONTINUOUS
 10
10.8808050188
 20
14.9607546101
 11
10.872678266
 21
14.9751163105
  0
LINE
  5
3D2
100
AcDbEntity
  8
0
100
AcDbLine
 62
7
  6
CONTINUOUS
 10
10.9701993927
 20
15.0995844009
 11
10.9783261456
 21
15.0852226871
  0
LINE
  5
3D3
100
AcDbEntity
  8
0
100
AcDbLine
 62
7
  6
CONTINUOUS
 10
12.7449196308
 20
11.3995844009
 11
12.7529516857
 21
11.3852226871
  0
LINE
  5
3D4
100
AcDbEntity
  8
0
100
AcDbLine
 62
7
  6
CONTINUOUS
 10
12.4059544787
 20
14.2176695021
 11
12.3334107807
 21
14.4426695021
  0
LINE
  5
3D5
100
AcDbEntity
  8
0
100
AcDbLine
 62
7
  6
CONTINUOUS
 10
12.3606146642
 20
14.2751163105
 11
12.3787505952
 21
14.2176695021
  0
LINE
  5
3D6
100
AcDbEntity
  8
0
100
AcDbLine
 62
7
  6
CONTINUOUS
 10
12.3152748757
 20
14.4235205683
 11
12.3560807009
 21
14.2942652444
  0
LINE
  5
3D7
100
AcDbEntity
  8
0
100
AcDbLine
 62
7
  6
CONTINUOUS
 10
11.3933791953
 20
12.7806405243
 11
12.3349075767
 21
12.3368609148
  0
LINE
  5
3D8
100
AcDbEntity
  8
0
100
AcDbLine
 62
7
  6
CONTINUOUS
 10
12.1709099383
 20
12.8947996977
 11
12.1866744206
 21
12.880605294
  0
LINE
  5
3D9
100
AcDbEntity
  8
0
100
AcDbLine
 62
7
  6
CONTINUOUS
 10
12.1724142567
 20
12.8517216533
 11
12.1876737582
 21
12.836985724
  0
LINE
  5
3DA
100
AcDbEntity
  8
0
100
AcDbLine
 62
7
  6
CONTINUOUS
 10
12.1724142567
 20
12.808617351
 11
12.1871501861
 21
12.7933578494
  0
LINE
  5
3DB
100
AcDbEntity
  8
0
100
AcDbLine
 62
7
  6
CONTINUOUS
 10
12.1709099383
 20
12.7655393066
 11
12.1851043419
 21
12.7497748242
  0
LINE
  5
3DC
100
AcDbEntity
  8
0
100
AcDbLine
 62
7
  6
CONTINUOUS
 10
12.1679031341
 20
12.7225400041
 11
12.1815387185
 21
12.7062897475
  0
LINE
  5
3DD
100
AcDbEntity
  8
0
100
AcDbLine
 62
7
  6
CONTINUOUS
 10
12.6145175682
 20
14.2176695021
 11
12.5737117429
 21
14.3277758854
  0
LINE
  5
3DE
100
AcDbEntity
  8
0
100
AcDbLine
 62
7
  6
CONTINUOUS
 10
12.5465078594
 20
14.3182014185
 11
12.5827797214
 21
14.2176695021
  0
LINE
  5
3DF
100
AcDbEntity
  8
0
100
AcDbLine
 62
7
  6
CONTINUOUS
 10
12.6779933136
 20
14.3947971674
 11
12.7414690591
 21
14.2176695021
  0
LINE
  5
3E0
100
AcDbEntity
  8
0
100
AcDbLine
 62
7
  6
CONTINUOUS
 10
12.7596049641
 20
14.2416056729
 11
12.6915952554
 21
14.4426695021
  0
LINE
  5
3E1
100
AcDbEntity
  8
0
100
AcDbLine
 62
7
  6
CONTINUOUS
 10
12.5782457581
 20
14.4043716344
 11
12.5827797214
 21
14.390009934
  0
LINE
  5
3E2
100
AcDbEntity
  8
0
100
AcDbLine
 62
7
  6
CONTINUOUS
 10
12.6099836049
 20
14.390009934
 11
12.6054496416
 21
14.4043716344
  0
LINE
  5
3E3
100
AcDbEntity
  8
0
100
AcDbLine
 62
7
  6
CONTINUOUS
 10
10.5165786732
 20
14.0070990996
 11
10.5356449742
 21
13.9977998433
  0
LINE
  5
3E4
100
AcDbEntity
  8
0
100
AcDbLine
 62
7
  6
CONTINUOUS
 10
12.1053226839
 20
13.2322168707
 11
12.1243889848
 21
13.2229176144
  0
LINE
  5
3E5
100
AcDbEntity
  8
0
100
AcDbLine
 62
7
  6
CONTINUOUS
 10
10.5579094549
 20
14.021078801
 11
10.5766396018
 21
14.0111198052
  0
LINE
  5
3E6
100
AcDbEntity
  8
0
100
AcDbLine
 62
7
  6
CONTINUOUS
 10
12.1186426458
 20
13.1912222431
 11
12.1373727927
 21
13.1812632473
  0
LINE
  5
3E7
100
AcDbEntity
  8
0
100
AcDbLine
 62
7
  6
CONTINUOUS
 10
10.5997029435
 20
14.0336075629
 11
10.6180741166
 21
14.0230009612
  0
LINE
  5
3E8
100
AcDbEntity
  8
0
100
AcDbLine
 62
7
  6
CONTINUOUS
 10
12.1305238018
 20
13.1497877283
 11
12.1488949748
 21
13.1391811266
  0
LINE
  5
3E9
100
AcDbEntity
  8
0
100
AcDbLine
 62
7
  6
CONTINUOUS
 10
10.6419082202
 20
14.0446701208
 11
10.6598980369
 21
14.0334288357
  0
LINE
  5
3EA
100
AcDbEntity
  8
0
100
AcDbLine
 62
7
  6
CONTINUOUS
 10
12.1409516763
 20
13.1079638079
 11
12.1589414931
 21
13.0967225228
  0
LINE
  5
3EB
100
AcDbEntity
  8
0
100
AcDbLine
 62
7
  6
CONTINUOUS
 10
10.6844738642
 20
14.0542529969
 11
10.685757539
 21
14.0533871473
  0
LINE
  5
3EC
100
AcDbEntity
  8
0
100
AcDbLine
 62
7
  6
CONTINUOUS
 10
12.1499135647
 20
13.065801438
 11
12.1675001074
 21
13.0539391652
  0
LINE
  5
3ED
100
AcDbEntity
  8
0
100
AcDbLine
 62
7
  6
CONTINUOUS
 10
12.1573985482
 20
13.0233519869
 11
12.1745603903
 21
13.0108831787
  0
LINE
  5
3EE
100
AcDbEntity
  8
0
100
AcDbLine
 62
7
  6
CONTINUOUS
 10
12.1633975076
 20
12.9806671726
 11
12.1801137401
 21
12.9676070205
  0
LINE
  5
3EF
100
AcDbEntity
  8
0
100
AcDbLine
 62
7
  6
CONTINUOUS
 10
12.1679031341
 20
12.9377990001
 11
12.1841533907
 21
12.9241634158
  0
LINE
  5
3F0
100
AcDbEntity
  8
0
100
AcDbLine
 62
7
  6
CONTINUOUS
 10
10.8564247371
 20
14.9511801398
 11
10.872678266
 21
14.9320312042
  0
LINE
  5
3F1
100
AcDbEntity
  8
0
100
AcDbLine
 62
7
  6
CONTINUOUS
 10
10.9945796744
 20
15.1091588678
 11
10.9783261456
 21
15.1283078017
  0
LINE
  5
3F2
100
AcDbEntity
  8
0
100
AcDbLine
 62
7
  6
CONTINUOUS
 10
9.8585847936
 20
13.4610632312
 11
9.8791678742
 21
13.4661951696
  0
LINE
  5
3F3
100
AcDbEntity
  8
0
100
AcDbLine
 62
7
  6
CONTINUOUS
 10
11.5737180102
 20
13.8886939707
 11
11.5943010908
 21
13.8938259091
  0
LINE
  5
3F4
100
AcDbEntity
  8
0
100
AcDbLine
 62
7
  6
CONTINUOUS
 10
9.8812600303
 20
13.4983392181
 11
9.9020096744
 21
13.5027496911
  0
LINE
  5
3F5
100
AcDbEntity
  8
0
100
AcDbLine
 62
7
  6
CONTINUOUS
 10
11.6102725317
 20
13.8658521705
 11
11.6310221757
 21
13.8702626435
  0
LINE
  5
3F6
100
AcDbEntity
  8
0
100
AcDbLine
 62
7
  6
CONTINUOUS
 10
9.9052223672
 20
13.5348011432
 11
9.9261132944
 21
13.5384847773
  0
LINE
  5
3F7
100
AcDbEntity
  8
0
100
AcDbLine
 62
7
  6
CONTINUOUS
 10
11.6460076179
 20
13.8417485505
 11
11.6668985451
 21
13.8454321846
  0
LINE
  5
3F8
100
AcDbEntity
  8
0
100
AcDbLine
 62
7
  6
CONTINUOUS
 10
9.9304426096
 20
13.5704045831
 11
9.9514493676
 21
13.5733568904
  0
LINE
  5
3F9
100
AcDbEntity
  8
0
100
AcDbLine
 62
7
  6
CONTINUOUS
 10
11.680879731
 20
13.8164124773
 11
11.701886489
 21
13.8193647846
  0
LINE
  5
3FA
100
AcDbEntity
  8
0
100
AcDbLine
 62
7
  6
CONTINUOUS
 10
9.9568900307
 20
13.6051061607
 11
9.977987026
 21
13.6073235442
  0
LINE
  5
3FB
100
AcDbEntity
  8
0
100
AcDbLine
 62
7
  6
CONTINUOUS
 10
11.7148463848
 20
13.7898748189
 11
11.7359433801
 21
13.7920922024
  0
LINE
  5
3FC
100
AcDbEntity
  8
0
100
AcDbLine
 62
7
  6
CONTINUOUS
 10
9.9845324083
 20
13.6388635972
 11
10.0056939375
 21
13.6403433555
  0
LINE
  5
3FD
100
AcDbEntity
  8
0
100
AcDbLine
 62
7
  6
CONTINUOUS
 10
11.7478661961
 20
13.7621679074
 11
11.7690277252
 21
13.7636476657
  0
LINE
  5
3FE
100
AcDbEntity
  8
0
100
AcDbLine
 62
7
  6
CONTINUOUS
 10
10.0133360645
 20
13.6716357646
 11
10.0345363454
 21
13.6723760948
  0
LINE
  5
3FF
100
AcDbEntity
  8
0
100
AcDbLine
 62
7
  6
CONTINUOUS
 10
11.7798989354
 20
13.7333254994
 11
11.8010992163
 21
13.7340658296
  0
LINE
  5
400
100
AcDbEntity
  8
0
100
AcDbLine
 62
7
  6
CONTINUOUS
 10
10.0432659064
 20
13.703382735
 11
10.0644791099
 21
13.703382735
  0
LINE
  5
401
100
AcDbEntity
  8
0
100
AcDbLine
 62
7
  6
CONTINUOUS
 10
11.8109055756
 20
13.703382735
 11
11.832118779
 21
13.703382735
  0
LINE
  5
402
100
AcDbEntity
  8
0
100
AcDbLine
 62
7
  6
CONTINUOUS
 10
10.0742854692
 20
13.7340658296
 11
10.0954857501
 21
13.7333254994
  0
LINE
  5
403
100
AcDbEntity
  8
0
100
AcDbLine
 62
7
  6
CONTINUOUS
 10
11.84084834
 20
13.6723760948
 11
11.862048621
 21
13.6716357646
  0
LINE
  5
404
100
AcDbEntity
  8
0
100
AcDbLine
 62
7
  6
CONTINUOUS
 10
10.1063569602
 20
13.7636476657
 11
10.1275184894
 21
13.7621679074
  0
LINE
  5
405
100
AcDbEntity
  8
0
100
AcDbLine
 62
7
  6
CONTINUOUS
 10
11.869690748
 20
13.6403433555
 11
11.8908522771
 21
13.6388635972
  0
LINE
  5
406
100
AcDbEntity
  8
0
100
AcDbLine
 62
7
  6
CONTINUOUS
 10
10.1394413054
 20
13.7920922024
 11
10.1605383007
 21
13.7898748189
  0
LINE
  5
407
100
AcDbEntity
  8
0
100
AcDbLine
 62
7
  6
CONTINUOUS
 10
11.8973976595
 20
13.6073235442
 11
11.9184946548
 21
13.6051061607
  0
LINE
  5
408
100
AcDbEntity
  8
0
100
AcDbLine
 62
7
  6
CONTINUOUS
 10
10.1734981964
 20
13.8193647846
 11
10.1945049544
 21
13.8164124773
  0
LINE
  5
409
100
AcDbEntity
  8
0
100
AcDbLine
 62
7
  6
CONTINUOUS
 10
11.9239353179
 20
13.5733568904
 11
11.9449420759
 21
13.5704045831
  0
LINE
  5
40A
100
AcDbEntity
  8
0
100
AcDbLine
 62
7
  6
CONTINUOUS
 10
10.2084861404
 20
13.8454321846
 11
10.2293770676
 21
13.8417485505
  0
LINE
  5
40B
100
AcDbEntity
  8
0
100
AcDbLine
 62
7
  6
CONTINUOUS
 10
11.9492713911
 20
13.5384847773
 11
11.9701623183
 21
13.5348011432
  0
LINE
  5
40C
100
AcDbEntity
  8
0
100
AcDbLine
 62
7
  6
CONTINUOUS
 10
10.2443625097
 20
13.8702626435
 11
10.2651121538
 21
13.8658521705
  0
LINE
  5
40D
100
AcDbEntity
  8
0
100
AcDbLine
 62
7
  6
CONTINUOUS
 10
11.9733750111
 20
13.5027496911
 11
11.9941246551
 21
13.4983392181
  0
LINE
  5
40E
100
AcDbEntity
  8
0
100
AcDbLine
 62
7
  6
CONTINUOUS
 10
10.2810835947
 20
13.8938259091
 11
10.3016666753
 21
13.8886939707
  0
LINE
  5
40F
100
AcDbEntity
  8
0
100
AcDbLine
 62
7
  6
CONTINUOUS
 10
11.9962168113
 20
13.4661951696
 11
12.0167998919
 21
13.4610632312
  0
LINE
  5
410
100
AcDbEntity
  8
0
100
AcDbLine
 62
7
  6
CONTINUOUS
 10
10.3186046563
 20
13.9160932732
 11
10.3389960962
 21
13.9102461219
  0
LINE
  5
411
100
AcDbEntity
  8
0
100
AcDbLine
 62
7
  6
CONTINUOUS
 10
12.0177689624
 20
13.4288657487
 11
12.0381604024
 21
13.4230185974
  0
LINE
  5
412
100
AcDbEntity
  8
0
100
AcDbLine
 62
7
  6
CONTINUOUS
 10
10.3568799808
 20
13.9370376064
 11
10.3770549362
 21
13.930482366
  0
LINE
  5
413
100
AcDbEntity
  8
0
100
AcDbLine
 62
7
  6
CONTINUOUS
 10
12.0380052066
 20
13.3908069087
 11
12.058180162
 21
13.3842516683
  0
LINE
  5
414
100
AcDbEntity
  8
0
100
AcDbLine
 62
7
  6
CONTINUOUS
 10
10.3958629358
 20
13.9566333914
 11
10.4157968265
 21
13.9493780485
  0
LINE
  5
415
100
AcDbEntity
  8
0
100
AcDbLine
 62
7
  6
CONTINUOUS
 10
12.0569008891
 20
13.3520650184
 11
12.0768347798
 21
13.3448096755
  0
LINE
  5
416
100
AcDbEntity
  8
0
100
AcDbLine
 62
7
  6
CONTINUOUS
 10
10.4355060264
 20
13.9748567536
 11
10.4551745661
 21
13.9669101477
  0
LINE
  5
417
100
AcDbEntity
  8
0
100
AcDbLine
 62
7
  6
CONTINUOUS
 10
12.0744329883
 20
13.3126872788
 11
12.0941015281
 21
13.3047406729
  0
LINE
  5
418
100
AcDbEntity
  8
0
100
AcDbLine
 62
7
  6
CONTINUOUS
 10
10.4757609537
 20
13.9916854908
 11
10.4951401793
 21
13.9830573036
  0
LINE
  5
419
100
AcDbEntity
  8
0
100
AcDbLine
 62
7
  6
CONTINUOUS
 10
12.0905801442
 20
13.2727216656
 11
12.1099593698
 21
13.2640934784
  0
LINE
  5
41A
100
AcDbEntity
  8
0
100
AcDbLine
 62
7
  6
CONTINUOUS
 10
10.8929951596
 20
14.9511801398
 11
10.8808050188
 21
14.9607546101
  0
LINE
  5
41B
100
AcDbEntity
  8
0
100
AcDbLine
 62
7
  6
CONTINUOUS
 10
12.6054496416
 20
14.4043716344
 11
12.5918476998
 21
14.4235205683
  0
LINE
  5
41C
100
AcDbEntity
  8
0
100
AcDbLine
 62
7
  6
CONTINUOUS
 10
12.0069641885
 20
14.2176695021
 11
12.0432360342
 21
14.2176695021
  0
LINE
  5
41D
100
AcDbEntity
  8
0
100
AcDbLine
 62
7
  6
CONTINUOUS
 10
12.1157797257
 20
14.2176695021
 11
12.1520515617
 21
14.2176695021
  0
LINE
  5
41E
100
AcDbEntity
  8
0
100
AcDbLine
 62
7
  6
CONTINUOUS
 10
12.2245952467
 20
14.2176695021
 11
12.2517991302
 21
14.2176695021
  0
LINE
  5
41F
100
AcDbEntity
  8
0
100
AcDbLine
 62
7
  6
CONTINUOUS
 10
12.3787505952
 20
14.2176695021
 11
12.4059544787
 21
14.2176695021
  0
LINE
  5
420
100
AcDbEntity
  8
0
100
AcDbLine
 62
7
  6
CONTINUOUS
 10
12.4422263406
 20
14.2176695021
 11
12.4694302241
 21
14.2176695021
  0
LINE
  5
421
100
AcDbEntity
  8
0
100
AcDbLine
 62
7
  6
CONTINUOUS
 10
12.5827797214
 20
14.2176695021
 11
12.6145175682
 21
14.2176695021
  0
LINE
  5
422
100
AcDbEntity
  8
0
100
AcDbLine
 62
7
  6
CONTINUOUS
 10
12.6507894301
 20
14.2176695021
 11
12.6779933136
 21
14.2176695021
  0
LINE
  5
423
100
AcDbEntity
  8
0
100
AcDbLine
 62
7
  6
CONTINUOUS
 10
12.7414690591
 20
14.2176695021
 11
12.7777408691
 21
14.2176695021
  0
LINE
  5
424
100
AcDbEntity
  8
0
100
AcDbLine
 62
7
  6
CONTINUOUS
 10
12.8412166146
 20
14.2176695021
 11
12.8684204981
 21
14.2176695021
  0
LINE
  5
425
100
AcDbEntity
  8
0
100
AcDbLine
 62
7
  6
CONTINUOUS
 10
12.2699350612
 20
14.2751163105
 11
12.3606146642
 21
14.2751163105
  0
LINE
  5
426
100
AcDbEntity
  8
0
100
AcDbLine
 62
7
  6
CONTINUOUS
 10
12.3560807009
 20
14.2942652444
 11
12.2744690504
 21
14.2942652444
  0
LINE
  5
427
100
AcDbEntity
  8
0
100
AcDbLine
 62
7
  6
CONTINUOUS
 10
12.4694302241
 20
14.3182014185
 11
12.5465078594
 21
14.3182014185
  0
LINE
  5
428
100
AcDbEntity
  8
0
100
AcDbLine
 62
7
  6
CONTINUOUS
 10
11.1692203608
 20
14.3301695021
 11
10.7061643247
 21
14.3301695021
  0
LINE
  5
429
100
AcDbEntity
  8
0
100
AcDbLine
 62
7
  6
CONTINUOUS
 10
12.5555758379
 20
14.3469248193
 11
12.4694302241
 21
14.3469248193
  0
LINE
  5
42A
100
AcDbEntity
  8
0
100
AcDbLine
 62
7
  6
CONTINUOUS
 10
10.872678266
 20
14.9320312042
 11
10.8889317716
 21
14.922456736
  0
LINE
  5
42B
100
AcDbEntity
  8
0
100
AcDbLine
 62
7
  6
CONTINUOUS
 10
10.9783261456
 20
15.1283078017
 11
10.9620726167
 21
15.1378822687
  0
LINE
  5
42C
100
AcDbEntity
  8
0
100
AcDbLine
 62
7
  6
CONTINUOUS
 10
10.9580092519
 20
15.1091588678
 11
10.9701993927
 21
15.0995844009
  0
LINE
  5
42D
100
AcDbEntity
  8
0
100
AcDbLine
 62
7
  6
CONTINUOUS
 10
12.5918476998
 20
14.4235205683
 11
12.5737117429
 21
14.4378822687
  0
LINE
  5
42E
100
AcDbEntity
  8
0
100
AcDbLine
 62
7
  6
CONTINUOUS
 10
12.5691777796
 20
14.4139461013
 11
12.5782457581
 21
14.4043716344
  0
LINE
  5
42F
100
AcDbEntity
  8
0
100
AcDbLine
 62
7
  6
CONTINUOUS
 10
10.941755723
 20
14.9176695021
 11
10.9620726167
 21
14.922456736
  0
LINE
  5
430
100
AcDbEntity
  8
0
100
AcDbLine
 62
7
  6
CONTINUOUS
 10
12.4694302241
 20
14.4187333348
 11
12.5555758379
 21
14.4187333348
  0
LINE
  5
431
100
AcDbEntity
  8
0
100
AcDbLine
 62
7
  6
CONTINUOUS
 10
12.8684204981
 20
14.4426695021
 11
12.8276146728
 21
14.4426695021
  0
LINE
  5
432
100
AcDbEntity
  8
0
100
AcDbLine
 62
7
  6
CONTINUOUS
 10
12.6915952554
 20
14.4426695021
 11
12.6507894301
 21
14.4426695021
  0
LINE
  5
433
100
AcDbEntity
  8
0
100
AcDbLine
 62
7
  6
CONTINUOUS
 10
12.5510418746
 20
14.4426695021
 11
12.4422263406
 21
14.4426695021
  0
LINE
  5
434
100
AcDbEntity
  8
0
100
AcDbLine
 62
7
  6
CONTINUOUS
 10
12.3334107807
 20
14.4426695021
 11
12.2971389447
 21
14.4426695021
  0
LINE
  5
435
100
AcDbEntity
  8
0
100
AcDbLine
 62
7
  6
CONTINUOUS
 10
12.1883234107
 20
14.4426695021
 11
12.1611195272
 21
14.4426695021
  0
LINE
  5
436
100
AcDbEntity
  8
0
100
AcDbLine
 62
7
  6
CONTINUOUS
 10
12.0976437947
 20
14.4426695021
 11
12.0613719522
 21
14.4426695021
  0
LINE
  5
437
100
AcDbEntity
  8
0
100
AcDbLine
 62
7
  6
CONTINUOUS
 10
11.9978962262
 20
14.4426695021
 11
11.9706923427
 21
14.4426695021
  0
LINE
  5
438
100
AcDbEntity
  8
0
100
AcDbLine
 62
7
  6
CONTINUOUS
 10
12.5737117429
 20
14.4378822687
 11
12.5510418746
 21
14.4426695021
  0
LINE
  5
439
100
AcDbEntity
  8
0
100
AcDbLine
 62
7
  6
CONTINUOUS
 10
10.8889317716
 20
14.922456736
 11
10.9092486885
 21
14.9176695021
  0
LINE
  5
43A
100
AcDbEntity
  8
0
100
AcDbLine
 62
7
  6
CONTINUOUS
 10
10.9092486885
 20
14.9463929063
 11
10.8929951596
 21
14.9511801398
  0
LINE
  5
43B
100
AcDbEntity
  8
0
100
AcDbLine
 62
7
  6
CONTINUOUS
 10
12.5555758379
 20
14.4187333348
 11
12.5691777796
 21
14.4139461013
  0
LINE
  5
43C
100
AcDbEntity
  8
0
100
AcDbLine
 62
7
  6
CONTINUOUS
 10
10.9092486885
 20
15.1426695021
 11
10.8889317716
 21
15.1378822687
  0
LINE
  5
43D
100
AcDbEntity
  8
0
100
AcDbLine
 62
7
  6
CONTINUOUS
 10
10.6491923427
 20
14.9176695021
 11
10.6735726244
 21
14.9176695021
  0
LINE
  5
43E
100
AcDbEntity
  8
0
100
AcDbLine
 62
7
  6
CONTINUOUS
 10
10.7873472684
 20
14.9176695021
 11
10.8117275501
 21
14.9176695021
  0
LINE
  5
43F
100
AcDbEntity
  8
0
100
AcDbLine
 62
7
  6
CONTINUOUS
 10
10.9092486885
 20
14.9176695021
 11
10.941755723
 21
14.9176695021
  0
LINE
  5
440
100
AcDbEntity
  8
0
100
AcDbLine
 62
7
  6
CONTINUOUS
 10
11.1042909188
 20
14.9176695021
 11
11.1286712005
 21
14.9176695021
  0
LINE
  5
441
100
AcDbEntity
  8
0
100
AcDbLine
 62
7
  6
CONTINUOUS
 10
10.941755723
 20
14.9463929063
 11
10.9092486885
 21
14.9463929063
  0
LINE
  5
442
100
AcDbEntity
  8
0
100
AcDbLine
 62
7
  6
CONTINUOUS
 10
10.6735726244
 20
15.0229886519
 11
10.7873472684
 21
15.0229886519
  0
LINE
  5
443
100
AcDbEntity
  8
0
100
AcDbLine
 62
7
  6
CONTINUOUS
 10
10.7873472684
 20
15.0517120528
 11
10.6735726244
 21
15.0517120528
  0
LINE
  5
444
100
AcDbEntity
  8
0
100
AcDbLine
 62
7
  6
CONTINUOUS
 10
10.9092486885
 20
15.1139461013
 11
10.941755723
 21
15.1139461013
  0
LINE
  5
445
100
AcDbEntity
  8
0
100
AcDbLine
 62
7
  6
CONTINUOUS
 10
11.0392768498
 20
15.1187333348
 11
11.1042909188
 21
15.1187333348
  0
LINE
  5
446
100
AcDbEntity
  8
0
100
AcDbLine
 62
7
  6
CONTINUOUS
 10
11.1286712005
 20
15.1187333348
 11
11.193685316
 21
15.1187333348
  0
LINE
  5
447
100
AcDbEntity
  8
0
100
AcDbLine
 62
7
  6
CONTINUOUS
 10
11.193685316
 20
15.1426695021
 11
11.0392768498
 21
15.1426695021
  0
LINE
  5
448
100
AcDbEntity
  8
0
100
AcDbLine
 62
7
  6
CONTINUOUS
 10
10.941755723
 20
15.1426695021
 11
10.9092486885
 21
15.1426695021
  0
LINE
  5
449
100
AcDbEntity
  8
0
100
AcDbLine
 62
7
  6
CONTINUOUS
 10
10.8117275501
 20
15.1426695021
 11
10.7873472684
 21
15.1426695021
  0
LINE
  5
44A
100
AcDbEntity
  8
0
100
AcDbLine
 62
7
  6
CONTINUOUS
 10
10.6735726244
 20
15.1426695021
 11
10.6491923427
 21
15.1426695021
  0
LINE
  5
44B
100
AcDbEntity
  8
0
100
AcDbLine
 62
7
  6
CONTINUOUS
 10
10.9620726167
 20
15.1378822687
 11
10.941755723
 21
15.1426695021
  0
LINE
  5
44C
100
AcDbEntity
  8
0
100
AcDbLine
 62
7
  6
CONTINUOUS
 10
10.941755723
 20
15.1139461013
 11
10.9580092519
 21
15.1091588678
  0
ARC
  5
44D
100
AcDbEntity
  8
0
100
AcDbCircle
 62
9
  6
CONTINUOUS
 10
10.937680781
 20
-79.802174273
 40
94.0909999825
100
AcDbArc
 50
89.8560633182
 51
90.1439225992
  0
ARC
  5
44E
100
AcDbEntity
  8
0
100
AcDbCircle
 62
9
  6
CONTINUOUS
 10
-69.284018818
 20
59.1461929341
 40
94.0907077238
100
AcDbArc
 50
329.8560715471
 51
330.1439317223
  0
ARC
  5
44F
100
AcDbEntity
  8
0
100
AcDbCircle
 62
9
  6
CONTINUOUS
 10
-1.5132886358
 20
5.0072198674
 40
11.6808009293
100
AcDbArc
 50
356.0495512103
 51
356.6537790174
  0
ARC
  5
450
100
AcDbEntity
  8
0
100
AcDbCircle
 62
7
  6
CONTINUOUS
 10
10.9376923427
 20
3.8301695021
 40
1.375
100
AcDbArc
 50
145.6603999937
 51
34.3396612738
  0
ARC
  5
451
100
AcDbEntity
  8
0
100
AcDbCircle
 62
7
  6
CONTINUOUS
 10
10.9376923427
 20
3.8301695021
 40
1.344
100
AcDbArc
 50
150.3300287608
 51
29.6698493274
  0
ARC
  5
452
100
AcDbEntity
  8
0
100
AcDbCircle
 62
7
  6
CONTINUOUS
 10
10.9376923427
 20
3.8301700278
 40
1.3125
100
AcDbArc
 50
161.9247857561
 51
18.0751341577
  0
ARC
  5
453
100
AcDbEntity
  8
0
100
AcDbCircle
 62
9
  6
CONTINUOUS
 10
10.6848349808
 20
4.4175100952
 40
0.6075665741
100
AcDbArc
 50
164.2107916936
 51
164.5442595479
  0
ARC
  5
454
100
AcDbEntity
  8
0
100
AcDbCircle
 62
9
  6
CONTINUOUS
 10
10.2813092831
 20
4.6498978356
 40
0.1344141965
100
AcDbArc
 50
177.602831587
 51
193.0888506853
  0
ARC
  5
455
100
AcDbEntity
  8
0
100
AcDbCircle
 62
9
  6
CONTINUOUS
 10
10.2811980549
 20
4.6498726634
 40
0.1343001575
100
AcDbArc
 50
193.0891368066
 51
196.276226605
  0
ARC
  5
456
100
AcDbEntity
  8
0
100
AcDbCircle
 62
9
  6
CONTINUOUS
 10
10.2813804334
 20
4.6497890975
 40
0.1342172743
100
AcDbArc
 50
177.5991020519
 51
195.8522007001
  0
ARC
  5
457
100
AcDbEntity
  8
0
100
AcDbCircle
 62
9
  6
CONTINUOUS
 10
10.1626692584
 20
5.7151982476
 40
0.0624740085
100
AcDbArc
 50
90.5491475338
 51
180.0267406467
  0
ARC
  5
458
100
AcDbEntity
  8
0
100
AcDbCircle
 62
9
  6
CONTINUOUS
 10
10.1627444202
 20
5.715542467
 40
0.0621270351
100
AcDbArc
 50
90.0000693618
 51
91.1151384422
  0
ARC
  5
459
100
AcDbEntity
  8
0
100
AcDbCircle
 62
7
  6
CONTINUOUS
 10
9.7890592622
 20
11.8996603568
 40
0.04
100
AcDbArc
 50
210.0
 51
304.7636416907
  0
ARC
  5
45A
100
AcDbEntity
  8
0
100
AcDbCircle
 62
7
  6
CONTINUOUS
 10
9.5575312442
 20
12.3006786475
 40
0.04
100
AcDbArc
 50
115.2363583093
 51
210.0
  0
ARC
  5
45B
100
AcDbEntity
  8
0
100
AcDbCircle
 62
9
  6
CONTINUOUS
 10
10.1351351994
 20
12.8916412122
 40
0.4047807252
100
AcDbArc
 50
351.043392631
 51
351.3144108606
  0
CIRCLE
  5
45C
100
AcDbEntity
  8
0
100
AcDbCircle
 62
7
  6
CONTINUOUS
 10
10.9376923427
 20
10.6601695021
 40
0.45
  0
CIRCLE
  5
45D
100
AcDbEntity
  8
0
100
AcDbCircle
 62
9
  6
CONTINUOUS
 10
10.9376923427
 20
10.6601695021
 40
0.4492005033
  0
CIRCLE
  5
45E
100
AcDbEntity
  8
0
100
AcDbCircle
 62
9
  6
CONTINUOUS
 10
10.9376923427
 20
10.6601695021
 40
0.4177005033
  0
CIRCLE
  5
45F
100
AcDbEntity
  8
0
100
AcDbCircle
 62
9
  6
CONTINUOUS
 10
10.9376923427
 20
10.6601695021
 40
0.3875
  0
ARC
  5
460
100
AcDbEntity
  8
0
100
AcDbCircle
 62
9
  6
CONTINUOUS
 10
10.7255302763
 20
12.3790061825
 40
0.1372329636
100
AcDbArc
 50
122.4325817723
 51
124.9228056524
  0
ARC
  5
461
100
AcDbEntity
  8
0
100
AcDbCircle
 62
7
  6
CONTINUOUS
 10
10.7239748009
 20
12.3781464803
 40
0.1
100
AcDbArc
 50
64.6951061016
 51
124.7636416907
  0
ARC
  5
462
100
AcDbEntity
  8
0
100
AcDbCircle
 62
9
  6
CONTINUOUS
 10
10.6530545487
 20
13.2394839822
 40
0.1372333173
100
AcDbArc
 50
2.4348093701
 51
4.924854234
  0
ARC
  5
463
100
AcDbEntity
  8
0
100
AcDbCircle
 62
9
  6
CONTINUOUS
 10
10.4409070045
 20
12.8720128186
 40
0.137226232
100
AcDbArc
 50
295.0717835283
 51
297.561850933
  0
ARC
  5
464
100
AcDbEntity
  8
0
100
AcDbCircle
 62
7
  6
CONTINUOUS
 10
10.4393701518
 20
12.8710961926
 40
0.1
100
AcDbArc
 50
295.2363583093
 51
355.3048938984
  0
ARC
  5
465
100
AcDbEntity
  8
0
100
AcDbCircle
 62
7
  6
CONTINUOUS
 10
10.6530876936
 20
13.2412658336
 40
0.1
100
AcDbArc
 50
304.6951061016
 51
4.7636416907
  0
CIRCLE
  5
466
100
AcDbEntity
  8
0
100
AcDbCircle
 62
7
  6
CONTINUOUS
 10
10.9376923427
 20
12.8301695021
 40
3.25
  0
CIRCLE
  5
467
100
AcDbEntity
  8
0
100
AcDbCircle
 62
9
  6
CONTINUOUS
 10
10.9376923427
 20
12.8301695021
 40
3.2115516844
  0
CIRCLE
  5
468
100
AcDbEntity
  8
0
100
AcDbCircle
 62
9
  6
CONTINUOUS
 10
10.9376923427
 20
12.8301695021
 40
3.1422181513
  0
CIRCLE
  5
469
100
AcDbEntity
  8
0
100
AcDbCircle
 62
9
  6
CONTINUOUS
 10
10.9376923427
 20
12.8301695021
 40
3.0828434898
  0
ARC
  5
46A
100
AcDbEntity
  8
0
100
AcDbCircle
 62
7
  6
CONTINUOUS
 10
10.9376923427
 20
12.8301695021
 40
1.25
100
AcDbArc
 50
359.6875658564
 51
0.3124341436
  0
ARC
  5
46B
100
AcDbEntity
  8
0
100
AcDbCircle
 62
7
  6
CONTINUOUS
 10
10.9376923427
 20
12.8301695021
 40
1.25
100
AcDbArc
 50
249.6875658564
 51
250.3124341436
  0
ARC
  5
46C
100
AcDbEntity
  8
0
100
AcDbCircle
 62
7
  6
CONTINUOUS
 10
10.9376923427
 20
12.8301695021
 40
1.25
100
AcDbArc
 50
179.6875658564
 51
180.3124341436
  0
ARC
  5
46D
100
AcDbEntity
  8
0
100
AcDbCircle
 62
7
  6
CONTINUOUS
 10
10.9376923427
 20
12.8301695021
 40
1.25
100
AcDbArc
 50
109.6875658564
 51
110.3124341436
  0
ARC
  5
46E
100
AcDbEntity
  8
0
100
AcDbCircle
 62
7
  6
CONTINUOUS
 10
10.9376923427
 20
12.8301695021
 40
1.25
100
AcDbArc
 50
173.6875658564
 51
179.6717823427
  0
ARC
  5
46F
100
AcDbEntity
  8
0
100
AcDbCircle
 62
7
  6
CONTINUOUS
 10
10.9376923427
 20
12.8301695021
 40
1.25
100
AcDbArc
 50
167.6875658564
 51
173.6630440756
  0
ARC
  5
470
100
AcDbEntity
  8
0
100
AcDbCircle
 62
7
  6
CONTINUOUS
 10
10.9376923427
 20
12.8301695021
 40
1.25
100
AcDbArc
 50
156.3320534234
 51
167.6550883111
  0
ARC
  5
471
100
AcDbEntity
  8
0
100
AcDbCircle
 62
7
  6
CONTINUOUS
 10
10.9376923427
 20
12.8301695021
 40
1.25
100
AcDbArc
 50
151.6875658564
 51
156.3124341436
  0
ARC
  5
472
100
AcDbEntity
  8
0
100
AcDbCircle
 62
7
  6
CONTINUOUS
 10
10.9376923427
 20
12.8301695021
 40
1.25
100
AcDbArc
 50
150.3394135592
 51
151.6582645757
  0
ARC
  5
473
100
AcDbEntity
  8
0
100
AcDbCircle
 62
7
  6
CONTINUOUS
 10
10.9376923427
 20
12.8301695021
 40
1.25
100
AcDbArc
 50
145.6875658564
 51
150.3124341436
  0
ARC
  5
474
100
AcDbEntity
  8
0
100
AcDbCircle
 62
7
  6
CONTINUOUS
 10
10.9376923427
 20
12.8301695021
 40
1.25
100
AcDbArc
 50
128.3396836625
 51
145.6654523375
  0
ARC
  5
475
100
AcDbEntity
  8
0
100
AcDbCircle
 62
7
  6
CONTINUOUS
 10
10.9376923427
 20
12.8301695021
 40
1.25
100
AcDbArc
 50
122.3312099644
 51
128.3124341436
  0
ARC
  5
476
100
AcDbEntity
  8
0
100
AcDbCircle
 62
7
  6
CONTINUOUS
 10
10.9376923427
 20
12.8301695021
 40
1.25
100
AcDbArc
 50
115.6875658564
 51
122.3124341436
  0
ARC
  5
477
100
AcDbEntity
  8
0
100
AcDbCircle
 62
7
  6
CONTINUOUS
 10
10.9376923427
 20
12.8301695021
 40
1.25
100
AcDbArc
 50
110.3227016511
 51
115.6658638652
  0
ARC
  5
478
100
AcDbEntity
  8
0
100
AcDbCircle
 62
7
  6
CONTINUOUS
 10
10.9376923427
 20
12.8301695021
 40
1.25
100
AcDbArc
 50
101.6156320466
 51
109.6576523976
  0
ARC
  5
479
100
AcDbEntity
  8
0
100
AcDbCircle
 62
7
  6
CONTINUOUS
 10
10.9376923427
 20
12.8301695021
 40
1.25
100
AcDbArc
 50
70.3423476024
 51
78.3593326139
  0
ARC
  5
47A
100
AcDbEntity
  8
0
100
AcDbCircle
 62
7
  6
CONTINUOUS
 10
10.9376923427
 20
12.8301695021
 40
1.25
100
AcDbArc
 50
64.3341361348
 51
70.3124341436
  0
ARC
  5
47B
100
AcDbEntity
  8
0
100
AcDbCircle
 62
7
  6
CONTINUOUS
 10
10.9376923427
 20
12.8301695021
 40
1.25
100
AcDbArc
 50
57.6875658564
 51
64.3124341436
  0
ARC
  5
47C
100
AcDbEntity
  8
0
100
AcDbCircle
 62
7
  6
CONTINUOUS
 10
10.9376923427
 20
12.8301695021
 40
1.25
100
AcDbArc
 50
51.6875658564
 51
57.6687900356
  0
ARC
  5
47D
100
AcDbEntity
  8
0
100
AcDbCircle
 62
7
  6
CONTINUOUS
 10
10.9376923427
 20
12.8301695021
 40
1.25
100
AcDbArc
 50
34.3345476625
 51
51.6603163375
  0
ARC
  5
47E
100
AcDbEntity
  8
0
100
AcDbCircle
 62
7
  6
CONTINUOUS
 10
10.9376923427
 20
12.8301695021
 40
1.25
100
AcDbArc
 50
29.6875658564
 51
34.3124341436
  0
ARC
  5
47F
100
AcDbEntity
  8
0
100
AcDbCircle
 62
7
  6
CONTINUOUS
 10
10.9376923427
 20
12.8301695021
 40
1.25
100
AcDbArc
 50
28.3417354243
 51
29.6605864408
  0
ARC
  5
480
100
AcDbEntity
  8
0
100
AcDbCircle
 62
7
  6
CONTINUOUS
 10
10.9376923427
 20
12.8301695021
 40
1.25
100
AcDbArc
 50
23.6875658564
 51
28.3124341436
  0
ARC
  5
481
100
AcDbEntity
  8
0
100
AcDbCircle
 62
7
  6
CONTINUOUS
 10
10.9376923427
 20
12.8301695021
 40
1.25
100
AcDbArc
 50
12.3449116889
 51
23.6679465766
  0
ARC
  5
482
100
AcDbEntity
  8
0
100
AcDbCircle
 62
7
  6
CONTINUOUS
 10
10.9376923427
 20
12.8301695021
 40
1.25
100
AcDbArc
 50
6.3369559244
 51
12.3124341436
  0
ARC
  5
483
100
AcDbEntity
  8
0
100
AcDbCircle
 62
7
  6
CONTINUOUS
 10
10.9376923427
 20
12.8301695021
 40
1.25
100
AcDbArc
 50
0.3282176573
 51
6.3124341436
  0
ARC
  5
484
100
AcDbEntity
  8
0
100
AcDbCircle
 62
7
  6
CONTINUOUS
 10
10.9376923427
 20
12.8301695021
 40
1.25
100
AcDbArc
 50
180.3282176573
 51
186.3124341436
  0
ARC
  5
485
100
AcDbEntity
  8
0
100
AcDbCircle
 62
7
  6
CONTINUOUS
 10
10.9376923427
 20
12.8301695021
 40
1.25
100
AcDbArc
 50
186.3369559244
 51
192.3124341436
  0
ARC
  5
486
100
AcDbEntity
  8
0
100
AcDbCircle
 62
7
  6
CONTINUOUS
 10
10.9376923427
 20
12.8301695021
 40
1.25
100
AcDbArc
 50
192.3449116889
 51
198.3520980281
  0
ARC
  5
487
100
AcDbEntity
  8
0
100
AcDbCircle
 62
7
  6
CONTINUOUS
 10
10.9376923427
 20
12.8301695021
 40
1.25
100
AcDbArc
 50
221.6474403805
 51
231.6603163375
  0
ARC
  5
488
100
AcDbEntity
  8
0
100
AcDbCircle
 62
7
  6
CONTINUOUS
 10
10.9376923427
 20
12.8301695021
 40
1.25
100
AcDbArc
 50
231.6875658564
 51
237.6687900356
  0
ARC
  5
489
100
AcDbEntity
  8
0
100
AcDbCircle
 62
7
  6
CONTINUOUS
 10
10.9376923427
 20
12.8301695021
 40
1.25
100
AcDbArc
 50
237.6875658564
 51
244.3124341436
  0
ARC
  5
48A
100
AcDbEntity
  8
0
100
AcDbCircle
 62
7
  6
CONTINUOUS
 10
10.9376923427
 20
12.8301695021
 40
1.25
100
AcDbArc
 50
244.3341361348
 51
249.6772983489
  0
ARC
  5
48B
100
AcDbEntity
  8
0
100
AcDbCircle
 62
7
  6
CONTINUOUS
 10
10.9376923427
 20
12.8301695021
 40
1.25
100
AcDbArc
 50
250.3423476024
 51
261.6705195415
  0
ARC
  5
48C
100
AcDbEntity
  8
0
100
AcDbCircle
 62
7
  6
CONTINUOUS
 10
10.9376923427
 20
12.8301695021
 40
1.25
100
AcDbArc
 50
261.6875658564
 51
266.3124341436
  0
ARC
  5
48D
100
AcDbEntity
  8
0
100
AcDbCircle
 62
7
  6
CONTINUOUS
 10
10.9376923427
 20
12.8301695021
 40
1.25
100
AcDbArc
 50
266.3440226085
 51
267.6629893921
  0
ARC
  5
48E
100
AcDbEntity
  8
0
100
AcDbCircle
 62
7
  6
CONTINUOUS
 10
10.9376923427
 20
12.8301695021
 40
1.25
100
AcDbArc
 50
267.6875658564
 51
272.3124341436
  0
ARC
  5
48F
100
AcDbEntity
  8
0
100
AcDbCircle
 62
7
  6
CONTINUOUS
 10
10.9376923427
 20
12.8301695021
 40
1.25
100
AcDbArc
 50
272.3370106079
 51
273.6559773915
  0
ARC
  5
490
100
AcDbEntity
  8
0
100
AcDbCircle
 62
7
  6
CONTINUOUS
 10
10.9376923427
 20
12.8301695021
 40
1.25
100
AcDbArc
 50
273.6875658564
 51
278.3124341436
  0
ARC
  5
491
100
AcDbEntity
  8
0
100
AcDbCircle
 62
7
  6
CONTINUOUS
 10
10.9376923427
 20
12.8301695021
 40
1.25
100
AcDbArc
 50
278.3294804585
 51
289.6576523976
  0
ARC
  5
492
100
AcDbEntity
  8
0
100
AcDbCircle
 62
7
  6
CONTINUOUS
 10
10.9376923427
 20
12.8301695021
 40
1.25
100
AcDbArc
 50
289.6875658564
 51
295.6658638652
  0
ARC
  5
493
100
AcDbEntity
  8
0
100
AcDbCircle
 62
7
  6
CONTINUOUS
 10
10.9376923427
 20
12.8301695021
 40
1.25
100
AcDbArc
 50
295.6875658564
 51
302.3124341436
  0
ARC
  5
494
100
AcDbEntity
  8
0
100
AcDbCircle
 62
7
  6
CONTINUOUS
 10
10.9376923427
 20
12.8301695021
 40
1.25
100
AcDbArc
 50
302.3312099644
 51
308.3124341436
  0
ARC
  5
495
100
AcDbEntity
  8
0
100
AcDbCircle
 62
7
  6
CONTINUOUS
 10
10.9376923427
 20
12.8301695021
 40
1.25
100
AcDbArc
 50
308.3396836625
 51
318.3525596195
  0
ARC
  5
496
100
AcDbEntity
  8
0
100
AcDbCircle
 62
7
  6
CONTINUOUS
 10
10.9376923427
 20
12.8301695021
 40
1.25
100
AcDbArc
 50
341.6479019719
 51
347.6550883111
  0
ARC
  5
497
100
AcDbEntity
  8
0
100
AcDbCircle
 62
7
  6
CONTINUOUS
 10
10.9376923427
 20
12.8301695021
 40
1.25
100
AcDbArc
 50
347.6875658564
 51
353.6630440756
  0
ARC
  5
498
100
AcDbEntity
  8
0
100
AcDbCircle
 62
7
  6
CONTINUOUS
 10
10.9376923427
 20
12.8301695021
 40
1.25
100
AcDbArc
 50
353.6875658564
 51
359.6717823427
  0
ARC
  5
499
100
AcDbEntity
  8
0
100
AcDbCircle
 62
9
  6
CONTINUOUS
 10
10.9376923427
 20
12.8301695021
 40
1.175
100
AcDbArc
 50
222.0795858879
 51
317.9204141121
  0
ARC
  5
49A
100
AcDbEntity
  8
0
100
AcDbCircle
 62
9
  6
CONTINUOUS
 10
10.9376923427
 20
12.8301695021
 40
1.175
100
AcDbArc
 50
102.0817393921
 51
197.9243783899
  0
ARC
  5
49B
100
AcDbEntity
  8
0
100
AcDbCircle
 62
9
  6
CONTINUOUS
 10
10.9376923427
 20
12.8301695021
 40
1.175
100
AcDbArc
 50
342.0756216101
 51
77.9182606079
  0
ARC
  5
49C
100
AcDbEntity
  8
0
100
AcDbCircle
 62
7
  6
CONTINUOUS
 10
10.9376923427
 20
12.8301695021
 40
1.075
100
AcDbArc
 50
102.7615804409
 51
197.2384195591
  0
ARC
  5
49D
100
AcDbEntity
  8
0
100
AcDbCircle
 62
7
  6
CONTINUOUS
 10
10.9376923427
 20
12.8301695021
 40
1.075
100
AcDbArc
 50
222.7615804409
 51
317.2384195591
  0
ARC
  5
49E
100
AcDbEntity
  8
0
100
AcDbCircle
 62
7
  6
CONTINUOUS
 10
10.9376923427
 20
12.8301695021
 40
1.075
100
AcDbArc
 50
342.7615804409
 51
77.2384195591
  0
ARC
  5
49F
100
AcDbEntity
  8
0
100
AcDbCircle
 62
7
  6
CONTINUOUS
 10
10.9376923427
 20
12.8301695021
 40
1.025
100
AcDbArc
 50
223.1565463332
 51
316.8434536668
  0
ARC
  5
4A0
100
AcDbEntity
  8
0
100
AcDbCircle
 62
7
  6
CONTINUOUS
 10
10.9376923427
 20
12.8301695021
 40
1.025
100
AcDbArc
 50
343.1565437444
 51
76.8434499175
  0
ARC
  5
4A1
100
AcDbEntity
  8
0
100
AcDbCircle
 62
7
  6
CONTINUOUS
 10
10.9376923427
 20
12.8301695021
 40
1.025
100
AcDbArc
 50
103.1565500825
 51
196.8434562556
  0
ARC
  5
4A2
100
AcDbEntity
  8
0
100
AcDbCircle
 62
7
  6
CONTINUOUS
 10
10.9376923427
 20
12.8301695021
 40
0.95
100
AcDbArc
 50
223.8203356735
 51
316.1796643265
  0
ARC
  5
4A3
100
AcDbEntity
  8
0
100
AcDbCircle
 62
7
  6
CONTINUOUS
 10
10.9376923427
 20
12.8301695021
 40
0.95
100
AcDbArc
 50
343.83013431
 51
76.1737438756
  0
ARC
  5
4A4
100
AcDbEntity
  8
0
100
AcDbCircle
 62
7
  6
CONTINUOUS
 10
10.9376923427
 20
12.8301695021
 40
0.95
100
AcDbArc
 50
103.8262561244
 51
196.16986569
  0
ARC
  5
4A5
100
AcDbEntity
  8
0
100
AcDbCircle
 62
7
  6
CONTINUOUS
 10
10.9376923427
 20
12.8301695021
 40
0.85
100
AcDbArc
 50
224.8934606425
 51
315.1065393575
  0
ARC
  5
4A6
100
AcDbEntity
  8
0
100
AcDbCircle
 62
7
  6
CONTINUOUS
 10
10.9376923427
 20
12.8301695021
 40
0.85
100
AcDbArc
 50
344.9070322491
 51
75.0935734558
  0
ARC
  5
4A7
100
AcDbEntity
  8
0
100
AcDbCircle
 62
7
  6
CONTINUOUS
 10
10.9376923427
 20
12.8301695021
 40
0.85
100
AcDbArc
 50
104.9064265442
 51
195.0929677509
  0
ARC
  5
4A8
100
AcDbEntity
  8
0
100
AcDbCircle
 62
7
  6
CONTINUOUS
 10
10.9376923427
 20
12.8301695021
 40
0.75
100
AcDbArc
 50
226.2718683608
 51
313.7281316392
  0
ARC
  5
4A9
100
AcDbEntity
  8
0
100
AcDbCircle
 62
7
  6
CONTINUOUS
 10
10.9376923427
 20
12.8301695021
 40
0.75
100
AcDbArc
 50
346.2688125949
 51
73.7214881753
  0
ARC
  5
4AA
100
AcDbEntity
  8
0
100
AcDbCircle
 62
7
  6
CONTINUOUS
 10
10.9376923427
 20
12.8301695021
 40
0.75
100
AcDbArc
 50
106.2785118247
 51
193.7311874051
  0
ARC
  5
4AB
100
AcDbEntity
  8
0
100
AcDbCircle
 62
9
  6
CONTINUOUS
 10
10.9211805621
 20
12.8206367137
 40
0.4226565072
100
AcDbArc
 50
189.5711546171
 51
230.4290882085
  0
ARC
  5
4AC
100
AcDbEntity
  8
0
100
AcDbCircle
 62
9
  6
CONTINUOUS
 10
10.9376923548
 20
12.8492509096
 40
0.4226408617
100
AcDbArc
 50
69.5703158166
 51
110.4297133698
  0
CIRCLE
  5
4AD
100
AcDbEntity
  8
0
100
AcDbCircle
 62
7
  6
CONTINUOUS
 10
10.9376923427
 20
12.8301695021
 40
0.4
  0
CIRCLE
  5
4AE
100
AcDbEntity
  8
0
100
AcDbCircle
 62
9
  6
CONTINUOUS
 10
10.9376923427
 20
12.8301695021
 40
0.3875
  0
CIRCLE
  5
4AF
100
AcDbEntity
  8
0
100
AcDbCircle
 62
7
  6
CONTINUOUS
 10
10.9376923427
 20
12.8301695021
 40
0.3125
  0
CIRCLE
  5
4B0
100
AcDbEntity
  8
0
100
AcDbCircle
 62
9
  6
CONTINUOUS
 10
10.9376923427
 20
12.8301695021
 40
0.2825
  0
CIRCLE
  5
4B1
100
AcDbEntity
  8
0
100
AcDbCircle
 62
7
  6
CONTINUOUS
 10
10.9376923427
 20
12.8301695021
 40
0.2625
  0
ARC
  5
4B2
100
AcDbEntity
  8
0
100
AcDbCircle
 62
7
  6
CONTINUOUS
 10
10.7061643247
 20
14.2901695021
 40
0.04
100
AcDbArc
 50
90.0
 51
184.7636416907
  0
ARC
  5
4B3
100
AcDbEntity
  8
0
100
AcDbCircle
 62
9
  6
CONTINUOUS
 10
91.1594079802
 20
59.1462017133
 40
94.0907159903
100
AcDbArc
 50
209.8560715553
 51
210.1439317051
  0
ARC
  5
4B4
100
AcDbEntity
  8
0
100
AcDbCircle
 62
9
  6
CONTINUOUS
 10
23.3832047738
 20
5.0068715773
 40
11.67532138
100
AcDbArc
 50
183.3460829561
 51
183.950592509
  0
ARC
  5
4B5
100
AcDbEntity
  8
0
100
AcDbCircle
 62
9
  6
CONTINUOUS
 10
11.1905497132
 20
4.4175100904
 40
0.6075665651
100
AcDbArc
 50
15.4557404002
 51
15.7892082404
  0
ARC
  5
4B6
100
AcDbEntity
  8
0
100
AcDbCircle
 62
9
  6
CONTINUOUS
 10
10.9542159107
 20
12.8206297878
 40
0.4226431493
100
AcDbArc
 50
309.5703001545
 51
350.429510048
  0
ARC
  5
4B7
100
AcDbEntity
  8
0
100
AcDbCircle
 62
9
  6
CONTINUOUS
 10
11.7401151258
 20
12.8916242312
 40
0.4046454047
100
AcDbArc
 50
188.6860580591
 51
188.9571474236
  0
ARC
  5
4B8
100
AcDbEntity
  8
0
100
AcDbCircle
 62
9
  6
CONTINUOUS
 10
11.4344812286
 20
12.8720193913
 40
0.1372336895
100
AcDbArc
 50
242.4380995998
 51
244.9280378671
  0
ARC
  5
4B9
100
AcDbEntity
  8
0
100
AcDbCircle
 62
9
  6
CONTINUOUS
 10
11.2223225724
 20
13.2394823377
 40
0.1372259212
100
AcDbArc
 50
175.074190683
 51
177.5643547579
  0
ARC
  5
4BA
100
AcDbEntity
  8
0
100
AcDbCircle
 62
9
  6
CONTINUOUS
 10
11.1498574828
 20
12.3790130899
 40
0.1372255397
100
AcDbArc
 50
55.0765957287
 51
57.5668695063
  0
ARC
  5
4BB
100
AcDbEntity
  8
0
100
AcDbCircle
 62
9
  6
CONTINUOUS
 10
11.5940838014
 20
4.6498961944
 40
0.1344053764
100
AcDbArc
 50
346.6603123065
 51
2.3979593202
  0
ARC
  5
4BC
100
AcDbEntity
  8
0
100
AcDbCircle
 62
9
  6
CONTINUOUS
 10
11.5941984398
 20
4.6498694201
 40
0.1342876536
100
AcDbArc
 50
343.7228719008
 51
346.6601425402
  0
ARC
  5
4BD
100
AcDbEntity
  8
0
100
AcDbCircle
 62
9
  6
CONTINUOUS
 10
11.5940092957
 20
4.6497904304
 40
0.1342097228
100
AcDbArc
 50
344.1522525664
 51
2.402027666
  0
ARC
  5
4BE
100
AcDbEntity
  8
0
100
AcDbCircle
 62
7
  6
CONTINUOUS
 10
11.4360145337
 20
12.8710961926
 40
0.1
100
AcDbArc
 50
184.6951061016
 51
244.7636416907
  0
ARC
  5
4BF
100
AcDbEntity
  8
0
100
AcDbCircle
 62
7
  6
CONTINUOUS
 10
11.1514098846
 20
12.3781464803
 40
0.1
100
AcDbArc
 50
55.2363583093
 51
115.3048938984
  0
ARC
  5
4C0
100
AcDbEntity
  8
0
100
AcDbCircle
 62
7
  6
CONTINUOUS
 10
11.2222969918
 20
13.2412658336
 40
0.1
100
AcDbArc
 50
175.2363583093
 51
235.3048938984
  0
ARC
  5
4C1
100
AcDbEntity
  8
0
100
AcDbCircle
 62
9
  6
CONTINUOUS
 10
11.712715432
 20
5.7151982431
 40
0.0624740086
100
AcDbArc
 50
359.9732635645
 51
89.4511855221
  0
ARC
  5
4C2
100
AcDbEntity
  8
0
100
AcDbCircle
 62
9
  6
CONTINUOUS
 10
11.7126402463
 20
5.7155369524
 40
0.0621325498
100
AcDbArc
 50
88.8739633695
 51
89.9999131683
  0
ARC
  5
4C3
100
AcDbEntity
  8
0
100
AcDbCircle
 62
7
  6
CONTINUOUS
 10
12.3178534413
 20
12.3006786475
 40
0.04
100
AcDbArc
 50
330.0
 51
64.7636416907
  0
ARC
  5
4C4
100
AcDbEntity
  8
0
100
AcDbCircle
 62
7
  6
CONTINUOUS
 10
12.0863254232
 20
11.8996603568
 40
0.04
100
AcDbArc
 50
235.2363583093
 51
330.0
  0
ARC
  5
4C5
100
AcDbEntity
  8
0
100
AcDbCircle
 62
7
  6
CONTINUOUS
 10
11.1692203608
 20
14.2901695021
 40
0.04
100
AcDbArc
 50
355.2363583093
 51
90.0
  0
SPLINE
  5
4C6
100
AcDbEntity
  8
0
100
AcDbSpline
 62
7
  6
CONTINUOUS
 70
0
 71
3
 72
26
 73
22
 74
0
 42
0.0000001
 43
0.0000001
 44
0.0000000001
 40
0.0
 40
0.0
 40
0.0
 40
0.0
 40
0.0082526365
 40
0.0169828982
 40
0.0267287286
 40
0.0378734392
 40
0.0506662812
 40
0.0652583408
 40
0.0817335708
 40
0.1001377426
 40
0.1204867947
 40
0.142772547
 40
0.1930564418
 40
0.250689828
 40
0.3152294194
 40
0.3861243374
 40
0.4627400524
 40
0.5443768919
 40
0.6302791373
 40
0.8116138694
 40
1.0
 40
1.0
 40
1.0
 40
1.0
 10
10.1393019005
 20
4.2008761888
 30
0.0
 10
10.1392769429
 20
4.2005173984
 30
0.0
 10
10.1393339835
 20
4.199767357
 30
0.0
 10
10.1397457797
 20
4.1986645201
 30
0.0
 10
10.1404673015
 20
4.1975833648
 30
0.0
 10
10.1414880103
 20
4.1965205872
 30
0.0
 10
10.1428048759
 20
4.1954727381
 30
0.0
 10
10.144415802
 20
4.1944392238
 30
0.0
 10
10.1463181083
 20
4.1934208139
 30
0.0
 10
10.1485083772
 20
4.1924198111
 30
0.0
 10
10.150981889
 20
4.1914384379
 30
0.0
 10
10.1548065225
 20
4.1901049254
 30
0.0
 10
10.1602625263
 20
4.18853123
 30
0.0
 10
10.1675836542
 20
4.1868217505
 30
0.0
 10
10.1758501843
 20
4.1852425021
 30
0.0
 10
10.184981113
 20
4.1838093726
 30
0.0
 10
10.1948873383
 20
4.1825371901
 30
0.0
 10
10.2054719342
 20
4.1814388247
 30
0.0
 10
10.220626507
 20
4.1801986951
 30
0.0
 10
10.2404614122
 20
4.1791740763
 30
0.0
 10
10.2565754138
 20
4.1789032579
 30
0.0
 10
10.264785452
 20
4.1789032579
 30
0.0
  0
SPLINE
  5
4C7
100
AcDbEntity
  8
0
100
AcDbSpline
 62
7
  6
CONTINUOUS
 70
0
 71
3
 72
26
 73
22
 74
0
 42
0.0000001
 43
0.0000001
 44
0.0000000001
 40
0.0
 40
0.0
 40
0.0
 40
0.0
 40
0.1883861181
 40
0.3697208458
 40
0.4556230921
 40
0.5372599337
 40
0.6138756514
 40
0.6847705722
 40
0.749310166
 40
0.8069435543
 40
0.8572274509
 40
0.8795132039
 40
0.8998622567
 40
0.918266429
 40
0.9347416596
 40
0.9493337196
 40
0.9621265618
 40
0.9732712725
 40
0.9830171028
 40
0.9917473641
 40
1.0
 40
1.0
 40
1.0
 40
1.0
 10
11.6105992079
 20
4.1789032579
 30
0.0
 10
11.6188092472
 20
4.1789032579
 30
0.0
 10
11.6349232511
 20
4.179174076
 30
0.0
 10
11.6547581596
 20
4.1801986944
 30
0.0
 10
11.6699127353
 20
4.1814388236
 30
0.0
 10
11.6804973335
 20
4.1825371888
 30
0.0
 10
11.6904035611
 20
4.1838093711
 30
0.0
 10
11.699534492
 20
4.1852425006
 30
0.0
 10
11.707801024
 20
4.186821749
 30
0.0
 10
11.7151221536
 20
4.1885312286
 30
0.0
 10
11.7205781588
 20
4.1901049241
 30
0.0
 10
11.7244027932
 20
4.1914384367
 30
0.0
 10
11.7268763056
 20
4.19241981
 30
0.0
 10
11.7290665751
 20
4.1934208129
 30
0.0
 10
11.7309688819
 20
4.1944392229
 30
0.0
 10
11.7325798085
 20
4.1954727373
 30
0.0
 10
11.7338966744
 20
4.1965205865
 30
0.0
 10
11.7349173835
 20
4.1975833642
 30
0.0
 10
11.7356389055
 20
4.1986645197
 30
0.0
 10
11.7360507019
 20
4.1997673567
 30
0.0
 10
11.7361077425
 20
4.2005173982
 30
0.0
 10
11.736082785
 20
4.2008761886
 30
0.0
  0
SPLINE
  5
4C8
100
AcDbEntity
  8
0
100
AcDbSpline
 62
9
  6
CONTINUOUS
 70
0
 71
3
 72
16
 73
12
 74
0
 42
0.0000001
 43
0.0000001
 44
0.0000000001
 40
0.0
 40
0.0
 40
0.0
 40
0.0
 40
0.1230355807
 40
0.2462810775
 40
0.3698492072
 40
0.493916206
 40
0.6187155474
 40
0.744560987
 40
0.8717004841
 40
0.9358425972
 40
1.0
 40
1.0
 40
1.0
 40
1.0
 10
11.3404034151
 20
12.8286208169
 30
0.0
 10
11.3409482298
 20
12.825161348
 30
0.0
 10
11.3421297508
 20
12.81825034
 30
0.0
 10
11.3442260033
 20
12.8079316979
 30
0.0
 10
11.3467201703
 20
12.7976704995
 30
0.0
 10
11.3497148901
 20
12.7874960319
 30
0.0
 10
11.3533613019
 20
12.7774628451
 30
0.0
 10
11.3578726364
 20
12.7676849117
 30
0.0
 10
11.3625961619
 20
12.7599539398
 30
0.0
 10
11.3671099083
 20
12.7542437293
 30
0.0
 10
11.3696435701
 20
12.7516021251
 30
0.0
 10
11.3709821577
 20
12.7503598916
 30
0.0
  0
SPLINE
  5
4C9
100
AcDbEntity
  8
0
100
AcDbSpline
 62
9
  6
CONTINUOUS
 70
0
 71
3
 72
25
 73
21
 74
0
 42
0.0000001
 43
0.0000001
 44
0.0000000001
 40
0.0
 40
0.0
 40
0.0
 40
0.0
 40
0.0022371235
 40
0.003990299
 40
0.0062587772
 40
0.0124318743
 40
0.0208506611
 40
0.0315385015
 40
0.0444901918
 40
0.0770804252
 40
0.1183823983
 40
0.168057584
 40
0.2256689514
 40
0.2907339081
 40
0.3626724786
 40
0.4408734967
 40
0.5246355113
 40
0.613221306
 40
0.8018209734
 40
1.0
 40
1.0
 40
1.0
 40
1.0
 10
11.3895647898
 20
12.7825387358
 30
0.0
 10
11.3895401955
 20
12.7825516375
 30
0.0
 10
11.3894837094
 20
12.7825379893
 30
0.0
 10
11.3894192318
 20
12.7824982758
 30
0.0
 10
11.389318711
 20
12.7824194475
 30
0.0
 10
11.3891728595
 20
12.7822693679
 30
0.0
 10
11.3889700293
 20
12.7820294906
 30
0.0
 10
11.3887279462
 20
12.7817135315
 30
0.0
 10
11.3883203923
 20
12.7811466733
 30
0.0
 10
11.3877211645
 20
12.7802501266
 30
0.0
 10
11.3868994031
 20
12.7789546866
 30
0.0
 10
11.3859374216
 20
12.7773806322
 30
0.0
 10
11.3848435824
 20
12.7755416497
 30
0.0
 10
11.3836279273
 20
12.7734536644
 30
0.0
 10
11.3823009615
 20
12.771134804
 30
0.0
 10
11.3808746079
 20
12.7686054541
 30
0.0
 10
11.3793613528
 20
12.7658879006
 30
0.0
 10
11.3772001043
 20
12.7619625214
 30
0.0
 10
11.3743877941
 20
12.7567741837
 30
0.0
 10
11.3721310203
 20
12.7525358234
 30
0.0
 10
11.3709822893
 20
12.7503601531
 30
0.0
  0
SPLINE
  5
4CA
100
AcDbEntity
  8
0
100
AcDbSpline
 62
9
  6
CONTINUOUS
 70
0
 71
3
 72
27
 73
23
 74
0
 42
0.0000001
 43
0.0000001
 44
0.0000000001
 40
0.0
 40
0.0
 40
0.0
 40
0.0
 40
0.0020200151
 40
0.0037163958
 40
0.0059368626
 40
0.0120083842
 40
0.0202950929
 40
0.0308110091
 40
0.0435573262
 40
0.0756816914
 40
0.1164877379
 40
0.1656608817
 40
0.2227833086
 40
0.2873988592
 40
0.3589674152
 40
0.4369214894
 40
0.5206070399
 40
0.6093389677
 40
0.7024158183
 40
0.799119408
 40
0.898637543
 40
1.0
 40
1.0
 40
1.0
 40
1.0
 10
12.3349075767
 20
12.3368609148
 30
0.0
 10
12.3348861776
 20
12.336871001
 30
0.0
 10
12.3348376672
 20
12.3368517412
 30
0.0
 10
12.33478311
 20
12.3368129895
 30
0.0
 10
12.3346946169
 20
12.336734275
 30
0.0
 10
12.3345670151
 20
12.3365884273
 30
0.0
 10
12.3343917398
 20
12.336355133
 30
0.0
 10
12.3341874694
 20
12.3360472127
 30
0.0
 10
12.3338493982
 20
12.3354934796
 30
0.0
 10
12.3333558629
 20
12.3346197177
 30
0.0
 10
12.3326662222
 20
12.333367053
 30
0.0
 10
12.3318437873
 20
12.3318532709
 30
0.0
 10
12.3309019164
 20
12.3300871211
 30
0.0
 10
12.3298521505
 20
12.3280813397
 30
0.0
 10
12.328704952
 20
12.3258512668
 30
0.0
 10
12.3274720963
 20
12.3234141772
 30
0.0
 10
12.3261657116
 20
12.320789088
 30
0.0
 10
12.3248005977
 20
12.317995497
 30
0.0
 10
12.3233803127
 20
12.3150592311
 30
0.0
 10
12.3218970261
 20
12.3120131207
 30
0.0
 10
12.3203630454
 20
12.3088838009
 30
0.0
 10
12.3193492116
 20
12.3067607714
 30
0.0
 10
12.3188486151
 20
12.3056844049
 30
0.0
  0
LINE
  5
4CB
100
AcDbEntity
  8
0
100
AcDbLine
 62
9
  6
CONTINUOUS
 10
11.3933791948
 20
12.7806405233
 11
11.3927237193
 21
12.7799420808
  0
SPLINE
  5
4CC
100
AcDbEntity
  8
0
100
AcDbSpline
 62
9
  6
CONTINUOUS
 70
0
 71
3
 72
16
 73
12
 74
0
 42
0.0000001
 43
0.0000001
 44
0.0000000001
 40
0.0
 40
0.0
 40
0.0
 40
0.0
 40
0.0224799157
 40
0.0517032544
 40
0.1296822978
 40
0.2320098662
 40
0.3560978158
 40
0.4987835212
 40
0.6563755205
 40
0.8249446611
 40
1.0
 40
1.0
 40
1.0
 40
1.0
 10
11.3927237193
 20
12.7799420808
 30
0.0
 10
11.392570845
 20
12.7797182725
 30
0.0
 10
11.3922357585
 20
12.7791923185
 30
0.0
 10
11.3914353028
 20
12.7778491199
 30
0.0
 10
11.3902090235
 20
12.7756398909
 30
0.0
 10
11.3884879299
 20
12.7723984198
 30
0.0
 10
11.386452718
 20
12.7684407348
 30
0.0
 10
11.3841556077
 20
12.7638688298
 30
0.0
 10
11.3816559614
 20
12.7587986687
 30
0.0
 10
11.3790187189
 20
12.7533613745
 30
0.0
 10
11.3772323666
 20
12.7496232225
 30
0.0
 10
11.3763275979
 20
12.7477163732
 30
0.0
  0
SPLINE
  5
4CD
100
AcDbEntity
  8
0
100
AcDbSpline
 62
9
  6
CONTINUOUS
 70
0
 71
3
 72
11
 73
7
 74
0
 42
0.0000001
 43
0.0000001
 44
0.0000000001
 40
0.0
 40
0.0
 40
0.0
 40
0.0
 40
0.249990829
 40
0.4999845327
 40
0.7499865898
 40
1.0
 40
1.0
 40
1.0
 40
1.0
 10
11.3763275979
 20
12.7477163732
 30
0.0
 10
11.4549009455
 20
12.7109516278
 30
0.0
 10
11.6120799187
 20
12.6374887984
 30
0.0
 10
11.8478202221
 20
12.5272262788
 30
0.0
 10
12.0834454916
 20
12.4166995566
 30
0.0
 10
12.2404061547
 20
12.3427459423
 30
0.0
 10
12.3188485845
 20
12.3056843416
 30
0.0
  0
SPLINE
  5
4CE
100
AcDbEntity
  8
0
100
AcDbSpline
 62
9
  6
CONTINUOUS
 70
0
 71
3
 72
27
 73
23
 74
0
 42
0.0000001
 43
0.0000001
 44
0.0000000001
 40
0.0
 40
0.0
 40
0.0
 40
0.0
 40
0.0061372331
 40
0.012851648
 40
0.0209303944
 40
0.0308228509
 40
0.0427625717
 40
0.0568296366
 40
0.0730183588
 40
0.091308405
 40
0.1340756387
 40
0.1848518123
 40
0.2432415235
 40
0.3087436621
 40
0.3807100407
 40
0.4584539891
 40
0.541197138
 40
0.6281198186
 40
0.718372438
 40
0.8110918098
 40
0.9053372274
 40
1.0
 40
1.0
 40
1.0
 40
1.0
 10
12.3524944573
 20
12.2806786473
 30
0.0
 10
12.3525379413
 20
12.2807539637
 30
0.0
 10
12.3525974862
 20
12.2809321845
 30
0.0
 10
12.3525769899
 20
12.2812332246
 30
0.0
 10
12.3524635722
 20
12.281566532
 30
0.0
 10
12.3522644955
 20
12.2819418978
 30
0.0
 10
12.3519831307
 20
12.282366315
 30
0.0
 10
12.3516199634
 20
12.2828417554
 30
0.0
 10
12.3511735456
 20
12.283365503
 30
0.0
 10
12.3504276227
 20
12.2841670125
 30
0.0
 10
12.349280646
 20
12.2852624121
 30
0.0
 10
12.3476480255
 20
12.2866667232
 30
0.0
 10
12.3457164259
 20
12.2882149686
 30
0.0
 10
12.3435069839
 20
12.2898950376
 30
0.0
 10
12.3410388183
 20
12.2916867122
 30
0.0
 10
12.3383346881
 20
12.2935680049
 30
0.0
 10
12.3354241228
 20
12.2955227412
 30
0.0
 10
12.332339655
 20
12.2975358462
 30
0.0
 10
12.3291088302
 20
12.2995828238
 30
0.0
 10
12.3257544581
 20
12.301627711
 30
0.0
 10
12.3223144617
 20
12.3036509457
 30
0.0
 10
12.3200036822
 20
12.3050023258
 30
0.0
 10
12.3188486151
 20
12.3056844049
 30
0.0
  0
SPLINE
  5
4CF
100
AcDbEntity
  8
0
100
AcDbSpline
 62
9
  6
CONTINUOUS
 70
0
 71
3
 72
27
 73
23
 74
0
 42
0.0000001
 43
0.0000001
 44
0.0000000001
 40
0.0
 40
0.0
 40
0.0
 40
0.0
 40
0.0061370938
 40
0.0128513958
 40
0.0209300591
 40
0.0308224556
 40
0.0427621328
 40
0.0568291663
 40
0.0730178666
 40
0.0913078988
 40
0.1340751236
 40
0.1848513074
 40
0.2432410432
 40
0.3087432175
 40
0.3807096405
 40
0.4584536397
 40
0.541196844
 40
0.6281195827
 40
0.7183722619
 40
0.8110916943
 40
0.9053371713
 40
1.0
 40
1.0
 40
1.0
 40
1.0
 10
12.1209664395
 20
11.879660357
 30
0.0
 10
12.1209229566
 20
11.8795850424
 30
0.0
 10
12.1207983868
 20
11.8794443678
 30
0.0
 10
12.120527433
 20
11.8793116037
 30
0.0
 10
12.1201820745
 20
11.8792431777
 30
0.0
 10
12.1197574626
 20
11.8792279047
 30
0.0
 10
12.1192492267
 20
11.8792593692
 30
0.0
 10
12.1186559018
 20
11.8793361648
 30
0.0
 10
12.1179791161
 20
11.8794609036
 30
0.0
 10
12.1169120294
 20
11.8797061413
 30
0.0
 10
12.1153898997
 20
11.8801517568
 30
0.0
 10
12.1133574226
 20
11.8808634957
 30
0.0
 10
12.1110508043
 20
11.8817621895
 30
0.0
 10
12.1084911014
 20
11.8828355886
 30
0.0
 10
12.1057053824
 20
11.8840772446
 30
0.0
 10
12.1027240687
 20
11.8854784414
 30
0.0
 10
12.0995759326
 20
11.8870216929
 30
0.0
 10
12.0962902956
 20
11.8886863626
 30
0.0
 10
12.0929021448
 20
11.8904608435
 30
0.0
 10
12.0894540299
 20
11.8923433635
 30
0.0
 10
12.0859818538
 20
11.8943108613
 30
0.0
 10
12.0836561305
 20
11.8956363581
 30
0.0
 10
12.0824878971
 20
11.8962956324
 30
0.0
  0
SPLINE
  5
4D0
100
AcDbEntity
  8
0
100
AcDbSpline
 62
9
  6
CONTINUOUS
 70
0
 71
3
 72
25
 73
21
 74
0
 42
0.0000001
 43
0.0000001
 44
0.0000000001
 40
0.0
 40
0.0
 40
0.0
 40
0.0
 40
0.0132531251
 40
0.0265265164
 40
0.040104636
 40
0.0542463225
 40
0.0691743301
 40
0.085072072
 40
0.1203009625
 40
0.1607888257
 40
0.2070022121
 40
0.2591919015
 40
0.3174780062
 40
0.3818991946
 40
0.4524416368
 40
0.529054731
 40
0.6116620839
 40
0.700170393
 40
0.7944742345
 40
1.0
 40
1.0
 40
1.0
 40
1.0
 10
11.7751923393
 20
5.7151690889
 30
0.0
 10
11.7758590701
 20
5.7152381142
 30
0.0
 10
11.7772060868
 20
5.715277429
 30
0.0
 10
11.7792264879
 20
5.7150296635
 30
0.0
 10
11.7812325319
 20
5.7144789771
 30
0.0
 10
11.7832219217
 20
5.7136302604
 30
0.0
 10
11.7851945524
 20
5.7124884472
 30
0.0
 10
11.7878949637
 20
5.7105125321
 30
0.0
 10
11.7912234166
 20
5.7072563028
 30
0.0
 10
11.7950134534
 20
5.7023759591
 30
0.0
 10
11.7987401438
 20
5.6964100998
 30
0.0
 10
11.8024038789
 20
5.689376273
 30
0.0
 10
11.8060037568
 20
5.6812914442
 30
0.0
 10
11.8095365883
 20
5.6721750093
 30
0.0
 10
11.8129988027
 20
5.6620472878
 30
0.0
 10
11.8163866451
 20
5.6509296154
 30
0.0
 10
11.8196963278
 20
5.6388439627
 30
0.0
 10
11.8229242066
 20
5.6258126458
 30
0.0
 10
11.82723838
 20
5.6066504988
 30
0.0
 10
11.8301424641
 20
5.5917629088
 30
0.0
 10
11.8319892831
 20
5.5815335485
 30
0.0
  0
LINE
  5
4D1
100
AcDbEntity
  8
0
100
AcDbLine
 62
9
  6
CONTINUOUS
 10
11.8319892831
 20
5.5815335485
 11
11.8320124323
 21
5.5814052832
  0
SPLINE
  5
4D2
100
AcDbEntity
  8
0
100
AcDbSpline
 62
9
  6
CONTINUOUS
 70
0
 71
3
 72
29
 73
25
 74
0
 42
0.0000001
 43
0.0000001
 44
0.0000000001
 40
0.0
 40
0.0
 40
0.0
 40
0.0
 40
0.1084052437
 40
0.2112369315
 40
0.3083335273
 40
0.399536164
 40
0.4846946428
 40
0.5636684859
 40
0.6363233792
 40
0.7025351959
 40
0.7621962513
 40
0.8152183062
 40
0.8392225834
 40
0.8615532605
 40
0.8822154577
 40
0.9012198647
 40
0.9185848915
 40
0.9343398746
 40
0.9485300468
 40
0.9612243931
 40
0.9725263811
 40
0.982590164
 40
0.9916419679
 40
1.0
 40
1.0
 40
1.0
 40
1.0
 10
11.6876923398
 20
5.4225580726
 30
0.0
 10
11.6895198302
 20
5.4336431257
 30
0.0
 10
11.6931677899
 20
5.4552291206
 30
0.0
 10
11.6987838968
 20
5.4866866748
 30
0.0
 10
11.7043974405
 20
5.5163321463
 30
0.0
 10
11.7100034614
 20
5.544112994
 30
0.0
 10
11.7155964557
 20
5.5699780586
 30
0.0
 10
11.721170177
 20
5.5938776664
 30
0.0
 10
11.7267186194
 20
5.6157630253
 30
0.0
 10
11.7322352376
 20
5.6355866804
 30
0.0
 10
11.7377122073
 20
5.6533020689
 30
0.0
 10
11.7423776906
 20
5.6666823552
 30
0.0
 10
11.7461182952
 20
5.6762769783
 30
0.0
 10
11.7488165635
 20
5.6826756465
 30
0.0
 10
11.751500521
 20
5.6885147499
 30
0.0
 10
11.7541695078
 20
5.6937901882
 30
0.0
 10
11.7568228156
 20
5.6984981135
 30
0.0
 10
11.7594600237
 20
5.7026349713
 30
0.0
 10
11.762081245
 20
5.7061975885
 30
0.0
 10
11.7646874626
 20
5.7091833295
 30
0.0
 10
11.7672811462
 20
5.711589545
 30
0.0
 10
11.7698682841
 20
5.7134119196
 30
0.0
 10
11.7724543082
 20
5.7146408602
 30
0.0
 10
11.7742274968
 20
5.7150619318
 30
0.0
 10
11.7750883555
 20
5.7151579131
 30
0.0
  0
SPLINE
  5
4D3
100
AcDbEntity
  8
0
100
AcDbSpline
 62
9
  6
CONTINUOUS
 70
0
 71
3
 72
20
 73
16
 74
0
 42
0.0000001
 43
0.0000001
 44
0.0000000001
 40
0.0
 40
0.0
 40
0.0
 40
0.0
 40
0.1234407118
 40
0.2469138911
 40
0.3705156965
 40
0.4944060361
 40
0.6188333917
 40
0.6813851904
 40
0.744253783
 40
0.7758356059
 40
0.8075223742
 40
0.8393335465
 40
0.8712728922
 40
0.935524894
 40
1.0
 40
1.0
 40
1.0
 40
1.0
 10
11.1086650759
 20
12.4685513242
 30
0.0
 10
11.1131264733
 20
12.4706604835
 30
0.0
 10
11.1221128603
 20
12.4747488434
 30
0.0
 10
11.1357779416
 20
12.480470538
 30
0.0
 10
11.1496506229
 20
12.4857236447
 30
0.0
 10
11.1637737275
 20
12.4903884121
 30
0.0
 10
11.1757901423
 20
12.493603838
 30
0.0
 10
11.18558249
 20
12.4955879958
 30
0.0
 10
11.1917932578
 20
12.4965201243
 30
0.0
 10
11.1968104189
 20
12.4970347313
 30
0.0
 10
11.2006039255
 20
12.4972875854
 30
0.0
 10
11.2044189872
 20
12.4973920876
 30
0.0
 10
11.2095369728
 20
12.4973061111
 30
0.0
 10
11.2159450522
 20
12.4967086324
 30
0.0
 10
11.2209889298
 20
12.4955884911
 30
0.0
 10
11.2234535111
 20
12.4948337828
 30
0.0
  0
SPLINE
  5
4D4
100
AcDbEntity
  8
0
100
AcDbSpline
 62
9
  6
CONTINUOUS
 70
0
 71
3
 72
25
 73
21
 74
0
 42
0.0000001
 43
0.0000001
 44
0.0000000001
 40
0.0
 40
0.0
 40
0.0
 40
0.0
 40
0.1981794176
 40
0.38677914
 40
0.4753648698
 40
0.5591267831
 40
0.6373276783
 40
0.7092661154
 40
0.774330941
 40
0.8319421924
 40
0.8816172863
 40
0.9229192025
 40
0.9555094217
 40
0.9684611246
 40
0.9791489933
 40
0.9875678261
 40
0.9937409908
 40
0.9960095132
 40
0.9977627419
 40
1.0
 40
1.0
 40
1.0
 40
1.0
 10
11.2234535881
 20
12.4948339086
 30
0.0
 10
11.2221437961
 20
12.4927512566
 30
0.0
 10
11.2196017115
 20
12.4886776833
 30
0.0
 10
11.2165147003
 20
12.4836480244
 30
0.0
 10
11.2141958993
 20
12.4798136749
 30
0.0
 10
11.212599095
 20
12.477144408
 30
0.0
 10
11.2111218274
 20
12.4746445009
 30
0.0
 10
11.2097771531
 20
12.4723359092
 30
0.0
 10
11.2085767641
 20
12.470239151
 30
0.0
 10
11.2075311066
 20
12.4683723872
 30
0.0
 10
11.206648951
 20
12.4667522766
 30
0.0
 10
11.2059379683
 20
12.4653929039
 30
0.0
 10
11.2054611647
 20
12.4644256928
 30
0.0
 10
11.2051740381
 20
12.4637893166
 30
0.0
 10
11.205021457
 20
12.4634216888
 30
0.0
 10
11.2049151373
 20
12.4631260946
 30
0.0
 10
11.2048580942
 20
12.4629247432
 30
0.0
 10
11.2048400899
 20
12.4627982747
 30
0.0
 10
11.2048379378
 20
12.4627225764
 30
0.0
 10
11.2048543627
 20
12.4626668334
 30
0.0
 10
11.2048778338
 20
12.4626519835
 30
0.0
  0
SPLINE
  5
4D5
100
AcDbEntity
  8
0
100
AcDbSpline
 62
9
  6
CONTINUOUS
 70
0
 71
3
 72
30
 73
26
 74
0
 42
0.0000001
 43
0.0000001
 44
0.0000000001
 40
0.0
 40
0.0
 40
0.0
 40
0.0
 40
0.1101326692
 40
0.2144028025
 40
0.3126593711
 40
0.4047539244
 40
0.4905464644
 40
0.5699064
 40
0.6427093656
 40
0.7088405254
 40
0.7681999086
 40
0.7953156373
 40
0.820711147
 40
0.8443826539
 40
0.86633241
 40
0.8865678751
 40
0.905102903
 40
0.9219603325
 40
0.9371759114
 40
0.9508044415
 40
0.9629294912
 40
0.9736772114
 40
0.9832366318
 40
0.9918842158
 40
1.0
 40
1.0
 40
1.0
 40
1.0
 10
11.6252663866
 20
5.4825666732
 30
0.0
 10
11.6270916432
 20
5.4939480613
 30
0.0
 10
11.6307369394
 20
5.5160904043
 30
0.0
 10
11.6363591248
 20
5.5483282378
 30
0.0
 10
11.6419814347
 20
5.5786479832
 30
0.0
 10
11.6475967303
 20
5.6070001075
 30
0.0
 10
11.6531979243
 20
5.6333363466
 30
0.0
 10
11.6587779259
 20
5.6576096584
 30
0.0
 10
11.6643294451
 20
5.6797740954
 30
0.0
 10
11.6698454324
 20
5.6997838532
 30
0.0
 10
11.674536191
 20
5.7150552558
 30
0.0
 10
11.6782940652
 20
5.7261453241
 30
0.0
 10
11.6810143467
 20
5.7336412074
 30
0.0
 10
11.6837214454
 20
5.7405644594
 30
0.0
 10
11.6864145812
 20
5.7469105066
 30
0.0
 10
11.6890929756
 20
5.7526752444
 30
0.0
 10
11.6917559713
 20
5.7578547994
 30
0.0
 10
11.6944030586
 20
5.7624455584
 30
0.0
 10
11.6970340749
 20
5.7664442768
 30
0.0
 10
11.6996495809
 20
5.7698481562
 30
0.0
 10
11.7022514639
 20
5.7726548498
 30
0.0
 10
11.7048437534
 20
5.7748615614
 30
0.0
 10
11.7074345695
 20
5.7764623279
 30
0.0
 10
11.7100302274
 20
5.7774429512
 30
0.0
 10
11.7117909179
 20
5.7776693646
 30
0.0
 10
11.7126403405
 20
5.7776694464
 30
0.0
  0
SPLINE
  5
4D6
100
AcDbEntity
  8
0
100
AcDbSpline
 62
9
  6
CONTINUOUS
 70
0
 71
3
 72
27
 73
23
 74
0
 42
0.0000001
 43
0.0000001
 44
0.0000000001
 40
0.0
 40
0.0
 40
0.0
 40
0.0
 40
0.1013479992
 40
0.2008537188
 40
0.2975463207
 40
0.3906114709
 40
0.4793313478
 40
0.5630049054
 40
0.6409485745
 40
0.7125070961
 40
0.777113052
 40
0.8342263955
 40
0.8833912184
 40
0.9241946918
 40
0.9563139159
 40
0.9690528762
 40
0.9795528287
 40
0.9878128323
 40
0.9938597027
 40
0.9960791704
 40
0.9977944061
 40
1.0
 40
1.0
 40
1.0
 40
1.0
 10
12.0824878971
 20
11.8962956324
 30
0.0
 10
12.0818058284
 20
11.8953240583
 30
0.0
 10
12.080473891
 20
11.8933846731
 30
0.0
 10
12.0785308841
 20
11.8904914148
 30
0.0
 10
12.0766349217
 20
11.8876834187
 30
0.0
 10
12.074802251
 20
11.8849851493
 30
0.0
 10
12.0730652346
 20
11.8824062548
 30
0.0
 10
12.0714449067
 20
11.8799623981
 30
0.0
 10
12.069950809
 20
11.877676106
 30
0.0
 10
12.0685933513
 20
11.8755673898
 30
0.0
 10
12.0673812248
 20
11.8736553508
 30
0.0
 10
12.0663219686
 20
11.8719570324
 30
0.0
 10
12.0654216367
 20
11.8704882181
 30
0.0
 10
12.0646834259
 20
11.8692635112
 30
0.0
 10
12.064175379
 20
11.8683981458
 30
0.0
 10
12.0638638315
 20
11.8678294079
 30
0.0
 10
12.0636966137
 20
11.8675004539
 30
0.0
 10
12.06357856
 20
11.8672346616
 30
0.0
 10
12.0635131368
 20
11.8670524169
 30
0.0
 10
12.0634893368
 20
11.8669368625
 30
0.0
 10
12.0634832224
 20
11.8668669392
 30
0.0
 10
12.0634965053
 20
11.8668146391
 30
0.0
 10
12.0635177283
 20
11.8667999087
 30
0.0
  0
SPLINE
  5
4D7
100
AcDbEntity
  8
0
100
AcDbSpline
 62
9
  6
CONTINUOUS
 70
0
 71
3
 72
11
 73
7
 74
0
 42
0.0000001
 43
0.0000001
 44
0.0000000001
 40
0.0
 40
0.0
 40
0.0
 40
0.0
 40
0.2499908291
 40
0.4999845331
 40
0.7499865899
 40
1.0
 40
1.0
 40
1.0
 40
1.0
 10
11.2284164745
 20
12.4915267926
 30
0.0
 10
11.2995423521
 20
12.4418626506
 30
0.0
 10
11.4417525153
 20
12.3424730815
 30
0.0
 10
11.6551128097
 20
12.1934472492
 30
0.0
 10
11.868644394
 20
12.0446531417
 30
0.0
 10
12.0111704347
 20
11.9456980282
 30
0.0
 10
12.0824879374
 20
11.8962956917
 30
0.0
  0
SPLINE
  5
4D8
100
AcDbEntity
  8
0
100
AcDbSpline
 62
9
  6
CONTINUOUS
 70
0
 71
3
 72
24
 73
20
 74
0
 42
0.0000001
 43
0.0000001
 44
0.0000000001
 40
0.0
 40
0.0
 40
0.0
 40
0.0
 40
0.198361075
 40
0.3870803076
 40
0.47570582
 40
0.5594959477
 40
0.6377147826
 40
0.7096620639
 40
0.7747276017
 40
0.8323321665
 40
0.881993436
 40
0.9232739928
 40
0.9558334938
 40
0.9794247885
 40
0.9878110686
 40
0.9939393603
 40
0.9961771404
 40
0.997890358
 40
1.0
 40
1.0
 40
1.0
 40
1.0
 10
11.2284164745
 20
12.4915267926
 30
0.0
 10
11.227021026
 20
12.4895052153
 30
0.0
 10
11.2243105954
 20
12.4855515841
 30
0.0
 10
11.2210128388
 20
12.4806700924
 30
0.0
 10
11.218531789
 20
12.4769492421
 30
0.0
 10
11.2168212831
 20
12.4743593389
 30
0.0
 10
11.215236592
 20
12.4719338981
 30
0.0
 10
11.2137916654
 20
12.4696941722
 30
0.0
 10
11.2124991041
 20
12.4676600074
 30
0.0
 10
11.2113700198
 20
12.4658490227
 30
0.0
 10
11.2104142523
 20
12.4642772225
 30
0.0
 10
11.2096391934
 20
12.462958624
 30
0.0
 10
11.2090523722
 20
12.4619043061
 30
0.0
 10
11.208687494
 20
12.461192807
 30
0.0
 10
11.2085011135
 20
12.4607587287
 30
0.0
 10
11.2084318291
 20
12.4605634583
 30
0.0
 10
11.2084049885
 20
12.4604401809
 30
0.0
 10
11.2083971679
 20
12.4603679223
 30
0.0
 10
11.2084076606
 20
12.4603124977
 30
0.0
 10
11.2084291225
 20
12.4602976013
 30
0.0
  0
SPLINE
  5
4D9
100
AcDbEntity
  8
0
100
AcDbSpline
 62
9
  6
CONTINUOUS
 70
0
 71
3
 72
62
 73
58
 74
0
 42
0.0000001
 43
0.0000001
 44
0.0000000001
 40
0.0
 40
0.0
 40
0.0
 40
0.0
 40
0.0056655157
 40
0.011586403
 40
0.0178699657
 40
0.0246328267
 40
0.031997598
 40
0.040090012
 40
0.0490349711
 40
0.0589336948
 40
0.0698654456
 40
0.075741174
 40
0.0818993044
 40
0.0883395338
 40
0.0950581501
 40
0.1093108634
 40
0.1246120294
 40
0.140882592
 40
0.1580085747
 40
0.1758759509
 40
0.1943729881
 40
0.2133914589
 40
0.2328345956
 40
0.2526154196
 40
0.2929215228
 40
0.3338828353
 40
0.3752142744
 40
0.4167408669
 40
0.458356704
 40
0.5000006673
 40
0.541644887
 40
0.5832606779
 40
0.6247874827
 40
0.6661189343
 40
0.7070798225
 40
0.7473866903
 40
0.767167427
 40
0.7866099176
 40
0.8056289012
 40
0.8241269054
 40
0.8419932406
 40
0.859118334
 40
0.8753905648
 40
0.8906914982
 40
0.9049428967
 40
0.9116617002
 40
0.9181024614
 40
0.9301355213
 40
0.9410666827
 40
0.950964498
 40
0.9599095363
 40
0.9680027843
 40
0.97536749
 40
0.982129636
 40
0.9884131157
 40
0.9943344063
 40
1.0
 40
1.0
 40
1.0
 40
1.0
 10
10.1876907857
 20
5.4227148395
 30
0.0
 10
10.1882911997
 20
5.4197885623
 30
0.0
 10
10.1899054651
 20
5.41387603
 30
0.0
 10
10.1935585324
 20
5.405163087
 30
0.0
 10
10.1985954928
 20
5.3964916894
 30
0.0
 10
10.2051314456
 20
5.3879086662
 30
0.0
 10
10.2132833517
 20
5.3794598913
 30
0.0
 10
10.2231726145
 20
5.3711940389
 30
0.0
 10
10.2349181097
 20
5.3631745416
 30
0.0
 10
10.2485978341
 20
5.3554391056
 30
0.0
 10
10.2613374652
 20
5.3494133892
 30
0.0
 10
10.2725148617
 20
5.3447521892
 30
0.0
 10
10.2816153418
 20
5.3412747691
 30
0.0
 10
10.2912258296
 20
5.3378984524
 30
0.0
 10
10.304976752
 20
5.3334440308
 30
0.0
 10
10.3233664934
 20
5.3281687298
 30
0.0
 10
10.346834761
 20
5.3224014032
 30
0.0
 10
10.3719598627
 20
5.3170895831
 30
0.0
 10
10.3985474687
 20
5.3122055601
 30
0.0
 10
10.4264003902
 20
5.3077568105
 30
0.0
 10
10.4553263888
 20
5.3037416441
 30
0.0
 10
10.4851444005
 20
5.3001476218
 30
0.0
 10
10.5156888356
 20
5.2969584865
 30
0.0
 10
10.5574541117
 20
5.2931928281
 30
0.0
 10
10.6106054654
 20
5.2894247903
 30
0.0
 10
10.675170456
 20
5.2861941677
 30
0.0
 10
10.7404222361
 20
5.284010878
 30
0.0
 10
10.8060416975
 20
5.2827026437
 30
0.0
 10
10.8718350728
 20
5.2820669777
 30
0.0
 10
10.9376929047
 20
5.2818632576
 30
0.0
 10
11.003550701
 20
5.2820684581
 30
0.0
 10
11.0693443144
 20
5.2827025737
 30
0.0
 10
11.1349638708
 20
5.2840105994
 30
0.0
 10
11.200215596
 20
5.2861929081
 30
0.0
 10
11.2647806128
 20
5.2894264523
 30
0.0
 10
11.3179322796
 20
5.2931916937
 30
0.0
 10
11.3596976163
 20
5.2969570484
 30
0.0
 10
11.3902417429
 20
5.3001480345
 30
0.0
 10
11.4200602072
 20
5.3037417825
 30
0.0
 10
11.4489868473
 20
5.3077540605
 30
0.0
 10
11.4768390619
 20
5.312204248
 30
0.0
 10
11.5034260111
 20
5.3170909103
 30
0.0
 10
11.5285519281
 20
5.3224001315
 30
0.0
 10
11.5520204183
 20
5.3281670916
 30
0.0
 10
11.5704090087
 20
5.333443589
 30
0.0
 10
11.584159577
 20
5.3378984466
 30
0.0
 10
11.5966930021
 20
5.3423012172
 30
0.0
 10
11.6111130004
 20
5.3480235307
 30
0.0
 10
11.626788418
 20
5.3554376533
 30
0.0
 10
11.6404666249
 20
5.363174785
 30
0.0
 10
11.6522112469
 20
5.371195276
 30
0.0
 10
11.6621025998
 20
5.3794592463
 30
0.0
 10
11.6702552038
 20
5.3879076055
 30
0.0
 10
11.6767885648
 20
5.3964921065
 30
0.0
 10
11.6818242428
 20
5.4051638261
 30
0.0
 10
11.6854795878
 20
5.4138759358
 30
0.0
 10
11.6870951178
 20
5.4197884903
 30
0.0
 10
11.6876953849
 20
5.4227148396
 30
0.0
  0
SPLINE
  5
4DA
100
AcDbEntity
  8
0
100
AcDbSpline
 62
9
  6
CONTINUOUS
 70
0
 71
3
 72
20
 73
16
 74
0
 42
0.0000001
 43
0.0000001
 44
0.0000000001
 40
0.0
 40
0.0
 40
0.0
 40
0.0
 40
0.1234507674
 40
0.2469298949
 40
0.3705445319
 40
0.4324495792
 40
0.4944524045
 40
0.5565878648
 40
0.61890251
 40
0.6814552882
 40
0.7443180114
 40
0.8075832427
 40
0.8713071285
 40
0.9355320742
 40
1.0
 40
1.0
 40
1.0
 40
1.0
 10
10.7667201236
 20
12.4685510004
 30
0.0
 10
10.762258341
 20
12.4706603421
 30
0.0
 10
10.7532713167
 20
12.4747490364
 30
0.0
 10
10.7396051784
 20
12.4804710372
 30
0.0
 10
10.728049845
 20
12.4848479568
 30
0.0
 10
10.7186864972
 20
12.4880513065
 30
0.0
 10
10.7115909241
 20
12.4902837303
 30
0.0
 10
10.7044169746
 20
12.4923120331
 30
0.0
 10
10.6971557174
 20
12.494097996
 30
0.0
 10
10.6897974301
 20
12.4955877824
 30
0.0
 10
10.6823342263
 20
12.4967088115
 30
0.0
 10
10.674766832
 20
12.4973658415
 30
0.0
 10
10.6671122023
 20
12.4974205932
 30
0.0
 10
10.659439131
 20
12.4967067798
 30
0.0
 10
10.6543944682
 20
12.4955925081
 30
0.0
 10
10.6519314001
 20
12.4948338077
 30
0.0
  0
SPLINE
  5
4DB
100
AcDbEntity
  8
0
100
AcDbSpline
 62
9
  6
CONTINUOUS
 70
0
 71
3
 72
23
 73
19
 74
0
 42
0.0000001
 43
0.0000001
 44
0.0000000001
 40
0.0
 40
0.0
 40
0.0
 40
0.0
 40
0.0635329814
 40
0.1271298546
 40
0.1907000567
 40
0.2542243489
 40
0.3176347954
 40
0.38089622
 40
0.4439806207
 40
0.5068475606
 40
0.5694774107
 40
0.6318598229
 40
0.6939641088
 40
0.7558136342
 40
0.8175376367
 40
0.8789587363
 40
0.9396266351
 40
1.0
 40
1.0
 40
1.0
 40
1.0
 10
11.6252667612
 20
5.4825664779
 30
0.0
 10
11.6272894903
 20
5.4825365374
 30
0.0
 10
11.6313370294
 20
5.4823069425
 30
0.0
 10
11.6373503217
 20
5.4813973404
 30
0.0
 10
11.6432412836
 20
5.4798865808
 30
0.0
 10
11.6489600672
 20
5.4778398891
 30
0.0
 10
11.6544616892
 20
5.4752879704
 30
0.0
 10
11.6596873213
 20
5.4722370184
 30
0.0
 10
11.664587288
 20
5.4687162406
 30
0.0
 10
11.6691171607
 20
5.4647609823
 30
0.0
 10
11.6732341205
 20
5.4604079798
 30
0.0
 10
11.6768965304
 20
5.455696809
 30
0.0
 10
11.6800743854
 20
5.4506755721
 30
0.0
 10
11.6827382436
 20
5.4453866157
 30
0.0
 10
11.684848058
 20
5.4398762989
 30
0.0
 10
11.6863935408
 20
5.4342218942
 30
0.0
 10
11.6873929801
 20
5.4284900372
 30
0.0
 10
11.6876641785
 20
5.4246369318
 30
0.0
 10
11.6876953849
 20
5.4227148396
 30
0.0
  0
SPLINE
  5
4DC
100
AcDbEntity
  8
0
100
AcDbSpline
 62
9
  6
CONTINUOUS
 70
0
 71
3
 72
25
 73
21
 74
0
 42
0.0000001
 43
0.0000001
 44
0.0000000001
 40
0.0
 40
0.0
 40
0.0
 40
0.0
 40
0.0022372524
 40
0.003990469
 40
0.0062589771
 40
0.0124321105
 40
0.0208509114
 40
0.0315387487
 40
0.0444904215
 40
0.0770805861
 40
0.1183824563
 40
0.168057514
 40
0.2256687397
 40
0.2907335506
 40
0.3626719848
 40
0.440872889
 40
0.524634824
 40
0.6132205881
 40
0.8018204193
 40
1.0
 40
1.0
 40
1.0
 40
1.0
 10
10.6705069638
 20
12.4626520556
 30
0.0
 10
10.6705304351
 20
12.4626669048
 30
0.0
 10
10.6705468613
 20
12.4627226472
 30
0.0
 10
10.67054471
 20
12.4627983451
 30
0.0
 10
10.670526707
 20
12.4629248128
 30
0.0
 10
10.6704696653
 20
12.4631261634
 30
0.0
 10
10.6703633474
 20
12.4634217565
 30
0.0
 10
10.6702107681
 20
12.4637893833
 30
0.0
 10
10.6699236444
 20
12.4644257581
 30
0.0
 10
10.6694468443
 20
12.4653929676
 30
0.0
 10
10.6687358664
 20
12.4667523385
 30
0.0
 10
10.667853716
 20
12.4683724477
 30
0.0
 10
10.6668080642
 20
12.4702392103
 30
0.0
 10
10.6656076812
 20
12.4723359676
 30
0.0
 10
10.6642630131
 20
12.4746445586
 30
0.0
 10
10.662785752
 20
12.4771444654
 30
0.0
 10
10.6611889542
 20
12.4798137324
 30
0.0
 10
10.6588701621
 20
12.4836480826
 30
0.0
 10
10.655783162
 20
12.4886777434
 30
0.0
 10
10.6532410863
 20
12.4927513187
 30
0.0
 10
10.6519312988
 20
12.494833972
 30
0.0
  0
SPLINE
  5
4DD
100
AcDbEntity
  8
0
100
AcDbSpline
 62
9
  6
CONTINUOUS
 70
0
 71
3
 72
62
 73
58
 74
0
 42
0.0000001
 43
0.0000001
 44
0.0000000001
 40
0.0
 40
0.0
 40
0.0
 40
0.0
 40
0.0059724596
 40
0.0122204129
 40
0.0188394459
 40
0.0259345704
 40
0.0336185077
 40
0.0420080168
 40
0.0512218999
 40
0.0613631053
 40
0.0725142008
 40
0.0847421092
 40
0.0980751653
 40
0.1124848684
 40
0.1279201394
 40
0.1442923485
 40
0.1614791918
 40
0.1793647904
 40
0.1978353308
 40
0.2167789146
 40
0.2361031313
 40
0.255727711
 40
0.2755895985
 40
0.2956338134
 40
0.3361075641
 40
0.376901768
 40
0.4178651881
 40
0.4589063153
 40
0.4999723834
 40
0.5410386666
 40
0.5820799519
 40
0.6230437036
 40
0.6638383638
 40
0.7043127533
 40
0.7243577469
 40
0.7442206728
 40
0.7638462638
 40
0.7831714401
 40
0.8021165451
 40
0.8205893187
 40
0.8384771101
 40
0.8556662853
 40
0.872041703
 40
0.8874805779
 40
0.9018939278
 40
0.915230791
 40
0.9274627468
 40
0.938617524
 40
0.9487617039
 40
0.9579787522
 40
0.9663714533
 40
0.9702968145
 40
0.9740601838
 40
0.9811568397
 40
0.9877773886
 40
0.9940267092
 40
1.0
 40
1.0
 40
1.0
 40
1.0
 10
10.2501129946
 20
5.4825972958
 30
0.0
 10
10.2506606122
 20
5.4797233606
 30
0.0
 10
10.2521189265
 20
5.473901661
 30
0.0
 10
10.2553878228
 20
5.4652503296
 30
0.0
 10
10.2598803965
 20
5.456540885
 30
0.0
 10
10.2657082684
 20
5.4478032549
 30
0.0
 10
10.2729875899
 20
5.4390697359
 30
0.0
 10
10.2818400197
 20
5.430377753
 30
0.0
 10
10.292392494
 20
5.4217847688
 30
0.0
 10
10.3047420475
 20
5.4133429281
 30
0.0
 10
10.3189641503
 20
5.4051086236
 30
0.0
 10
10.3351122019
 20
5.397165508
 30
0.0
 10
10.3531775987
 20
5.3895887254
 30
0.0
 10
10.3730870927
 20
5.3824243203
 30
0.0
 10
10.3947266975
 20
5.3757456223
 30
0.0
 10
10.4179298069
 20
5.3695906446
 30
0.0
 10
10.4424985328
 20
5.3639642685
 30
0.0
 10
10.4682332227
 20
5.3588815048
 30
0.0
 10
10.4949405323
 20
5.3543347248
 30
0.0
 10
10.5224409484
 20
5.3502940247
 30
0.0
 10
10.5505771163
 20
5.346733337
 30
0.0
 10
10.5792186509
 20
5.3436216729
 30
0.0
 10
10.6082563437
 20
5.3409264069
 30
0.0
 10
10.6475099568
 20
5.3378300109
 30
0.0
 10
10.6970528125
 20
5.3348426052
 30
0.0
 10
10.7568814466
 20
5.3323986937
 30
0.0
 10
10.817018201
 20
5.3308894162
 30
0.0
 10
10.8773010875
 20
5.3301158724
 30
0.0
 10
10.9376384654
 20
5.3298649109
 30
0.0
 10
10.9979759121
 20
5.3301162886
 30
0.0
 10
11.0582591712
 20
5.3308874052
 30
0.0
 10
11.118396438
 20
5.3323947884
 30
0.0
 10
11.178225858
 20
5.3348366429
 30
0.0
 10
11.2277697086
 20
5.3378227156
 30
0.0
 10
11.2670246852
 20
5.3409170731
 30
0.0
 10
11.2960639491
 20
5.3436103903
 30
0.0
 10
11.3247071599
 20
5.3467202975
 30
0.0
 10
11.3528452101
 20
5.3502797421
 30
0.0
 10
11.3803481862
 20
5.3543188527
 30
0.0
 10
11.4070588515
 20
5.3588632577
 30
0.0
 10
11.4327972977
 20
5.363944118
 30
0.0
 10
11.4573702223
 20
5.3695691046
 30
0.0
 10
11.4805784868
 20
5.3757220743
 30
0.0
 10
11.502224058
 20
5.3823987989
 30
0.0
 10
11.5221398736
 20
5.3895616432
 30
0.0
 10
11.5402118174
 20
5.3971373432
 30
0.0
 10
11.5563668416
 20
5.4050790731
 30
0.0
 10
11.5705957
 20
5.413312092
 30
0.0
 10
11.5829511192
 20
5.4217542535
 30
0.0
 10
11.5935091426
 20
5.4303465164
 30
0.0
 10
11.6010528256
 20
5.4377464099
 30
0.0
 10
11.6062401444
 20
5.4436792319
 30
0.0
 10
11.6107220988
 20
5.4493719191
 30
0.0
 10
11.6154852315
 20
5.4565098655
 30
0.0
 10
11.6199818952
 20
5.4652191292
 30
0.0
 10
11.623256637
 20
5.4738702527
 30
0.0
 10
11.6247181782
 20
5.4796923123
 30
0.0
 10
11.6252667612
 20
5.4825664779
 30
0.0
  0
SPLINE
  5
4DE
100
AcDbEntity
  8
0
100
AcDbSpline
 62
9
  6
CONTINUOUS
 70
0
 71
3
 72
27
 73
23
 74
0
 42
0.0000001
 43
0.0000001
 44
0.0000000001
 40
0.0
 40
0.0
 40
0.0
 40
0.0
 40
0.0020200151
 40
0.0037163958
 40
0.0059368626
 40
0.0120083842
 40
0.0202950928
 40
0.0308110091
 40
0.0435573262
 40
0.0756816914
 40
0.1164877379
 40
0.1656608817
 40
0.2227833086
 40
0.2873988592
 40
0.3589674152
 40
0.4369214894
 40
0.5206070399
 40
0.6093389677
 40
0.7024158183
 40
0.799119408
 40
0.898637543
 40
1.0
 40
1.0
 40
1.0
 40
1.0
 10
9.8118669572
 20
11.8667999087
 30
0.0
 10
9.8118863916
 20
11.8668133977
 30
0.0
 10
9.8118939674
 20
11.8668650389
 30
0.0
 10
9.811887686
 20
11.8669316626
 30
0.0
 10
9.8118637638
 20
11.8670476572
 30
0.0
 10
9.8118012569
 20
11.8672310874
 30
0.0
 10
9.8116868558
 20
11.8674995274
 30
0.0
 10
9.8115223241
 20
11.8678303909
 30
0.0
 10
9.8112118128
 20
11.8684000357
 30
0.0
 10
9.8107018805
 20
11.8692643307
 30
0.0
 10
9.8099618613
 20
11.8704879095
 30
0.0
 10
9.8090621051
 20
11.87195705
 30
0.0
 10
9.8080035099
 20
11.8736558091
 30
0.0
 10
9.8067913353
 20
11.8755678237
 30
0.0
 10
9.8054336347
 20
11.8776763632
 30
0.0
 10
9.8039394811
 20
11.8799625924
 30
0.0
 10
9.8023192795
 20
11.8824064993
 30
0.0
 10
9.8005825156
 20
11.8849855181
 30
0.0
 10
9.7987497773
 20
11.8876836539
 30
0.0
 10
9.7968534116
 20
11.8904912731
 30
0.0
 10
9.7949103315
 20
11.8933843992
 30
0.0
 10
9.7935786509
 20
11.8953239198
 30
0.0
 10
9.7928967884
 20
11.8962956324
 30
0.0
  0
SPLINE
  5
4DF
100
AcDbEntity
  8
0
100
AcDbSpline
 62
9
  6
CONTINUOUS
 70
0
 71
3
 72
21
 73
17
 74
0
 42
0.0000001
 43
0.0000001
 44
0.0000000001
 40
0.0
 40
0.0
 40
0.0
 40
0.0
 40
0.0607282093
 40
0.1217507623
 40
0.2446172104
 40
0.30645014
 40
0.3685343743
 40
0.4308828913
 40
0.4934822009
 40
0.6192340158
 40
0.6824709266
 40
0.7458577073
 40
0.8093549634
 40
0.8729060208
 40
0.9364874305
 40
1.0
 40
1.0
 40
1.0
 40
1.0
 10
10.1876923493
 20
5.4225580726
 30
0.0
 10
10.1877233434
 20
5.4244948124
 30
0.0
 10
10.1879800136
 20
5.4283778539
 30
0.0
 10
10.1892701663
 20
5.436082111
 30
0.0
 10
10.1917234838
 20
5.4435914328
 30
0.0
 10
10.1952546829
 20
5.4506370235
 30
0.0
 10
10.1984289467
 20
5.4556708329
 30
0.0
 10
10.2020918321
 20
5.4603918363
 30
0.0
 10
10.2075865833
 20
5.4662142635
 30
0.0
 10
10.2139188834
 20
5.4712373157
 30
0.0
 10
10.220876753
 20
5.4753031346
 30
0.0
 10
10.2263852907
 20
5.4778610657
 30
0.0
 10
10.2321133739
 20
5.4799065361
 30
0.0
 10
10.2380138923
 20
5.4814135088
 30
0.0
 10
10.2440342002
 20
5.4823325419
 30
0.0
 10
10.2480875612
 20
5.4825680745
 30
0.0
 10
10.2501131464
 20
5.4825974249
 30
0.0
  0
SPLINE
  5
4E0
100
AcDbEntity
  8
0
100
AcDbSpline
 62
9
  6
CONTINUOUS
 70
0
 71
3
 72
24
 73
20
 74
0
 42
0.0000001
 43
0.0000001
 44
0.0000000001
 40
0.0
 40
0.0
 40
0.0
 40
0.0
 40
0.0021096432
 40
0.0038228616
 40
0.0060606426
 40
0.012188936
 40
0.0205752178
 40
0.0441665153
 40
0.0767260186
 40
0.1180065771
 40
0.1676678476
 40
0.2252724129
 40
0.2903379506
 40
0.3622852313
 40
0.4405040653
 40
0.5242941915
 40
0.6129197021
 40
0.8016389303
 40
1.0
 40
1.0
 40
1.0
 40
1.0
 10
10.6669555628
 20
12.4602976015
 30
0.0
 10
10.6669770247
 20
12.4603124979
 30
0.0
 10
10.6669875173
 20
12.4603679226
 30
0.0
 10
10.6669796967
 20
12.4604401812
 30
0.0
 10
10.6669528561
 20
12.4605634586
 30
0.0
 10
10.6668835717
 20
12.4607587291
 30
0.0
 10
10.6666971912
 20
12.4611928075
 30
0.0
 10
10.6663323129
 20
12.4619043066
 30
0.0
 10
10.6657454916
 20
12.4629586246
 30
0.0
 10
10.6649704327
 20
12.4642772232
 30
0.0
 10
10.6640146653
 20
12.4658490233
 30
0.0
 10
10.6628855809
 20
12.4676600081
 30
0.0
 10
10.6615930196
 20
12.4696941729
 30
0.0
 10
10.660148093
 20
12.4719338987
 30
0.0
 10
10.6585634019
 20
12.4743593394
 30
0.0
 10
10.6568528961
 20
12.4769492426
 30
0.0
 10
10.6543718463
 20
12.4806700928
 30
0.0
 10
10.6510740898
 20
12.4855515844
 30
0.0
 10
10.6483636593
 20
12.4895052154
 30
0.0
 10
10.6469682109
 20
12.4915267927
 30
0.0
  0
SPLINE
  5
4E1
100
AcDbEntity
  8
0
100
AcDbSpline
 62
9
  6
CONTINUOUS
 70
0
 71
3
 72
11
 73
7
 74
0
 42
0.0000001
 43
0.0000001
 44
0.0000000001
 40
0.0
 40
0.0
 40
0.0
 40
0.0
 40
0.249990829
 40
0.4999845327
 40
0.7499865898
 40
1.0
 40
1.0
 40
1.0
 40
1.0
 10
10.6469682109
 20
12.4915267927
 30
0.0
 10
10.5758423336
 20
12.4418626503
 30
0.0
 10
10.4336321705
 20
12.3424730812
 30
0.0
 10
10.2202718757
 20
12.1934472496
 30
0.0
 10
10.0067402917
 20
12.0446531415
 30
0.0
 10
9.8642142515
 20
11.9456980271
 30
0.0
 10
9.7928967489
 20
11.8962956904
 30
0.0
  0
SPLINE
  5
4E2
100
AcDbEntity
  8
0
100
AcDbSpline
 62
9
  6
CONTINUOUS
 70
0
 71
3
 72
30
 73
26
 74
0
 42
0.0000001
 43
0.0000001
 44
0.0000000001
 40
0.0
 40
0.0
 40
0.0
 40
0.0
 40
0.1101325505
 40
0.2144024497
 40
0.3126587607
 40
0.4047531247
 40
0.4905455538
 40
0.5699053821
 40
0.6427081642
 40
0.7088390409
 40
0.7681981488
 40
0.7953137825
 40
0.8207092468
 40
0.8443807687
 40
0.8663305909
 40
0.8865661595
 40
0.9051013151
 40
0.9219588844
 40
0.9371746048
 40
0.9508032735
 40
0.9629284729
 40
0.973676373
 40
0.9832360201
 40
0.9918838862
 40
1.0
 40
1.0
 40
1.0
 40
1.0
 10
10.2501131464
 20
5.4825974249
 30
0.0
 10
10.2482879887
 20
5.4939776592
 30
0.0
 10
10.2446429169
 20
5.5161177474
 30
0.0
 10
10.2390211209
 20
5.5483522913
 30
0.0
 10
10.233399209
 20
5.5786689295
 30
0.0
 10
10.227784274
 20
5.6070181455
 30
0.0
 10
10.2221833945
 20
5.6333516796
 30
0.0
 10
10.2166036883
 20
5.6576224832
 30
0.0
 10
10.2110524671
 20
5.6797845984
 30
0.0
 10
10.2055367945
 20
5.6997922285
 30
0.0
 10
10.2008463129
 20
5.7150619883
 30
0.0
 10
10.1970886638
 20
5.7261508616
 30
0.0
 10
10.1943685426
 20
5.7336459482
 30
0.0
 10
10.1916616018
 20
5.7405684749
 30
0.0
 10
10.188968621
 20
5.7469138666
 30
0.0
 10
10.186290379
 20
5.7526780149
 30
0.0
 10
10.1836275338
 20
5.7578570419
 30
0.0
 10
10.1809805956
 20
5.7624473301
 30
0.0
 10
10.1783497272
 20
5.766445631
 30
0.0
 10
10.1757343669
 20
5.769849143
 30
0.0
 10
10.1731326282
 20
5.7726555206
 30
0.0
 10
10.1705404822
 20
5.7748619706
 30
0.0
 10
10.1679498102
 20
5.7764625336
 30
0.0
 10
10.1653542999
 20
5.7774430163
 30
0.0
 10
10.1635937179
 20
5.7776693834
 30
0.0
 10
10.162744345
 20
5.7776694571
 30
0.0
  0
SPLINE
  5
4E3
100
AcDbEntity
  8
0
100
AcDbSpline
 62
9
  6
CONTINUOUS
 70
0
 71
3
 72
29
 73
25
 74
0
 42
0.0000001
 43
0.0000001
 44
0.0000000001
 40
0.0
 40
0.0
 40
0.0
 40
0.0
 40
0.1084053633
 40
0.211236965
 40
0.3083334204
 40
0.3995360071
 40
0.4846945526
 40
0.5636684871
 40
0.6363233999
 40
0.7025351229
 40
0.7621960599
 40
0.8152180785
 40
0.8392223962
 40
0.8615531458
 40
0.8822154322
 40
0.9012199298
 40
0.9185850343
 40
0.9343400686
 40
0.9485302558
 40
0.961224584
 40
0.9725265294
 40
0.9825902563
 40
0.9916420051
 40
1.0
 40
1.0
 40
1.0
 40
1.0
 10
10.1876923493
 20
5.4225580726
 30
0.0
 10
10.1858648746
 20
5.4336431431
 30
0.0
 10
10.1822169353
 20
5.4552291495
 30
0.0
 10
10.1766008303
 20
5.4866866993
 30
0.0
 10
10.1709872736
 20
5.5163321453
 30
0.0
 10
10.1653812376
 20
5.5441129826
 30
0.0
 10
10.1597882326
 20
5.5699780616
 30
0.0
 10
10.1542145036
 20
5.5938776916
 30
0.0
 10
10.1486660584
 20
5.6157630563
 30
0.0
 10
10.1431494391
 20
5.6355866946
 30
0.0
 10
10.1376724703
 20
5.6533020602
 30
0.0
 10
10.1330069893
 20
5.6666823376
 30
0.0
 10
10.129266389
 20
5.6762769731
 30
0.0
 10
10.1265681212
 20
5.6826756657
 30
0.0
 10
10.1238841637
 20
5.6885147992
 30
0.0
 10
10.1212151767
 20
5.6937902687
 30
0.0
 10
10.1185618689
 20
5.6984982213
 30
0.0
 10
10.1159246612
 20
5.7026350983
 30
0.0
 10
10.1133034398
 20
5.7061977229
 30
0.0
 10
10.1106972221
 20
5.7091834588
 30
0.0
 10
10.1081035383
 20
5.711589658
 30
0.0
 10
10.1055163994
 20
5.7134120058
 30
0.0
 10
10.1029303734
 20
5.7146409097
 30
0.0
 10
10.1011571858
 20
5.7150619487
 30
0.0
 10
10.1002963289
 20
5.7151579131
 30
0.0
  0
SPLINE
  5
4E4
100
AcDbEntity
  8
0
100
AcDbSpline
 62
9
  6
CONTINUOUS
 70
0
 71
3
 72
27
 73
23
 74
0
 42
0.0000001
 43
0.0000001
 44
0.0000000001
 40
0.0
 40
0.0
 40
0.0
 40
0.0
 40
0.0061372333
 40
0.0128516483
 40
0.0209303948
 40
0.0308228513
 40
0.0427625723
 40
0.0568296372
 40
0.0730183594
 40
0.0913084056
 40
0.1340756393
 40
0.1848518129
 40
0.2432415241
 40
0.3087436627
 40
0.3807100412
 40
0.4584539895
 40
0.5411971384
 40
0.6281198189
 40
0.7183724382
 40
0.8110918099
 40
0.9053372275
 40
1.0
 40
1.0
 40
1.0
 40
1.0
 10
9.754418246
 20
11.879660357
 30
0.0
 10
9.7544617299
 20
11.8795850406
 30
0.0
 10
9.7545863012
 20
11.8794443627
 30
0.0
 10
9.7548572578
 20
11.879311593
 30
0.0
 10
9.7552026193
 20
11.879243162
 30
0.0
 10
9.755627234
 20
11.8792278845
 30
0.0
 10
9.7561354724
 20
11.879259345
 30
0.0
 10
9.7567287995
 20
11.8793361369
 30
0.0
 10
9.7574055872
 20
11.8794608723
 30
0.0
 10
9.7584726762
 20
11.8797061057
 30
0.0
 10
9.7599948085
 20
11.8801517168
 30
0.0
 10
9.7620272878
 20
11.880863452
 30
0.0
 10
9.7643339074
 20
11.8817621436
 30
0.0
 10
9.7668936108
 20
11.8828355421
 30
0.0
 10
9.7696793294
 20
11.8840771989
 30
0.0
 10
9.7726606418
 20
11.885478398
 30
0.0
 10
9.7758087757
 20
11.8870216533
 30
0.0
 10
9.7790944097
 20
11.8886863283
 30
0.0
 10
9.7824825567
 20
11.8904608159
 30
0.0
 10
9.785930667
 20
11.8923433438
 30
0.0
 10
9.7894028378
 20
11.8943108507
 30
0.0
 10
9.7917285571
 20
11.8956363544
 30
0.0
 10
9.7928967884
 20
11.8962956324
 30
0.0
  0
SPLINE
  5
4E5
100
AcDbEntity
  8
0
100
AcDbSpline
 62
9
  6
CONTINUOUS
 70
0
 71
3
 72
27
 73
23
 74
0
 42
0.0000001
 43
0.0000001
 44
0.0000000001
 40
0.0
 40
0.0
 40
0.0
 40
0.0
 40
0.0061370937
 40
0.0128513956
 40
0.0209300589
 40
0.0308224552
 40
0.0427621325
 40
0.0568291659
 40
0.0730178662
 40
0.0913078983
 40
0.1340751231
 40
0.184851307
 40
0.2432410428
 40
0.3087432172
 40
0.3807096402
 40
0.4584536394
 40
0.5411968437
 40
0.6281195825
 40
0.7183722617
 40
0.8110916942
 40
0.9053371713
 40
1.0
 40
1.0
 40
1.0
 40
1.0
 10
9.5228902281
 20
12.2806786473
 30
0.0
 10
9.5228467452
 20
12.2807539619
 30
0.0
 10
9.5227872023
 20
12.2809321797
 30
0.0
 10
9.5228077022
 20
12.2812332147
 30
0.0
 10
9.5229211227
 20
12.281566517
 30
0.0
 10
9.5231202019
 20
12.2819418782
 30
0.0
 10
9.5234015689
 20
12.2823662911
 30
0.0
 10
9.5237647383
 20
12.2828417277
 30
0.0
 10
9.5242111581
 20
12.2833654719
 30
0.0
 10
9.5249570836
 20
12.2841669772
 30
0.0
 10
9.5261040628
 20
12.2852623725
 30
0.0
 10
9.5277366853
 20
12.2866666798
 30
0.0
 10
9.5296682861
 20
12.2882149229
 30
0.0
 10
9.5318777285
 20
12.2898949911
 30
0.0
 10
9.5343458936
 20
12.2916866666
 30
0.0
 10
9.5370500224
 20
12.2935679616
 30
0.0
 10
9.5399605854
 20
12.2955227017
 30
0.0
 10
9.5430450502
 20
12.2975358119
 30
0.0
 10
9.5462758712
 20
12.2995827961
 30
0.0
 10
9.5496302388
 20
12.3016276912
 30
0.0
 10
9.5530702299
 20
12.3036509351
 30
0.0
 10
9.5553810055
 20
12.3050023221
 30
0.0
 10
9.5565360704
 20
12.3056844048
 30
0.0
  0
SPLINE
  5
4E6
100
AcDbEntity
  8
0
100
AcDbSpline
 62
9
  6
CONTINUOUS
 70
0
 71
3
 72
25
 73
21
 74
0
 42
0.0000001
 43
0.0000001
 44
0.0000000001
 40
0.0
 40
0.0
 40
0.0
 40
0.0
 40
0.0132508274
 40
0.026521988
 40
0.040098037
 40
0.0542378783
 40
0.0691643014
 40
0.0850607281
 40
0.1202877461
 40
0.1607745717
 40
0.2069875593
 40
0.2591773859
 40
0.317464094
 40
0.3818863031
 40
0.452430146
 40
0.529044947
 40
0.6116542117
 40
0.7001645413
 40
0.7944704195
 40
1.0
 40
1.0
 40
1.0
 40
1.0
 10
10.1001923461
 20
5.7151690889
 30
0.0
 10
10.0995254606
 20
5.7152381376
 30
0.0
 10
10.0981781225
 20
5.7152774491
 30
0.0
 10
10.096157241
 20
5.7150295212
 30
0.0
 10
10.0941507261
 20
5.7144785215
 30
0.0
 10
10.0921608764
 20
5.7136293475
 30
0.0
 10
10.0901877959
 20
5.7124869394
 30
0.0
 10
10.0874867479
 20
5.7105099984
 30
0.0
 10
10.0841575466
 20
5.7072521342
 30
0.0
 10
10.0803667006
 20
5.7023694538
 30
0.0
 10
10.0766392258
 20
5.6964007915
 30
0.0
 10
10.0729747381
 20
5.6893637024
 30
0.0
 10
10.0693741415
 20
5.6812751575
 30
0.0
 10
10.0658406278
 20
5.6721545593
 30
0.0
 10
10.0623777711
 20
5.6620222371
 30
0.0
 10
10.0589893282
 20
5.6508995412
 30
0.0
 10
10.0556790894
 20
5.6388084616
 30
0.0
 10
10.0524507022
 20
5.6257713348
 30
0.0
 10
10.0481359052
 20
5.6066007318
 30
0.0
 10
10.0452314567
 20
5.5917066271
 30
0.0
 10
10.0433844314
 20
5.581472812
 30
0.0
  0
LINE
  5
4E7
100
AcDbEntity
  8
0
100
AcDbLine
 62
9
  6
CONTINUOUS
 10
11.7277129228
 20
4.3266982002
 11
11.72778754
 21
4.3254183992
  0
SPLINE
  5
4E8
100
AcDbEntity
  8
0
100
AcDbSpline
 62
9
  6
CONTINUOUS
 70
0
 71
3
 72
16
 73
12
 74
0
 42
0.0000001
 43
0.0000001
 44
0.0000000001
 40
0.0
 40
0.0
 40
0.0
 40
0.0
 40
0.123043543
 40
0.2462991017
 40
0.3698793816
 40
0.4939565303
 40
0.6187644821
 40
0.7446171811
 40
0.8080548107
 40
0.8718458518
 40
1.0
 40
1.0
 40
1.0
 40
1.0
 10
10.5349812327
 20
12.8286208054
 30
0.0
 10
10.5344363281
 20
12.8251613695
 30
0.0
 10
10.5332547837
 20
12.8182503507
 30
0.0
 10
10.5311586871
 20
12.807931532
 30
0.0
 10
10.5286647263
 20
12.797670178
 30
0.0
 10
10.5256698238
 20
12.7874952965
 30
0.0
 10
10.5220228456
 20
12.777463499
 30
0.0
 10
10.5182701124
 20
12.7693316036
 30
0.0
 10
10.5146945211
 20
12.7630720052
 30
0.0
 10
10.5106634213
 20
12.7570209469
 30
0.0
 10
10.507071369
 20
12.752846197
 30
0.0
 10
10.504402525
 20
12.7503598607
 30
0.0
  0
SPLINE
  5
4E9
100
AcDbEntity
  8
0
100
AcDbSpline
 62
9
  6
CONTINUOUS
 70
0
 71
3
 72
25
 73
21
 74
0
 42
0.0000001
 43
0.0000001
 44
0.0000000001
 40
0.0
 40
0.0
 40
0.0
 40
0.0
 40
0.1981791025
 40
0.3867788426
 40
0.4753646686
 40
0.5591267093
 40
0.637327747
 40
0.7092663297
 40
0.7743312899
 40
0.8319426516
 40
0.8816178214
 40
0.9229197683
 40
0.9555099648
 40
0.9684616327
 40
0.979149448
 40
0.9875682071
 40
0.9937412744
 40
0.9960097373
 40
0.9977628978
 40
1.0
 40
1.0
 40
1.0
 40
1.0
 10
10.5044023881
 20
12.7503601367
 30
0.0
 10
10.5032536567
 20
12.7525358088
 30
0.0
 10
10.5009968821
 20
12.7567741726
 30
0.0
 10
10.4981845709
 20
12.7619625145
 30
0.0
 10
10.4960233215
 20
12.7658878967
 30
0.0
 10
10.494510066
 20
12.7686054522
 30
0.0
 10
10.493083712
 20
12.7711348038
 30
0.0
 10
10.4917567459
 20
12.7734536655
 30
0.0
 10
10.4905410908
 20
12.7755416519
 30
0.0
 10
10.4894472516
 20
12.777380635
 30
0.0
 10
10.4884852704
 20
12.7789546895
 30
0.0
 10
10.4876635094
 20
12.7802501292
 30
0.0
 10
10.487064282
 20
12.7811466754
 30
0.0
 10
10.4866567286
 20
12.7817135328
 30
0.0
 10
10.486414646
 20
12.7820294913
 30
0.0
 10
10.4862118163
 20
12.7822693678
 30
0.0
 10
10.4860659653
 20
12.7824194467
 30
0.0
 10
10.4859654448
 20
12.7824982744
 30
0.0
 10
10.4859009676
 20
12.7825379874
 30
0.0
 10
10.4858444817
 20
12.7825516348
 30
0.0
 10
10.4858198878
 20
12.7825387327
 30
0.0
  0
LINE
  5
4EA
100
AcDbEntity
  8
0
100
AcDbLine
 62
9
  6
CONTINUOUS
 10
11.7269755588
 20
4.3394843527
 11
11.7272201474
 21
4.3352155437
  0
LINE
  5
4EB
100
AcDbEntity
  8
0
100
AcDbLine
 62
9
  6
CONTINUOUS
 10
11.7272201474
 20
4.3352155437
 11
11.7274659123
 21
4.3309535539
  0
LINE
  5
4EC
100
AcDbEntity
  8
0
100
AcDbLine
 62
9
  6
CONTINUOUS
 10
11.7274659123
 20
4.3309535539
 11
11.7277129228
 21
4.3266982002
  0
SPLINE
  5
4ED
100
AcDbEntity
  8
0
100
AcDbSpline
 62
9
  6
CONTINUOUS
 70
0
 71
3
 72
27
 73
23
 74
0
 42
0.0000001
 43
0.0000001
 44
0.0000000001
 40
0.0
 40
0.0
 40
0.0
 40
0.0
 40
0.1013479992
 40
0.2008537188
 40
0.2975463207
 40
0.3906114709
 40
0.4793313478
 40
0.5630049054
 40
0.6409485745
 40
0.7125070961
 40
0.777113052
 40
0.8342263955
 40
0.8833912184
 40
0.9241946918
 40
0.9563139159
 40
0.9690528762
 40
0.9795528287
 40
0.9878128323
 40
0.9938597027
 40
0.9960791704
 40
0.9977944061
 40
1.0
 40
1.0
 40
1.0
 40
1.0
 10
9.5565360704
 20
12.3056844048
 30
0.0
 10
9.5560356969
 20
12.3067608807
 30
0.0
 10
9.5550221088
 20
12.3088840649
 30
0.0
 10
9.5534879771
 20
12.3120133874
 30
0.0
 10
9.5520041623
 20
12.3150593371
 30
0.0
 10
9.5505837278
 20
12.3179956111
 30
0.0
 10
9.5492188478
 20
12.3207893586
 30
0.0
 10
9.5479125698
 20
12.3234145322
 30
0.0
 10
9.5466796316
 20
12.3258516048
 30
0.0
 10
9.5455321587
 20
12.3280815558
 30
0.0
 10
9.5444823476
 20
12.3300873076
 30
0.0
 10
9.5435411888
 20
12.3318538096
 30
0.0
 10
9.5427193242
 20
12.333367927
 30
0.0
 10
9.5420278023
 20
12.3346195897
 30
0.0
 10
9.5415323974
 20
12.335492254
 30
0.0
 10
9.5411956297
 20
12.336046431
 30
0.0
 10
9.5409943561
 20
12.3363557229
 30
0.0
 10
9.5408232
 20
12.3365908565
 30
0.0
 10
9.540698083
 20
12.336738637
 30
0.0
 10
9.54060991
 20
12.3368170256
 30
0.0
 10
9.5405524119
 20
12.3368572825
 30
0.0
 10
9.5405004772
 20
12.3368719292
 30
0.0
 10
9.5404771088
 20
12.3368609148
 30
0.0
  0
SPLINE
  5
4EE
100
AcDbEntity
  8
0
100
AcDbSpline
 62
9
  6
CONTINUOUS
 70
0
 71
3
 72
11
 73
7
 74
0
 42
0.0000001
 43
0.0000001
 44
0.0000000001
 40
0.0
 40
0.0
 40
0.0
 40
0.0
 40
0.2499908291
 40
0.4999845331
 40
0.7499865899
 40
1.0
 40
1.0
 40
1.0
 40
1.0
 10
10.4990570876
 20
12.7477163733
 30
0.0
 10
10.4204837402
 20
12.7109516274
 30
0.0
 10
10.2633047668
 20
12.637488798
 30
0.0
 10
10.0275644631
 20
12.527226279
 30
0.0
 10
9.7919391939
 20
12.4166995563
 30
0.0
 10
9.6349785314
 20
12.342745941
 30
0.0
 10
9.5565361016
 20
12.3056843403
 30
0.0
  0
SPLINE
  5
4EF
100
AcDbEntity
  8
0
100
AcDbSpline
 62
9
  6
CONTINUOUS
 70
0
 71
3
 72
16
 73
12
 74
0
 42
0.0000001
 43
0.0000001
 44
0.0000000001
 40
0.0
 40
0.0
 40
0.0
 40
0.0
 40
0.1750553353
 40
0.3436244724
 40
0.5012164694
 40
0.6439021735
 40
0.7679901234
 40
0.8703176935
 40
0.9482967404
 40
0.9775200815
 40
1.0
 40
1.0
 40
1.0
 40
1.0
 10
10.4990570876
 20
12.7477163733
 30
0.0
 10
10.4981523189
 20
12.7496232226
 30
0.0
 10
10.4963659667
 20
12.7533613745
 30
0.0
 10
10.4937287242
 20
12.7587986686
 30
0.0
 10
10.4912290779
 20
12.7638688295
 30
0.0
 10
10.4889319676
 20
12.7684407345
 30
0.0
 10
10.4868967558
 20
12.7723984195
 30
0.0
 10
10.4851756622
 20
12.7756398907
 30
0.0
 10
10.4839493829
 20
12.7778491197
 30
0.0
 10
10.4831489272
 20
12.7791923184
 30
0.0
 10
10.4828138406
 20
12.7797182724
 30
0.0
 10
10.4826609663
 20
12.7799420808
 30
0.0
  0
LINE
  5
4F0
100
AcDbEntity
  8
0
100
AcDbLine
 62
9
  6
CONTINUOUS
 10
10.4826609663
 20
12.7799420808
 11
10.4820054905
 21
12.7806405236
  0
SPLINE
  5
4F1
100
AcDbEntity
  8
0
100
AcDbSpline
 62
9
  6
CONTINUOUS
 70
0
 71
3
 72
20
 73
16
 74
0
 42
0.0000001
 43
0.0000001
 44
0.0000000001
 40
0.0
 40
0.0
 40
0.0
 40
0.0
 40
0.0148273312
 40
0.0239394325
 40
0.0344088917
 40
0.0598117075
 40
0.0915901987
 40
0.1300131137
 40
0.1752070531
 40
0.227214005
 40
0.2860455904
 40
0.4241445523
 40
0.5893567233
 40
0.7814292488
 40
1.0
 40
1.0
 40
1.0
 40
1.0
 10
11.7281029454
 20
4.6554320326
 30
0.0
 10
11.7279357526
 20
4.6553645827
 30
0.0
 10
11.727697141
 20
4.6551805946
 30
0.0
 10
11.7274272292
 20
4.6548616878
 30
0.0
 10
11.7271225084
 20
4.6544057088
 30
0.0
 10
11.7267605715
 20
4.6536640555
 30
0.0
 10
11.7263586648
 20
4.6525722058
 30
0.0
 10
11.7259659603
 20
4.6512242947
 30
0.0
 10
11.7255825687
 20
4.649619977
 30
0.0
 10
11.7252096939
 20
4.6477594325
 30
0.0
 10
11.7247004202
 20
4.6447754293
 30
0.0
 10
11.7241147143
 20
4.6404100009
 30
0.0
 10
11.7234953537
 20
4.6344180208
 30
0.0
 10
11.7229309812
 20
4.6274385042
 30
0.0
 10
11.7226133682
 20
4.6224553898
 30
0.0
 10
11.7224614116
 20
4.6198021331
 30
0.0
  0
SPLINE
  5
4F2
100
AcDbEntity
  8
0
100
AcDbSpline
 62
9
  6
CONTINUOUS
 70
0
 71
3
 72
17
 73
13
 74
0
 42
0.0000001
 43
0.0000001
 44
0.0000000001
 40
0.0
 40
0.0
 40
0.0
 40
0.0
 40
0.0366241584
 40
0.0775487349
 40
0.1226389354
 40
0.1717471679
 40
0.281334016
 40
0.404802491
 40
0.5404202589
 40
0.6862588157
 40
0.8402057145
 40
1.0
 40
1.0
 40
1.0
 40
1.0
 10
11.7224614116
 20
4.6198021331
 30
0.0
 10
11.7222656384
 20
4.6163838131
 30
0.0
 10
11.7219111253
 20
4.6091423122
 30
0.0
 10
11.7214941874
 20
4.5976844015
 30
0.0
 10
11.7211664173
 20
4.5850560616
 30
0.0
 10
11.7208424603
 20
4.5660071228
 30
0.0
 10
11.7207114491
 20
4.5396275312
 30
0.0
 10
11.7209757898
 20
4.5051612738
 30
0.0
 10
11.7216926239
 20
4.4673116641
 30
0.0
 10
11.7228964579
 20
4.4266237036
 30
0.0
 10
11.7246222547
 20
4.383692376
 30
0.0
 10
11.7261236882
 20
4.3543990102
 30
0.0
 10
11.7269755545
 20
4.3394844602
 30
0.0
  0
LINE
  5
4F3
100
AcDbEntity
  8
0
100
AcDbLine
 62
9
  6
CONTINUOUS
 10
11.7283714819
 20
4.6555197245
 11
11.7281359171
 21
4.6554348009
  0
SPLINE
  5
4F4
100
AcDbEntity
  8
0
100
AcDbSpline
 62
9
  6
CONTINUOUS
 70
0
 71
3
 72
15
 73
11
 74
0
 42
0.0000001
 43
0.0000001
 44
0.0000000001
 40
0.0
 40
0.0
 40
0.0
 40
0.0
 40
0.1245320881
 40
0.2491846131
 40
0.3739303447
 40
0.4988248921
 40
0.6238738183
 40
0.7490860058
 40
0.8744636217
 40
1.0
 40
1.0
 40
1.0
 40
1.0
 10
11.7751923418
 20
4.5828283515
 30
0.0
 10
11.7751521848
 20
4.5774415308
 30
0.0
 10
11.7744910412
 20
4.5666581117
 30
0.0
 10
11.7717727977
 20
4.5506828021
 30
0.0
 10
11.7673556349
 20
4.5350733507
 30
0.0
 10
11.7612919992
 20
4.5200089593
 30
0.0
 10
11.7536487465
 20
4.5056584344
 30
0.0
 10
11.7445125051
 20
4.4921834445
 30
0.0
 10
11.7339883402
 20
4.4797370904
 30
0.0
 10
11.7261261048
 20
4.4722195353
 30
0.0
 10
11.7220087417
 20
4.4686788129
 30
0.0
  0
SPLINE
  5
4F5
100
AcDbEntity
  8
0
100
AcDbSpline
 62
9
  6
CONTINUOUS
 70
0
 71
3
 72
23
 73
19
 74
0
 42
0.0000001
 43
0.0000001
 44
0.0000000001
 40
0.0
 40
0.0
 40
0.0
 40
0.0
 40
0.1133095549
 40
0.2186638923
 40
0.3161652841
 40
0.4059285105
 40
0.4880935852
 40
0.5628423959
 40
0.6303915812
 40
0.6910035856
 40
0.7450134487
 40
0.7928639027
 40
0.8351396827
 40
0.8726275066
 40
0.9063870481
 40
0.9377887087
 40
0.9684429278
 40
1.0
 40
1.0
 40
1.0
 40
1.0
 10
11.7751923418
 20
4.5828283515
 30
0.0
 10
11.7742346711
 20
4.5862150484
 30
0.0
 10
11.7723245815
 20
4.5927334227
 30
0.0
 10
11.7693540122
 20
4.6020946664
 30
0.0
 10
11.7663854374
 20
4.61068641
 30
0.0
 10
11.7634211918
 20
4.6185140556
 30
0.0
 10
11.7604631843
 20
4.6255839557
 30
0.0
 10
11.757512914
 20
4.6319034884
 30
0.0
 10
11.754571507
 20
4.6374809283
 30
0.0
 10
11.7516395841
 20
4.6423251357
 30
0.0
 10
11.7487167392
 20
4.6464457743
 30
0.0
 10
11.7458011505
 20
4.6498533177
 30
0.0
 10
11.7428886062
 20
4.6525579402
 30
0.0
 10
11.7399719211
 20
4.6545668448
 30
0.0
 10
11.7370433431
 20
4.6558799743
 30
0.0
 10
11.7341029658
 20
4.6564886298
 30
0.0
 10
11.7311702166
 20
4.6563875481
 30
0.0
 10
11.7292892356
 20
4.6558716465
 30
0.0
 10
11.7283741026
 20
4.6555204978
 30
0.0
  0
SPLINE
  5
4F6
100
AcDbEntity
  8
0
100
AcDbSpline
 62
9
  6
CONTINUOUS
 70
0
 71
3
 72
27
 73
23
 74
0
 42
0.0000001
 43
0.0000001
 44
0.0000000001
 40
0.0
 40
0.0
 40
0.0
 40
0.0
 40
0.0061370945
 40
0.0128513967
 40
0.02093006
 40
0.0308224563
 40
0.0427621333
 40
0.0568291667
 40
0.073017867
 40
0.0913078992
 40
0.1340751242
 40
0.1848513084
 40
0.2432410443
 40
0.3087432189
 40
0.3807096422
 40
0.4584536416
 40
0.5411968463
 40
0.6281195856
 40
0.718372265
 40
0.8110916963
 40
0.905337172
 40
1.0
 40
1.0
 40
1.0
 40
1.0
 10
11.1692203606
 20
14.3301695021
 30
0.0
 10
11.1693073264
 20
14.3301695021
 30
0.0
 10
11.1694914391
 20
14.3301319589
 30
0.0
 10
11.1697418931
 20
14.329963688
 30
0.0
 10
11.169973831
 20
14.3296988118
 30
0.0
 10
11.1701993638
 20
14.3293387236
 30
0.0
 10
11.1704262326
 20
14.3288828461
 30
0.0
 10
11.1706563881
 20
14.3283306139
 30
0.0
 10
11.1708867539
 20
14.3276821309
 30
0.0
 10
11.1712079152
 20
14.3266353878
 30
0.0
 10
11.1715830658
 20
14.3250943771
 30
0.0
 10
11.1719829203
 20
14.3229783309
 30
0.0
 10
11.1723579378
 20
14.3205313939
 30
0.0
 10
11.1727081984
 20
14.3177779266
 30
0.0
 10
11.1730257523
 20
14.3147445952
 30
0.0
 10
11.1733029371
 20
14.3114621033
 30
0.0
 10
11.1735405101
 20
14.3079641118
 30
0.0
 10
11.1737416823
 20
14.3042863318
 30
0.0
 10
11.1738990122
 20
14.3004648667
 30
0.0
 10
11.1739927597
 20
14.2965374516
 30
0.0
 10
11.1740249447
 20
14.29254671
 30
0.0
 10
11.1740398923
 20
14.2898698262
 30
0.0
 10
11.1740530607
 20
14.2885284692
 30
0.0
  0
SPLINE
  5
4F7
100
AcDbEntity
  8
0
100
AcDbSpline
 62
9
  6
CONTINUOUS
 70
0
 71
3
 72
15
 73
11
 74
0
 42
0.0000001
 43
0.0000001
 44
0.0000000001
 40
0.0
 40
0.0
 40
0.0
 40
0.0
 40
0.1245100686
 40
0.2491438183
 40
0.3738771323
 40
0.4987662173
 40
0.6238174258
 40
0.7490403154
 40
0.8744368632
 40
1.0
 40
1.0
 40
1.0
 40
1.0
 10
11.7761446061
 20
4.5794228832
 30
0.0
 10
11.7760945463
 20
4.5739968284
 30
0.0
 10
11.7754059203
 20
4.5631356907
 30
0.0
 10
11.7726241362
 20
4.5470503661
 30
0.0
 10
11.7681221595
 20
4.5313402542
 30
0.0
 10
11.7619539725
 20
4.5161875701
 30
0.0
 10
11.7541883176
 20
4.501763949
 30
0.0
 10
11.7449141336
 20
4.4882335976
 30
0.0
 10
11.7342391611
 20
4.4757519048
 30
0.0
 10
11.7262701165
 20
4.4682254328
 30
0.0
 10
11.722098249
 20
4.4646842085
 30
0.0
  0
SPLINE
  5
4F8
100
AcDbEntity
  8
0
100
AcDbSpline
 62
9
  6
CONTINUOUS
 70
0
 71
3
 72
25
 73
21
 74
0
 42
0.0000001
 43
0.0000001
 44
0.0000000001
 40
0.0
 40
0.0
 40
0.0
 40
0.0
 40
0.005792799
 40
0.012490499
 40
0.0206872736
 40
0.0307045339
 40
0.0427101615
 40
0.0567839573
 40
0.0729514725
 40
0.0912139552
 40
0.1339586799
 40
0.184755268
 40
0.2431662914
 40
0.3086768458
 40
0.3806493985
 40
0.4584033809
 40
0.5411562015
 40
0.6280834761
 40
0.8110712377
 40
1.0
 40
1.0
 40
1.0
 40
1.0
 10
10.7061643249
 20
14.3301695021
 30
0.0
 10
10.7060822477
 20
14.3301695021
 30
0.0
 10
10.7059041642
 20
14.3301284787
 30
0.0
 10
10.7056580295
 20
14.3299618342
 30
0.0
 10
10.705419138
 20
14.3296991948
 30
0.0
 10
10.7051837478
 20
14.3293401184
 30
0.0
 10
10.7049508932
 20
14.3288839848
 30
0.0
 10
10.704720788
 20
14.3283309179
 30
0.0
 10
10.7044937535
 20
14.3276819536
 30
0.0
 10
10.7041793441
 20
14.3266343603
 30
0.0
 10
10.7038083161
 20
14.3250931884
 30
0.0
 10
10.7034034033
 20
14.322978149
 30
0.0
 10
10.7030238984
 20
14.3205314236
 30
0.0
 10
10.7026744583
 20
14.317777646
 30
0.0
 10
10.7023585266
 20
14.3147441773
 30
0.0
 10
10.7020800407
 20
14.3114618387
 30
0.0
 10
10.7018415225
 20
14.3079639644
 30
0.0
 10
10.7015760318
 20
14.3029739767
 30
0.0
 10
10.701364933
 20
14.2964753661
 30
0.0
 10
10.7013213028
 20
14.2912053489
 30
0.0
 10
10.7013316247
 20
14.2885284692
 30
0.0
  0
LINE
  5
4F9
100
AcDbEntity
  8
0
100
AcDbLine
 62
9
  6
CONTINUOUS
 10
11.776400874
 20
4.5785406954
 11
11.7761442079
 21
4.5793786757
  0
SPLINE
  5
4FA
100
AcDbEntity
  8
0
100
AcDbSpline
 62
9
  6
CONTINUOUS
 70
0
 71
3
 72
25
 73
21
 74
0
 42
0.0000001
 43
0.0000001
 44
0.0000000001
 40
0.0
 40
0.0
 40
0.0
 40
0.0
 40
0.0643815857
 40
0.1296591643
 40
0.195623026
 40
0.2287963461
 40
0.2620615948
 40
0.3287398567
 40
0.3953867996
 40
0.4617282607
 40
0.4946987793
 40
0.5274902238
 40
0.5924000304
 40
0.656186111
 40
0.7185768655
 40
0.7792997464
 40
0.8380803092
 40
0.89464383
 40
0.9487118525
 40
1.0
 40
1.0
 40
1.0
 40
1.0
 10
11.865769993
 20
2.9020918518
 30
0.0
 10
11.861791756
 20
2.9296096383
 30
0.0
 10
11.8535533899
 20
2.9849955223
 30
0.0
 10
11.8406320675
 20
3.0684836665
 30
0.0
 10
11.8295045873
 20
3.1386106669
 30
0.0
 10
11.8204650798
 20
3.1950709964
 30
0.0
 10
11.8113531651
 20
3.2518321844
 30
0.0
 10
11.7999307754
 20
3.322863482
 30
0.0
 10
11.7862514667
 20
3.4079996718
 30
0.0
 10
11.7749282548
 20
3.478770671
 30
0.0
 10
11.7659660537
 20
3.5351125827
 30
0.0
 10
11.7571416247
 20
3.5908503459
 30
0.0
 10
11.7463031366
 20
3.6597430005
 30
0.0
 10
11.7335623879
 20
3.7412763307
 30
0.0
 10
11.7211626489
 20
3.8210328076
 30
0.0
 10
11.7091308289
 20
3.8986588168
 30
0.0
 10
11.6974786967
 20
3.9737970743
 30
0.0
 10
11.6862210156
 20
4.0460881759
 30
0.0
 10
11.6753702284
 20
4.1151679175
 30
0.0
 10
11.6682107081
 20
4.1601003371
 30
0.0
 10
11.6646884249
 20
4.1819678058
 30
0.0
  0
SPLINE
  5
4FB
100
AcDbEntity
  8
0
100
AcDbSpline
 62
9
  6
CONTINUOUS
 70
0
 71
3
 72
30
 73
26
 74
0
 42
0.0000001
 43
0.0000001
 44
0.0000000001
 40
0.0
 40
0.0
 40
0.0
 40
0.0
 40
0.0768876513
 40
0.1537088042
 40
0.1919664383
 40
0.2300533903
 40
0.267918978
 40
0.3055129378
 40
0.379682543
 40
0.4521577963
 40
0.5225521383
 40
0.5904873202
 40
0.6555878674
 40
0.7174813214
 40
0.7757906002
 40
0.8034826332
 40
0.8301350352
 40
0.8556985426
 40
0.8801239937
 40
0.9033620233
 40
0.9253625318
 40
0.9460757909
 40
0.965452526
 40
0.9834432961
 40
1.0
 40
1.0
 40
1.0
 40
1.0
 10
11.865769993
 20
2.9020918518
 30
0.0
 10
11.8695703479
 20
2.9451159643
 30
0.0
 10
11.8762781503
 20
3.0312079877
 30
0.0
 10
11.8824396219
 20
3.1388770051
 30
0.0
 10
11.8860072184
 20
3.2248452268
 30
0.0
 10
11.8879856893
 20
3.2889735201
 30
0.0
 10
11.8892740094
 20
3.3527464651
 30
0.0
 10
11.8900996239
 20
3.4367977813
 30
0.0
 10
11.8895441787
 20
3.5403000996
 30
0.0
 10
11.8864651409
 20
3.6621905272
 30
0.0
 10
11.8812147812
 20
3.780500569
 30
0.0
 10
11.8740645691
 20
3.8945596165
 30
0.0
 10
11.8652746515
 20
4.0037134023
 30
0.0
 10
11.8551106247
 20
4.1073152197
 30
0.0
 10
11.8455415291
 20
4.1898471875
 30
0.0
 10
11.8373670467
 20
4.2526010352
 30
0.0
 10
11.8311402213
 20
4.2970560895
 30
0.0
 10
11.8247346926
 20
4.3396309784
 30
0.0
 10
11.8181744679
 20
4.3802406253
 30
0.0
 10
11.8114831324
 20
4.4187990404
 30
0.0
 10
11.8046799136
 20
4.4552186154
 30
0.0
 10
11.7977845763
 20
4.4894109268
 30
0.0
 10
11.7908173213
 20
4.5212869372
 30
0.0
 10
11.7837952186
 20
4.5507556221
 30
0.0
 10
11.7788805468
 20
4.5695324564
 30
0.0
 10
11.776400455
 20
4.5784964211
 30
0.0
  0
LINE
  5
4FC
100
AcDbEntity
  8
0
100
AcDbLine
 62
9
  6
CONTINUOUS
 10
10.1476717617
 20
4.3266981827
 11
10.1475971631
 21
4.3254187733
  0
LINE
  5
4FD
100
AcDbEntity
  8
0
100
AcDbLine
 62
9
  6
CONTINUOUS
 10
10.1484089569
 20
4.3394806156
 11
10.1481644253
 21
4.3352130696
  0
LINE
  5
4FE
100
AcDbEntity
  8
0
100
AcDbLine
 62
9
  6
CONTINUOUS
 10
10.1481644253
 20
4.3352130696
 11
10.1479187162
 21
4.3309523187
  0
LINE
  5
4FF
100
AcDbEntity
  8
0
100
AcDbLine
 62
9
  6
CONTINUOUS
 10
10.1479187162
 20
4.3309523187
 11
10.1476717617
 21
4.3266981827
  0
SPLINE
  5
500
100
AcDbEntity
  8
0
100
AcDbSpline
 62
9
  6
CONTINUOUS
 70
0
 71
3
 72
20
 73
16
 74
0
 42
0.0000001
 43
0.0000001
 44
0.0000000001
 40
0.0
 40
0.0
 40
0.0
 40
0.0
 40
0.1234410463
 40
0.2469142622
 40
0.3705147656
 40
0.4944034177
 40
0.6188315637
 40
0.6813839643
 40
0.7442530516
 40
0.7758350811
 40
0.8075220319
 40
0.8393333579
 40
0.8712728128
 40
0.9355247839
 40
1.0
 40
1.0
 40
1.0
 40
1.0
 10
11.1653749723
 20
13.1590464282
 30
0.0
 10
11.1613177713
 20
13.1618555642
 30
0.0
 10
11.1532842139
 20
13.1675939903
 30
0.0
 10
11.1414964778
 20
13.176566979
 30
0.0
 10
11.130010788
 20
13.1859540181
 30
0.0
 10
11.1189100686
 20
13.1958529156
 30
0.0
 10
11.1101176641
 20
13.2046519111
 30
0.0
 10
11.1035033053
 20
13.2121403101
 30
0.0
 10
11.0995906942
 20
13.217052905
 30
0.0
 10
11.0966364114
 20
13.2211405248
 30
0.0
 10
11.0945206195
 20
13.224299297
 30
0.0
 10
11.0925224879
 20
13.227550888
 30
0.0
 10
11.0900377833
 20
13.2320260222
 30
0.0
 10
11.0873510393
 20
13.2378741887
 30
0.0
 10
11.0857992571
 20
13.2428023479
 30
0.0
 10
11.0852205568
 20
13.2453140611
 30
0.0
  0
SPLINE
  5
501
100
AcDbEntity
  8
0
100
AcDbSpline
 62
9
  6
CONTINUOUS
 70
0
 71
3
 72
25
 73
21
 74
0
 42
0.0000001
 43
0.0000001
 44
0.0000000001
 40
0.0
 40
0.0
 40
0.0
 40
0.0
 40
0.1981790579
 40
0.3867786142
 40
0.4753643207
 40
0.5591262408
 40
0.6373271673
 40
0.7092656559
 40
0.7743305478
 40
0.831941875
 40
0.8816170498
 40
0.9229190474
 40
0.9555093441
 40
0.9684610823
 40
0.9791489826
 40
0.9875678417
 40
0.9937410246
 40
0.9960095509
 40
0.9977627777
 40
1.0
 40
1.0
 40
1.0
 40
1.0
 10
11.0852206232
 20
13.2453140588
 30
0.0
 10
11.0876791598
 20
13.2452210625
 30
0.0
 10
11.0924780439
 20
13.2450563219
 30
0.0
 10
11.0983773926
 20
13.2448977023
 30
0.0
 10
11.1028574635
 20
13.2448067219
 30
0.0
 10
11.1059675388
 20
13.2447584718
 30
0.0
 10
11.1088711754
 20
13.2447290641
 30
0.0
 10
11.1115428306
 20
13.2447188284
 30
0.0
 10
11.113958889
 20
13.2447276315
 30
0.0
 10
11.1160983993
 20
13.2447554396
 30
0.0
 10
11.1179425491
 20
13.2448015187
 30
0.0
 10
11.1194753048
 20
13.24486547
 30
0.0
 10
11.1205513457
 20
13.2449361469
 30
0.0
 10
11.1212460337
 20
13.2450056727
 30
0.0
 10
11.1216407033
 20
13.2450573452
 30
0.0
 10
11.1219498587
 20
13.2451130644
 30
0.0
 10
11.1221527581
 20
13.2451643375
 30
0.0
 10
11.1222712869
 20
13.245211978
 30
0.0
 10
11.1223379203
 20
13.245247962
 30
0.0
 10
11.1223779843
 20
13.2452900563
 30
0.0
 10
11.1223791097
 20
13.2453178075
 30
0.0
  0
SPLINE
  5
502
100
AcDbEntity
  8
0
100
AcDbSpline
 62
9
  6
CONTINUOUS
 70
0
 71
3
 72
20
 73
16
 74
0
 42
0.0000001
 43
0.0000001
 44
0.0000000001
 40
0.0
 40
0.0
 40
0.0
 40
0.0
 40
0.0149388269
 40
0.0241023222
 40
0.034618681
 40
0.0600997292
 40
0.0919337058
 40
0.1303873298
 40
0.1755904112
 40
0.2275899235
 40
0.2864016943
 40
0.42443848
 40
0.5895691478
 40
0.7815404097
 40
1.0
 40
1.0
 40
1.0
 40
1.0
 10
10.1472792928
 20
4.6554297289
 30
0.0
 10
10.1474449805
 20
4.6553628422
 30
0.0
 10
10.1476816048
 20
4.6551812686
 30
0.0
 10
10.1479497629
 20
4.6548664906
 30
0.0
 10
10.1482522332
 20
4.6544172374
 30
0.0
 10
10.1486117599
 20
4.6536869607
 30
0.0
 10
10.1490110566
 20
4.6526122609
 30
0.0
 10
10.1494010779
 20
4.6512862189
 30
0.0
 10
10.1497817176
 20
4.6497084979
 30
0.0
 10
10.1501519089
 20
4.647879195
 30
0.0
 10
10.1506576159
 20
4.6449457483
 30
0.0
 10
10.1512399013
 20
4.6406542983
 30
0.0
 10
10.151856651
 20
4.6347637516
 30
0.0
 10
10.1524195129
 20
4.6279022019
 30
0.0
 10
10.1527368468
 20
4.6230032088
 30
0.0
 10
10.1528888423
 20
4.6203946978
 30
0.0
  0
SPLINE
  5
503
100
AcDbEntity
  8
0
100
AcDbSpline
 62
9
  6
CONTINUOUS
 70
0
 71
3
 72
17
 73
13
 74
0
 42
0.0000001
 43
0.0000001
 44
0.0000000001
 40
0.0
 40
0.0
 40
0.0
 40
0.0
 40
0.0364243927
 40
0.0771808361
 40
0.1221340877
 40
0.1711361397
 40
0.2805991397
 40
0.4040538735
 40
0.5397553048
 40
0.6857593019
 40
0.8399347254
 40
1.0
 40
1.0
 40
1.0
 40
1.0
 10
10.1528888423
 20
4.6203946978
 30
0.0
 10
10.1530873486
 20
4.6169879785
 30
0.0
 10
10.1534469419
 20
4.60976577
 30
0.0
 10
10.1538703719
 20
4.5983309888
 30
0.0
 10
10.1542041924
 20
4.5857144342
 30
0.0
 10
10.1545359297
 20
4.5666594326
 30
0.0
 10
10.1546746998
 20
4.5402465231
 30
0.0
 10
10.1544168522
 20
4.5057118567
 30
0.0
 10
10.1537035747
 20
4.4677594834
 30
0.0
 10
10.1524999487
 20
4.4269400172
 30
0.0
 10
10.1507705926
 20
4.3838549025
 30
0.0
 10
10.1492641423
 20
4.3544523794
 30
0.0
 10
10.1484089612
 20
4.339480723
 30
0.0
  0
SPLINE
  5
504
100
AcDbEntity
  8
0
100
AcDbSpline
 62
9
  6
CONTINUOUS
 70
0
 71
3
 72
27
 73
23
 74
0
 42
0.0000001
 43
0.0000001
 44
0.0000000001
 40
0.0
 40
0.0
 40
0.0
 40
0.0
 40
0.1013479992
 40
0.2008537188
 40
0.2975463207
 40
0.3906114709
 40
0.4793313478
 40
0.5630049054
 40
0.6409485745
 40
0.7125070961
 40
0.777113052
 40
0.8342263955
 40
0.8833912184
 40
0.9241946918
 40
0.9563139159
 40
0.9690528762
 40
0.9795528287
 40
0.9878128323
 40
0.9938597027
 40
0.9960791704
 40
0.9977944061
 40
1.0
 40
1.0
 40
1.0
 40
1.0
 10
11.1740530607
 20
14.2885284692
 30
0.0
 10
11.1752355029
 20
14.2884235674
 30
0.0
 10
11.1775810284
 20
14.2882397685
 30
0.0
 10
11.181058167
 20
14.2880037042
 30
0.0
 10
11.1844379443
 20
14.2877657507
 30
0.0
 10
11.1876910494
 20
14.287527746
 30
0.0
 10
11.1907929457
 20
14.287312893
 30
0.0
 10
11.1937195517
 20
14.2871315762
 30
0.0
 10
11.1964465876
 20
14.2869807956
 30
0.0
 10
11.1989515183
 20
14.2868595609
 30
0.0
 10
11.2012134559
 20
14.286765848
 30
0.0
 10
11.2032138708
 20
14.2866976645
 30
0.0
 10
11.2049360673
 20
14.2866523613
 30
0.0
 10
11.2063657999
 20
14.2866254055
 30
0.0
 10
11.2073692518
 20
14.2866181066
 30
0.0
 10
11.208017567
 20
14.2866326676
 30
0.0
 10
11.2083860585
 20
14.2866523297
 30
0.0
 10
11.2086752682
 20
14.2866829883
 30
0.0
 10
11.2088658083
 20
14.2867174526
 30
0.0
 10
11.2089777814
 20
14.2867546183
 30
0.0
 10
11.2090413939
 20
14.2867842847
 30
0.0
 10
11.2090800457
 20
14.2868219381
 30
0.0
 10
11.2090821911
 20
14.2868476829
 30
0.0
  0
SPLINE
  5
505
100
AcDbEntity
  8
0
100
AcDbSpline
 62
9
  6
CONTINUOUS
 70
0
 71
3
 72
11
 73
7
 74
0
 42
0.0000001
 43
0.0000001
 44
0.0000000001
 40
0.0
 40
0.0
 40
0.0
 40
0.0
 40
0.2499908291
 40
0.4999845331
 40
0.7499865899
 40
1.0
 40
1.0
 40
1.0
 40
1.0
 10
11.0856034661
 20
13.2512653405
 30
0.0
 10
11.0930509359
 20
13.3376942284
 30
0.0
 10
11.1080197461
 20
13.5105466269
 30
0.0
 10
11.1303997554
 20
13.7698349782
 30
0.0
 10
11.1524934403
 20
14.0291558084
 30
0.0
 10
11.1669280621
 20
14.2020645372
 30
0.0
 10
11.1740529892
 20
14.2885284745
 30
0.0
  0
SPLINE
  5
506
100
AcDbEntity
  8
0
100
AcDbSpline
 62
9
  6
CONTINUOUS
 70
0
 71
3
 72
24
 73
20
 74
0
 42
0.0000001
 43
0.0000001
 44
0.0000000001
 40
0.0
 40
0.0
 40
0.0
 40
0.0
 40
0.198361075
 40
0.3870803076
 40
0.47570582
 40
0.5594959477
 40
0.6377147826
 40
0.7096620639
 40
0.7747276017
 40
0.8323321665
 40
0.881993436
 40
0.9232739928
 40
0.9558334938
 40
0.9794247885
 40
0.9878110686
 40
0.9939393603
 40
0.9961771404
 40
0.997890358
 40
1.0
 40
1.0
 40
1.0
 40
1.0
 10
11.0856034661
 20
13.2512653405
 30
0.0
 10
11.0880519277
 20
13.2510676353
 30
0.0
 10
11.092831088
 20
13.2506971492
 30
0.0
 10
11.0987074621
 20
13.2502819541
 30
0.0
 10
11.103170338
 20
13.249993727
 30
0.0
 10
11.1062685129
 20
13.2498073371
 30
0.0
 10
11.1091613518
 20
13.2496476747
 30
0.0
 10
11.1118234746
 20
13.2495161945
 30
0.0
 10
11.1142313936
 20
13.249413886
 30
0.0
 10
11.1163642946
 20
13.2493415626
 30
0.0
 10
11.1182033971
 20
13.2492997438
 30
0.0
 10
11.1197328664
 20
13.2492878224
 30
0.0
 10
11.1209393431
 20
13.2493067793
 30
0.0
 10
11.1217379585
 20
13.249346535
 30
0.0
 10
11.1222070716
 20
13.2494021639
 30
0.0
 10
11.1224108229
 20
13.2494397971
 30
0.0
 10
11.1225310046
 20
13.2494781912
 30
0.0
 10
11.1225974926
 20
13.2495075476
 30
0.0
 10
11.1226402455
 20
13.2495443468
 30
0.0
 10
11.1226424152
 20
13.2495703816
 30
0.0
  0
LINE
  5
507
100
AcDbEntity
  8
0
100
AcDbLine
 62
9
  6
CONTINUOUS
 10
10.1470127127
 20
4.655519881
 11
10.1472524082
 21
4.6554319576
  0
SPLINE
  5
508
100
AcDbEntity
  8
0
100
AcDbSpline
 62
9
  6
CONTINUOUS
 70
0
 71
3
 72
20
 73
16
 74
0
 42
0.0000001
 43
0.0000001
 44
0.0000000001
 40
0.0
 40
0.0
 40
0.0
 40
0.0
 40
0.1234501945
 40
0.2469302267
 40
0.3705436235
 40
0.4324476292
 40
0.4944499162
 40
0.5565853391
 40
0.6189003357
 40
0.6814537279
 40
0.7443170891
 40
0.8075827587
 40
0.8713069521
 40
0.9355319667
 40
1.0
 40
1.0
 40
1.0
 40
1.0
 10
10.7100093078
 20
13.1590461205
 30
0.0
 10
10.7140668511
 20
13.1618554453
 30
0.0
 10
10.7221009647
 20
13.1675943254
 30
0.0
 10
10.7338894104
 20
13.1765681822
 30
0.0
 10
10.743457639
 20
13.1843865538
 30
0.0
 10
10.7509132431
 20
13.1908936998
 30
0.0
 10
10.7563940796
 20
13.1959225081
 30
0.0
 10
10.7617373096
 20
13.2011213422
 30
0.0
 10
10.7669143515
 20
13.2065169737
 30
0.0
 10
10.7718835194
 20
13.2121446438
 30
0.0
 10
10.776585932
 20
13.2180474339
 30
0.0
 10
10.7809386741
 20
13.224272389
 30
0.0
 10
10.7848136097
 20
13.2308739114
 30
0.0
 10
10.7880322001
 20
13.2378757081
 30
0.0
 10
10.7895894623
 20
13.2428016164
 30
0.0
 10
10.7901639531
 20
13.2453140135
 30
0.0
  0
SPLINE
  5
509
100
AcDbEntity
  8
0
100
AcDbSpline
 62
9
  6
CONTINUOUS
 70
0
 71
3
 72
25
 73
21
 74
0
 42
0.0000001
 43
0.0000001
 44
0.0000000001
 40
0.0
 40
0.0
 40
0.0
 40
0.0
 40
0.002237244
 40
0.0039904779
 40
0.0062590095
 40
0.0124321987
 40
0.0208510605
 40
0.0315389604
 40
0.0444906959
 40
0.0770809815
 40
0.118382962
 40
0.1680581159
 40
0.2256694193
 40
0.2907342866
 40
0.362672752
 40
0.4408736585
 40
0.5246355647
 40
0.6132212653
 40
0.8018208476
 40
1.0
 40
1.0
 40
1.0
 40
1.0
 10
10.753005577
 20
13.2453178012
 30
0.0
 10
10.7530067024
 20
13.2452900498
 30
0.0
 10
10.7530467662
 20
13.2452479551
 30
0.0
 10
10.7531133996
 20
13.2452119706
 30
0.0
 10
10.7532319282
 20
13.2451643296
 30
0.0
 10
10.7534348271
 20
13.2451130559
 30
0.0
 10
10.7537439817
 20
13.2450573361
 30
0.0
 10
10.7541386503
 20
13.245005663
 30
0.0
 10
10.7548333363
 20
13.2449361364
 30
0.0
 10
10.7559093741
 20
13.2448654584
 30
0.0
 10
10.7574421255
 20
13.2448015057
 30
0.0
 10
10.75928627
 20
13.2447554248
 30
0.0
 10
10.7614257742
 20
13.2447276148
 30
0.0
 10
10.7638418259
 20
13.2447188095
 30
0.0
 10
10.7665134739
 20
13.244729043
 30
0.0
 10
10.7694171028
 20
13.2447584481
 30
0.0
 10
10.77252717
 20
13.2448066957
 30
0.0
 10
10.7770072303
 20
13.2448976725
 30
0.0
 10
10.7829065663
 20
13.2450562873
 30
0.0
 10
10.7877054405
 20
13.2452210235
 30
0.0
 10
10.7901639724
 20
13.2453140174
 30
0.0
  0
SPLINE
  5
50A
100
AcDbEntity
  8
0
100
AcDbSpline
 62
9
  6
CONTINUOUS
 70
0
 71
3
 72
23
 73
19
 74
0
 42
0.0000001
 43
0.0000001
 44
0.0000000001
 40
0.0
 40
0.0
 40
0.0
 40
0.0
 40
0.1133110843
 40
0.2186660114
 40
0.3161672347
 40
0.4059297159
 40
0.4880936648
 40
0.5628411758
 40
0.6303890882
 40
0.6910000393
 40
0.7450092568
 40
0.7928596299
 40
0.8351359832
 40
0.872625004
 40
0.906386131
 40
0.937789248
 40
0.9684440373
 40
1.0
 40
1.0
 40
1.0
 40
1.0
 10
10.1001923436
 20
4.5828283594
 30
0.0
 10
10.1011500102
 20
4.5862150417
 30
0.0
 10
10.1030600917
 20
4.5927333613
 30
0.0
 10
10.1060306609
 20
4.6020944856
 30
0.0
 10
10.1089992344
 20
4.6106860482
 30
0.0
 10
10.1119634772
 20
4.6185134682
 30
0.0
 10
10.1149214801
 20
4.6255831161
 30
0.0
 10
10.117871745
 20
4.631902388
 30
0.0
 10
10.1208131462
 20
4.637479577
 30
0.0
 10
10.1237450642
 20
4.6423235618
 30
0.0
 10
10.126667906
 20
4.6464440245
 30
0.0
 10
10.1295834937
 20
4.6498514563
 30
0.0
 10
10.1324960378
 20
4.6525560487
 30
0.0
 10
10.1354127186
 20
4.654565023
 30
0.0
 10
10.1383412796
 20
4.6558783484
 30
0.0
 10
10.1412816275
 20
4.6564873636
 30
0.0
 10
10.1442143578
 20
4.6563868371
 30
0.0
 10
10.1460954079
 20
4.6558714078
 30
0.0
 10
10.1470105811
 20
4.6555205086
 30
0.0
  0
SPLINE
  5
50B
100
AcDbEntity
  8
0
100
AcDbSpline
 62
9
  6
CONTINUOUS
 70
0
 71
3
 72
29
 73
25
 74
0
 42
0.0000001
 43
0.0000001
 44
0.0000000001
 40
0.0
 40
0.0
 40
0.0
 40
0.0
 40
0.0010278337
 40
0.0022725939
 40
0.0039353807
 40
0.0061008572
 40
0.0088047727
 40
0.0120637306
 40
0.020275893
 40
0.0307686485
 40
0.0435334853
 40
0.0585341795
 40
0.0757338114
 40
0.1165860941
 40
0.1657649919
 40
0.2228730781
 40
0.2874713207
 40
0.3590260206
 40
0.4369727955
 40
0.5206625744
 40
0.6094046028
 40
0.7024853135
 40
0.7991676043
 40
1.0
 40
1.0
 40
1.0
 40
1.0
 10
10.6663024943
 20
14.2868476829
 30
0.0
 10
10.666303494
 20
14.2868356865
 30
0.0
 10
10.6663144026
 20
14.2868095469
 30
0.0
 10
10.666352103
 20
14.2867810628
 30
0.0
 10
10.6664071581
 20
14.286758213
 30
0.0
 10
10.6664814425
 20
14.2867391459
 30
0.0
 10
10.6665753275
 20
14.2867231258
 30
0.0
 10
10.6667402458
 20
14.2867035939
 30
0.0
 10
10.6669969603
 20
14.286685849
 30
0.0
 10
10.6673650627
 20
14.2866674955
 30
0.0
 10
10.6678128073
 20
14.2866496613
 30
0.0
 10
10.668339252
 20
14.2866351478
 30
0.0
 10
10.6691947645
 20
14.2866217674
 30
0.0
 10
10.6704507845
 20
14.2866279038
 30
0.0
 10
10.6721735679
 20
14.286673153
 30
0.0
 10
10.6741734747
 20
14.2867517626
 30
0.0
 10
10.676434317
 20
14.2868614835
 30
0.0
 10
10.678938143
 20
14.2869981664
 30
0.0
 10
10.6816646219
 20
14.2871578366
 30
0.0
 10
10.6845916365
 20
14.2873362275
 30
0.0
 10
10.6876954509
 20
14.2875273405
 30
0.0
 10
10.690950836
 20
14.2877329377
 30
0.0
 10
10.6955148344
 20
14.288045516
 30
0.0
 10
10.6989884517
 20
14.2883230792
 30
0.0
 10
10.7013316247
 20
14.2885284692
 30
0.0
  0
SPLINE
  5
50C
100
AcDbEntity
  8
0
100
AcDbSpline
 62
9
  6
CONTINUOUS
 70
0
 71
3
 72
15
 73
11
 74
0
 42
0.0000001
 43
0.0000001
 44
0.0000000001
 40
0.0
 40
0.0
 40
0.0
 40
0.0
 40
0.1255363765
 40
0.2509139909
 40
0.3761261774
 40
0.5011751033
 40
0.6260696509
 40
0.7508153835
 40
0.8754679101
 40
1.0
 40
1.0
 40
1.0
 40
1.0
 10
10.1533756147
 20
4.4686791003
 30
0.0
 10
10.1492582754
 20
4.4722198225
 30
0.0
 10
10.1413960862
 20
4.4797373734
 30
0.0
 10
10.1308719853
 20
4.4921837103
 30
0.0
 10
10.1217358008
 20
4.5056586731
 30
0.0
 10
10.1140925966
 20
4.5200091625
 30
0.0
 10
10.108029
 20
4.5350735114
 30
0.0
 10
10.1036118658
 20
4.5506829149
 30
0.0
 10
10.10089364
 20
4.566658173
 30
0.0
 10
10.1002325006
 20
4.5774415564
 30
0.0
 10
10.1001923436
 20
4.5828283594
 30
0.0
  0
SPLINE
  5
50D
100
AcDbEntity
  8
0
100
AcDbSpline
 62
9
  6
CONTINUOUS
 70
0
 71
3
 72
24
 73
20
 74
0
 42
0.0000001
 43
0.0000001
 44
0.0000000001
 40
0.0
 40
0.0
 40
0.0
 40
0.0
 40
0.0021096432
 40
0.0038228616
 40
0.0060606426
 40
0.012188936
 40
0.0205752178
 40
0.0441665153
 40
0.0767260186
 40
0.1180065771
 40
0.1676678476
 40
0.2252724129
 40
0.2903379506
 40
0.3622852313
 40
0.4405040653
 40
0.5242941915
 40
0.6129197021
 40
0.8016389303
 40
1.0
 40
1.0
 40
1.0
 40
1.0
 10
10.7527422706
 20
13.2495703816
 30
0.0
 10
10.7527444403
 20
13.2495443469
 30
0.0
 10
10.7527871932
 20
13.2495075476
 30
0.0
 10
10.7528536813
 20
13.2494781912
 30
0.0
 10
10.752973863
 20
13.2494397971
 30
0.0
 10
10.7531776144
 20
13.2494021639
 30
0.0
 10
10.7536467276
 20
13.249346535
 30
0.0
 10
10.754445343
 20
13.2493067793
 30
0.0
 10
10.7556518198
 20
13.2492878225
 30
0.0
 10
10.7571812891
 20
13.2492997439
 30
0.0
 10
10.7590203917
 20
13.2493415627
 30
0.0
 10
10.7611532927
 20
13.249413886
 30
0.0
 10
10.7635612117
 20
13.2495161946
 30
0.0
 10
10.7662233345
 20
13.2496476748
 30
0.0
 10
10.7691161733
 20
13.2498073372
 30
0.0
 10
10.7722143482
 20
13.2499937271
 30
0.0
 10
10.7766772239
 20
13.2502819541
 30
0.0
 10
10.7825535978
 20
13.2506971492
 30
0.0
 10
10.787332758
 20
13.2510676354
 30
0.0
 10
10.7897812195
 20
13.2512653406
 30
0.0
  0
SPLINE
  5
50E
100
AcDbEntity
  8
0
100
AcDbSpline
 62
9
  6
CONTINUOUS
 70
0
 71
3
 72
11
 73
7
 74
0
 42
0.0000001
 43
0.0000001
 44
0.0000000001
 40
0.0
 40
0.0
 40
0.0
 40
0.0
 40
0.249990829
 40
0.4999845327
 40
0.7499865898
 40
1.0
 40
1.0
 40
1.0
 40
1.0
 10
10.7897812195
 20
13.2512653406
 30
0.0
 10
10.7823337492
 20
13.3376942284
 30
0.0
 10
10.767364939
 20
13.5105466268
 30
0.0
 10
10.7449849304
 20
13.7698349781
 30
0.0
 10
10.7228912448
 20
14.0291558084
 30
0.0
 10
10.708456622
 20
14.2020645372
 30
0.0
 10
10.7013316948
 20
14.2885284745
 30
0.0
  0
SPLINE
  5
50F
100
AcDbEntity
  8
0
100
AcDbSpline
 62
9
  6
CONTINUOUS
 70
0
 71
3
 72
15
 73
11
 74
0
 42
0.0000001
 43
0.0000001
 44
0.0000000001
 40
0.0
 40
0.0
 40
0.0
 40
0.0
 40
0.1255630853
 40
0.2509595897
 40
0.3761824495
 40
0.5012336477
 40
0.6261227405
 40
0.7508560811
 40
0.8754898806
 40
1.0
 40
1.0
 40
1.0
 40
1.0
 10
10.1532771619
 20
4.4646920858
 30
0.0
 10
10.1491059623
 20
4.4682333081
 30
0.0
 10
10.1411382187
 20
4.4757596619
 30
0.0
 10
10.1304650455
 20
4.4882408719
 30
0.0
 10
10.1211924644
 20
4.501770463
 30
0.0
 10
10.1134281779
 20
4.5161930845
 30
0.0
 10
10.1072610929
 20
4.5313445713
 30
0.0
 10
10.1027599267
 20
4.5470533339
 30
0.0
 10
10.0999786424
 20
4.5631372059
 30
0.0
 10
10.0992901345
 20
4.5739973379
 30
0.0
 10
10.0992400793
 20
4.5794228908
 30
0.0
  0
LINE
  5
510
100
AcDbEntity
  8
0
100
AcDbLine
 62
9
  6
CONTINUOUS
 10
10.0989838114
 20
4.5785407031
 11
10.0992404775
 21
4.5793786834
  0
SPLINE
  5
511
100
AcDbEntity
  8
0
100
AcDbSpline
 62
9
  6
CONTINUOUS
 70
0
 71
3
 72
30
 73
26
 74
0
 42
0.0000001
 43
0.0000001
 44
0.0000000001
 40
0.0
 40
0.0
 40
0.0
 40
0.0
 40
0.076887888
 40
0.1537089538
 40
0.1919665006
 40
0.2300533824
 40
0.2679189318
 40
0.3055128812
 40
0.3796825222
 40
0.4521578145
 40
0.5225521449
 40
0.5904873192
 40
0.6555878687
 40
0.7174813246
 40
0.7757906026
 40
0.8034826342
 40
0.830135036
 40
0.8556985439
 40
0.8801239948
 40
0.9033620242
 40
0.9253625324
 40
0.946075791
 40
0.9654525255
 40
0.9834432955
 40
1.0
 40
1.0
 40
1.0
 40
1.0
 10
10.0096146924
 20
2.9020918518
 30
0.0
 10
10.0058151063
 20
2.9451161651
 30
0.0
 10
9.999107929
 20
3.031208308
 30
0.0
 10
9.9929459321
 20
3.1388773243
 30
0.0
 10
9.9893777197
 20
3.2248453817
 30
0.0
 10
9.9873988171
 20
3.2889735515
 30
0.0
 10
9.9861103483
 20
3.3527464268
 30
0.0
 10
9.9852847671
 20
3.4367977357
 30
0.0
 10
9.9858405151
 20
3.5403000875
 30
0.0
 10
9.9889196256
 20
3.6621905451
 30
0.0
 10
9.9941699307
 20
3.7805005988
 30
0.0
 10
10.0013200994
 20
3.8945596383
 30
0.0
 10
10.0101100255
 20
4.0037134203
 30
0.0
 10
10.0202740719
 20
4.1073152361
 30
0.0
 10
10.0298431554
 20
4.1898472041
 30
0.0
 10
10.0380176403
 20
4.2526010494
 30
0.0
 10
10.0442444649
 20
4.2970561026
 30
0.0
 10
10.0506499924
 20
4.3396309911
 30
0.0
 10
10.0572102183
 20
4.3802406373
 30
0.0
 10
10.0639015543
 20
4.4187990514
 30
0.0
 10
10.070704772
 20
4.4552186255
 30
0.0
 10
10.077600109
 20
4.4894109358
 30
0.0
 10
10.0845673649
 20
4.5212869449
 30
0.0
 10
10.0915894678
 20
4.5507556293
 30
0.0
 10
10.0965041391
 20
4.5695324637
 30
0.0
 10
10.0989842305
 20
4.5784964287
 30
0.0
  0
SPLINE
  5
512
100
AcDbEntity
  8
0
100
AcDbSpline
 62
9
  6
CONTINUOUS
 70
0
 71
3
 72
25
 73
21
 74
0
 42
0.0000001
 43
0.0000001
 44
0.0000000001
 40
0.0
 40
0.0
 40
0.0
 40
0.0
 40
0.0643824262
 40
0.1296599488
 40
0.1956233336
 40
0.2287964062
 40
0.262061478
 40
0.3287396235
 40
0.3953866536
 40
0.4617282678
 40
0.4946988447
 40
0.527490318
 40
0.5924001126
 40
0.6561861339
 40
0.718576836
 40
0.779299703
 40
0.8380802763
 40
0.8946438123
 40
0.9487118439
 40
1.0
 40
1.0
 40
1.0
 40
1.0
 10
10.0096146924
 20
2.9020918518
 30
0.0
 10
10.0135930598
 20
2.9296099787
 30
0.0
 10
10.0218315514
 20
2.9849961712
 30
0.0
 10
10.0347528758
 20
3.0684844266
 30
0.0
 10
10.0458802449
 20
3.1386110842
 30
0.0
 10
10.0549196522
 20
3.1950710201
 30
0.0
 10
10.0640315089
 20
3.2518319654
 30
0.0
 10
10.075453881
 20
3.3228631562
 30
0.0
 10
10.0891332112
 20
3.4079993734
 30
0.0
 10
10.1004564535
 20
3.4787704791
 30
0.0
 10
10.1094186671
 20
3.5351124784
 30
0.0
 10
10.1182430918
 20
3.5908502599
 30
0.0
 10
10.1290815615
 20
3.6597428799
 30
0.0
 10
10.1418222814
 20
3.7412761383
 30
0.0
 10
10.1542219956
 20
3.8210325424
 30
0.0
 10
10.1662538073
 20
3.8986585073
 30
0.0
 10
10.1779059417
 20
3.9737967491
 30
0.0
 10
10.1891636258
 20
4.0460878457
 30
0.0
 10
10.2000144125
 20
4.115167583
 30
0.0
 10
10.2071739312
 20
4.1600999983
 30
0.0
 10
10.2106962135
 20
4.1819674649
 30
0.0
  0
SPLINE
  5
513
100
AcDbEntity
  8
0
100
AcDbSpline
 62
7
  6
CONTINUOUS
 70
0
 71
3
 72
11
 73
7
 74
0
 42
0.0000001
 43
0.0000001
 44
0.0000000001
 40
0.0
 40
0.0
 40
0.0
 40
0.0
 40
0.2509248409
 40
0.5026677932
 40
0.7530760555
 40
1.0
 40
1.0
 40
1.0
 40
1.0
 10
10.1397587666
 20
4.2024860074
 30
0.0
 10
10.1437611835
 20
4.2105035275
 30
0.0
 10
10.1519624403
 20
4.2264727814
 30
0.0
 10
10.1644102616
 20
4.2503122666
 30
0.0
 10
10.1765439185
 20
4.2741541508
 30
0.0
 10
10.1841309001
 20
4.2902194222
 30
0.0
 10
10.1876923427
 20
4.29828638
 30
0.0
  0
SPLINE
  5
514
100
AcDbEntity
  8
0
100
AcDbSpline
 62
7
  6
CONTINUOUS
 70
0
 71
3
 72
11
 73
7
 74
0
 42
0.0000001
 43
0.0000001
 44
0.0000000001
 40
0.0
 40
0.0
 40
0.0
 40
0.0
 40
0.2509248409
 40
0.5026677932
 40
0.7530760555
 40
1.0
 40
1.0
 40
1.0
 40
1.0
 10
11.7356259189
 20
4.2024860075
 30
0.0
 10
11.731623502
 20
4.2105035275
 30
0.0
 10
11.7234222451
 20
4.2264727815
 30
0.0
 10
11.7109744239
 20
4.2503122666
 30
0.0
 10
11.698840767
 20
4.2741541508
 30
0.0
 10
11.6912537854
 20
4.2902194222
 30
0.0
 10
11.6876923427
 20
4.29828638
 30
0.0
  0
SPLINE
  5
515
100
AcDbEntity
  8
0
100
AcDbSpline
 62
7
  6
CONTINUOUS
 70
0
 71
3
 72
59
 73
55
 74
0
 42
0.0000001
 43
0.0000001
 44
0.0000000001
 40
0.0
 40
0.0
 40
0.0
 40
0.0
 40
0.004309227
 40
0.0089331663
 40
0.01398437
 40
0.019570849
 40
0.0257949471
 40
0.0327514819
 40
0.0405256672
 40
0.0491951896
 40
0.0588260504
 40
0.0694740254
 40
0.0811790179
 40
0.0939665689
 40
0.1078411671
 40
0.1227906904
 40
0.1387798636
 40
0.1557580133
 40
0.1736568389
 40
0.1923976961
 40
0.211893927
 40
0.2320568154
 40
0.2740326248
 40
0.3176809253
 40
0.3624676903
 40
0.4079784118
 40
0.4539001243
 40
0.5000006076
 40
0.5461010988
 40
0.5920228326
 40
0.6375335862
 40
0.6823203871
 40
0.725968715
 40
0.7679445266
 40
0.7881074006
 40
0.8076036037
 40
0.8263444179
 40
0.8442431844
 40
0.8612212589
 40
0.8772103421
 40
0.8921597632
 40
0.9060342503
 40
0.9188216853
 40
0.9305265615
 40
0.9411744237
 40
0.9508051793
 40
0.9594746069
 40
0.9672487106
 40
0.9742051782
 40
0.9804292244
 40
0.9860156667
 40
0.9910668476
 40
0.9956907757
 40
1.0
 40
1.0
 40
1.0
 40
1.0
 10
10.1876923427
 20
4.29828638
 30
0.0
 10
10.1883672161
 20
4.3004140509
 30
0.0
 10
10.1901228025
 20
4.3047185188
 30
0.0
 10
10.1938368249
 20
4.3109647261
 30
0.0
 10
10.1987705429
 20
4.3171693047
 30
0.0
 10
10.2049943421
 20
4.3233225882
 30
0.0
 10
10.2125882785
 20
4.3294154136
 30
0.0
 10
10.2216325028
 20
4.3354387987
 30
0.0
 10
10.2322087677
 20
4.3413803841
 30
0.0
 10
10.2443949927
 20
4.3472228955
 30
0.0
 10
10.2582607455
 20
4.3529489063
 30
0.0
 10
10.2738635738
 20
4.3585352343
 30
0.0
 10
10.2912434834
 20
4.3639602248
 30
0.0
 10
10.3104187384
 20
4.3691971323
 30
0.0
 10
10.3313821111
 20
4.3742234113
 30
0.0
 10
10.3540981357
 20
4.379012743
 30
0.0
 10
10.3785033187
 20
4.3835457022
 30
0.0
 10
10.4045072337
 20
4.3878019979
 30
0.0
 10
10.4319975655
 20
4.3917683053
 30
0.0
 10
10.4608446099
 20
4.3954344987
 30
0.0
 10
10.490909007
 20
4.3987953134
 30
0.0
 10
10.5329941118
 20
4.4029241453
 30
0.0
 10
10.5876232973
 20
4.407268521
 30
0.0
 10
10.6550587129
 20
4.4112863573
 30
0.0
 10
10.7243804311
 20
4.4142582228
 30
0.0
 10
10.7949138191
 20
4.4162762857
 30
0.0
 10
10.8661468546
 20
4.4174280662
 30
0.0
 10
10.9376934248
 20
4.4177904373
 30
0.0
 10
11.0092400065
 20
4.4174281353
 30
0.0
 10
11.0804730747
 20
4.4162764194
 30
0.0
 10
11.1510065107
 20
4.4142584106
 30
0.0
 10
11.2203282801
 20
4.4112865866
 30
0.0
 10
11.2877637313
 20
4.4072687742
 30
0.0
 10
11.3423929251
 20
4.402924401
 30
0.0
 10
11.3844780081
 20
4.398795559
 30
0.0
 10
11.4145423595
 20
4.3954347326
 30
0.0
 10
11.443389334
 20
4.3917685232
 30
0.0
 10
11.4708795703
 20
4.3878021961
 30
0.0
 10
11.496883364
 20
4.3835458784
 30
0.0
 10
11.5212884018
 20
4.3790128956
 30
0.0
 10
11.5440042609
 20
4.37422354
 30
0.0
 10
11.5649674528
 20
4.3691972378
 30
0.0
 10
11.5841425176
 20
4.3639603086
 30
0.0
 10
11.6015222339
 20
4.3585352988
 30
0.0
 10
11.6171248723
 20
4.3529489537
 30
0.0
 10
11.6309904441
 20
4.3472229286
 30
0.0
 10
11.6431765017
 20
4.3413804054
 30
0.0
 10
11.6537526167
 20
4.3354388106
 30
0.0
 10
11.6627967112
 20
4.3294154182
 30
0.0
 10
11.6703905397
 20
4.3233225874
 30
0.0
 10
11.6766142537
 20
4.3171693003
 30
0.0
 10
11.6815479099
 20
4.3109647201
 30
0.0
 10
11.6852618942
 20
4.3047185131
 30
0.0
 10
11.6870174698
 20
4.3004140496
 30
0.0
 10
11.6876923427
 20
4.29828638
 30
0.0
  0
ENDSEC
  0
SECTION
  2
OBJECTS
  0
DICTIONARY
  5
C
100
AcDbDictionary
280
0
281
1
  3
ACAD_GROUP
350
D
  3
ACAD_MLINESTYLE
350
17
  3
ACAD_LAYOUT
350
1A
  3
ACAD_PLOTSETTINGS
350
19
  3
ACAD_PLOTSTYLENAME
350
E
  0
DICTIONARY
  5
D
102
{ACAD_REACTORS
330
C
102
}
100
AcDbDictionary
280
0
281
1
  0
ACDBDICTIONARYWDFLT
  5
E
102
{ACAD_REACTORS
330
C
102
}
100
AcDbDictionary
281
1
  3
Normal
350
F
100
AcDbDictionaryWithDefault
340
F
  0
DICTIONARY
  5
17
102
{ACAD_REACTORS
330
C
102
}
100
AcDbDictionary
280
0
281
1
  3
Standard
350
18
  0
DICTIONARY
  5
19
102
{ACAD_REACTORS
330
C
102
}
100
AcDbDictionary
281
1
  0
DICTIONARY
  5
1A
102
{ACAD_REACTORS
330
C
102
}
100
AcDbDictionary
281
1
  3
Model
350
516
  3
Layout1
350
517
  0
ACDBPLACEHOLDER
  5
F
102
{ACAD_REACTORS
330
E
102
}
  0
MLINESTYLE
  5
18
102
{ACAD_REACTORS
330
17
102
}
100
AcDbMlineStyle
  2
STANDARD
 70
0
  3

 62
256
 51
90.0
 52
90.0
 71
2
 49
0.5
 62
256
  6
BYLAYER
 49
-0.5
 62
256
  6
BYLAYER
  0
LAYOUT
  5
516
102
{ACAD_REACTORS
330
1A
102
}
100
AcDbPlotSettings
  1

  2
none_device
  4
ANSI_C_(22.00_x_17.00_Inches)
  6

 40
0.0
 41
0.0
 42
0.0
 43
0.0
 44
558.8
 45
431.8
 46
0.0
 47
0.0
 48
0.0
 49
0.0
140
0.0
141
0.0
142
1.0
143
1.0
 70
1024
 72
0
 73
0
 74
0
  7

 75
0
147
1.0
148
0.0
149
0.0
100
AcDbLayout
  1
Model
 70
0
 71
0
 10
0.0
 20
0.0
 11
22.0
 21
17.0
 12
0.0
 22
0.0
 32
0.0
 14
0.0
 24
0.0
 34
0.0
 15
0.0
 25
0.0
 35
0.0
146
0.0
 13
0.0
 23
0.0
 33
0.0
 16
1.0
 26
0.0
 36
0.0
 17
0.0
 27
1.0
 37
0.0
 76
0
330
205
345
0
346
0
  0
LAYOUT
  5
517
102
{ACAD_REACTORS
330
1A
102
}
100
AcDbPlotSettings
  1

  2
none_device
  4
ANSI_C_(22.00_x_17.00_Inches)
  6

 40
0.0
 41
0.0
 42
0.0
 43
0.0
 44
558.8
 45
431.8
 46
0.0
 47
0.0
 48
0.0
 49
0.0
140
0.0
141
0.0
142
1.0
143
1.0
 70
0
 72
0
 73
0
 74
0
  7

 75
0
147
1.0
148
0.0
149
0.0
100
AcDbLayout
  1
Layout1
 70
0
 71
1
 10
0.0
 20
0.0
 11
22.0
 21
17.0
 12
0.0
 22
0.0
 32
0.0
 14
0.0
 24
0.0
 34
0.0
 15
0.0
 25
0.0
 35
0.0
146
0.0
 13
0.0
 23
0.0
 33
0.0
 16
1.0
 26
0.0
 36
0.0
 17
0.0
 27
1.0
 37
0.0
 76
0
330
206
345
0
346
0
  0
ENDSEC
  0
EOF
