999
DXF file: E:\BT Custom\CADOUTPUT\_TOP.dxf
999
Pro/ENGINEER 2018400 by Parametric Technology Corporation
  0
SECTION
  2
HEADER
  9
$ACADVER
  1
AC1018
  9
$DWGCODEPAGE
  3
ANSI_1252
  9
$EXTMAX
 10
22.0
 20
17.0
 30
0.0
  9
$EXTMIN
 10
0.0
 20
0.0
 30
0.0
  9
$LIMMIN
 10
0.0
 20
0.0
  9
$LIMMAX
 10
22.0
 20
17.0
  9
$VIEWCTR
 10
11.0
 20
8.5
  9
$VIEWSIZE
 40
17.0
  9
$CLAYER
  8
0
  9
$LTSCALE
 40
1.21
  9
$CELTYPE
  6
BYLAYER
  9
$DIMSCALE
 40
1.0
  9
$DIMASZ
 40
0.1
  9
$DIMEXO
 40
0.0625
  9
$DIMDLI
 40
0.836
  9
$DIMEXE
 40
0.125
  9
$DIMCEN
 40
0.198
  9
$DIMLFAC
 40
1.0
  9
$DIMBLK
  1
_FILLED
  9
$DIMALT
 70
1
  9
$DIMALTD
 70
2
  9
$DIMALTTD
 70
2
  9
$DIMALTF
 40
25.4
  9
$DIMTXT
 40
0.08
  9
$DIMTOL
 70
1
  9
$DIMLIM
 70
0
  9
$DIMTFAC
 40
1.0
  9
$DIMTP
 40
0.001
  9
$DIMTM
 40
0.001
  9
$DIMGAP
 40
0.09
  9
$DIMDSEP
 70
46
  9
$AUNITS
 70
0
  9
$PDMODE
 70
3
  9
$PDSIZE
 40
0.06
  9
$HANDSEED
  5
3E1
  9
$TILEMODE
 70
1
  9
$MEASUREMENT
 70
0
  9
$INSUNITS
 70
1
  0
ENDSEC
  0
SECTION
  2
CLASSES
  0
CLASS
  1
ACDBDICTIONARYWDFLT
  2
AcDbDictionaryWithDefault
  3
AutoCAD 2000
 90
0
 91
1
280
0
281
0
  0
CLASS
  1
ACDBPLACEHOLDER
  2
AcDbPlaceHolder
  3
AutoCAD 2000
 90
0
 91
1
280
0
281
0
  0
CLASS
  1
LAYOUT
  2
AcDbLayout
  3
AutoCAD 2000
 90
0
 91
0
280
0
281
0
  0
ENDSEC
  0
SECTION
  2
TABLES
  0
TABLE
  2
VPORT
  5
8
100
AcDbSymbolTable
 70
2
  0
VPORT
  5
1F4
100
AcDbSymbolTableRecord
100
AcDbViewportTableRecord
  2
*ACTIVE
 70
0
 10
0.0
 20
0.0
 11
1.0
 21
1.0
 12
11.0
 22
8.5
 13
0.0
 23
0.0
 14
1.0
 24
1.0
 15
0.0
 25
0.0
 16
0.0
 26
0.0
 36
1.0
 17
0.0
 27
0.0
 37
0.0
 40
17.0
 41
1.2941176471
 42
50.0
 43
0.0
 44
0.0
 50
0.0
 51
0.0
 71
0
 72
100
 73
1
 74
1
 75
0
 76
0
 77
0
 78
0
  0
ENDTAB
  0
TABLE
  2
LTYPE
  5
5
100
AcDbSymbolTable
 70
6
  0
LTYPE
  5
14
100
AcDbSymbolTableRecord
100
AcDbLinetypeTableRecord
  2
BYBLOCK
 70
0
  3

 72
65
 73
0
 40
0.0
  0
LTYPE
  5
15
100
AcDbSymbolTableRecord
100
AcDbLinetypeTableRecord
  2
BYLAYER
 70
0
  3

 72
65
 73
0
 40
0.0
  0
LTYPE
  5
16
100
AcDbSymbolTableRecord
100
AcDbLinetypeTableRecord
  2
CONTINUOUS
 70
64
  3
Solid line
 72
65
 73
0
 40
0.0
  0
LTYPE
  5
1F5
100
AcDbSymbolTableRecord
100
AcDbLinetypeTableRecord
  2
CENTER
 70
64
  3
____ _ ____ _ ____ _ ____ _ ____ _ ____ _ ____
 72
65
 73
4
 40
0.6
 49
0.375
 74
0
 49
-0.075
 74
0
 49
0.075
 74
0
 49
-0.075
 74
0
  0
LTYPE
  5
1F6
100
AcDbSymbolTableRecord
100
AcDbLinetypeTableRecord
  2
HIDDEN
 70
64
  3
- - - - - - - - - - - - - - - - - - - -
 72
65
 73
2
 40
0.2
 49
0.1
 74
0
 49
-0.1
 74
0
  0
LTYPE
  5
1F7
100
AcDbSymbolTableRecord
100
AcDbLinetypeTableRecord
  2
PHANTOM
 70
64
  3
_____ _ _ _____ _ _ _____ _ _ _____
 72
65
 73
6
 40
0.8
 49
0.45
 74
0
 49
-0.05
 74
0
 49
0.1
 74
0
 49
-0.05
 74
0
 49
0.1
 74
0
 49
-0.05
 74
0
  0
LTYPE
  5
1F8
100
AcDbSymbolTableRecord
100
AcDbLinetypeTableRecord
  2
DOT
 70
64
  3
. . . . . . . . . . . . . . . . . . . .
 72
65
 73
2
 40
0.2
 49
0.1
 74
0
 49
-0.1
 74
0
  0
LTYPE
  5
1F9
100
AcDbSymbolTableRecord
100
AcDbLinetypeTableRecord
  2
DASHED
 70
64
  3
- - - - - - - - - - - - - - - - - - - -
 72
65
 73
2
 40
0.2
 49
0.1
 74
0
 49
-0.1
 74
0
  0
ENDTAB
  0
TABLE
  2
LAYER
  5
2
100
AcDbSymbolTable
 70
36
  0
LAYER
  5
10
100
AcDbSymbolTableRecord
100
AcDbLayerTableRecord
  2
0
 70
0
 62
7
  6
CONTINUOUS
370
-3
390
F
  0
LAYER
  5
1FA
100
AcDbSymbolTableRecord
100
AcDbLayerTableRecord
  2
DEFAULT_1
 70
0
 62
7
  6
CENTER
370
-3
390
F
  0
LAYER
  5
1FB
100
AcDbSymbolTableRecord
100
AcDbLayerTableRecord
  2
DEFAULT_2
 70
0
 62
8
  6
HIDDEN
370
-3
390
F
  0
LAYER
  5
1FC
100
AcDbSymbolTableRecord
100
AcDbLayerTableRecord
  2
DEFAULT_3
 70
0
 62
7
  6
PHANTOM
370
-3
390
F
  0
LAYER
  5
1FD
100
AcDbSymbolTableRecord
100
AcDbLayerTableRecord
  2
ALL_FEATURES
 70
0
 62
7
  6
CONTINUOUS
370
-3
390
F
  0
LAYER
  5
1FE
100
AcDbSymbolTableRecord
100
AcDbLayerTableRecord
  2
AXES_FEATURES
 70
0
 62
7
  6
CONTINUOUS
370
-3
390
F
  0
LAYER
  5
1FF
100
AcDbSymbolTableRecord
100
AcDbLayerTableRecord
  2
DEFAULT_COORDINATE_SYSTEM
 70
0
 62
7
  6
CONTINUOUS
370
-3
390
F
  0
LAYER
  5
200
100
AcDbSymbolTableRecord
100
AcDbLayerTableRecord
  2
DEFAULT_DATUM_AXES
 70
0
 62
7
  6
CONTINUOUS
370
-3
390
F
  0
LAYER
  5
201
100
AcDbSymbolTableRecord
100
AcDbLayerTableRecord
  2
DEFAULT_DATUM_PLANES
 70
0
 62
7
  6
CONTINUOUS
370
-3
390
F
  0
LAYER
  5
202
100
AcDbSymbolTableRecord
100
AcDbLayerTableRecord
  2
DIMENSIONS
 70
0
 62
7
  6
CONTINUOUS
370
-3
390
F
  0
ENDTAB
  0
TABLE
  2
STYLE
  5
3
100
AcDbSymbolTable
 70
1
  0
STYLE
  5
11
100
AcDbSymbolTableRecord
100
AcDbTextStyleTableRecord
  2
STANDARD
 70
0
 40
0.0
 41
0.8
 50
0.0
 71
0
 42
0.2
  3
txt
  4

  0
STYLE
  5
203
100
AcDbSymbolTableRecord
100
AcDbTextStyleTableRecord
  2
TEXTSTYLE_1
 70
0
 40
0.0
 41
0.8
 50
0.0
 71
0
 42
0.2
  3
gdt
  4

  0
ENDTAB
  0
TABLE
  2
VIEW
  5
6
100
AcDbSymbolTable
 70
0
  0
ENDTAB
  0
TABLE
  2
UCS
  5
7
100
AcDbSymbolTable
 70
0
  0
ENDTAB
  0
TABLE
  2
APPID
  5
9
100
AcDbSymbolTable
 70
1
  0
APPID
  5
204
100
AcDbSymbolTableRecord
100
AcDbRegAppTableRecord
  2
ACAD
 70
0
  0
ENDTAB
  0
TABLE
  2
BLOCK_RECORD
  5
1
100
AcDbSymbolTable
 70
0
  0
BLOCK_RECORD
  5
205
100
AcDbSymbolTableRecord
100
AcDbBlockTableRecord
  2
*Model_Space
  0
BLOCK_RECORD
  5
206
100
AcDbSymbolTableRecord
100
AcDbBlockTableRecord
  2
*Paper_Space
  0
BLOCK_RECORD
  5
207
100
AcDbSymbolTableRecord
100
AcDbBlockTableRecord
  2
_FILLED
  0
ENDTAB
  0
TABLE
  2
DIMSTYLE
  5
A
100
AcDbSymbolTable
 70
1
100
AcDbDimStyleTable
 71
0
  0
DIMSTYLE
105
208
100
AcDbSymbolTableRecord
100
AcDbDimStyleTableRecord
  2
STANDARD
 70
0
  3

  4

 40
1.0
 41
0.1
 42
0.0625
 43
0.38
 44
0.125
 45
0.0
 46
0.0
 47
0.001
 48
0.001
140
0.08
141
0.09
142
0.0
143
25.4
144
1.0
145
0.0
146
1.0
147
0.09
 71
1.0
 72
0.0
 73
1
 74
1
 75
0
 76
0
 77
0
 78
4
 79
1
170
1
171
2
172
0
173
0
174
0
175
0
176
0
177
0
178
0
270
2
179
3
271
3
272
3
273
2
274
2
275
0
280
0
281
0
282
0
283
1
284
4
285
0
286
0
287
3
288
0
340
11
278
46
341
207
342
207
343
207
344
207
  0
ENDTAB
  0
ENDSEC
  0
SECTION
  2
BLOCKS
  0
BLOCK
  5
20
100
AcDbEntity
  8
0
100
AcDbBlockBegin
  2
*Model_Space
 70
0
 10
0.0
 20
0.0
 30
0.0
  3
*Model_Space
  1

  0
ENDBLK
  5
21
100
AcDbEntity
  8
0
100
AcDbBlockEnd
  0
BLOCK
  5
1C
100
AcDbEntity
  8
0
100
AcDbBlockBegin
  2
*Paper_Space
 70
0
 10
0.0
 20
0.0
 30
0.0
  3
*Paper_Space
  1

  0
ENDBLK
  5
1D
100
AcDbEntity
  8
0
100
AcDbBlockEnd
  0
BLOCK
  5
209
100
AcDbEntity
  8
0
100
AcDbBlockBegin
  2
_FILLED
 70
64
 10
0.0
 20
0.0
  3
_FILLED
  1

  0
SOLID
  5
20A
100
AcDbEntity
  8
0
  6
BYBLOCK
 62
0
100
AcDbTrace
 10
0.0
 20
0.0
 11
-1.0
 21
0.2
 12
-1.0
 22
-0.2
 13
-1.0
 23
-0.2
  0
ENDBLK
  5
20B
100
AcDbEntity
  8
0
  6
BYBLOCK
 62
0
100
AcDbBlockEnd
  0
ENDSEC
  0
SECTION
  2
ENTITIES
  0
LINE
  5
20C
100
AcDbEntity
  8
0
100
AcDbLine
 62
7
  6
CONTINUOUS
 10
7.7973183383
 20
8.9083686
 11
7.7973183383
 21
9.0478318604
  0
LINE
  5
20D
100
AcDbEntity
  8
0
100
AcDbLine
 62
7
  6
CONTINUOUS
 10
9.6271572397
 20
6.1162279324
 11
9.6271572397
 21
6.4067482676
  0
LINE
  5
20E
100
AcDbEntity
  8
0
100
AcDbLine
 62
7
  6
CONTINUOUS
 10
12.3653200771
 20
6.0649625957
 11
12.4369406307
 21
6.0773632824
  0
LINE
  5
20F
100
AcDbEntity
  8
0
100
AcDbLine
 62
9
  6
CONTINUOUS
 10
12.4369417625
 20
6.0773632392
 11
12.4284746106
 21
6.0765548682
  0
LINE
  5
210
100
AcDbEntity
  8
0
100
AcDbLine
 62
7
  6
CONTINUOUS
 10
12.2915770779
 20
6.0625856808
 11
12.3653200771
 21
6.0649625957
  0
LINE
  5
211
100
AcDbEntity
  8
0
100
AcDbLine
 62
7
  6
CONTINUOUS
 10
10.7848183383
 20
5.9168318604
 11
11.3098183383
 21
5.9168318604
  0
LINE
  5
212
100
AcDbEntity
  8
0
100
AcDbLine
 62
9
  6
CONTINUOUS
 10
10.7848183383
 20
5.9468318604
 11
11.3098183383
 21
5.9468318604
  0
LINE
  5
213
100
AcDbEntity
  8
0
100
AcDbLine
 62
7
  6
CONTINUOUS
 10
10.7348183383
 20
5.9668318604
 11
11.3598183383
 21
5.9668318604
  0
LINE
  5
214
100
AcDbEntity
  8
0
100
AcDbLine
 62
7
  6
CONTINUOUS
 10
10.6473183383
 20
6.0418318604
 11
11.4473183383
 21
6.0418318604
  0
LWPOLYLINE
  5
215
100
AcDbEntity
  8
0
100
AcDbPolyline
 62
7
  6
CONTINUOUS
 90
4
 70
0
 10
10.8109555777
 20
6.0765215108
 10
10.9665048399
 20
6.06386333
 10
11.1277063806
 20
6.0638458455
 10
11.2836814209
 20
6.0765215242
  0
LINE
  5
216
100
AcDbEntity
  8
0
100
AcDbLine
 62
9
  6
CONTINUOUS
 10
9.657694966
 20
6.0773632265
 11
9.666162066
 21
6.0765548682
  0
LWPOLYLINE
  5
217
100
AcDbEntity
  8
0
100
AcDbPolyline
 62
7
  6
CONTINUOUS
 90
3
 70
0
 10
9.6576959545
 20
6.0773632789
 10
9.7294656049
 20
6.0649472582
 10
9.8030696168
 20
6.0625860447
  0
LWPOLYLINE
  5
218
100
AcDbEntity
  8
0
100
AcDbPolyline
 62
7
  6
CONTINUOUS
 90
4
 70
0
 10
10.6305238016
 20
6.1083904232
 10
10.6302430512
 20
6.1084808673
 10
10.631478921
 20
6.1079046643
 10
10.6348361547
 20
6.1057150362
  0
LINE
  5
219
100
AcDbEntity
  8
0
100
AcDbLine
 62
9
  6
CONTINUOUS
 10
9.6501031044
 20
6.116239731
 11
9.6501031044
 21
6.4067368272
  0
LINE
  5
21A
100
AcDbEntity
  8
0
100
AcDbLine
 62
7
  6
CONTINUOUS
 10
9.7973183383
 20
8.5848318604
 11
9.7973183383
 21
8.7348318604
  0
LINE
  5
21B
100
AcDbEntity
  8
0
100
AcDbLine
 62
7
  6
CONTINUOUS
 10
9.7973369228
 20
8.3348318604
 11
9.7973369228
 21
8.2598318604
  0
LINE
  5
21C
100
AcDbEntity
  8
0
100
AcDbLine
 62
7
  6
CONTINUOUS
 10
9.797860495
 20
8.3348318604
 11
9.797860495
 21
8.2598318604
  0
LINE
  5
21D
100
AcDbEntity
  8
0
100
AcDbLine
 62
7
  6
CONTINUOUS
 10
9.7983362604
 20
8.3348318604
 11
9.7983362604
 21
8.2598318604
  0
LINE
  5
21E
100
AcDbEntity
  8
0
100
AcDbLine
 62
7
  6
CONTINUOUS
 10
9.7999063391
 20
8.3348318604
 11
9.7999063391
 21
8.2598318604
  0
LINE
  5
21F
100
AcDbEntity
  8
0
100
AcDbLine
 62
7
  6
CONTINUOUS
 10
9.8008572903
 20
8.3348318604
 11
9.8008572903
 21
8.2598318604
  0
LINE
  5
220
100
AcDbEntity
  8
0
100
AcDbLine
 62
7
  6
CONTINUOUS
 10
9.8034719626
 20
8.3348318604
 11
9.8034719626
 21
8.2598318604
  0
LINE
  5
221
100
AcDbEntity
  8
0
100
AcDbLine
 62
7
  6
CONTINUOUS
 10
9.8048969409
 20
8.3348318604
 11
9.8048969409
 21
8.2598318604
  0
LINE
  5
222
100
AcDbEntity
  8
0
100
AcDbLine
 62
7
  6
CONTINUOUS
 10
9.8085530213
 20
8.3348318604
 11
9.8085530213
 21
8.2598318604
  0
LINE
  5
223
100
AcDbEntity
  8
0
100
AcDbLine
 62
7
  6
CONTINUOUS
 10
9.8104502907
 20
8.3348318604
 11
9.8104502907
 21
8.2598318604
  0
LINE
  5
224
100
AcDbEntity
  8
0
100
AcDbLine
 62
7
  6
CONTINUOUS
 10
9.8151433247
 20
8.3348318604
 11
9.8151433247
 21
8.2598318604
  0
LINE
  5
225
100
AcDbEntity
  8
0
100
AcDbLine
 62
7
  6
CONTINUOUS
 10
9.8175105737
 20
8.3348318604
 11
9.8175105737
 21
8.2598318604
  0
LINE
  5
226
100
AcDbEntity
  8
0
100
AcDbLine
 62
7
  6
CONTINUOUS
 10
9.8232348435
 20
8.3348318604
 11
9.8232348435
 21
8.2598318604
  0
LINE
  5
227
100
AcDbEntity
  8
0
100
AcDbLine
 62
7
  6
CONTINUOUS
 10
9.8260691879
 20
8.3348318604
 11
9.8260691879
 21
8.2598318604
  0
LINE
  5
228
100
AcDbEntity
  8
0
100
AcDbLine
 62
7
  6
CONTINUOUS
 10
9.8328177196
 20
8.3348318604
 11
9.8328177196
 21
8.2598318604
  0
LINE
  5
229
100
AcDbEntity
  8
0
100
AcDbLine
 62
7
  6
CONTINUOUS
 10
9.8361157062
 20
8.3348318604
 11
9.8361157062
 21
8.2598318604
  0
LINE
  5
22A
100
AcDbEntity
  8
0
100
AcDbLine
 62
7
  6
CONTINUOUS
 10
9.8438802776
 20
8.3348318604
 11
9.8438802776
 21
8.2598318604
  0
LINE
  5
22B
100
AcDbEntity
  8
0
100
AcDbLine
 62
7
  6
CONTINUOUS
 10
9.8473183383
 20
8.3348318604
 11
9.8473183383
 21
8.5348318604
  0
LINE
  5
22C
100
AcDbEntity
  8
0
100
AcDbLine
 62
7
  6
CONTINUOUS
 10
9.8476378883
 20
8.3348318604
 11
9.8476378883
 21
8.2598318604
  0
LINE
  5
22D
100
AcDbEntity
  8
0
100
AcDbLine
 62
7
  6
CONTINUOUS
 10
9.8564090394
 20
8.3348318604
 11
9.8564090394
 21
8.2598318604
  0
LINE
  5
22E
100
AcDbEntity
  8
0
100
AcDbLine
 62
7
  6
CONTINUOUS
 10
9.8606216962
 20
8.3348318604
 11
9.8606216962
 21
8.2598318604
  0
LINE
  5
22F
100
AcDbEntity
  8
0
100
AcDbLine
 62
7
  6
CONTINUOUS
 10
9.8703887408
 20
8.3348318604
 11
9.8703887408
 21
8.2598318604
  0
LINE
  5
230
100
AcDbEntity
  8
0
100
AcDbLine
 62
7
  6
CONTINUOUS
 10
9.8750513112
 20
8.3348318604
 11
9.8750513112
 21
8.2598318604
  0
LINE
  5
231
100
AcDbEntity
  8
0
100
AcDbLine
 62
7
  6
CONTINUOUS
 10
10.1340652389
 20
6.0774771798
 11
10.6372458149
 21
6.103362791
  0
LINE
  5
232
100
AcDbEntity
  8
0
100
AcDbLine
 62
7
  6
CONTINUOUS
 10
9.8032081179
 20
6.062592095
 11
10.1340652389
 21
6.0774771798
  0
LINE
  5
233
100
AcDbEntity
  8
0
100
AcDbLine
 62
7
  6
CONTINUOUS
 10
9.8032082828
 20
6.0625914406
 11
9.8030772567
 21
6.062586342
  0
LINE
  5
234
100
AcDbEntity
  8
0
100
AcDbLine
 62
9
  6
CONTINUOUS
 10
12.4674794368
 20
6.1162279324
 11
12.4445335722
 21
6.1162279324
  0
LINE
  5
235
100
AcDbEntity
  8
0
100
AcDbLine
 62
9
  6
CONTINUOUS
 10
10.8157903202
 20
6.1162279324
 11
10.7757903202
 21
6.1162279324
  0
LINE
  5
236
100
AcDbEntity
  8
0
100
AcDbLine
 62
9
  6
CONTINUOUS
 10
9.6271572397
 20
6.1162279324
 11
9.6501031044
 21
6.1162279324
  0
LINE
  5
237
100
AcDbEntity
  8
0
100
AcDbLine
 62
9
  6
CONTINUOUS
 10
11.2788463564
 20
6.1162279324
 11
11.3188463564
 21
6.1162279324
  0
LINE
  5
238
100
AcDbEntity
  8
0
100
AcDbLine
 62
7
  6
CONTINUOUS
 10
12.2915688819
 20
6.0625859996
 11
12.2914283934
 21
6.0625914652
  0
LWPOLYLINE
  5
239
100
AcDbEntity
  8
0
100
AcDbPolyline
 62
7
  6
CONTINUOUS
 90
3
 70
0
 10
11.4573018802
 20
6.103367357
 10
11.960571504
 20
6.0774771765
 10
12.2914285582
 20
6.062592095
  0
LWPOLYLINE
  5
23A
100
AcDbEntity
  8
0
100
AcDbPolyline
 62
7
  6
CONTINUOUS
 90
3
 70
0
 10
10.6348361547
 20
6.1057150362
 10
10.6395810527
 20
6.1010831949
 10
10.644155981
 20
6.093757487
  0
LINE
  5
23B
100
AcDbEntity
  8
0
100
AcDbLine
 62
7
  6
CONTINUOUS
 10
9.8858023497
 20
8.3348318604
 11
9.8858023497
 21
8.2598318604
  0
LINE
  5
23C
100
AcDbEntity
  8
0
100
AcDbLine
 62
7
  6
CONTINUOUS
 10
9.890909153
 20
8.3348318604
 11
9.890909153
 21
8.2598318604
  0
LINE
  5
23D
100
AcDbEntity
  8
0
100
AcDbLine
 62
7
  6
CONTINUOUS
 10
9.9026310868
 20
8.3348318604
 11
9.9026310868
 21
8.2598318604
  0
LINE
  5
23E
100
AcDbEntity
  8
0
100
AcDbLine
 62
7
  6
CONTINUOUS
 10
9.9081759012
 20
8.3348318604
 11
9.9081759012
 21
8.2598318604
  0
LINE
  5
23F
100
AcDbEntity
  8
0
100
AcDbLine
 62
7
  6
CONTINUOUS
 10
9.9208544491
 20
8.3348318604
 11
9.9208544491
 21
8.2598318604
  0
LINE
  5
240
100
AcDbEntity
  8
0
100
AcDbLine
 62
7
  6
CONTINUOUS
 10
9.926830519
 20
8.3348318604
 11
9.926830519
 21
8.2598318604
  0
LINE
  5
241
100
AcDbEntity
  8
0
100
AcDbLine
 62
7
  6
CONTINUOUS
 10
9.940450234
 20
8.3348318604
 11
9.940450234
 21
8.2598318604
  0
LINE
  5
242
100
AcDbEntity
  8
0
100
AcDbLine
 62
7
  6
CONTINUOUS
 10
9.9468502787
 20
8.3348318604
 11
9.9468502787
 21
8.2598318604
  0
LINE
  5
243
100
AcDbEntity
  8
0
100
AcDbLine
 62
7
  6
CONTINUOUS
 10
9.9613945673
 20
8.3348318604
 11
9.9613945673
 21
8.2598318604
  0
LINE
  5
244
100
AcDbEntity
  8
0
100
AcDbLine
 62
7
  6
CONTINUOUS
 10
9.9682107891
 20
8.3348318604
 11
9.9682107891
 21
8.2598318604
  0
LINE
  5
245
100
AcDbEntity
  8
0
100
AcDbLine
 62
7
  6
CONTINUOUS
 10
9.9836619314
 20
8.3348318604
 11
9.9836619314
 21
8.2598318604
  0
LINE
  5
246
100
AcDbEntity
  8
0
100
AcDbLine
 62
7
  6
CONTINUOUS
 10
9.9908860259
 20
8.3348318604
 11
9.9908860259
 21
8.2598318604
  0
LINE
  5
247
100
AcDbEntity
  8
0
100
AcDbLine
 62
7
  6
CONTINUOUS
 10
10.0072251969
 20
8.3348318604
 11
10.0072251969
 21
8.2598318604
  0
LINE
  5
248
100
AcDbEntity
  8
0
100
AcDbLine
 62
7
  6
CONTINUOUS
 10
10.0148483627
 20
8.3348318604
 11
10.0148483627
 21
8.2598318604
  0
LINE
  5
249
100
AcDbEntity
  8
0
100
AcDbLine
 62
7
  6
CONTINUOUS
 10
10.0223183383
 20
7.1598318604
 11
10.0223183383
 21
7.3598318604
  0
LINE
  5
24A
100
AcDbEntity
  8
0
100
AcDbLine
 62
7
  6
CONTINUOUS
 10
10.0320556558
 20
8.3348318604
 11
10.0320556558
 21
8.2598318604
  0
LINE
  5
24B
100
AcDbEntity
  8
0
100
AcDbLine
 62
7
  6
CONTINUOUS
 10
10.0400686052
 20
8.3348318604
 11
10.0400686052
 21
8.2598318604
  0
LINE
  5
24C
100
AcDbEntity
  8
0
100
AcDbLine
 62
7
  6
CONTINUOUS
 10
10.0581230559
 20
8.3348318604
 11
10.0581230559
 21
8.2598318604
  0
LINE
  5
24D
100
AcDbEntity
  8
0
100
AcDbLine
 62
7
  6
CONTINUOUS
 10
10.0665160263
 20
8.3348318604
 11
10.0665160263
 21
8.2598318604
  0
LINE
  5
24E
100
AcDbEntity
  8
0
100
AcDbLine
 62
7
  6
CONTINUOUS
 10
10.085395638
 20
8.3348318604
 11
10.085395638
 21
8.2598318604
  0
LINE
  5
24F
100
AcDbEntity
  8
0
100
AcDbLine
 62
7
  6
CONTINUOUS
 10
10.0941584039
 20
8.3348318604
 11
10.0941584039
 21
8.2598318604
  0
LINE
  5
250
100
AcDbEntity
  8
0
100
AcDbLine
 62
7
  6
CONTINUOUS
 10
10.0973183383
 20
7.1098318604
 11
10.0973183383
 21
7.1598318604
  0
LINE
  5
251
100
AcDbEntity
  8
0
100
AcDbLine
 62
7
  6
CONTINUOUS
 10
10.0973183383
 20
7.3598318604
 11
10.0973183383
 21
7.4598318604
  0
LINE
  5
252
100
AcDbEntity
  8
0
100
AcDbLine
 62
7
  6
CONTINUOUS
 10
10.1138401747
 20
8.3348318604
 11
10.1138401747
 21
8.2598318604
  0
LINE
  5
253
100
AcDbEntity
  8
0
100
AcDbLine
 62
7
  6
CONTINUOUS
 10
9.7837201145
 20
6.4607704108
 11
9.7228345926
 21
6.4572955485
  0
LINE
  5
254
100
AcDbEntity
  8
0
100
AcDbLine
 62
7
  6
CONTINUOUS
 10
11.7195081724
 20
6.4545331193
 11
11.4604540678
 21
6.4507534921
  0
LWPOLYLINE
  5
255
100
AcDbEntity
  8
0
100
AcDbPolyline
 62
7
  6
CONTINUOUS
 90
3
 70
0
 10
12.3108880725
 20
6.4607695567
 10
12.0263341136
 20
6.4587975555
 10
11.7195081724
 20
6.4545331193
  0
LINE
  5
256
100
AcDbEntity
  8
0
100
AcDbLine
 62
7
  6
CONTINUOUS
 10
12.3108878921
 20
6.460770367
 11
12.3109041059
 21
6.4607703925
  0
LINE
  5
257
100
AcDbEntity
  8
0
100
AcDbLine
 62
9
  6
CONTINUOUS
 10
12.4674794368
 20
6.4067482676
 11
12.4445335722
 21
6.4067482676
  0
LINE
  5
258
100
AcDbEntity
  8
0
100
AcDbLine
 62
9
  6
CONTINUOUS
 10
10.8157903202
 20
6.4067482676
 11
10.7757903202
 21
6.4067482676
  0
LINE
  5
259
100
AcDbEntity
  8
0
100
AcDbLine
 62
9
  6
CONTINUOUS
 10
9.6271572397
 20
6.4067482676
 11
9.6501031044
 21
6.4067482676
  0
LINE
  5
25A
100
AcDbEntity
  8
0
100
AcDbLine
 62
9
  6
CONTINUOUS
 10
11.2788463564
 20
6.4067482676
 11
11.3188463564
 21
6.4067482676
  0
LINE
  5
25B
100
AcDbEntity
  8
0
100
AcDbLine
 62
7
  6
CONTINUOUS
 10
10.6473183383
 20
6.5168318604
 11
11.4473183383
 21
6.5168318604
  0
LINE
  5
25C
100
AcDbEntity
  8
0
100
AcDbLine
 62
9
  6
CONTINUOUS
 10
10.7348183383
 20
6.5368318604
 11
11.3598183383
 21
6.5368318604
  0
LINE
  5
25D
100
AcDbEntity
  8
0
100
AcDbLine
 62
7
  6
CONTINUOUS
 10
9.7837209581
 20
6.4607704094
 11
9.7837487843
 21
6.4607703659
  0
LWPOLYLINE
  5
25E
100
AcDbEntity
  8
0
100
AcDbPolyline
 62
7
  6
CONTINUOUS
 90
4
 70
0
 10
10.6341822979
 20
6.4507534968
 10
10.3751286553
 20
6.454533117
 10
10.068302666
 20
6.4587975543
 10
9.7837486032
 20
6.4607695567
  0
LWPOLYLINE
  5
25F
100
AcDbEntity
  8
0
100
AcDbPolyline
 62
7
  6
CONTINUOUS
 90
4
 70
0
 10
11.2836794349
 20
6.4464548877
 10
11.128130938
 20
6.4591042977
 10
10.966931331
 20
6.4591217755
 10
10.8109572397
 20
6.4464549132
  0
LINE
  5
260
100
AcDbEntity
  8
0
100
AcDbLine
 62
7
  6
CONTINUOUS
 10
10.1229620601
 20
8.3348318604
 11
10.1229620601
 21
8.2598318604
  0
LINE
  5
261
100
AcDbEntity
  8
0
100
AcDbLine
 62
7
  6
CONTINUOUS
 10
10.1434220109
 20
8.3348318604
 11
10.1434220109
 21
8.2598318604
  0
LINE
  5
262
100
AcDbEntity
  8
0
100
AcDbLine
 62
7
  6
CONTINUOUS
 10
10.152891902
 20
8.3348318604
 11
10.152891902
 21
8.2598318604
  0
LINE
  5
263
100
AcDbEntity
  8
0
100
AcDbLine
 62
7
  6
CONTINUOUS
 10
10.1723183383
 20
7.5348318604
 11
10.1723183383
 21
8.0598318604
  0
LINE
  5
264
100
AcDbEntity
  8
0
100
AcDbLine
 62
7
  6
CONTINUOUS
 10
10.1741051054
 20
8.3348318604
 11
10.1741051054
 21
8.2598318604
  0
LINE
  5
265
100
AcDbEntity
  8
0
100
AcDbLine
 62
7
  6
CONTINUOUS
 10
10.1839114647
 20
8.3348318604
 11
10.1839114647
 21
8.2598318604
  0
LINE
  5
266
100
AcDbEntity
  8
0
100
AcDbLine
 62
7
  6
CONTINUOUS
 10
10.2051117457
 20
8.2598318604
 11
10.2051117457
 21
8.3348318604
  0
LINE
  5
267
100
AcDbEntity
  8
0
100
AcDbLine
 62
7
  6
CONTINUOUS
 10
10.2058520758
 20
8.3348318604
 11
10.2058520758
 21
8.2598318604
  0
LINE
  5
268
100
AcDbEntity
  8
0
100
AcDbLine
 62
7
  6
CONTINUOUS
 10
10.2159829558
 20
8.3348318604
 11
10.2159829558
 21
8.2598318604
  0
LINE
  5
269
100
AcDbEntity
  8
0
100
AcDbLine
 62
7
  6
CONTINUOUS
 10
10.2371444849
 20
8.2598318604
 11
10.2371444849
 21
8.3348318604
  0
LINE
  5
26A
100
AcDbEntity
  8
0
100
AcDbLine
 62
7
  6
CONTINUOUS
 10
10.2386242432
 20
8.3348318604
 11
10.2386242432
 21
8.2598318604
  0
LINE
  5
26B
100
AcDbEntity
  8
0
100
AcDbLine
 62
7
  6
CONTINUOUS
 10
10.2490673009
 20
8.3348318604
 11
10.2490673009
 21
8.2598318604
  0
LINE
  5
26C
100
AcDbEntity
  8
0
100
AcDbLine
 62
7
  6
CONTINUOUS
 10
10.2701642962
 20
8.2598318604
 11
10.2701642962
 21
8.3348318604
  0
LINE
  5
26D
100
AcDbEntity
  8
0
100
AcDbLine
 62
7
  6
CONTINUOUS
 10
10.2723816798
 20
8.3348318604
 11
10.2723816798
 21
8.2598318604
  0
LINE
  5
26E
100
AcDbEntity
  8
0
100
AcDbLine
 62
7
  6
CONTINUOUS
 10
10.283124192
 20
8.3348318604
 11
10.283124192
 21
8.2598318604
  0
LINE
  5
26F
100
AcDbEntity
  8
0
100
AcDbLine
 62
7
  6
CONTINUOUS
 10
10.2973183383
 20
6.9598318604
 11
10.2973183383
 21
7.0098318604
  0
LINE
  5
270
100
AcDbEntity
  8
0
100
AcDbLine
 62
7
  6
CONTINUOUS
 10
10.30413095
 20
8.2598318604
 11
10.30413095
 21
8.3348318604
  0
LINE
  5
271
100
AcDbEntity
  8
0
100
AcDbLine
 62
7
  6
CONTINUOUS
 10
10.3070832573
 20
8.3348318604
 11
10.3070832573
 21
8.2598318604
  0
LINE
  5
272
100
AcDbEntity
  8
0
100
AcDbLine
 62
7
  6
CONTINUOUS
 10
10.3181121359
 20
8.3348318604
 11
10.3181121359
 21
8.2598318604
  0
LINE
  5
273
100
AcDbEntity
  8
0
100
AcDbLine
 62
7
  6
CONTINUOUS
 10
10.3390030631
 20
8.2598318604
 11
10.3390030631
 21
8.3348318604
  0
LINE
  5
274
100
AcDbEntity
  8
0
100
AcDbLine
 62
7
  6
CONTINUOUS
 10
10.3426866972
 20
8.3348318604
 11
10.3426866972
 21
8.2598318604
  0
LINE
  5
275
100
AcDbEntity
  8
0
100
AcDbLine
 62
7
  6
CONTINUOUS
 10
10.3539885053
 20
8.3348318604
 11
10.3539885053
 21
8.2598318604
  0
LINE
  5
276
100
AcDbEntity
  8
0
100
AcDbLine
 62
7
  6
CONTINUOUS
 10
9.7228345926
 20
6.4572955485
 11
9.6577011332
 21
6.4456141514
  0
LINE
  5
277
100
AcDbEntity
  8
0
100
AcDbLine
 62
9
  6
CONTINUOUS
 10
9.6577083276
 20
6.445616224
 11
9.6650556736
 21
6.4464535217
  0
LINE
  5
278
100
AcDbEntity
  8
0
100
AcDbLine
 62
9
  6
CONTINUOUS
 10
12.4369283049
 20
6.4456162348
 11
12.4295810029
 21
6.4464535217
  0
LWPOLYLINE
  5
279
100
AcDbEntity
  8
0
100
AcDbPolyline
 62
7
  6
CONTINUOUS
 90
3
 70
0
 10
12.4369356159
 20
6.4456141597
 10
12.3716526962
 20
6.4573127927
 10
12.3109042752
 20
6.4607703927
  0
LWPOLYLINE
  5
27A
100
AcDbEntity
  8
0
100
AcDbPolyline
 62
7
  6
CONTINUOUS
 90
5
 70
0
 10
11.4654058025
 20
6.4475824633
 10
11.465949328
 20
6.4474354552
 10
11.4658128528
 20
6.4474991646
 10
11.4637457919
 20
6.4485096743
 10
11.4616686235
 20
6.4498167285
  0
LINE
  5
27B
100
AcDbEntity
  8
0
100
AcDbLine
 62
7
  6
CONTINUOUS
 10
10.644155981
 20
6.093757487
 11
10.6469033374
 21
6.0846055
  0
LINE
  5
27C
100
AcDbEntity
  8
0
100
AcDbLine
 62
7
  6
CONTINUOUS
 10
10.6469033374
 20
6.0846055
 11
10.6473188328
 21
6.0793537468
  0
LINE
  5
27D
100
AcDbEntity
  8
0
100
AcDbLine
 62
7
  6
CONTINUOUS
 10
10.3747381493
 20
8.2598318604
 11
10.3747381493
 21
8.3348318604
  0
LINE
  5
27E
100
AcDbEntity
  8
0
100
AcDbLine
 62
7
  6
CONTINUOUS
 10
10.3791486223
 20
8.3348318604
 11
10.3791486223
 21
8.2598318604
  0
LINE
  5
27F
100
AcDbEntity
  8
0
100
AcDbLine
 62
7
  6
CONTINUOUS
 10
10.3907095902
 20
8.3348318604
 11
10.3907095902
 21
8.2598318604
  0
LINE
  5
280
100
AcDbEntity
  8
0
100
AcDbLine
 62
7
  6
CONTINUOUS
 10
10.4112926709
 20
8.2598318604
 11
10.4112926709
 21
8.3348318604
  0
LINE
  5
281
100
AcDbEntity
  8
0
100
AcDbLine
 62
7
  6
CONTINUOUS
 10
10.4164246093
 20
8.3348318604
 11
10.4164246093
 21
8.2598318604
  0
LINE
  5
282
100
AcDbEntity
  8
0
100
AcDbLine
 62
7
  6
CONTINUOUS
 10
10.4282306518
 20
8.3348318604
 11
10.4282306518
 21
8.2598318604
  0
LINE
  5
283
100
AcDbEntity
  8
0
100
AcDbLine
 62
7
  6
CONTINUOUS
 10
10.4486220917
 20
8.2598318604
 11
10.4486220917
 21
8.3348318604
  0
LINE
  5
284
100
AcDbEntity
  8
0
100
AcDbLine
 62
7
  6
CONTINUOUS
 10
10.454469243
 20
8.3348318604
 11
10.454469243
 21
8.2598318604
  0
LINE
  5
285
100
AcDbEntity
  8
0
100
AcDbLine
 62
7
  6
CONTINUOUS
 10
10.4665059764
 20
8.3348318604
 11
10.4665059764
 21
8.2598318604
  0
LINE
  5
286
100
AcDbEntity
  8
0
100
AcDbLine
 62
7
  6
CONTINUOUS
 10
10.4866809317
 20
8.2598318604
 11
10.4866809317
 21
8.3348318604
  0
LINE
  5
287
100
AcDbEntity
  8
0
100
AcDbLine
 62
7
  6
CONTINUOUS
 10
10.4932361721
 20
8.3348318604
 11
10.4932361721
 21
8.2598318604
  0
LINE
  5
288
100
AcDbEntity
  8
0
100
AcDbLine
 62
7
  6
CONTINUOUS
 10
10.5054889313
 20
8.3348318604
 11
10.5054889313
 21
8.2598318604
  0
LINE
  5
289
100
AcDbEntity
  8
0
100
AcDbLine
 62
7
  6
CONTINUOUS
 10
10.525422822
 20
8.2598318604
 11
10.525422822
 21
8.3348318604
  0
LINE
  5
28A
100
AcDbEntity
  8
0
100
AcDbLine
 62
7
  6
CONTINUOUS
 10
10.5326781649
 20
8.3348318604
 11
10.5326781649
 21
8.2598318604
  0
LINE
  5
28B
100
AcDbEntity
  8
0
100
AcDbLine
 62
7
  6
CONTINUOUS
 10
10.5451320219
 20
8.3348318604
 11
10.5451320219
 21
8.2598318604
  0
LINE
  5
28C
100
AcDbEntity
  8
0
100
AcDbLine
 62
7
  6
CONTINUOUS
 10
10.5648005617
 20
8.2598318604
 11
10.5648005617
 21
8.3348318604
  0
LINE
  5
28D
100
AcDbEntity
  8
0
100
AcDbLine
 62
7
  6
CONTINUOUS
 10
10.5727471675
 20
8.3348318604
 11
10.5727471675
 21
8.2598318604
  0
LINE
  5
28E
100
AcDbEntity
  8
0
100
AcDbLine
 62
7
  6
CONTINUOUS
 10
10.5853869492
 20
8.3348318604
 11
10.5853869492
 21
8.2598318604
  0
LINE
  5
28F
100
AcDbEntity
  8
0
100
AcDbLine
 62
9
  6
CONTINUOUS
 10
10.5916314857
 20
6.4049109313
 11
10.5916314857
 21
6.1514463446
  0
LINE
  5
290
100
AcDbEntity
  8
0
100
AcDbLine
 62
7
  6
CONTINUOUS
 10
10.0973183383
 20
7.4598318604
 11
10.1723183383
 21
7.5348318604
  0
LINE
  5
291
100
AcDbEntity
  8
0
100
AcDbLine
 62
7
  6
CONTINUOUS
 10
9.6577033298
 20
6.4456150082
 11
9.6577083276
 21
6.445616224
  0
LINE
  5
292
100
AcDbEntity
  8
0
100
AcDbLine
 62
7
  6
CONTINUOUS
 10
10.7348183383
 20
6.8298318604
 11
11.3598183383
 21
6.8298318604
  0
LINE
  5
293
100
AcDbEntity
  8
0
100
AcDbLine
 62
7
  6
CONTINUOUS
 10
11.4473183383
 20
6.8598318604
 11
10.6473183383
 21
6.8598318604
  0
LINE
  5
294
100
AcDbEntity
  8
0
100
AcDbLine
 62
7
  6
CONTINUOUS
 10
11.7973183383
 20
6.9598318604
 11
10.2973183383
 21
6.9598318604
  0
LINE
  5
295
100
AcDbEntity
  8
0
100
AcDbLine
 62
7
  6
CONTINUOUS
 10
11.8973183383
 20
7.0098318604
 11
10.1973183383
 21
7.0098318604
  0
LINE
  5
296
100
AcDbEntity
  8
0
100
AcDbLine
 62
7
  6
CONTINUOUS
 10
12.4369334153
 20
6.4456149915
 11
12.4369283049
 21
6.4456162348
  0
LINE
  5
297
100
AcDbEntity
  8
0
100
AcDbLine
 62
7
  6
CONTINUOUS
 10
10.6047661749
 20
8.2598318604
 11
10.6047661749
 21
8.3348318604
  0
LINE
  5
298
100
AcDbEntity
  8
0
100
AcDbLine
 62
7
  6
CONTINUOUS
 10
10.613394362
 20
8.3348318604
 11
10.613394362
 21
8.2598318604
  0
LINE
  5
299
100
AcDbEntity
  8
0
100
AcDbLine
 62
7
  6
CONTINUOUS
 10
10.6262046688
 20
8.3348318604
 11
10.6262046688
 21
8.2598318604
  0
LINE
  5
29A
100
AcDbEntity
  8
0
100
AcDbLine
 62
7
  6
CONTINUOUS
 10
10.6452709697
 20
8.2598318604
 11
10.6452709697
 21
8.3348318604
  0
LINE
  5
29B
100
AcDbEntity
  8
0
100
AcDbLine
 62
7
  6
CONTINUOUS
 10
10.6473183383
 20
6.5168318604
 11
10.6473183383
 21
6.4784395378
  0
LINE
  5
29C
100
AcDbEntity
  8
0
100
AcDbLine
 62
7
  6
CONTINUOUS
 10
10.6473183383
 20
6.0791964084
 11
10.6473183383
 21
6.0418318604
  0
LINE
  5
29D
100
AcDbEntity
  8
0
100
AcDbLine
 62
7
  6
CONTINUOUS
 10
10.6473183383
 20
6.8598318604
 11
10.6473183383
 21
6.9598318604
  0
LINE
  5
29E
100
AcDbEntity
  8
0
100
AcDbLine
 62
9
  6
CONTINUOUS
 10
10.6486605855
 20
6.4749890164
 11
10.6486605855
 21
6.0832712325
  0
LINE
  5
29F
100
AcDbEntity
  8
0
100
AcDbLine
 62
7
  6
CONTINUOUS
 10
10.654570226
 20
8.3348318604
 11
10.654570226
 21
8.2598318604
  0
LINE
  5
2A0
100
AcDbEntity
  8
0
100
AcDbLine
 62
7
  6
CONTINUOUS
 10
10.6675354504
 20
8.3348318604
 11
10.6675354504
 21
8.2598318604
  0
LINE
  5
2A1
100
AcDbEntity
  8
0
100
AcDbLine
 62
7
  6
CONTINUOUS
 10
10.6862655974
 20
8.2598318604
 11
10.6862655974
 21
8.3348318604
  0
LINE
  5
2A2
100
AcDbEntity
  8
0
100
AcDbLine
 62
7
  6
CONTINUOUS
 10
10.6962245931
 20
8.3348318604
 11
10.6962245931
 21
8.2598318604
  0
LINE
  5
2A3
100
AcDbEntity
  8
0
100
AcDbLine
 62
7
  6
CONTINUOUS
 10
10.7093289391
 20
8.3348318604
 11
10.7093289391
 21
8.2598318604
  0
LINE
  5
2A4
100
AcDbEntity
  8
0
100
AcDbLine
 62
7
  6
CONTINUOUS
 10
10.7277001121
 20
8.2598318604
 11
10.7277001121
 21
8.3348318604
  0
LINE
  5
2A5
100
AcDbEntity
  8
0
100
AcDbLine
 62
7
  6
CONTINUOUS
 10
10.7348183383
 20
6.8298318604
 11
10.7348183383
 21
6.5368318604
  0
LINE
  5
2A6
100
AcDbEntity
  8
0
100
AcDbLine
 62
7
  6
CONTINUOUS
 10
10.7383067139
 20
8.3348318604
 11
10.7383067139
 21
8.2598318604
  0
LINE
  5
2A7
100
AcDbEntity
  8
0
100
AcDbLine
 62
7
  6
CONTINUOUS
 10
10.7515342157
 20
8.3348318604
 11
10.7515342157
 21
8.2598318604
  0
LINE
  5
2A8
100
AcDbEntity
  8
0
100
AcDbLine
 62
7
  6
CONTINUOUS
 10
10.7695240325
 20
8.2598318604
 11
10.7695240325
 21
8.3348318604
  0
LINE
  5
2A9
100
AcDbEntity
  8
0
100
AcDbLine
 62
7
  6
CONTINUOUS
 10
10.7757903202
 20
6.4067482676
 11
10.7757903202
 21
6.1162279324
  0
LINE
  5
2AA
100
AcDbEntity
  8
0
100
AcDbLine
 62
7
  6
CONTINUOUS
 10
10.7807653176
 20
8.3348318604
 11
10.7807653176
 21
8.2598318604
  0
LINE
  5
2AB
100
AcDbEntity
  8
0
100
AcDbLine
 62
7
  6
CONTINUOUS
 10
10.7848183383
 20
5.9468318604
 11
10.7848183383
 21
5.9168318604
  0
LINE
  5
2AC
100
AcDbEntity
  8
0
100
AcDbLine
 62
7
  6
CONTINUOUS
 10
10.7940998597
 20
8.3348318604
 11
10.7940998597
 21
8.2598318604
  0
LINE
  5
2AD
100
AcDbEntity
  8
0
100
AcDbLine
 62
7
  6
CONTINUOUS
 10
10.8116864024
 20
8.2598318604
 11
10.8116864024
 21
8.3348318604
  0
LINE
  5
2AE
100
AcDbEntity
  8
0
100
AcDbLine
 62
9
  6
CONTINUOUS
 10
10.8157903202
 20
6.4067479536
 11
10.8157903202
 21
6.1162280002
  0
LINE
  5
2AF
100
AcDbEntity
  8
0
100
AcDbLine
 62
9
  6
CONTINUOUS
 10
10.819634619
 20
6.4471596147
 11
10.819634619
 21
6.4749932185
  0
LINE
  5
2B0
100
AcDbEntity
  8
0
100
AcDbLine
 62
7
  6
CONTINUOUS
 10
10.8235486752
 20
8.3348318604
 11
10.8235486752
 21
8.2598318604
  0
LINE
  5
2B1
100
AcDbEntity
  8
0
100
AcDbLine
 62
7
  6
CONTINUOUS
 10
10.8369740115
 20
8.3348318604
 11
10.8369740115
 21
8.2598318604
  0
LINE
  5
2B2
100
AcDbEntity
  8
0
100
AcDbLine
 62
7
  6
CONTINUOUS
 10
10.6473188282
 20
6.4782851868
 11
10.6469457311
 21
6.4732135707
  0
LINE
  5
2B3
100
AcDbEntity
  8
0
100
AcDbLine
 62
7
  6
CONTINUOUS
 10
11.9973183383
 20
7.1098318604
 11
10.0973183383
 21
7.1098318604
  0
LINE
  5
2B4
100
AcDbEntity
  8
0
100
AcDbLine
 62
7
  6
CONTINUOUS
 10
12.0723183383
 20
7.1598318604
 11
10.0223183383
 21
7.1598318604
  0
LWPOLYLINE
  5
2B5
100
AcDbEntity
  8
0
100
AcDbPolyline
 62
7
  6
CONTINUOUS
 90
3
 70
0
 10
11.4566354074
 20
6.4542274088
 10
11.4548795092
 20
6.4562900842
 10
11.4503285632
 20
6.4639329365
  0
LINE
  5
2B6
100
AcDbEntity
  8
0
100
AcDbLine
 62
7
  6
CONTINUOUS
 10
10.8473183383
 20
6.8598318604
 11
10.8473183383
 21
6.8298318604
  0
LINE
  5
2B7
100
AcDbEntity
  8
0
100
AcDbLine
 62
7
  6
CONTINUOUS
 10
10.8541358536
 20
8.2598318604
 11
10.8541358536
 21
8.3348318604
  0
LINE
  5
2B8
100
AcDbEntity
  8
0
100
AcDbLine
 62
7
  6
CONTINUOUS
 10
10.8666046617
 20
8.3348318604
 11
10.8666046617
 21
8.2598318604
  0
LINE
  5
2B9
100
AcDbEntity
  8
0
100
AcDbLine
 62
7
  6
CONTINUOUS
 10
10.8801044354
 20
8.3348318604
 11
10.8801044354
 21
8.2598318604
  0
LINE
  5
2BA
100
AcDbEntity
  8
0
100
AcDbLine
 62
7
  6
CONTINUOUS
 10
10.8968206678
 20
8.2598318604
 11
10.8968206678
 21
8.3348318604
  0
LINE
  5
2BB
100
AcDbEntity
  8
0
100
AcDbLine
 62
7
  6
CONTINUOUS
 10
10.9098808199
 20
8.3348318604
 11
10.9098808199
 21
8.2598318604
  0
LINE
  5
2BC
100
AcDbEntity
  8
0
100
AcDbLine
 62
7
  6
CONTINUOUS
 10
10.9234385837
 20
8.3348318604
 11
10.9234385837
 21
8.2598318604
  0
LINE
  5
2BD
100
AcDbEntity
  8
0
100
AcDbLine
 62
7
  6
CONTINUOUS
 10
10.9396888403
 20
8.2598318604
 11
10.9396888403
 21
8.3348318604
  0
LINE
  5
2BE
100
AcDbEntity
  8
0
100
AcDbLine
 62
7
  6
CONTINUOUS
 10
10.9533244246
 20
8.3348318604
 11
10.9533244246
 21
8.2598318604
  0
LINE
  5
2BF
100
AcDbEntity
  8
0
100
AcDbLine
 62
7
  6
CONTINUOUS
 10
10.9669236604
 20
8.3348318604
 11
10.9669236604
 21
8.2598318604
  0
LINE
  5
2C0
100
AcDbEntity
  8
0
100
AcDbLine
 62
7
  6
CONTINUOUS
 10
10.9826881427
 20
8.2598318604
 11
10.9826881427
 21
8.3348318604
  0
LINE
  5
2C1
100
AcDbEntity
  8
0
100
AcDbLine
 62
7
  6
CONTINUOUS
 10
10.9968825464
 20
8.3348318604
 11
10.9968825464
 21
8.2598318604
  0
LINE
  5
2C2
100
AcDbEntity
  8
0
100
AcDbLine
 62
7
  6
CONTINUOUS
 10
11.0105066856
 20
8.3348318604
 11
11.0105066856
 21
8.2598318604
  0
LINE
  5
2C3
100
AcDbEntity
  8
0
100
AcDbLine
 62
7
  6
CONTINUOUS
 10
11.0257661871
 20
8.2598318604
 11
11.0257661871
 21
8.3348318604
  0
LINE
  5
2C4
100
AcDbEntity
  8
0
100
AcDbLine
 62
7
  6
CONTINUOUS
 10
11.0405021164
 20
8.3348318604
 11
11.0405021164
 21
8.2598318604
  0
LINE
  5
2C5
100
AcDbEntity
  8
0
100
AcDbLine
 62
7
  6
CONTINUOUS
 10
11.0541345601
 20
8.3348318604
 11
11.0541345601
 21
8.2598318604
  0
LINE
  5
2C6
100
AcDbEntity
  8
0
100
AcDbLine
 62
7
  6
CONTINUOUS
 10
11.0688704895
 20
8.2598318604
 11
11.0688704895
 21
8.3348318604
  0
LINE
  5
2C7
100
AcDbEntity
  8
0
100
AcDbLine
 62
7
  6
CONTINUOUS
 10
10.6469457311
 20
6.4732135707
 11
10.6443073522
 21
6.4639307094
  0
LINE
  5
2C8
100
AcDbEntity
  8
0
100
AcDbLine
 62
7
  6
CONTINUOUS
 10
12.0723183383
 20
7.3598318604
 11
10.0223183383
 21
7.3598318604
  0
LINE
  5
2C9
100
AcDbEntity
  8
0
100
AcDbLine
 62
7
  6
CONTINUOUS
 10
11.9973183383
 20
7.4598318604
 11
10.0973183383
 21
7.4598318604
  0
LINE
  5
2CA
100
AcDbEntity
  8
0
100
AcDbLine
 62
7
  6
CONTINUOUS
 10
9.8473183383
 20
8.5348318604
 11
9.7973183383
 21
8.5848318604
  0
LINE
  5
2CB
100
AcDbEntity
  8
0
100
AcDbLine
 62
7
  6
CONTINUOUS
 10
11.084129991
 20
8.3348318604
 11
11.084129991
 21
8.2598318604
  0
LINE
  5
2CC
100
AcDbEntity
  8
0
100
AcDbLine
 62
7
  6
CONTINUOUS
 10
11.0977541302
 20
8.3348318604
 11
11.0977541302
 21
8.2598318604
  0
LINE
  5
2CD
100
AcDbEntity
  8
0
100
AcDbLine
 62
7
  6
CONTINUOUS
 10
11.1119485338
 20
8.2598318604
 11
11.1119485338
 21
8.3348318604
  0
LINE
  5
2CE
100
AcDbEntity
  8
0
100
AcDbLine
 62
7
  6
CONTINUOUS
 10
11.1277130162
 20
8.3348318604
 11
11.1277130162
 21
8.2598318604
  0
LINE
  5
2CF
100
AcDbEntity
  8
0
100
AcDbLine
 62
7
  6
CONTINUOUS
 10
11.1413122519
 20
8.3348318604
 11
11.1413122519
 21
8.2598318604
  0
LINE
  5
2D0
100
AcDbEntity
  8
0
100
AcDbLine
 62
7
  6
CONTINUOUS
 10
11.1549478363
 20
8.2598318604
 11
11.1549478363
 21
8.3348318604
  0
LINE
  5
2D1
100
AcDbEntity
  8
0
100
AcDbLine
 62
7
  6
CONTINUOUS
 10
11.1711980929
 20
8.3348318604
 11
11.1711980929
 21
8.2598318604
  0
LINE
  5
2D2
100
AcDbEntity
  8
0
100
AcDbLine
 62
7
  6
CONTINUOUS
 10
11.1847558566
 20
8.3348318604
 11
11.1847558566
 21
8.2598318604
  0
LINE
  5
2D3
100
AcDbEntity
  8
0
100
AcDbLine
 62
7
  6
CONTINUOUS
 10
11.1978160088
 20
8.2598318604
 11
11.1978160088
 21
8.3348318604
  0
LINE
  5
2D4
100
AcDbEntity
  8
0
100
AcDbLine
 62
7
  6
CONTINUOUS
 10
11.2145322412
 20
8.3348318604
 11
11.2145322412
 21
8.2598318604
  0
LINE
  5
2D5
100
AcDbEntity
  8
0
100
AcDbLine
 62
7
  6
CONTINUOUS
 10
11.2280320149
 20
8.3348318604
 11
11.2280320149
 21
8.2598318604
  0
LINE
  5
2D6
100
AcDbEntity
  8
0
100
AcDbLine
 62
7
  6
CONTINUOUS
 10
11.240500823
 20
8.2598318604
 11
11.240500823
 21
8.3348318604
  0
LINE
  5
2D7
100
AcDbEntity
  8
0
100
AcDbLine
 62
7
  6
CONTINUOUS
 10
11.2473183383
 20
6.8598318604
 11
11.2473183383
 21
6.8298318604
  0
LINE
  5
2D8
100
AcDbEntity
  8
0
100
AcDbLine
 62
7
  6
CONTINUOUS
 10
11.2576626651
 20
8.3348318604
 11
11.2576626651
 21
8.2598318604
  0
LINE
  5
2D9
100
AcDbEntity
  8
0
100
AcDbLine
 62
7
  6
CONTINUOUS
 10
11.2710880013
 20
8.3348318604
 11
11.2710880013
 21
8.2598318604
  0
LINE
  5
2DA
100
AcDbEntity
  8
0
100
AcDbLine
 62
9
  6
CONTINUOUS
 10
11.2750020576
 20
6.4749938588
 11
11.2750020576
 21
6.4471605435
  0
LINE
  5
2DB
100
AcDbEntity
  8
0
100
AcDbLine
 62
9
  6
CONTINUOUS
 10
11.2788463564
 20
6.1162274713
 11
11.2788463564
 21
6.4067491661
  0
LINE
  5
2DC
100
AcDbEntity
  8
0
100
AcDbLine
 62
7
  6
CONTINUOUS
 10
11.2829502741
 20
8.2598318604
 11
11.2829502741
 21
8.3348318604
  0
LINE
  5
2DD
100
AcDbEntity
  8
0
100
AcDbLine
 62
7
  6
CONTINUOUS
 10
11.3005368168
 20
8.3348318604
 11
11.3005368168
 21
8.2598318604
  0
LINE
  5
2DE
100
AcDbEntity
  8
0
100
AcDbLine
 62
7
  6
CONTINUOUS
 10
11.3098183383
 20
5.9468318604
 11
11.3098183383
 21
5.9168318604
  0
LINE
  5
2DF
100
AcDbEntity
  8
0
100
AcDbLine
 62
7
  6
CONTINUOUS
 10
11.3138713589
 20
8.3348318604
 11
11.3138713589
 21
8.2598318604
  0
LINE
  5
2E0
100
AcDbEntity
  8
0
100
AcDbLine
 62
7
  6
CONTINUOUS
 10
11.3188463564
 20
6.1162279324
 11
11.3188463564
 21
6.4067482676
  0
LWPOLYLINE
  5
2E1
100
AcDbEntity
  8
0
100
AcDbPolyline
 62
7
  6
CONTINUOUS
 90
3
 70
0
 10
10.6443073522
 20
6.4639307094
 10
10.6397545364
 20
6.4562866577
 10
10.6380115593
 20
6.4542385668
  0
LINE
  5
2E2
100
AcDbEntity
  8
0
100
AcDbLine
 62
7
  6
CONTINUOUS
 10
12.2473183383
 20
8.5348318604
 11
12.2973183383
 21
8.5848318604
  0
LINE
  5
2E3
100
AcDbEntity
  8
0
100
AcDbLine
 62
7
  6
CONTINUOUS
 10
11.9223183383
 20
7.5348318604
 11
10.1723183383
 21
7.5348318604
  0
LINE
  5
2E4
100
AcDbEntity
  8
0
100
AcDbLine
 62
7
  6
CONTINUOUS
 10
11.4503285632
 20
6.4639329365
 11
11.4476910726
 21
6.4732144567
  0
LINE
  5
2E5
100
AcDbEntity
  8
0
100
AcDbLine
 62
7
  6
CONTINUOUS
 10
11.4476910726
 20
6.4732144567
 11
11.4473180661
 21
6.4782885398
  0
LINE
  5
2E6
100
AcDbEntity
  8
0
100
AcDbLine
 62
7
  6
CONTINUOUS
 10
11.3251126441
 20
8.2598318604
 11
11.3251126441
 21
8.3348318604
  0
LINE
  5
2E7
100
AcDbEntity
  8
0
100
AcDbLine
 62
7
  6
CONTINUOUS
 10
11.3431024609
 20
8.3348318604
 11
11.3431024609
 21
8.2598318604
  0
LINE
  5
2E8
100
AcDbEntity
  8
0
100
AcDbLine
 62
7
  6
CONTINUOUS
 10
11.3563299627
 20
8.3348318604
 11
11.3563299627
 21
8.2598318604
  0
LINE
  5
2E9
100
AcDbEntity
  8
0
100
AcDbLine
 62
7
  6
CONTINUOUS
 10
11.3598183383
 20
6.8298318604
 11
11.3598183383
 21
6.5368318604
  0
LINE
  5
2EA
100
AcDbEntity
  8
0
100
AcDbLine
 62
7
  6
CONTINUOUS
 10
11.3669365644
 20
8.2598318604
 11
11.3669365644
 21
8.3348318604
  0
LINE
  5
2EB
100
AcDbEntity
  8
0
100
AcDbLine
 62
7
  6
CONTINUOUS
 10
11.3853077375
 20
8.3348318604
 11
11.3853077375
 21
8.2598318604
  0
LINE
  5
2EC
100
AcDbEntity
  8
0
100
AcDbLine
 62
7
  6
CONTINUOUS
 10
11.3984120834
 20
8.3348318604
 11
11.3984120834
 21
8.2598318604
  0
LINE
  5
2ED
100
AcDbEntity
  8
0
100
AcDbLine
 62
7
  6
CONTINUOUS
 10
11.4083710792
 20
8.2598318604
 11
11.4083710792
 21
8.3348318604
  0
LINE
  5
2EE
100
AcDbEntity
  8
0
100
AcDbLine
 62
7
  6
CONTINUOUS
 10
11.4271012261
 20
8.3348318604
 11
11.4271012261
 21
8.2598318604
  0
LINE
  5
2EF
100
AcDbEntity
  8
0
100
AcDbLine
 62
7
  6
CONTINUOUS
 10
11.4400664505
 20
8.3348318604
 11
11.4400664505
 21
8.2598318604
  0
LINE
  5
2F0
100
AcDbEntity
  8
0
100
AcDbLine
 62
9
  6
CONTINUOUS
 10
11.4459760911
 20
6.083272266
 11
11.4459760911
 21
6.4749884342
  0
LINE
  5
2F1
100
AcDbEntity
  8
0
100
AcDbLine
 62
7
  6
CONTINUOUS
 10
11.4473183383
 20
6.5168318604
 11
11.4473183383
 21
6.4784373447
  0
LINE
  5
2F2
100
AcDbEntity
  8
0
100
AcDbLine
 62
7
  6
CONTINUOUS
 10
11.4473183383
 20
6.0792033626
 11
11.4473183383
 21
6.0418318604
  0
LINE
  5
2F3
100
AcDbEntity
  8
0
100
AcDbLine
 62
7
  6
CONTINUOUS
 10
11.4473183383
 20
6.8598318604
 11
11.4473183383
 21
6.9598318604
  0
LINE
  5
2F4
100
AcDbEntity
  8
0
100
AcDbLine
 62
7
  6
CONTINUOUS
 10
11.4493657068
 20
8.2598318604
 11
11.4493657068
 21
8.3348318604
  0
LINE
  5
2F5
100
AcDbEntity
  8
0
100
AcDbLine
 62
7
  6
CONTINUOUS
 10
11.4684320078
 20
8.3348318604
 11
11.4684320078
 21
8.2598318604
  0
LINE
  5
2F6
100
AcDbEntity
  8
0
100
AcDbLine
 62
7
  6
CONTINUOUS
 10
11.4812423145
 20
8.3348318604
 11
11.4812423145
 21
8.2598318604
  0
LINE
  5
2F7
100
AcDbEntity
  8
0
100
AcDbLine
 62
7
  6
CONTINUOUS
 10
11.4898705017
 20
8.2598318604
 11
11.4898705017
 21
8.3348318604
  0
LINE
  5
2F8
100
AcDbEntity
  8
0
100
AcDbLine
 62
9
  6
CONTINUOUS
 10
11.5030051909
 20
6.1514463446
 11
11.5030051909
 21
6.4049109313
  0
LINE
  5
2F9
100
AcDbEntity
  8
0
100
AcDbLine
 62
7
  6
CONTINUOUS
 10
11.5092497273
 20
8.3348318604
 11
11.5092497273
 21
8.2598318604
  0
LINE
  5
2FA
100
AcDbEntity
  8
0
100
AcDbLine
 62
7
  6
CONTINUOUS
 10
11.521889509
 20
8.3348318604
 11
11.521889509
 21
8.2598318604
  0
LINE
  5
2FB
100
AcDbEntity
  8
0
100
AcDbLine
 62
7
  6
CONTINUOUS
 10
11.5298361149
 20
8.2598318604
 11
11.5298361149
 21
8.3348318604
  0
LINE
  5
2FC
100
AcDbEntity
  8
0
100
AcDbLine
 62
7
  6
CONTINUOUS
 10
11.5495046546
 20
8.3348318604
 11
11.5495046546
 21
8.2598318604
  0
LINE
  5
2FD
100
AcDbEntity
  8
0
100
AcDbLine
 62
7
  6
CONTINUOUS
 10
11.5619585116
 20
8.3348318604
 11
11.5619585116
 21
8.2598318604
  0
LINE
  5
2FE
100
AcDbEntity
  8
0
100
AcDbLine
 62
7
  6
CONTINUOUS
 10
11.5692138545
 20
8.2598318604
 11
11.5692138545
 21
8.3348318604
  0
LINE
  5
2FF
100
AcDbEntity
  8
0
100
AcDbLine
 62
7
  6
CONTINUOUS
 10
11.5891477453
 20
8.3348318604
 11
11.5891477453
 21
8.2598318604
  0
LINE
  5
300
100
AcDbEntity
  8
0
100
AcDbLine
 62
7
  6
CONTINUOUS
 10
11.6014005045
 20
8.3348318604
 11
11.6014005045
 21
8.2598318604
  0
LINE
  5
301
100
AcDbEntity
  8
0
100
AcDbLine
 62
7
  6
CONTINUOUS
 10
11.6079557448
 20
8.2598318604
 11
11.6079557448
 21
8.3348318604
  0
LINE
  5
302
100
AcDbEntity
  8
0
100
AcDbLine
 62
7
  6
CONTINUOUS
 10
11.6281307002
 20
8.3348318604
 11
11.6281307002
 21
8.2598318604
  0
LINE
  5
303
100
AcDbEntity
  8
0
100
AcDbLine
 62
7
  6
CONTINUOUS
 10
11.6401674335
 20
8.3348318604
 11
11.6401674335
 21
8.2598318604
  0
LINE
  5
304
100
AcDbEntity
  8
0
100
AcDbLine
 62
7
  6
CONTINUOUS
 10
11.6460145849
 20
8.2598318604
 11
11.6460145849
 21
8.3348318604
  0
LINE
  5
305
100
AcDbEntity
  8
0
100
AcDbLine
 62
7
  6
CONTINUOUS
 10
11.6664060248
 20
8.3348318604
 11
11.6664060248
 21
8.2598318604
  0
LINE
  5
306
100
AcDbEntity
  8
0
100
AcDbLine
 62
7
  6
CONTINUOUS
 10
11.6782120673
 20
8.3348318604
 11
11.6782120673
 21
8.2598318604
  0
LINE
  5
307
100
AcDbEntity
  8
0
100
AcDbLine
 62
7
  6
CONTINUOUS
 10
11.6833440057
 20
8.2598318604
 11
11.6833440057
 21
8.3348318604
  0
LINE
  5
308
100
AcDbEntity
  8
0
100
AcDbLine
 62
7
  6
CONTINUOUS
 10
11.7039270863
 20
8.3348318604
 11
11.7039270863
 21
8.2598318604
  0
LINE
  5
309
100
AcDbEntity
  8
0
100
AcDbLine
 62
7
  6
CONTINUOUS
 10
11.7154880543
 20
8.3348318604
 11
11.7154880543
 21
8.2598318604
  0
LINE
  5
30A
100
AcDbEntity
  8
0
100
AcDbLine
 62
7
  6
CONTINUOUS
 10
11.7198985272
 20
8.2598318604
 11
11.7198985272
 21
8.3348318604
  0
LINE
  5
30B
100
AcDbEntity
  8
0
100
AcDbLine
 62
7
  6
CONTINUOUS
 10
11.7406481713
 20
8.3348318604
 11
11.7406481713
 21
8.2598318604
  0
LINE
  5
30C
100
AcDbEntity
  8
0
100
AcDbLine
 62
7
  6
CONTINUOUS
 10
11.7519499793
 20
8.3348318604
 11
11.7519499793
 21
8.2598318604
  0
LINE
  5
30D
100
AcDbEntity
  8
0
100
AcDbLine
 62
7
  6
CONTINUOUS
 10
11.7556336134
 20
8.2598318604
 11
11.7556336134
 21
8.3348318604
  0
LINE
  5
30E
100
AcDbEntity
  8
0
100
AcDbLine
 62
7
  6
CONTINUOUS
 10
11.7765245406
 20
8.3348318604
 11
11.7765245406
 21
8.2598318604
  0
LINE
  5
30F
100
AcDbEntity
  8
0
100
AcDbLine
 62
7
  6
CONTINUOUS
 10
11.7875534193
 20
8.3348318604
 11
11.7875534193
 21
8.2598318604
  0
LINE
  5
310
100
AcDbEntity
  8
0
100
AcDbLine
 62
7
  6
CONTINUOUS
 10
11.7905057266
 20
8.2598318604
 11
11.7905057266
 21
8.3348318604
  0
LINE
  5
311
100
AcDbEntity
  8
0
100
AcDbLine
 62
7
  6
CONTINUOUS
 10
11.7973183383
 20
6.9598318604
 11
11.7973183383
 21
7.0098318604
  0
LINE
  5
312
100
AcDbEntity
  8
0
100
AcDbLine
 62
7
  6
CONTINUOUS
 10
11.4473181419
 20
6.0793728692
 11
11.4479021806
 21
6.0855958978
  0
LWPOLYLINE
  5
313
100
AcDbEntity
  8
0
100
AcDbPolyline
 62
7
  6
CONTINUOUS
 90
4
 70
0
 10
10.6329640306
 20
6.4498140628
 10
10.6308854654
 20
6.4485067301
 10
10.628821447
 20
6.4474981552
 10
10.6285188628
 20
6.4473838023
  0
LINE
  5
314
100
AcDbEntity
  8
0
100
AcDbLine
 62
7
  6
CONTINUOUS
 10
10.1223183383
 20
8.0598318604
 11
11.9723183383
 21
8.0598318604
  0
LINE
  5
315
100
AcDbEntity
  8
0
100
AcDbLine
 62
7
  6
CONTINUOUS
 10
9.9723183383
 20
8.1598318604
 11
12.1223183383
 21
8.1598318604
  0
LINE
  5
316
100
AcDbEntity
  8
0
100
AcDbLine
 62
7
  6
CONTINUOUS
 10
11.9973183383
 20
7.4598318604
 11
11.9223183383
 21
7.5348318604
  0
LINE
  5
317
100
AcDbEntity
  8
0
100
AcDbLine
 62
7
  6
CONTINUOUS
 10
11.8115124846
 20
8.3348318604
 11
11.8115124846
 21
8.2598318604
  0
LINE
  5
318
100
AcDbEntity
  8
0
100
AcDbLine
 62
7
  6
CONTINUOUS
 10
11.8222549968
 20
8.3348318604
 11
11.8222549968
 21
8.2598318604
  0
LINE
  5
319
100
AcDbEntity
  8
0
100
AcDbLine
 62
7
  6
CONTINUOUS
 10
11.8244723804
 20
8.2598318604
 11
11.8244723804
 21
8.3348318604
  0
LINE
  5
31A
100
AcDbEntity
  8
0
100
AcDbLine
 62
7
  6
CONTINUOUS
 10
11.8455693756
 20
8.3348318604
 11
11.8455693756
 21
8.2598318604
  0
LINE
  5
31B
100
AcDbEntity
  8
0
100
AcDbLine
 62
7
  6
CONTINUOUS
 10
11.8560124334
 20
8.3348318604
 11
11.8560124334
 21
8.2598318604
  0
LINE
  5
31C
100
AcDbEntity
  8
0
100
AcDbLine
 62
7
  6
CONTINUOUS
 10
11.8574921916
 20
8.2598318604
 11
11.8574921916
 21
8.3348318604
  0
LINE
  5
31D
100
AcDbEntity
  8
0
100
AcDbLine
 62
7
  6
CONTINUOUS
 10
11.8786537208
 20
8.3348318604
 11
11.8786537208
 21
8.2598318604
  0
LINE
  5
31E
100
AcDbEntity
  8
0
100
AcDbLine
 62
7
  6
CONTINUOUS
 10
11.8887846008
 20
8.3348318604
 11
11.8887846008
 21
8.2598318604
  0
LINE
  5
31F
100
AcDbEntity
  8
0
100
AcDbLine
 62
7
  6
CONTINUOUS
 10
11.8895249309
 20
8.2598318604
 11
11.8895249309
 21
8.3348318604
  0
LINE
  5
320
100
AcDbEntity
  8
0
100
AcDbLine
 62
7
  6
CONTINUOUS
 10
11.9107252118
 20
8.3348318604
 11
11.9107252118
 21
8.2598318604
  0
LINE
  5
321
100
AcDbEntity
  8
0
100
AcDbLine
 62
7
  6
CONTINUOUS
 10
11.9205315711
 20
8.3348318604
 11
11.9205315711
 21
8.2598318604
  0
LINE
  5
322
100
AcDbEntity
  8
0
100
AcDbLine
 62
7
  6
CONTINUOUS
 10
11.9223183383
 20
7.5348318604
 11
11.9223183383
 21
8.0598318604
  0
LINE
  5
323
100
AcDbEntity
  8
0
100
AcDbLine
 62
7
  6
CONTINUOUS
 10
11.9417447746
 20
8.3348318604
 11
11.9417447746
 21
8.2598318604
  0
LINE
  5
324
100
AcDbEntity
  8
0
100
AcDbLine
 62
7
  6
CONTINUOUS
 10
11.9512146657
 20
8.3348318604
 11
11.9512146657
 21
8.2598318604
  0
LINE
  5
325
100
AcDbEntity
  8
0
100
AcDbLine
 62
7
  6
CONTINUOUS
 10
11.9716746165
 20
8.3348318604
 11
11.9716746165
 21
8.2598318604
  0
LINE
  5
326
100
AcDbEntity
  8
0
100
AcDbLine
 62
7
  6
CONTINUOUS
 10
11.9807965018
 20
8.3348318604
 11
11.9807965018
 21
8.2598318604
  0
LINE
  5
327
100
AcDbEntity
  8
0
100
AcDbLine
 62
7
  6
CONTINUOUS
 10
11.9973183383
 20
7.1098318604
 11
11.9973183383
 21
7.1598318604
  0
LINE
  5
328
100
AcDbEntity
  8
0
100
AcDbLine
 62
7
  6
CONTINUOUS
 10
11.9973183383
 20
7.3598318604
 11
11.9973183383
 21
7.4598318604
  0
LINE
  5
329
100
AcDbEntity
  8
0
100
AcDbLine
 62
7
  6
CONTINUOUS
 10
12.0004782727
 20
8.3348318604
 11
12.0004782727
 21
8.2598318604
  0
LINE
  5
32A
100
AcDbEntity
  8
0
100
AcDbLine
 62
7
  6
CONTINUOUS
 10
12.0092410386
 20
8.3348318604
 11
12.0092410386
 21
8.2598318604
  0
LINE
  5
32B
100
AcDbEntity
  8
0
100
AcDbLine
 62
7
  6
CONTINUOUS
 10
12.0281206503
 20
8.3348318604
 11
12.0281206503
 21
8.2598318604
  0
LINE
  5
32C
100
AcDbEntity
  8
0
100
AcDbLine
 62
7
  6
CONTINUOUS
 10
12.0365136207
 20
8.3348318604
 11
12.0365136207
 21
8.2598318604
  0
LINE
  5
32D
100
AcDbEntity
  8
0
100
AcDbLine
 62
7
  6
CONTINUOUS
 10
11.4479021806
 20
6.0855958978
 11
11.4511802287
 21
6.0951933996
  0
LINE
  5
32E
100
AcDbEntity
  8
0
100
AcDbLine
 62
7
  6
CONTINUOUS
 10
9.7973369228
 20
8.2598318604
 11
9.7980025736
 21
8.2598318604
  0
LINE
  5
32F
100
AcDbEntity
  8
0
100
AcDbLine
 62
7
  6
CONTINUOUS
 10
9.7983362604
 20
8.2598318604
 11
9.8005238279
 21
8.2598318604
  0
LINE
  5
330
100
AcDbEntity
  8
0
100
AcDbLine
 62
7
  6
CONTINUOUS
 10
9.8008572903
 20
8.2598318604
 11
12.2972997538
 21
8.2598318604
  0
LINE
  5
331
100
AcDbEntity
  8
0
100
AcDbLine
 62
7
  6
CONTINUOUS
 10
12.2966341029
 20
8.3348318604
 11
12.2972997538
 21
8.3348318604
  0
LINE
  5
332
100
AcDbEntity
  8
0
100
AcDbLine
 62
7
  6
CONTINUOUS
 10
12.2941128487
 20
8.3348318604
 11
12.2963004162
 21
8.3348318604
  0
LINE
  5
333
100
AcDbEntity
  8
0
100
AcDbLine
 62
7
  6
CONTINUOUS
 10
9.7973369228
 20
8.3348318604
 11
12.2937793863
 21
8.3348318604
  0
LINE
  5
334
100
AcDbEntity
  8
0
100
AcDbLine
 62
7
  6
CONTINUOUS
 10
12.0545680714
 20
8.3348318604
 11
12.0545680714
 21
8.2598318604
  0
LINE
  5
335
100
AcDbEntity
  8
0
100
AcDbLine
 62
7
  6
CONTINUOUS
 10
12.0625810208
 20
8.3348318604
 11
12.0625810208
 21
8.2598318604
  0
LINE
  5
336
100
AcDbEntity
  8
0
100
AcDbLine
 62
7
  6
CONTINUOUS
 10
12.0723183383
 20
7.1598318604
 11
12.0723183383
 21
7.3598318604
  0
LINE
  5
337
100
AcDbEntity
  8
0
100
AcDbLine
 62
7
  6
CONTINUOUS
 10
12.0797883139
 20
8.3348318604
 11
12.0797883139
 21
8.2598318604
  0
LINE
  5
338
100
AcDbEntity
  8
0
100
AcDbLine
 62
7
  6
CONTINUOUS
 10
12.0874114796
 20
8.3348318604
 11
12.0874114796
 21
8.2598318604
  0
LINE
  5
339
100
AcDbEntity
  8
0
100
AcDbLine
 62
7
  6
CONTINUOUS
 10
12.1037506507
 20
8.3348318604
 11
12.1037506507
 21
8.2598318604
  0
LINE
  5
33A
100
AcDbEntity
  8
0
100
AcDbLine
 62
7
  6
CONTINUOUS
 10
12.1109747452
 20
8.3348318604
 11
12.1109747452
 21
8.2598318604
  0
LINE
  5
33B
100
AcDbEntity
  8
0
100
AcDbLine
 62
7
  6
CONTINUOUS
 10
12.1264258874
 20
8.3348318604
 11
12.1264258874
 21
8.2598318604
  0
LINE
  5
33C
100
AcDbEntity
  8
0
100
AcDbLine
 62
7
  6
CONTINUOUS
 10
12.1332421093
 20
8.3348318604
 11
12.1332421093
 21
8.2598318604
  0
LINE
  5
33D
100
AcDbEntity
  8
0
100
AcDbLine
 62
7
  6
CONTINUOUS
 10
12.1477863979
 20
8.3348318604
 11
12.1477863979
 21
8.2598318604
  0
LINE
  5
33E
100
AcDbEntity
  8
0
100
AcDbLine
 62
7
  6
CONTINUOUS
 10
12.1541864425
 20
8.3348318604
 11
12.1541864425
 21
8.2598318604
  0
LINE
  5
33F
100
AcDbEntity
  8
0
100
AcDbLine
 62
7
  6
CONTINUOUS
 10
12.1678061575
 20
8.3348318604
 11
12.1678061575
 21
8.2598318604
  0
LINE
  5
340
100
AcDbEntity
  8
0
100
AcDbLine
 62
7
  6
CONTINUOUS
 10
12.1737822275
 20
8.3348318604
 11
12.1737822275
 21
8.2598318604
  0
LINE
  5
341
100
AcDbEntity
  8
0
100
AcDbLine
 62
7
  6
CONTINUOUS
 10
12.1864607754
 20
8.3348318604
 11
12.1864607754
 21
8.2598318604
  0
LINE
  5
342
100
AcDbEntity
  8
0
100
AcDbLine
 62
7
  6
CONTINUOUS
 10
12.1920055898
 20
8.3348318604
 11
12.1920055898
 21
8.2598318604
  0
LINE
  5
343
100
AcDbEntity
  8
0
100
AcDbLine
 62
7
  6
CONTINUOUS
 10
12.2037275236
 20
8.3348318604
 11
12.2037275236
 21
8.2598318604
  0
LINE
  5
344
100
AcDbEntity
  8
0
100
AcDbLine
 62
7
  6
CONTINUOUS
 10
12.2088343269
 20
8.3348318604
 11
12.2088343269
 21
8.2598318604
  0
LINE
  5
345
100
AcDbEntity
  8
0
100
AcDbLine
 62
7
  6
CONTINUOUS
 10
12.2195853654
 20
8.3348318604
 11
12.2195853654
 21
8.2598318604
  0
LINE
  5
346
100
AcDbEntity
  8
0
100
AcDbLine
 62
7
  6
CONTINUOUS
 10
12.2242479357
 20
8.3348318604
 11
12.2242479357
 21
8.2598318604
  0
LINE
  5
347
100
AcDbEntity
  8
0
100
AcDbLine
 62
7
  6
CONTINUOUS
 10
12.2340149804
 20
8.3348318604
 11
12.2340149804
 21
8.2598318604
  0
LINE
  5
348
100
AcDbEntity
  8
0
100
AcDbLine
 62
7
  6
CONTINUOUS
 10
12.2382276371
 20
8.3348318604
 11
12.2382276371
 21
8.2598318604
  0
LINE
  5
349
100
AcDbEntity
  8
0
100
AcDbLine
 62
7
  6
CONTINUOUS
 10
12.2469987883
 20
8.3348318604
 11
12.2469987883
 21
8.2598318604
  0
LINE
  5
34A
100
AcDbEntity
  8
0
100
AcDbLine
 62
7
  6
CONTINUOUS
 10
12.2473183383
 20
8.3348318604
 11
12.2473183383
 21
8.5348318604
  0
LINE
  5
34B
100
AcDbEntity
  8
0
100
AcDbLine
 62
7
  6
CONTINUOUS
 10
12.250756399
 20
8.3348318604
 11
12.250756399
 21
8.2598318604
  0
LINE
  5
34C
100
AcDbEntity
  8
0
100
AcDbLine
 62
7
  6
CONTINUOUS
 10
12.2585209704
 20
8.3348318604
 11
12.2585209704
 21
8.2598318604
  0
LINE
  5
34D
100
AcDbEntity
  8
0
100
AcDbLine
 62
7
  6
CONTINUOUS
 10
12.261818957
 20
8.3348318604
 11
12.261818957
 21
8.2598318604
  0
LINE
  5
34E
100
AcDbEntity
  8
0
100
AcDbLine
 62
7
  6
CONTINUOUS
 10
12.2685674886
 20
8.3348318604
 11
12.2685674886
 21
8.2598318604
  0
LINE
  5
34F
100
AcDbEntity
  8
0
100
AcDbLine
 62
7
  6
CONTINUOUS
 10
12.271401833
 20
8.3348318604
 11
12.271401833
 21
8.2598318604
  0
LINE
  5
350
100
AcDbEntity
  8
0
100
AcDbLine
 62
7
  6
CONTINUOUS
 10
12.2771261029
 20
8.3348318604
 11
12.2771261029
 21
8.2598318604
  0
LINE
  5
351
100
AcDbEntity
  8
0
100
AcDbLine
 62
7
  6
CONTINUOUS
 10
12.2794933519
 20
8.3348318604
 11
12.2794933519
 21
8.2598318604
  0
LINE
  5
352
100
AcDbEntity
  8
0
100
AcDbLine
 62
7
  6
CONTINUOUS
 10
11.4511802287
 20
6.0951933996
 11
11.456259407
 21
6.1024605749
  0
LINE
  5
353
100
AcDbEntity
  8
0
100
AcDbLine
 62
7
  6
CONTINUOUS
 10
9.8473183383
 20
8.5348318604
 11
12.2473183383
 21
8.5348318604
  0
LINE
  5
354
100
AcDbEntity
  8
0
100
AcDbLine
 62
7
  6
CONTINUOUS
 10
9.7973183383
 20
8.5848318604
 11
12.2973183383
 21
8.5848318604
  0
LINE
  5
355
100
AcDbEntity
  8
0
100
AcDbLine
 62
7
  6
CONTINUOUS
 10
12.2841863859
 20
8.3348318604
 11
12.2841863859
 21
8.2598318604
  0
LINE
  5
356
100
AcDbEntity
  8
0
100
AcDbLine
 62
7
  6
CONTINUOUS
 10
12.2860836553
 20
8.3348318604
 11
12.2860836553
 21
8.2598318604
  0
LINE
  5
357
100
AcDbEntity
  8
0
100
AcDbLine
 62
7
  6
CONTINUOUS
 10
12.2897397356
 20
8.3348318604
 11
12.2897397356
 21
8.2598318604
  0
LINE
  5
358
100
AcDbEntity
  8
0
100
AcDbLine
 62
7
  6
CONTINUOUS
 10
12.291164714
 20
8.3348318604
 11
12.291164714
 21
8.2598318604
  0
LINE
  5
359
100
AcDbEntity
  8
0
100
AcDbLine
 62
7
  6
CONTINUOUS
 10
12.2937793863
 20
8.3348318604
 11
12.2937793863
 21
8.2598318604
  0
LINE
  5
35A
100
AcDbEntity
  8
0
100
AcDbLine
 62
7
  6
CONTINUOUS
 10
12.2947303375
 20
8.3348318604
 11
12.2947303375
 21
8.2598318604
  0
LINE
  5
35B
100
AcDbEntity
  8
0
100
AcDbLine
 62
7
  6
CONTINUOUS
 10
12.2963004162
 20
8.3348318604
 11
12.2963004162
 21
8.2598318604
  0
LINE
  5
35C
100
AcDbEntity
  8
0
100
AcDbLine
 62
7
  6
CONTINUOUS
 10
12.2967761816
 20
8.3348318604
 11
12.2967761816
 21
8.2598318604
  0
LINE
  5
35D
100
AcDbEntity
  8
0
100
AcDbLine
 62
7
  6
CONTINUOUS
 10
12.2972997538
 20
8.3348318604
 11
12.2972997538
 21
8.2598318604
  0
LINE
  5
35E
100
AcDbEntity
  8
0
100
AcDbLine
 62
7
  6
CONTINUOUS
 10
12.2973183383
 20
8.5848318604
 11
12.2973183383
 21
8.7348318604
  0
LINE
  5
35F
100
AcDbEntity
  8
0
100
AcDbLine
 62
9
  6
CONTINUOUS
 10
12.4445335722
 20
6.4067366717
 11
12.4445335722
 21
6.1162395776
  0
LINE
  5
360
100
AcDbEntity
  8
0
100
AcDbLine
 62
7
  6
CONTINUOUS
 10
12.4674794368
 20
6.4067482676
 11
12.4674794368
 21
6.1162279324
  0
LWPOLYLINE
  5
361
100
AcDbEntity
  8
0
100
AcDbPolyline
 62
7
  6
CONTINUOUS
 90
4
 70
0
 10
11.456259407
 20
6.1024605749
 10
11.461041409
 20
6.1066201389
 10
11.4638913811
 20
6.1082673166
 10
11.4643929949
 20
6.1084805969
  0
LINE
  5
362
100
AcDbEntity
  8
0
100
AcDbLine
 62
7
  6
CONTINUOUS
 10
14.1301587805
 20
8.7348318604
 11
7.964477896
 21
8.7348318604
  0
LINE
  5
363
100
AcDbEntity
  8
0
100
AcDbLine
 62
9
  6
CONTINUOUS
 10
14.1895364896
 20
8.7767688701
 11
7.9051001869
 21
8.7767688701
  0
LINE
  5
364
100
AcDbEntity
  8
0
100
AcDbLine
 62
9
  6
CONTINUOUS
 10
14.2588700226
 20
8.8503495101
 11
7.8357666539
 21
8.8503495101
  0
LINE
  5
365
100
AcDbEntity
  8
0
100
AcDbLine
 62
9
  6
CONTINUOUS
 10
14.2973183383
 20
8.9083686
 11
7.7973183383
 21
8.9083686
  0
LINE
  5
366
100
AcDbEntity
  8
0
100
AcDbLine
 62
7
  6
CONTINUOUS
 10
7.7973215399
 20
9.0478318604
 11
14.2973151366
 21
9.0478318604
  0
LINE
  5
367
100
AcDbEntity
  8
0
100
AcDbLine
 62
7
  6
CONTINUOUS
 10
14.2973183383
 20
8.9083686
 11
14.2973183383
 21
9.0478318604
  0
ARC
  5
368
100
AcDbEntity
  8
0
100
AcDbCircle
 62
9
  6
CONTINUOUS
 10
10.6034645549
 20
4.9433311871
 40
1.5014838248
100
AcDbArc
 50
89.5539174004
 51
89.8433067931
  0
ARC
  5
369
100
AcDbEntity
  8
0
100
AcDbCircle
 62
9
  6
CONTINUOUS
 10
10.5884681885
 20
5.6383071269
 40
0.7666103308
100
AcDbArc
 50
89.3590587862
 51
89.7635772846
  0
ARC
  5
36A
100
AcDbEntity
  8
0
100
AcDbCircle
 62
9
  6
CONTINUOUS
 10
9.7833010616
 20
5.9656027241
 40
0.4951712935
100
AcDbArc
 50
89.9514266535
 51
103.8154490854
  0
ARC
  5
36B
100
AcDbEntity
  8
0
100
AcDbCircle
 62
9
  6
CONTINUOUS
 10
10.4659506597
 20
6.2082851141
 40
0.4429735388
100
AcDbArc
 50
32.851978719
 51
37.0194329511
  0
ARC
  5
36C
100
AcDbEntity
  8
0
100
AcDbCircle
 62
9
  6
CONTINUOUS
 10
10.6484086626
 20
6.2290494983
 40
0.1229029856
100
AcDbArc
 50
261.3112534348
 51
262.0659666906
  0
ARC
  5
36D
100
AcDbEntity
  8
0
100
AcDbCircle
 62
9
  6
CONTINUOUS
 10
10.6466012046
 20
6.3293782004
 40
0.1200653475
100
AcDbArc
 50
98.1094709278
 51
98.8339205147
  0
ARC
  5
36E
100
AcDbEntity
  8
0
100
AcDbCircle
 62
9
  6
CONTINUOUS
 10
10.6446719347
 20
6.3418493522
 40
0.1074458537
100
AcDbArc
 50
98.8386245129
 51
99.749453527
  0
ARC
  5
36F
100
AcDbEntity
  8
0
100
AcDbCircle
 62
7
  6
CONTINUOUS
 10
10.6598183383
 20
5.9668318604
 40
0.075
100
AcDbArc
 50
0.0
 51
90.0
  0
ARC
  5
370
100
AcDbEntity
  8
0
100
AcDbCircle
 62
7
  6
CONTINUOUS
 10
10.8157907096
 20
6.4067479569
 40
0.0400003387
100
AcDbArc
 50
96.9338945839
 51
179.9995548967
  0
ARC
  5
371
100
AcDbEntity
  8
0
100
AcDbCircle
 62
7
  6
CONTINUOUS
 10
9.6671572085
 20
6.1162279636
 40
0.0399998606
100
AcDbArc
 50
180.0000447378
 51
256.3166455045
  0
ARC
  5
372
100
AcDbEntity
  8
0
100
AcDbCircle
 62
7
  6
CONTINUOUS
 10
9.6671569046
 20
6.4067484248
 40
0.0399995375
100
AcDbArc
 50
103.6632978949
 51
180.0002250913
  0
ARC
  5
373
100
AcDbEntity
  8
0
100
AcDbCircle
 62
7
  6
CONTINUOUS
 10
10.8157896889
 20
6.1162273703
 40
0.0399991153
100
AcDbArc
 50
179.9991960607
 51
263.0582805226
  0
ARC
  5
374
100
AcDbEntity
  8
0
100
AcDbCircle
 62
9
  6
CONTINUOUS
 10
10.6123330964
 20
6.0780819926
 40
0.0357151086
100
AcDbArc
 50
39.7838420269
 51
40.4175635449
  0
ARC
  5
375
100
AcDbEntity
  8
0
100
AcDbCircle
 62
7
  6
CONTINUOUS
 10
10.7148183383
 20
6.5368318604
 40
0.02
100
AcDbArc
 50
270.0000000029
 51
360.0
  0
ARC
  5
376
100
AcDbEntity
  8
0
100
AcDbCircle
 62
7
  6
CONTINUOUS
 10
10.7648183383
 20
5.9468318604
 40
0.02
100
AcDbArc
 50
0.0
 51
89.9999999937
  0
ARC
  5
377
100
AcDbEntity
  8
0
100
AcDbCircle
 62
9
  6
CONTINUOUS
 10
10.5619247949
 20
7.3372976428
 40
1.2266099
100
AcDbArc
 50
272.1846406362
 51
272.4345264332
  0
ARC
  5
378
100
AcDbEntity
  8
0
100
AcDbCircle
 62
9
  6
CONTINUOUS
 10
10.5582927614
 20
6.7715594052
 40
0.6210085977
100
AcDbArc
 50
273.0773920527
 51
273.4298861455
  0
ARC
  5
379
100
AcDbEntity
  8
0
100
AcDbCircle
 62
7
  6
CONTINUOUS
 10
7.7868835557
 20
8.7348318604
 40
0.1254347826
100
AcDbArc
 50
19.5319940446
 51
67.0635891141
  0
ARC
  5
37A
100
AcDbEntity
  8
0
100
AcDbCircle
 62
7
  6
CONTINUOUS
 10
10.0973183383
 20
7.0098318604
 40
0.1
100
AcDbArc
 50
0.0
 51
90.0
  0
ARC
  5
37B
100
AcDbEntity
  8
0
100
AcDbCircle
 62
7
  6
CONTINUOUS
 10
9.8723183383
 20
8.1598318604
 40
0.1
100
AcDbArc
 50
0.0
 51
85.7882206829
  0
ARC
  5
37C
100
AcDbEntity
  8
0
100
AcDbCircle
 62
7
  6
CONTINUOUS
 10
10.0223183383
 20
8.0598318604
 40
0.1
100
AcDbArc
 50
0.0
 51
90.0
  0
ARC
  5
37D
100
AcDbEntity
  8
0
100
AcDbCircle
 62
7
  6
CONTINUOUS
 10
7.8603183383
 20
8.9083686
 40
0.063
100
AcDbArc
 50
180.0
 51
247.0635891141
  0
ARC
  5
37E
100
AcDbEntity
  8
0
100
AcDbCircle
 62
7
  6
CONTINUOUS
 10
7.9644748485
 20
8.7978318604
 40
0.063
100
AcDbArc
 50
199.5319940446
 51
270.0
  0
ARC
  5
37F
100
AcDbEntity
  8
0
100
AcDbCircle
 62
9
  6
CONTINUOUS
 10
11.0473233247
 20
4.5023463247
 40
1.9184246392
100
AcDbArc
 50
83.0684240413
 51
96.9318760002
  0
ARC
  5
380
100
AcDbEntity
  8
0
100
AcDbCircle
 62
9
  6
CONTINUOUS
 10
11.4911741327
 20
4.9436050019
 40
1.5012100299
100
AcDbArc
 50
90.1567985263
 51
90.4462409805
  0
ARC
  5
381
100
AcDbEntity
  8
0
100
AcDbCircle
 62
9
  6
CONTINUOUS
 10
11.5061865617
 20
5.6353753661
 40
0.7695421412
100
AcDbArc
 50
90.2368676572
 51
90.6398454665
  0
ARC
  5
382
100
AcDbEntity
  8
0
100
AcDbCircle
 62
9
  6
CONTINUOUS
 10
12.3113351566
 20
5.9655981638
 40
0.4951758516
100
AcDbArc
 50
76.1846312309
 51
90.0498635408
  0
ARC
  5
383
100
AcDbEntity
  8
0
100
AcDbCircle
 62
9
  6
CONTINUOUS
 10
11.6278920147
 20
6.2088498033
 40
0.4419999775
100
AcDbArc
 50
142.9769759453
 51
147.1532541198
  0
ARC
  5
384
100
AcDbEntity
  8
0
100
AcDbCircle
 62
9
  6
CONTINUOUS
 10
11.4460793955
 20
6.230044336
 40
0.1239087154
100
AcDbArc
 50
277.952465088
 51
278.8122144567
  0
ARC
  5
385
100
AcDbEntity
  8
0
100
AcDbCircle
 62
9
  6
CONTINUOUS
 10
11.4478863368
 20
6.3283330964
 40
0.1211209476
100
AcDbArc
 50
81.4774236163
 51
81.8902304768
  0
ARC
  5
386
100
AcDbEntity
  8
0
100
AcDbCircle
 62
9
  6
CONTINUOUS
 10
11.4499827709
 20
6.3420095124
 40
0.1072848731
100
AcDbArc
 50
80.2461531093
 51
81.5022313274
  0
ARC
  5
387
100
AcDbEntity
  8
0
100
AcDbCircle
 62
7
  6
CONTINUOUS
 10
11.4348183383
 20
5.9668318604
 40
0.075
100
AcDbArc
 50
90.0
 51
180.0
  0
ARC
  5
388
100
AcDbEntity
  8
0
100
AcDbCircle
 62
7
  6
CONTINUOUS
 10
11.278845968
 20
6.4067479578
 40
0.0400003387
100
AcDbArc
 50
0.0004437641
 51
83.0661051533
  0
ARC
  5
389
100
AcDbEntity
  8
0
100
AcDbCircle
 62
7
  6
CONTINUOUS
 10
11.2788460578
 20
6.116228112
 40
0.0400002165
100
AcDbArc
 50
276.9188827479
 51
359.9997427067
  0
ARC
  5
38A
100
AcDbEntity
  8
0
100
AcDbCircle
 62
7
  6
CONTINUOUS
 10
12.427479468
 20
6.1162279637
 40
0.0399998606
100
AcDbArc
 50
283.6834310072
 51
359.999955244
  0
ARC
  5
38B
100
AcDbEntity
  8
0
100
AcDbCircle
 62
7
  6
CONTINUOUS
 10
12.427479772
 20
6.4067484248
 40
0.0399995375
100
AcDbArc
 50
359.9997748953
 51
76.3367671812
  0
ARC
  5
38C
100
AcDbEntity
  8
0
100
AcDbCircle
 62
7
  6
CONTINUOUS
 10
11.3798183383
 20
6.5368318604
 40
0.02
100
AcDbArc
 50
180.0
 51
269.9999999971
  0
ARC
  5
38D
100
AcDbEntity
  8
0
100
AcDbCircle
 62
7
  6
CONTINUOUS
 10
11.3298183383
 20
5.9468318604
 40
0.02
100
AcDbArc
 50
90.0000000063
 51
180.0
  0
ARC
  5
38E
100
AcDbEntity
  8
0
100
AcDbCircle
 62
9
  6
CONTINUOUS
 10
11.0473205122
 20
8.0192814783
 40
1.9170860101
100
AcDbArc
 50
263.0633446273
 51
276.9365244705
  0
ARC
  5
38F
100
AcDbEntity
  8
0
100
AcDbCircle
 62
9
  6
CONTINUOUS
 10
11.5327275932
 20
7.3377437026
 40
1.2270562238
100
AcDbArc
 50
267.5656249543
 51
267.815420216
  0
ARC
  5
390
100
AcDbEntity
  8
0
100
AcDbCircle
 62
9
  6
CONTINUOUS
 10
11.5366237532
 20
6.776565007
 40
0.6260220043
100
AcDbArc
 50
266.5719560341
 51
266.9216277518
  0
ARC
  5
391
100
AcDbEntity
  8
0
100
AcDbCircle
 62
7
  6
CONTINUOUS
 10
14.3077531209
 20
8.7348318604
 40
0.1254347826
100
AcDbArc
 50
112.9364108859
 51
160.4680059554
  0
ARC
  5
392
100
AcDbEntity
  8
0
100
AcDbCircle
 62
7
  6
CONTINUOUS
 10
11.9973183383
 20
7.0098318604
 40
0.1
100
AcDbArc
 50
90.0
 51
180.0
  0
ARC
  5
393
100
AcDbEntity
  8
0
100
AcDbCircle
 62
7
  6
CONTINUOUS
 10
12.2223183383
 20
8.1598318604
 40
0.1
100
AcDbArc
 50
94.2117793171
 51
180.0
  0
ARC
  5
394
100
AcDbEntity
  8
0
100
AcDbCircle
 62
7
  6
CONTINUOUS
 10
12.0723183383
 20
8.0598318604
 40
0.1
100
AcDbArc
 50
90.0
 51
180.0
  0
ARC
  5
395
100
AcDbEntity
  8
0
100
AcDbCircle
 62
7
  6
CONTINUOUS
 10
14.2343183383
 20
8.9083686
 40
0.063
100
AcDbArc
 50
292.9364108859
 51
360.0
  0
ARC
  5
396
100
AcDbEntity
  8
0
100
AcDbCircle
 62
7
  6
CONTINUOUS
 10
14.130161828
 20
8.7978318604
 40
0.063
100
AcDbArc
 50
270.0
 51
340.4680059554
  0
SPLINE
  5
397
100
AcDbEntity
  8
0
100
AcDbSpline
 62
7
  6
CONTINUOUS
 70
0
 71
3
 72
9
 73
5
 74
0
 42
0.0000001
 43
0.0000001
 44
0.0000000001
 40
0.0
 40
0.0
 40
0.0
 40
0.0
 40
0.2397943786
 40
1.0
 40
1.0
 40
1.0
 40
1.0
 10
11.4566324839
 20
6.454230103
 30
0.0
 10
11.456995946
 20
6.4538362844
 30
0.0
 10
11.4585504351
 20
6.4522305659
 30
0.0
 10
11.4602746332
 20
6.4507858197
 30
0.0
 10
11.4616693069
 20
6.4498155912
 30
0.0
  0
SPLINE
  5
398
100
AcDbEntity
  8
0
100
AcDbSpline
 62
7
  6
CONTINUOUS
 70
0
 71
3
 72
12
 73
8
 74
0
 42
0.0000001
 43
0.0000001
 44
0.0000000001
 40
0.0
 40
0.0
 40
0.0
 40
0.0
 40
0.2044546189
 40
0.4318779598
 40
0.5573915366
 40
0.6928610757
 40
1.0
 40
1.0
 40
1.0
 40
1.0
 10
11.4616693069
 20
6.4498155912
 30
0.0
 10
11.4627227094
 20
6.4490827737
 30
0.0
 10
11.4650547811
 20
6.4476822311
 30
0.0
 10
11.4683006216
 20
6.4463381055
 30
0.0
 10
11.4712544757
 20
6.4455063801
 30
0.0
 10
11.474760659
 20
6.4448391785
 30
0.0
 10
11.4775556733
 20
6.4446995143
 30
0.0
 10
11.4794821206
 20
6.4447693518
 30
0.0
  0
SPLINE
  5
399
100
AcDbEntity
  8
0
100
AcDbSpline
 62
7
  6
CONTINUOUS
 70
0
 71
3
 72
12
 73
8
 74
0
 42
0.0000001
 43
0.0000001
 44
0.0000000001
 40
0.0
 40
0.0
 40
0.0
 40
0.0
 40
0.2044674212
 40
0.4318962574
 40
0.557411381
 40
0.6928734246
 40
1.0
 40
1.0
 40
1.0
 40
1.0
 10
10.6329614356
 20
6.4498116007
 30
0.0
 10
10.6319081924
 20
6.4490792671
 30
0.0
 10
10.6295766128
 20
6.4476796951
 30
0.0
 10
10.6263316396
 20
6.446336657
 30
0.0
 10
10.6233788021
 20
6.4455056509
 30
0.0
 10
10.6198740127
 20
6.4448389974
 30
0.0
 10
10.6170801978
 20
6.4446995295
 30
0.0
 10
10.6151545577
 20
6.444769286
 30
0.0
  0
SPLINE
  5
39A
100
AcDbEntity
  8
0
100
AcDbSpline
 62
7
  6
CONTINUOUS
 70
0
 71
3
 72
9
 73
5
 74
0
 42
0.0000001
 43
0.0000001
 44
0.0000000001
 40
0.0
 40
0.0
 40
0.0
 40
0.0
 40
0.2397575179
 40
1.0
 40
1.0
 40
1.0
 40
1.0
 10
10.6380104025
 20
6.4542368865
 30
0.0
 10
10.6376462124
 20
6.4538420812
 30
0.0
 10
10.6360882803
 20
6.4522321422
 30
0.0
 10
10.6343597962
 20
6.4507838989
 30
0.0
 10
10.6329614356
 20
6.4498116007
 30
0.0
  0
SPLINE
  5
39B
100
AcDbEntity
  8
0
100
AcDbSpline
 62
7
  6
CONTINUOUS
 70
0
 71
3
 72
9
 73
5
 74
0
 42
0.0000001
 43
0.0000001
 44
0.0000000001
 40
0.0
 40
0.0
 40
0.0
 40
0.0
 40
0.2407916244
 40
1.0
 40
1.0
 40
1.0
 40
1.0
 10
11.4499474389
 20
6.4642087026
 30
0.0
 10
11.45037246
 20
6.4633415047
 30
0.0
 10
11.4522361654
 20
6.459791532
 30
0.0
 10
11.4545673252
 20
6.4564677442
 30
0.0
 10
11.4566324839
 20
6.454230103
 30
0.0
  0
SPLINE
  5
39C
100
AcDbEntity
  8
0
100
AcDbSpline
 62
7
  6
CONTINUOUS
 70
0
 71
3
 72
9
 73
5
 74
0
 42
0.0000001
 43
0.0000001
 44
0.0000000001
 40
0.0
 40
0.0
 40
0.0
 40
0.0
 40
0.2408209764
 40
1.0
 40
1.0
 40
1.0
 40
1.0
 10
10.6446894213
 20
6.464208472
 30
0.0
 10
10.6442646934
 20
6.4633418237
 30
0.0
 10
10.6424024846
 20
6.459794524
 30
0.0
 10
10.6400733401
 20
6.4564732417
 30
0.0
 10
10.6380104025
 20
6.4542368865
 30
0.0
  0
SPLINE
  5
39D
100
AcDbEntity
  8
0
100
AcDbSpline
 62
9
  6
CONTINUOUS
 70
0
 71
3
 72
11
 73
7
 74
0
 42
0.0000001
 43
0.0000001
 44
0.0000000001
 40
0.0
 40
0.0
 40
0.0
 40
0.0
 40
0.2489306539
 40
0.4979736914
 40
0.7480463456
 40
1.0
 40
1.0
 40
1.0
 40
1.0
 10
9.8030771762
 20
6.0625863267
 30
0.0
 10
9.7916310236
 20
6.0621424487
 30
0.0
 10
9.7686942819
 20
6.0620565637
 30
0.0
 10
9.7343214131
 20
6.0643502599
 30
0.0
 10
9.7000559132
 20
6.0690641845
 30
0.0
 10
9.6774228336
 20
6.073797266
 30
0.0
 10
9.666161761
 20
6.0765551421
 30
0.0
  0
SPLINE
  5
39E
100
AcDbEntity
  8
0
100
AcDbSpline
 62
9
  6
CONTINUOUS
 70
0
 71
3
 72
11
 73
7
 74
0
 42
0.0000001
 43
0.0000001
 44
0.0000000001
 40
0.0
 40
0.0
 40
0.0
 40
0.0
 40
0.3006112995
 40
0.5669669446
 40
0.7997299834
 40
1.0
 40
1.0
 40
1.0
 40
1.0
 10
11.4650617778
 20
6.1075982707
 30
0.0
 10
11.4666611476
 20
6.1078465544
 30
0.0
 10
11.4696686774
 20
6.1083770009
 30
0.0
 10
11.4738651995
 20
6.1093530101
 30
0.0
 10
11.4774697931
 20
6.1104528964
 30
0.0
 10
11.4796363536
 20
6.1113279525
 30
0.0
 10
11.4806082332
 20
6.1117949986
 30
0.0
  0
SPLINE
  5
39F
100
AcDbEntity
  8
0
100
AcDbSpline
 62
9
  6
CONTINUOUS
 70
0
 71
3
 72
12
 73
8
 74
0
 42
0.0000001
 43
0.0000001
 44
0.0000000001
 40
0.0
 40
0.0
 40
0.0
 40
0.0
 40
0.2493179191
 40
0.3734390346
 40
0.4983345543
 40
0.7490179323
 40
1.0
 40
1.0
 40
1.0
 40
1.0
 10
11.4459760911
 20
6.4749884342
 30
0.0
 10
11.4461272691
 20
6.472878622
 30
0.0
 10
11.4464507707
 20
6.4697245872
 30
0.0
 10
11.4470519007
 20
6.4655393861
 30
0.0
 10
11.4477599509
 20
6.4613590207
 30
0.0
 10
11.4488580173
 20
6.4561550615
 30
0.0
 10
11.4499749417
 20
6.4520451381
 30
0.0
 10
11.4505940296
 20
6.450007782
 30
0.0
  0
SPLINE
  5
3A0
100
AcDbEntity
  8
0
100
AcDbSpline
 62
9
  6
CONTINUOUS
 70
0
 71
3
 72
12
 73
8
 74
0
 42
0.0000001
 43
0.0000001
 44
0.0000000001
 40
0.0
 40
0.0
 40
0.0
 40
0.0
 40
0.2453648016
 40
0.3677763126
 40
0.492075406
 40
0.7441557898
 40
1.0
 40
1.0
 40
1.0
 40
1.0
 10
11.4459758099
 20
6.4749922438
 30
0.0
 10
11.4462021775
 20
6.4740782742
 30
0.0
 10
11.4465933698
 20
6.4727209748
 30
0.0
 10
11.4471831947
 20
6.470927115
 30
0.0
 10
11.4478178625
 20
6.469121132
 30
0.0
 10
11.4487049693
 20
6.4668618104
 30
0.0
 10
11.4495155661
 20
6.4650879066
 30
0.0
 10
11.4499481552
 20
6.4642065453
 30
0.0
  0
SPLINE
  5
3A1
100
AcDbEntity
  8
0
100
AcDbSpline
 62
9
  6
CONTINUOUS
 70
0
 71
3
 72
18
 73
14
 74
0
 42
0.0000001
 43
0.0000001
 44
0.0000000001
 40
0.0
 40
0.0
 40
0.0
 40
0.0
 40
0.2411184493
 40
0.3622527931
 40
0.423045649
 40
0.4840672532
 40
0.6070491646
 40
0.6694361341
 40
0.7326412319
 40
0.7969958577
 40
0.8627888471
 40
0.9304249131
 40
1.0
 40
1.0
 40
1.0
 40
1.0
 10
11.4505940296
 20
6.450007782
 30
0.0
 10
11.4522259549
 20
6.4446335673
 30
0.0
 10
11.4553206311
 20
6.436720226
 30
0.0
 10
11.4602576169
 20
6.4281706454
 30
0.0
 10
11.4635221093
 20
6.4235428618
 30
0.0
 10
11.4671090388
 20
6.4191067675
 30
0.0
 10
11.471211556
 20
6.4150496579
 30
0.0
 10
11.4758411361
 20
6.4115596833
 30
0.0
 10
11.4796304383
 20
6.4092592095
 30
0.0
 10
11.4837217975
 20
6.4073531055
 30
0.0
 10
11.488111736
 20
6.4059157129
 30
0.0
 10
11.4927699673
 20
6.4050310788
 30
0.0
 10
11.4959723905
 20
6.404851544
 30
0.0
 10
11.4975929477
 20
6.4048695226
 30
0.0
  0
SPLINE
  5
3A2
100
AcDbEntity
  8
0
100
AcDbSpline
 62
9
  6
CONTINUOUS
 70
0
 71
3
 72
18
 73
14
 74
0
 42
0.0000001
 43
0.0000001
 44
0.0000000001
 40
0.0
 40
0.0
 40
0.0
 40
0.0
 40
0.0395222284
 40
0.0809863942
 40
0.125162283
 40
0.1726358944
 40
0.2237993228
 40
0.2788464063
 40
0.4004510971
 40
0.5363763736
 40
0.6840131843
 40
0.8399214563
 40
1.0
 40
1.0
 40
1.0
 40
1.0
 10
11.4794822652
 20
6.4447695013
 30
0.0
 10
11.480090273
 20
6.4446803198
 30
0.0
 10
11.4813206365
 20
6.4443740095
 30
0.0
 10
11.4831031984
 20
6.4435714983
 30
0.0
 10
11.4848374375
 20
6.4424274922
 30
0.0
 10
11.4865085075
 20
6.4409560573
 30
0.0
 10
11.4881046089
 20
6.4391711151
 30
0.0
 10
11.4901852148
 20
6.4362980995
 30
0.0
 10
11.4924846781
 20
6.4319905908
 30
0.0
 10
11.4946726022
 20
6.4260676443
 30
0.0
 10
11.496306488
 20
6.4194192689
 30
0.0
 10
11.4973283279
 20
6.4122731644
 30
0.0
 10
11.4975777215
 20
6.4073584657
 30
0.0
 10
11.4975929418
 20
6.4048695226
 30
0.0
  0
SPLINE
  5
3A3
100
AcDbEntity
  8
0
100
AcDbSpline
 62
9
  6
CONTINUOUS
 70
0
 71
3
 72
9
 73
5
 74
0
 42
0.0000001
 43
0.0000001
 44
0.0000000001
 40
0.0
 40
0.0
 40
0.0
 40
0.0
 40
0.2331647744
 40
1.0
 40
1.0
 40
1.0
 40
1.0
 10
12.4295810029
 20
6.4464535217
 30
0.0
 10
12.4298759235
 20
6.4463673918
 30
0.0
 10
12.4311195183
 20
6.445925986
 30
0.0
 10
12.4322616873
 20
6.4452206619
 30
0.0
 10
12.4330511254
 20
6.4445899427
 30
0.0
  0
LINE
  5
3A4
100
AcDbEntity
  8
0
100
AcDbLine
 62
9
  6
CONTINUOUS
 10
12.4330511254
 20
6.4445899427
 11
12.4343481953
 21
6.4434057477
  0
LINE
  5
3A5
100
AcDbEntity
  8
0
100
AcDbLine
 62
9
  6
CONTINUOUS
 10
12.4343481953
 20
6.4434057477
 11
12.436258116
 21
6.4410796138
  0
SPLINE
  5
3A6
100
AcDbEntity
  8
0
100
AcDbSpline
 62
9
  6
CONTINUOUS
 70
0
 71
3
 72
15
 73
11
 74
0
 42
0.0000001
 43
0.0000001
 44
0.0000000001
 40
0.0
 40
0.0
 40
0.0
 40
0.0
 40
0.0960007121
 40
0.2026194327
 40
0.3190596718
 40
0.444165516
 40
0.5764621682
 40
0.714365952
 40
0.8562525737
 40
1.0
 40
1.0
 40
1.0
 40
1.0
 10
12.436258116
 20
6.4410796138
 30
0.0
 10
12.4369194101
 20
6.4401443813
 30
0.0
 10
12.4381774406
 20
6.4380718026
 30
0.0
 10
12.4397970911
 20
6.4346208313
 30
0.0
 10
12.4412193054
 20
6.4307125215
 30
0.0
 10
12.4424149122
 20
6.4264112127
 30
0.0
 10
12.4433546373
 20
6.4217854146
 30
0.0
 10
12.4440146069
 20
6.4169102165
 30
0.0
 10
12.4444267439
 20
6.4118717578
 30
0.0
 10
12.4445308309
 20
6.4084633578
 30
0.0
 10
12.4445335722
 20
6.4067482676
 30
0.0
  0
SPLINE
  5
3A7
100
AcDbEntity
  8
0
100
AcDbSpline
 62
9
  6
CONTINUOUS
 70
0
 71
3
 72
12
 73
8
 74
0
 42
0.0000001
 43
0.0000001
 44
0.0000000001
 40
0.0
 40
0.0
 40
0.0
 40
0.0
 40
0.2501331236
 40
0.3751963557
 40
0.5002385965
 40
0.7502181809
 40
1.0
 40
1.0
 40
1.0
 40
1.0
 10
11.4870658515
 20
6.4448094417
 30
0.0
 10
11.5656504704
 20
6.4450285018
 30
0.0
 10
11.6835262302
 20
6.4453993672
 30
0.0
 10
11.8406867668
 20
6.4458436015
 30
0.0
 10
11.9977992432
 20
6.4462202762
 30
0.0
 10
12.1940951175
 20
6.4465284224
 30
0.0
 10
12.3511064555
 20
6.446528542
 30
0.0
 10
12.4295809738
 20
6.4464535412
 30
0.0
  0
SPLINE
  5
3A8
100
AcDbEntity
  8
0
100
AcDbSpline
 62
9
  6
CONTINUOUS
 70
0
 71
3
 72
19
 73
15
 74
0
 42
0.0000001
 43
0.0000001
 44
0.0000000001
 40
0.0
 40
0.0
 40
0.0
 40
0.0
 40
0.0362513068
 40
0.074817685
 40
0.1166018298
 40
0.16224416
 40
0.2121394972
 40
0.2664565127
 40
0.3251724655
 40
0.3881468191
 40
0.5256955095
 40
0.6761840243
 40
0.8357832808
 40
1.0
 40
1.0
 40
1.0
 40
1.0
 10
11.4870658515
 20
6.4448094417
 30
0.0
 10
11.4876072908
 20
6.444718909
 30
0.0
 10
11.488706515
 20
6.4444069202
 30
0.0
 10
11.490286548
 20
6.4435982672
 30
0.0
 10
11.4918200449
 20
6.4424499849
 30
0.0
 10
11.4932953093
 20
6.4409763385
 30
0.0
 10
11.4947028763
 20
6.4391907246
 30
0.0
 10
11.4960323729
 20
6.437108319
 30
0.0
 10
11.4972739671
 20
6.4347467777
 30
0.0
 10
11.4988429626
 20
6.431145185
 30
0.0
 10
11.5004849264
 20
6.4260759717
 30
0.0
 10
11.5019100765
 20
6.4194393657
 30
0.0
 10
11.502793026
 20
6.412303027
 30
0.0
 10
11.5029990575
 20
6.4073976689
 30
0.0
 10
11.503005191
 20
6.4049109313
 30
0.0
  0
SPLINE
  5
3A9
100
AcDbEntity
  8
0
100
AcDbSpline
 62
9
  6
CONTINUOUS
 70
0
 71
3
 72
13
 73
9
 74
0
 42
0.0000001
 43
0.0000001
 44
0.0000000001
 40
0.0
 40
0.0
 40
0.0
 40
0.0
 40
0.2500000944
 40
0.3750001397
 40
0.5000001594
 40
0.6250001477
 40
0.7500001326
 40
1.0
 40
1.0
 40
1.0
 40
1.0
 10
11.5030051909
 20
6.4049109313
 30
0.0
 10
11.5814657786
 20
6.4051473601
 30
0.0
 10
11.6991565059
 20
6.4055509431
 30
0.0
 10
11.8560775986
 20
6.4060481835
 30
0.0
 10
11.9737685541
 20
6.4063691519
 30
0.0
 10
12.0914596701
 20
6.4066188593
 30
0.0
 10
12.248381322
 20
6.4068262408
 30
0.0
 10
12.3660727453
 20
6.4068214436
 30
0.0
 10
12.4445335722
 20
6.4067366717
 30
0.0
  0
SPLINE
  5
3AA
100
AcDbEntity
  8
0
100
AcDbSpline
 62
9
  6
CONTINUOUS
 70
0
 71
3
 72
12
 73
8
 74
0
 42
0.0000001
 43
0.0000001
 44
0.0000000001
 40
0.0
 40
0.0
 40
0.0
 40
0.0
 40
0.2441536971
 40
0.3663306014
 40
0.4905094733
 40
0.7429191456
 40
1.0
 40
1.0
 40
1.0
 40
1.0
 10
11.4459758134
 20
6.083268606
 30
0.0
 10
11.4462049636
 20
6.0841457173
 30
0.0
 10
11.4466009959
 20
6.0854483531
 30
0.0
 10
11.4472001264
 20
6.0871682843
 30
0.0
 10
11.4478480946
 20
6.0889033417
 30
0.0
 10
11.4487567434
 20
6.091074938
 30
0.0
 10
11.4495869116
 20
6.092776226
 30
0.0
 10
11.4500303413
 20
6.0936215277
 30
0.0
  0
SPLINE
  5
3AB
100
AcDbEntity
  8
0
100
AcDbSpline
 62
9
  6
CONTINUOUS
 70
0
 71
3
 72
12
 73
8
 74
0
 42
0.0000001
 43
0.0000001
 44
0.0000000001
 40
0.0
 40
0.0
 40
0.0
 40
0.0
 40
0.2490316039
 40
0.3731361485
 40
0.4980107954
 40
0.7487570028
 40
1.0
 40
1.0
 40
1.0
 40
1.0
 10
11.4459760911
 20
6.083272266
 30
0.0
 10
11.4461306303
 20
6.0853618285
 30
0.0
 10
11.4464607325
 20
6.0884863212
 30
0.0
 10
11.4470757306
 20
6.092631338
 30
0.0
 10
11.447801987
 20
6.0967731376
 30
0.0
 10
11.4489296537
 20
6.1019284399
 30
0.0
 10
11.4500764127
 20
6.1059964915
 30
0.0
 10
11.4507121641
 20
6.1080124997
 30
0.0
  0
SPLINE
  5
3AC
100
AcDbEntity
  8
0
100
AcDbSpline
 62
9
  6
CONTINUOUS
 70
0
 71
3
 72
11
 73
7
 74
0
 42
0.0000001
 43
0.0000001
 44
0.0000000001
 40
0.0
 40
0.0
 40
0.0
 40
0.0
 40
0.2337413481
 40
0.4759472928
 40
0.7296613348
 40
1.0
 40
1.0
 40
1.0
 40
1.0
 10
11.4500294107
 20
6.0936194603
 30
0.0
 10
11.4505977852
 20
6.0947047061
 30
0.0
 10
11.451840946
 20
6.0968709883
 30
0.0
 10
11.4540300305
 20
6.1000136175
 30
0.0
 10
11.456658519
 20
6.1030604949
 30
0.0
 10
11.4587047827
 20
6.1049079154
 30
0.0
 10
11.4598212334
 20
6.1057803295
 30
0.0
  0
SPLINE
  5
3AD
100
AcDbEntity
  8
0
100
AcDbSpline
 62
9
  6
CONTINUOUS
 70
0
 71
3
 72
11
 73
7
 74
0
 42
0.0000001
 43
0.0000001
 44
0.0000000001
 40
0.0
 40
0.0
 40
0.0
 40
0.0
 40
0.1979947983
 40
0.4208546706
 40
0.6821099837
 40
1.0
 40
1.0
 40
1.0
 40
1.0
 10
11.4598212334
 20
6.1057803295
 30
0.0
 10
11.4609717024
 20
6.1066793262
 30
0.0
 10
11.4635624305
 20
6.1084129307
 30
0.0
 10
11.4681714943
 20
6.1104912105
 30
0.0
 10
11.4739612174
 20
6.1118705711
 30
0.0
 10
11.4782706425
 20
6.1119718907
 30
0.0
 10
11.4806081532
 20
6.1117949933
 30
0.0
  0
SPLINE
  5
3AE
100
AcDbEntity
  8
0
100
AcDbSpline
 62
9
  6
CONTINUOUS
 70
0
 71
3
 72
17
 73
13
 74
0
 42
0.0000001
 43
0.0000001
 44
0.0000000001
 40
0.0
 40
0.0
 40
0.0
 40
0.0
 40
0.1196647592
 40
0.2397259999
 40
0.3602503848
 40
0.4816013808
 40
0.6044930708
 40
0.7302715463
 40
0.7949940174
 40
0.8613291905
 40
0.9296209042
 40
1.0
 40
1.0
 40
1.0
 40
1.0
 10
11.4507121641
 20
6.1080124997
 30
0.0
 10
11.4515550379
 20
6.1106876295
 30
0.0
 10
11.4534651938
 20
6.1159804886
 30
0.0
 10
11.4570533913
 20
6.1236383125
 30
0.0
 10
11.4614531326
 20
6.1309130548
 30
0.0
 10
11.4667735074
 20
6.1376400851
 30
0.0
 10
11.4731504166
 20
6.1435758529
 30
0.0
 10
11.4794205559
 20
6.1475145889
 30
0.0
 10
11.4849955376
 20
6.1498183878
 30
0.0
 10
11.4895111789
 20
6.1510681893
 30
0.0
 10
11.4942823727
 20
6.1517401152
 30
0.0
 10
11.4975441817
 20
6.1517622512
 30
0.0
 10
11.4991907897
 20
6.1516631563
 30
0.0
  0
SPLINE
  5
3AF
100
AcDbEntity
  8
0
100
AcDbSpline
 62
9
  6
CONTINUOUS
 70
0
 71
3
 72
18
 73
14
 74
0
 42
0.0000001
 43
0.0000001
 44
0.0000000001
 40
0.0
 40
0.0
 40
0.0
 40
0.0
 40
0.1602162913
 40
0.3165528834
 40
0.4647944788
 40
0.6013541453
 40
0.7234323915
 40
0.7785762133
 40
0.8296971348
 40
0.8769482586
 40
0.9206805352
 40
0.961445819
 40
1.0
 40
1.0
 40
1.0
 40
1.0
 10
11.4991907854
 20
6.1516631563
 30
0.0
 10
11.4991073851
 20
6.1491755196
 30
0.0
 10
11.4987304787
 20
6.1442648385
 30
0.0
 10
11.4975472662
 20
6.1371321939
 30
0.0
 10
11.4957876976
 20
6.1304962069
 30
0.0
 10
11.4935142272
 20
6.1245840695
 30
0.0
 10
11.4911779367
 20
6.1202818479
 30
0.0
 10
11.4890898895
 20
6.1174082545
 30
0.0
 10
11.487500999
 20
6.1156235361
 30
0.0
 10
11.4858485314
 20
6.114151073
 30
0.0
 10
11.484143996
 20
6.1130044811
 30
0.0
 10
11.4824015546
 20
6.1121975675
 30
0.0
 10
11.4812002578
 20
6.1118860655
 30
0.0
 10
11.4806082848
 20
6.1117948644
 30
0.0
  0
SPLINE
  5
3B0
100
AcDbEntity
  8
0
100
AcDbSpline
 62
9
  6
CONTINUOUS
 70
0
 71
3
 72
16
 73
12
 74
0
 42
0.0000001
 43
0.0000001
 44
0.0000000001
 40
0.0
 40
0.0
 40
0.0
 40
0.0
 40
0.1429662965
 40
0.2140060563
 40
0.2843368502
 40
0.4219280443
 40
0.5541447247
 40
0.6794084325
 40
0.7962106408
 40
0.9033580402
 40
1.0
 40
1.0
 40
1.0
 40
1.0
 10
12.4445335722
 20
6.1162279324
 30
0.0
 10
12.4444862881
 20
6.1145124661
 30
0.0
 10
12.4443323456
 20
6.1119462685
 30
0.0
 10
12.4439919871
 20
6.1085500092
 30
0.0
 10
12.4435781524
 20
6.1052268761
 30
0.0
 10
12.4429183158
 20
6.1011950984
 30
0.0
 10
12.441846067
 20
6.0965717481
 30
0.0
 10
12.4405242773
 20
6.0922737396
 30
0.0
 10
12.4389880617
 20
6.0883683743
 30
0.0
 10
12.4372681939
 20
6.0849200302
 30
0.0
 10
12.435951583
 20
6.0828504347
 30
0.0
 10
12.4352640499
 20
6.0819160742
 30
0.0
  0
LINE
  5
3B1
100
AcDbEntity
  8
0
100
AcDbLine
 62
9
  6
CONTINUOUS
 10
12.4352640499
 20
6.0819160742
 11
12.4338191481
 21
6.0801465154
  0
LINE
  5
3B2
100
AcDbEntity
  8
0
100
AcDbLine
 62
9
  6
CONTINUOUS
 10
12.4338191481
 20
6.0801465154
 11
12.4319775443
 21
6.0784224085
  0
SPLINE
  5
3B3
100
AcDbEntity
  8
0
100
AcDbSpline
 62
9
  6
CONTINUOUS
 70
0
 71
3
 72
9
 73
5
 74
0
 42
0.0000001
 43
0.0000001
 44
0.0000000001
 40
0.0
 40
0.0
 40
0.0
 40
0.0
 40
0.2684157154
 40
1.0
 40
1.0
 40
1.0
 40
1.0
 10
12.4319775443
 20
6.0784224085
 30
0.0
 10
12.4316971137
 20
6.0782025947
 30
0.0
 10
12.4306195334
 20
6.0774279951
 30
0.0
 10
12.4294057311
 20
6.0768308358
 30
0.0
 10
12.4284746106
 20
6.0765548682
 30
0.0
  0
SPLINE
  5
3B4
100
AcDbEntity
  8
0
100
AcDbSpline
 62
9
  6
CONTINUOUS
 70
0
 71
3
 72
13
 73
9
 74
0
 42
0.0000001
 43
0.0000001
 44
0.0000000001
 40
0.0
 40
0.0
 40
0.0
 40
0.0
 40
0.2500021548
 40
0.375003151
 40
0.5000037809
 40
0.6250038904
 40
0.7500033682
 40
1.0
 40
1.0
 40
1.0
 40
1.0
 10
11.5030051909
 20
6.1514463446
 30
0.0
 10
11.5814634829
 20
6.1484293528
 30
0.0
 10
11.6991489869
 20
6.143854402
 30
0.0
 10
11.85606441
 20
6.1377945599
 30
0.0
 10
11.9737526172
 20
6.1333012932
 30
0.0
 10
12.0914430366
 20
6.1288788566
 30
0.0
 10
12.2483669555
 20
6.1231071866
 30
0.0
 10
12.3660654106
 20
6.1189379213
 30
0.0
 10
12.4445335722
 20
6.1162395776
 30
0.0
  0
SPLINE
  5
3B5
100
AcDbEntity
  8
0
100
AcDbSpline
 62
9
  6
CONTINUOUS
 70
0
 71
3
 72
19
 73
15
 74
0
 42
0.0000001
 43
0.0000001
 44
0.0000000001
 40
0.0
 40
0.0
 40
0.0
 40
0.0
 40
0.1630552858
 40
0.321912768
 40
0.4720978745
 40
0.6097662152
 40
0.6729408976
 40
0.7319351574
 40
0.7865891051
 40
0.836853505
 40
0.8828608356
 40
0.9249579197
 40
0.9637251551
 40
1.0
 40
1.0
 40
1.0
 40
1.0
 10
11.5030051904
 20
6.1514463446
 30
0.0
 10
11.5029270324
 20
6.1489624528
 30
0.0
 10
11.5025788869
 20
6.1440624684
 30
0.0
 10
11.5014916266
 20
6.1369415856
 30
0.0
 10
11.4998782148
 20
6.1303178231
 30
0.0
 10
11.4980951655
 20
6.1252602595
 30
0.0
 10
11.4964278188
 20
6.1216651976
 30
0.0
 10
11.4951214305
 20
6.1193050491
 30
0.0
 10
11.4937354283
 20
6.1172227282
 30
0.0
 10
11.4922802148
 20
6.115435869
 30
0.0
 10
11.490766696
 20
6.1139595725
 30
0.0
 10
11.4892048281
 20
6.1128070277
 30
0.0
 10
11.4876065542
 20
6.1119920423
 30
0.0
 10
11.4864984289
 20
6.1116731431
 30
0.0
 10
11.4859535934
 20
6.1115792667
 30
0.0
  0
SPLINE
  5
3B6
100
AcDbEntity
  8
0
100
AcDbSpline
 62
9
  6
CONTINUOUS
 70
0
 71
3
 72
12
 73
8
 74
0
 42
0.0000001
 43
0.0000001
 44
0.0000000001
 40
0.0
 40
0.0
 40
0.0
 40
0.0
 40
0.2501340058
 40
0.3751977776
 40
0.5002404001
 40
0.7502199113
 40
1.0
 40
1.0
 40
1.0
 40
1.0
 10
11.4859535934
 20
6.1115792667
 30
0.0
 10
11.5645361657
 20
6.1085794674
 30
0.0
 10
11.6824074107
 20
6.1040380579
 30
0.0
 10
11.8395636269
 20
6.0980320684
 30
0.0
 10
11.9966738113
 20
6.0920937952
 30
0.0
 10
12.1929716357
 20
6.0848328494
 30
0.0
 10
12.3499928112
 20
6.0792647508
 30
0.0
 10
12.4284745801
 20
6.076554848
 30
0.0
  0
SPLINE
  5
3B7
100
AcDbEntity
  8
0
100
AcDbSpline
 62
9
  6
CONTINUOUS
 70
0
 71
3
 72
11
 73
7
 74
0
 42
0.0000001
 43
0.0000001
 44
0.0000000001
 40
0.0
 40
0.0
 40
0.0
 40
0.0
 40
0.2519536873
 40
0.5020264174
 40
0.7510694747
 40
1.0
 40
1.0
 40
1.0
 40
1.0
 10
12.4284749024
 20
6.0765551681
 30
0.0
 10
12.4172146004
 20
6.0737974812
 30
0.0
 10
12.3945830881
 20
6.0690646462
 30
0.0
 10
12.3603199759
 20
6.064350747
 30
0.0
 10
12.3259494941
 20
6.0620568147
 30
0.0
 10
12.3030143322
 20
6.0621423459
 30
0.0
 10
12.2915689624
 20
6.0625859857
 30
0.0
  0
SPLINE
  5
3B8
100
AcDbEntity
  8
0
100
AcDbSpline
 62
9
  6
CONTINUOUS
 70
0
 71
3
 72
12
 73
8
 74
0
 42
0.0000001
 43
0.0000001
 44
0.0000000001
 40
0.0
 40
0.0
 40
0.0
 40
0.0
 40
0.249060635
 40
0.3731112215
 40
0.4979857613
 40
0.7487577511
 40
1.0
 40
1.0
 40
1.0
 40
1.0
 10
10.6486605855
 20
6.0832712325
 30
0.0
 10
10.6485064807
 20
6.0853635153
 30
0.0
 10
10.6481756045
 20
6.0884914286
 30
0.0
 10
10.6475590955
 20
6.0926409246
 30
0.0
 10
10.6468317461
 20
6.096787253
 30
0.0
 10
10.6457019833
 20
6.1019486164
 30
0.0
 10
10.6445526561
 20
6.1060212603
 30
0.0
 10
10.6439159391
 20
6.1080395347
 30
0.0
  0
SPLINE
  5
3B9
100
AcDbEntity
  8
0
100
AcDbSpline
 62
9
  6
CONTINUOUS
 70
0
 71
3
 72
13
 73
9
 74
0
 42
0.0000001
 43
0.0000001
 44
0.0000000001
 40
0.0
 40
0.0
 40
0.0
 40
0.0
 40
0.1231564744
 40
0.2442421878
 40
0.3663262181
 40
0.4905042605
 40
0.742944011
 40
1.0
 40
1.0
 40
1.0
 40
1.0
 10
10.6486607909
 20
6.0832685239
 30
0.0
 10
10.6485456256
 20
6.0837110778
 30
0.0
 10
10.6482998669
 20
6.0845843189
 30
0.0
 10
10.6478851763
 20
6.085879971
 30
0.0
 10
10.647436241
 20
6.0871681056
 30
0.0
 10
10.6467883504
 20
6.0889029369
 30
0.0
 10
10.6458799526
 20
6.0910747313
 30
0.0
 10
10.6450496163
 20
6.0927759986
 30
0.0
 10
10.6446062394
 20
6.0936212453
 30
0.0
  0
SPLINE
  5
3BA
100
AcDbEntity
  8
0
100
AcDbSpline
 62
9
  6
CONTINUOUS
 70
0
 71
3
 72
17
 73
13
 74
0
 42
0.0000001
 43
0.0000001
 44
0.0000000001
 40
0.0
 40
0.0
 40
0.0
 40
0.0
 40
0.1196651849
 40
0.2397294917
 40
0.3602525722
 40
0.4816002007
 40
0.6044858099
 40
0.7302721379
 40
0.7949974309
 40
0.8613329401
 40
0.9296202963
 40
1.0
 40
1.0
 40
1.0
 40
1.0
 10
10.6439159391
 20
6.1080395347
 30
0.0
 10
10.6430729207
 20
6.110713427
 30
0.0
 10
10.6411620492
 20
6.1160036878
 30
0.0
 10
10.6375730803
 20
6.1236573856
 30
0.0
 10
10.6331732339
 20
6.1309279267
 30
0.0
 10
10.6278531076
 20
6.1376505156
 30
0.0
 10
10.6214754778
 20
6.1435801059
 30
0.0
 10
10.6152080428
 20
6.1475171227
 30
0.0
 10
10.6096354503
 20
6.1498209908
 30
0.0
 10
10.6051215836
 20
6.1510701273
 30
0.0
 10
10.6003521422
 20
6.1517401662
 30
0.0
 10
10.5970918644
 20
6.1517616397
 30
0.0
 10
10.5954458794
 20
6.1516631847
 30
0.0
  0
SPLINE
  5
3BB
100
AcDbEntity
  8
0
100
AcDbSpline
 62
9
  6
CONTINUOUS
 70
0
 71
3
 72
9
 73
5
 74
0
 42
0.0000001
 43
0.0000001
 44
0.0000000001
 40
0.0
 40
0.0
 40
0.0
 40
0.0
 40
0.2425051403
 40
1.0
 40
1.0
 40
1.0
 40
1.0
 10
10.6446072282
 20
6.0936196132
 30
0.0
 10
10.6442781171
 20
6.0942479174
 30
0.0
 10
10.6428642423
 20
6.09680805
 30
0.0
 10
10.6411965885
 20
6.0992332996
 30
0.0
 10
10.639778872
 20
6.1009358409
 30
0.0
  0
SPLINE
  5
3BC
100
AcDbEntity
  8
0
100
AcDbSpline
 62
9
  6
CONTINUOUS
 70
0
 71
3
 72
9
 73
5
 74
0
 42
0.0000001
 43
0.0000001
 44
0.0000000001
 40
0.0
 40
0.0
 40
0.0
 40
0.0
 40
0.4864634824
 40
1.0
 40
1.0
 40
1.0
 40
1.0
 10
10.6395244227
 20
6.1012380016
 30
0.0
 10
10.6388298243
 20
6.1020536304
 30
0.0
 10
10.6373263565
 20
6.1036676617
 30
0.0
 10
10.6356635488
 20
6.1051194885
 30
0.0
 10
10.6347710886
 20
6.1058141352
 30
0.0
  0
SPLINE
  5
3BD
100
AcDbEntity
  8
0
100
AcDbSpline
 62
9
  6
CONTINUOUS
 70
0
 71
3
 72
11
 73
7
 74
0
 42
0.0000001
 43
0.0000001
 44
0.0000000001
 40
0.0
 40
0.0
 40
0.0
 40
0.0
 40
0.198105497
 40
0.4210222076
 40
0.6821938954
 40
1.0
 40
1.0
 40
1.0
 40
1.0
 10
10.6347710886
 20
6.1058141352
 30
0.0
 10
10.6336211615
 20
6.1067091815
 30
0.0
 10
10.631032875
 20
6.1084344439
 30
0.0
 10
10.6264321121
 20
6.1105014533
 30
0.0
 10
10.620656686
 20
6.1118715894
 30
0.0
 10
10.6163595081
 20
6.1119718592
 30
0.0
 10
10.6140285206
 20
6.1117950486
 30
0.0
  0
SPLINE
  5
3BE
100
AcDbEntity
  8
0
100
AcDbSpline
 62
9
  6
CONTINUOUS
 70
0
 71
3
 72
18
 73
14
 74
0
 42
0.0000001
 43
0.0000001
 44
0.0000000001
 40
0.0
 40
0.0
 40
0.0
 40
0.0
 40
0.0385541643
 40
0.0793194318
 40
0.1230516945
 40
0.1703028078
 40
0.2214237225
 40
0.2765675416
 40
0.3986457928
 40
0.5352054749
 40
0.6834470908
 40
0.8397837007
 40
1.0
 40
1.0
 40
1.0
 40
1.0
 10
10.6140283837
 20
6.1117948632
 30
0.0
 10
10.6134364106
 20
6.111886064
 30
0.0
 10
10.6122351133
 20
6.1121975656
 30
0.0
 10
10.6104926712
 20
6.113004479
 30
0.0
 10
10.6087881351
 20
6.1141510712
 30
0.0
 10
10.6071356669
 20
6.1156235351
 30
0.0
 10
10.6055467758
 20
6.1174082546
 30
0.0
 10
10.6034587279
 20
6.1202818503
 30
0.0
 10
10.6011224369
 20
6.1245840756
 30
0.0
 10
10.5988489665
 20
6.1304962182
 30
0.0
 10
10.5970893986
 20
6.1371322109
 30
0.0
 10
10.5959061874
 20
6.1442648613
 30
0.0
 10
10.5955292826
 20
6.1491755462
 30
0.0
 10
10.5954458833
 20
6.1516631847
 30
0.0
  0
SPLINE
  5
3BF
100
AcDbEntity
  8
0
100
AcDbSpline
 62
9
  6
CONTINUOUS
 70
0
 71
3
 72
9
 73
5
 74
0
 42
0.0000001
 43
0.0000001
 44
0.0000000001
 40
0.0
 40
0.0
 40
0.0
 40
0.0
 40
0.2324478595
 40
1.0
 40
1.0
 40
1.0
 40
1.0
 10
9.666162066
 20
6.0765548682
 30
0.0
 10
9.665864341
 20
6.0766431528
 30
0.0
 10
9.6646048019
 20
6.0770939367
 30
0.0
 10
9.6634453999
 20
6.077803938
 30
0.0
 10
9.662639505
 20
6.0784379743
 30
0.0
  0
LINE
  5
3C0
100
AcDbEntity
  8
0
100
AcDbLine
 62
9
  6
CONTINUOUS
 10
9.662639505
 20
6.0784379743
 11
9.6608254304
 21
6.0801376857
  0
LINE
  5
3C1
100
AcDbEntity
  8
0
100
AcDbLine
 62
9
  6
CONTINUOUS
 10
9.6608254304
 20
6.0801376857
 11
9.6593353192
 21
6.0819667699
  0
SPLINE
  5
3C2
100
AcDbEntity
  8
0
100
AcDbSpline
 62
9
  6
CONTINUOUS
 70
0
 71
3
 72
15
 73
11
 74
0
 42
0.0000001
 43
0.0000001
 44
0.0000000001
 40
0.0
 40
0.0
 40
0.0
 40
0.0
 40
0.096774897
 40
0.204017889
 40
0.3208710632
 40
0.4461387188
 40
0.5783374853
 40
0.715877059
 40
0.857127103
 40
1.0
 40
1.0
 40
1.0
 40
1.0
 10
9.6593353192
 20
6.0819667699
 30
0.0
 10
9.6586504533
 20
6.0829025275
 30
0.0
 10
9.6573390355
 20
6.084973444
 30
0.0
 10
9.6556255444
 20
6.088421048
 30
0.0
 10
9.65409517
 20
6.0923226989
 30
0.0
 10
9.6527803889
 20
6.0966150011
 30
0.0
 10
9.6517116366
 20
6.1012296756
 30
0.0
 10
9.6509138918
 20
6.1060922652
 30
0.0
 10
9.6503632149
 20
6.111116727
 30
0.0
 10
9.6501605229
 20
6.1145169215
 30
0.0
 10
9.6501031044
 20
6.1162279324
 30
0.0
  0
SPLINE
  5
3C3
100
AcDbEntity
  8
0
100
AcDbSpline
 62
9
  6
CONTINUOUS
 70
0
 71
3
 72
12
 73
8
 74
0
 42
0.0000001
 43
0.0000001
 44
0.0000000001
 40
0.0
 40
0.0
 40
0.0
 40
0.0
 40
0.2501340058
 40
0.3751977777
 40
0.5002404004
 40
0.7502199116
 40
1.0
 40
1.0
 40
1.0
 40
1.0
 10
10.6086830832
 20
6.1115792647
 30
0.0
 10
10.5301005113
 20
6.1085794543
 30
0.0
 10
10.4122292659
 20
6.1040380575
 30
0.0
 10
10.2550730493
 20
6.0980320793
 30
0.0
 10
10.0979628651
 20
6.0920938038
 30
0.0
 10
9.9016650412
 20
6.0848328483
 30
0.0
 10
9.744643866
 20
6.0792647488
 30
0.0
 10
9.6661620972
 20
6.0765548469
 30
0.0
  0
SPLINE
  5
3C4
100
AcDbEntity
  8
0
100
AcDbSpline
 62
9
  6
CONTINUOUS
 70
0
 71
3
 72
19
 73
15
 74
0
 42
0.0000001
 43
0.0000001
 44
0.0000000001
 40
0.0
 40
0.0
 40
0.0
 40
0.0
 40
0.0362748448
 40
0.0750420799
 40
0.117139164
 40
0.1631464946
 40
0.2134108946
 40
0.2680648426
 40
0.3270591026
 40
0.3902337852
 40
0.5279021265
 40
0.6780872332
 40
0.8369447153
 40
1.0
 40
1.0
 40
1.0
 40
1.0
 10
10.6086830832
 20
6.1115792647
 30
0.0
 10
10.6081382476
 20
6.1116731411
 30
0.0
 10
10.6070301223
 20
6.1119920404
 30
0.0
 10
10.6054318484
 20
6.1128070257
 30
0.0
 10
10.6038699804
 20
6.1139595706
 30
0.0
 10
10.6023564616
 20
6.1154358673
 30
0.0
 10
10.600901248
 20
6.1172227266
 30
0.0
 10
10.5995152458
 20
6.1193050476
 30
0.0
 10
10.5982088575
 20
6.1216651962
 30
0.0
 10
10.5965415107
 20
6.1252602583
 30
0.0
 10
10.5947584615
 20
6.1303178222
 30
0.0
 10
10.5931450497
 20
6.136941585
 30
0.0
 10
10.5920577895
 20
6.1440624682
 30
0.0
 10
10.591709644
 20
6.1489624527
 30
0.0
 10
10.5916314861
 20
6.1514463446
 30
0.0
  0
SPLINE
  5
3C5
100
AcDbEntity
  8
0
100
AcDbSpline
 62
9
  6
CONTINUOUS
 70
0
 71
3
 72
13
 73
9
 74
0
 42
0.0000001
 43
0.0000001
 44
0.0000000001
 40
0.0
 40
0.0
 40
0.0
 40
0.0
 40
0.2500021553
 40
0.3750031513
 40
0.5000037813
 40
0.6250038911
 40
0.7500033689
 40
1.0
 40
1.0
 40
1.0
 40
1.0
 10
10.5916314857
 20
6.1514463446
 30
0.0
 10
10.5131731947
 20
6.1484293338
 30
0.0
 10
10.3954876905
 20
6.1438544026
 30
0.0
 10
10.238572268
 20
6.1377945651
 30
0.0
 10
10.1208840622
 20
6.1333012782
 30
0.0
 10
10.0031936436
 20
6.1288788363
 30
0.0
 10
9.8462697231
 20
6.123107238
 30
0.0
 10
9.7285712653
 20
6.1189380743
 30
0.0
 10
9.6501031044
 20
6.116239731
 30
0.0
  0
SPLINE
  5
3C6
100
AcDbEntity
  8
0
100
AcDbSpline
 62
9
  6
CONTINUOUS
 70
0
 71
3
 72
11
 73
7
 74
0
 42
0.0000001
 43
0.0000001
 44
0.0000000001
 40
0.0
 40
0.0
 40
0.0
 40
0.0
 40
0.244667149
 40
0.4921391756
 40
0.7440213857
 40
1.0
 40
1.0
 40
1.0
 40
1.0
 10
10.6486608389
 20
6.4749924082
 30
0.0
 10
10.6484284003
 20
6.4740828095
 30
0.0
 10
10.6479080091
 20
6.4722664468
 30
0.0
 10
10.6469913335
 20
6.4695616799
 30
0.0
 10
10.6459304473
 20
6.466863215
 30
0.0
 10
10.6451211107
 20
6.4650891802
 30
0.0
 10
10.6446884527
 20
6.4642073718
 30
0.0
  0
SPLINE
  5
3C7
100
AcDbEntity
  8
0
100
AcDbSpline
 62
9
  6
CONTINUOUS
 70
0
 71
3
 72
11
 73
7
 74
0
 42
0.0000001
 43
0.0000001
 44
0.0000000001
 40
0.0
 40
0.0
 40
0.0
 40
0.0
 40
0.2489435624
 40
0.4983902295
 40
0.7489417177
 40
1.0
 40
1.0
 40
1.0
 40
1.0
 10
10.6486605855
 20
6.4749890164
 30
0.0
 10
10.6485043261
 20
6.4728795418
 30
0.0
 10
10.6480734755
 20
6.4686642705
 30
0.0
 10
10.6470918389
 20
6.462373881
 30
0.0
 10
10.6457705245
 20
6.4561273223
 30
0.0
 10
10.6446516841
 20
6.4520116826
 30
0.0
 10
10.6440312311
 20
6.4499706834
 30
0.0
  0
SPLINE
  5
3C8
100
AcDbEntity
  8
0
100
AcDbSpline
 62
9
  6
CONTINUOUS
 70
0
 71
3
 72
18
 73
14
 74
0
 42
0.0000001
 43
0.0000001
 44
0.0000000001
 40
0.0
 40
0.0
 40
0.0
 40
0.0
 40
0.2411188815
 40
0.3622523479
 40
0.4230434308
 40
0.4840631304
 40
0.6070453264
 40
0.6694342689
 40
0.7326409097
 40
0.7969963876
 40
0.8627901224
 40
0.9304262233
 40
1.0
 40
1.0
 40
1.0
 40
1.0
 10
10.6440312311
 20
6.4499706834
 30
0.0
 10
10.6423992561
 20
6.4445997326
 30
0.0
 10
10.6393023422
 20
6.4366922529
 30
0.0
 10
10.6343654815
 20
6.4281490556
 30
0.0
 10
10.6311011957
 20
6.4235250912
 30
0.0
 10
10.6275145258
 20
6.4190929562
 30
0.0
 10
10.623412801
 20
6.4150396537
 30
0.0
 10
10.6187849075
 20
6.4115526642
 30
0.0
 10
10.6149971157
 20
6.4092542421
 30
0.0
 10
10.6109074828
 20
6.4073501895
 30
0.0
 10
10.6065196605
 20
6.4059145112
 30
0.0
 10
10.6018639645
 20
6.4050308177
 30
0.0
 10
10.5986633489
 20
6.4048514822
 30
0.0
 10
10.5970437225
 20
6.404869492
 30
0.0
  0
SPLINE
  5
3C9
100
AcDbEntity
  8
0
100
AcDbSpline
 62
9
  6
CONTINUOUS
 70
0
 71
3
 72
18
 73
14
 74
0
 42
0.0000001
 43
0.0000001
 44
0.0000000001
 40
0.0
 40
0.0
 40
0.0
 40
0.0
 40
0.160078547
 40
0.3159868332
 40
0.463623663
 40
0.5995489559
 40
0.7211536544
 40
0.7762007369
 40
0.8273641607
 40
0.8748377636
 40
0.91901364
 40
0.9604777897
 40
1.0
 40
1.0
 40
1.0
 40
1.0
 10
10.5970437304
 20
6.404869492
 30
0.0
 10
10.5970589496
 20
6.4073584369
 30
0.0
 10
10.5973083414
 20
6.4122731395
 30
0.0
 10
10.5983301794
 20
6.4194192502
 30
0.0
 10
10.599964064
 20
6.4260676319
 30
0.0
 10
10.6021519877
 20
6.4319905841
 30
0.0
 10
10.6044514513
 20
6.4362980972
 30
0.0
 10
10.6065320577
 20
6.4391711156
 30
0.0
 10
10.6081281596
 20
6.4409560594
 30
0.0
 10
10.6097992302
 20
6.4424274955
 30
0.0
 10
10.6115334699
 20
6.4435715023
 30
0.0
 10
10.6133160325
 20
6.4443740138
 30
0.0
 10
10.6145463965
 20
6.4446803239
 30
0.0
 10
10.6151544045
 20
6.4447695053
 30
0.0
  0
SPLINE
  5
3CA
100
AcDbEntity
  8
0
100
AcDbSpline
 62
9
  6
CONTINUOUS
 70
0
 71
3
 72
11
 73
7
 74
0
 42
0.0000001
 43
0.0000001
 44
0.0000000001
 40
0.0
 40
0.0
 40
0.0
 40
0.0
 40
0.293046483
 40
0.5571054561
 40
0.7925600417
 40
1.0
 40
1.0
 40
1.0
 40
1.0
 10
10.6264770427
 20
6.4477434379
 30
0.0
 10
10.6253480765
 20
6.4475491644
 30
0.0
 10
10.6232078019
 20
6.4471432486
 30
0.0
 10
10.620190079
 20
6.4464364891
 30
0.0
 10
10.6175343284
 20
6.4456672567
 30
0.0
 10
10.6159041391
 20
6.4450784346
 30
0.0
 10
10.6151544678
 20
6.4447692892
 30
0.0
  0
SPLINE
  5
3CB
100
AcDbEntity
  8
0
100
AcDbSpline
 62
9
  6
CONTINUOUS
 70
0
 71
3
 72
16
 73
12
 74
0
 42
0.0000001
 43
0.0000001
 44
0.0000000001
 40
0.0
 40
0.0
 40
0.0
 40
0.0
 40
0.1438204498
 40
0.2152002267
 40
0.2858067191
 40
0.4237508439
 40
0.5560604006
 40
0.6811621036
 40
0.7975611023
 40
0.904103776
 40
1.0
 40
1.0
 40
1.0
 40
1.0
 10
9.6501031044
 20
6.4067482676
 30
0.0
 10
9.6500979154
 20
6.4084665668
 30
0.0
 10
9.6501767404
 20
6.411038572
 30
0.0
 10
9.6504208731
 20
6.4144447209
 30
0.0
 10
9.6507407807
 20
6.4177741258
 30
0.0
 10
9.651286674
 20
6.4218123896
 30
0.0
 10
9.6522287561
 20
6.4264449358
 30
0.0
 10
9.6534297157
 20
6.4307507139
 30
0.0
 10
9.6548564071
 20
6.434661892
 30
0.0
 10
9.6564810331
 20
6.4381134064
 30
0.0
 10
9.6577431662
 20
6.4401849214
 30
0.0
 10
9.6584065779
 20
6.4411190403
 30
0.0
  0
LINE
  5
3CC
100
AcDbEntity
  8
0
100
AcDbLine
 62
9
  6
CONTINUOUS
 10
9.6584065779
 20
6.4411190403
 11
9.6602837368
 21
6.4434007596
  0
LINE
  5
3CD
100
AcDbEntity
  8
0
100
AcDbLine
 62
9
  6
CONTINUOUS
 10
9.6602837368
 20
6.4434007596
 11
9.6616005246
 21
6.4446020005
  0
SPLINE
  5
3CE
100
AcDbEntity
  8
0
100
AcDbSpline
 62
9
  6
CONTINUOUS
 70
0
 71
3
 72
9
 73
5
 74
0
 42
0.0000001
 43
0.0000001
 44
0.0000000001
 40
0.0
 40
0.0
 40
0.0
 40
0.0
 40
0.2679309789
 40
1.0
 40
1.0
 40
1.0
 40
1.0
 10
9.6616005246
 20
6.4446020005
 30
0.0
 10
9.6618752953
 20
6.4448208759
 30
0.0
 10
9.6629344892
 20
6.445593
 30
0.0
 10
9.6641343021
 20
6.4461845315
 30
0.0
 10
9.6650556736
 20
6.4464535217
 30
0.0
  0
SPLINE
  5
3CF
100
AcDbEntity
  8
0
100
AcDbSpline
 62
9
  6
CONTINUOUS
 70
0
 71
3
 72
13
 73
9
 74
0
 42
0.0000001
 43
0.0000001
 44
0.0000000001
 40
0.0
 40
0.0
 40
0.0
 40
0.0
 40
0.2500000941
 40
0.3750001398
 40
0.5000001595
 40
0.6250001477
 40
0.7500001325
 40
1.0
 40
1.0
 40
1.0
 40
1.0
 10
10.5916314857
 20
6.4049109313
 30
0.0
 10
10.513170898
 20
6.4051473401
 30
0.0
 10
10.3954801708
 20
6.4055509434
 30
0.0
 10
10.238559078
 20
6.4060481891
 30
0.0
 10
10.1208681223
 20
6.4063691368
 30
0.0
 10
10.0031770064
 20
6.4066188385
 30
0.0
 10
9.8462553547
 20
6.4068262927
 30
0.0
 10
9.7285639313
 20
6.4068215988
 30
0.0
 10
9.6501031044
 20
6.4067368272
 30
0.0
  0
SPLINE
  5
3D0
100
AcDbEntity
  8
0
100
AcDbSpline
 62
9
  6
CONTINUOUS
 70
0
 71
3
 72
19
 73
15
 74
0
 42
0.0000001
 43
0.0000001
 44
0.0000000001
 40
0.0
 40
0.0
 40
0.0
 40
0.0
 40
0.1642167196
 40
0.3238159758
 40
0.4743044905
 40
0.6118531807
 40
0.6748275342
 40
0.733543487
 40
0.7878605024
 40
0.8377558396
 40
0.8833981699
 40
0.9251823148
 40
0.9637486931
 40
1.0
 40
1.0
 40
1.0
 40
1.0
 10
10.5916314857
 20
6.4049109313
 30
0.0
 10
10.5916376191
 20
6.4073976688
 30
0.0
 10
10.5918436507
 20
6.4123030268
 30
0.0
 10
10.5927266002
 20
6.4194393654
 30
0.0
 10
10.5941517503
 20
6.4260759713
 30
0.0
 10
10.5957937141
 20
6.4311451845
 30
0.0
 10
10.5973627096
 20
6.4347467771
 30
0.0
 10
10.5986043038
 20
6.4371083183
 30
0.0
 10
10.5999338004
 20
6.4391907238
 30
0.0
 10
10.6013413674
 20
6.4409763378
 30
0.0
 10
10.6028166317
 20
6.4424499841
 30
0.0
 10
10.6043501286
 20
6.4435982664
 30
0.0
 10
10.6059301616
 20
6.4444069194
 30
0.0
 10
10.6070293858
 20
6.4447189081
 30
0.0
 10
10.6075708251
 20
6.4448094408
 30
0.0
  0
SPLINE
  5
3D1
100
AcDbEntity
  8
0
100
AcDbSpline
 62
9
  6
CONTINUOUS
 70
0
 71
3
 72
12
 73
8
 74
0
 42
0.0000001
 43
0.0000001
 44
0.0000000001
 40
0.0
 40
0.0
 40
0.0
 40
0.0
 40
0.2501331235
 40
0.3751963555
 40
0.5002385961
 40
0.7502181806
 40
1.0
 40
1.0
 40
1.0
 40
1.0
 10
10.6075708251
 20
6.4448094408
 30
0.0
 10
10.5289862061
 20
6.4450284892
 30
0.0
 10
10.4111104463
 20
6.445399367
 30
0.0
 10
10.2539499098
 20
6.4458436124
 30
0.0
 10
10.0968374333
 20
6.4462202847
 30
0.0
 10
9.9005415588
 20
6.4465284213
 30
0.0
 10
9.7435302206
 20
6.4465285401
 30
0.0
 10
9.6650557022
 20
6.4464535401
 30
0.0
  0
LINE
  5
3D2
100
AcDbEntity
  8
0
100
AcDbLine
 62
9
  6
CONTINUOUS
 10
11.2788463561
 20
6.4067482676
 11
11.2836749995
 21
6.4464557374
  0
LINE
  5
3D3
100
AcDbEntity
  8
0
100
AcDbLine
 62
9
  6
CONTINUOUS
 10
10.8157903204
 20
6.4067482676
 11
10.810961678
 21
6.4464557376
  0
LINE
  5
3D4
100
AcDbEntity
  8
0
100
AcDbLine
 62
9
  6
CONTINUOUS
 10
11.2788463562
 20
6.1162279324
 11
11.2836653651
 21
6.0765194903
  0
LINE
  5
3D5
100
AcDbEntity
  8
0
100
AcDbLine
 62
9
  6
CONTINUOUS
 10
10.8157903204
 20
6.1162279324
 11
10.8109553981
 21
6.076521422
  0
SPLINE
  5
3D6
100
AcDbEntity
  8
0
100
AcDbSpline
 62
9
  6
CONTINUOUS
 70
0
 71
3
 72
12
 73
8
 74
0
 42
0.0000001
 43
0.0000001
 44
0.0000000001
 40
0.0
 40
0.0
 40
0.0
 40
0.0
 40
0.2634737179
 40
0.5201432222
 40
0.7674954244
 40
0.8861409012
 40
1.0
 40
1.0
 40
1.0
 40
1.0
 10
11.2750008607
 20
6.4749928548
 30
0.0
 10
11.269859347
 20
6.4730191751
 30
0.0
 10
11.2597275142
 20
6.4690747237
 30
0.0
 10
11.2448197633
 20
6.4631475299
 30
0.0
 10
11.2327493127
 20
6.4582785942
 30
0.0
 10
11.2234472619
 20
6.4545263995
 30
0.0
 10
11.2189356824
 20
6.4527193936
 30
0.0
 10
11.2167233633
 20
6.451841964
 30
0.0
  0
SPLINE
  5
3D7
100
AcDbEntity
  8
0
100
AcDbSpline
 62
9
  6
CONTINUOUS
 70
0
 71
3
 72
12
 73
8
 74
0
 42
0.0000001
 43
0.0000001
 44
0.0000000001
 40
0.0
 40
0.0
 40
0.0
 40
0.0
 40
0.2634819419
 40
0.5201544438
 40
0.76750623
 40
0.8861513009
 40
1.0
 40
1.0
 40
1.0
 40
1.0
 10
10.8196353986
 20
6.4749927821
 30
0.0
 10
10.8247784053
 20
6.4730181756
 30
0.0
 10
10.8349134555
 20
6.4690728902
 30
0.0
 10
10.849825529
 20
6.463143699
 30
0.0
 10
10.8618995428
 20
6.4582736601
 30
0.0
 10
10.8712042644
 20
6.4545211474
 30
0.0
 10
10.8757168285
 20
6.452713521
 30
0.0
 10
10.8779295015
 20
6.4518357522
 30
0.0
  0
SPLINE
  5
3D8
100
AcDbEntity
  8
0
100
AcDbSpline
 62
9
  6
CONTINUOUS
 70
0
 71
3
 72
11
 73
7
 74
0
 42
0.0000001
 43
0.0000001
 44
0.0000000001
 40
0.0
 40
0.0
 40
0.0
 40
0.0
 40
0.2821274457
 40
0.538949457
 40
0.7759092264
 40
1.0
 40
1.0
 40
1.0
 40
1.0
 10
11.4459760911
 20
6.4749924262
 30
0.0
 10
11.4461887979
 20
6.4752721446
 30
0.0
 10
11.4465670387
 20
6.4758291402
 30
0.0
 10
11.4469969759
 20
6.4766987069
 30
0.0
 10
11.4472580218
 20
6.4775585724
 30
0.0
 10
11.4473182368
 20
6.4781341654
 30
0.0
 10
11.4473183383
 20
6.4784132838
 30
0.0
  0
SPLINE
  5
3D9
100
AcDbEntity
  8
0
100
AcDbSpline
 62
9
  6
CONTINUOUS
 70
0
 71
3
 72
10
 73
6
 74
0
 42
0.0000001
 43
0.0000001
 44
0.0000000001
 40
0.0
 40
0.0
 40
0.0
 40
0.0
 40
0.2284957754
 40
0.4681895656
 40
1.0
 40
1.0
 40
1.0
 40
1.0
 10
11.4473183383
 20
6.0792251506
 30
0.0
 10
11.4473182412
 20
6.0795534759
 30
0.0
 10
11.4472585385
 20
6.0802274559
 30
0.0
 10
11.4469008195
 20
6.0816239464
 30
0.0
 10
11.4463881337
 20
6.0826248399
 30
0.0
 10
11.4459760911
 20
6.083268391
 30
0.0
  0
SPLINE
  5
3DA
100
AcDbEntity
  8
0
100
AcDbSpline
 62
9
  6
CONTINUOUS
 70
0
 71
3
 72
11
 73
7
 74
0
 42
0.0000001
 43
0.0000001
 44
0.0000000001
 40
0.0
 40
0.0
 40
0.0
 40
0.0
 40
0.2240872198
 40
0.4610464548
 40
0.7178682807
 40
1.0
 40
1.0
 40
1.0
 40
1.0
 10
10.6473183383
 20
6.4784132838
 30
0.0
 10
10.6473183938
 20
6.4781341801
 30
0.0
 10
10.6473786462
 20
6.4775586079
 30
0.0
 10
10.6476397178
 20
6.4766987972
 30
0.0
 10
10.6480696327
 20
6.4758292534
 30
0.0
 10
10.6484478763
 20
6.4752722822
 30
0.0
 10
10.6486605855
 20
6.474992575
 30
0.0
  0
SPLINE
  5
3DB
100
AcDbEntity
  8
0
100
AcDbSpline
 62
9
  6
CONTINUOUS
 70
0
 71
3
 72
10
 73
6
 74
0
 42
0.0000001
 43
0.0000001
 44
0.0000000001
 40
0.0
 40
0.0
 40
0.0
 40
0.0
 40
0.5318175386
 40
0.7715103445
 40
1.0
 40
1.0
 40
1.0
 40
1.0
 10
10.6486605855
 20
6.0832683632
 30
0.0
 10
10.6482485283
 20
6.0826248155
 30
0.0
 10
10.6477358743
 20
6.0816239036
 30
0.0
 10
10.6473781364
 20
6.0802274313
 30
0.0
 10
10.6473184271
 20
6.0795534649
 30
0.0
 10
10.6473183383
 20
6.0792251506
 30
0.0
  0
SPLINE
  5
3DC
100
AcDbEntity
  8
0
100
AcDbSpline
 62
9
  6
CONTINUOUS
 70
0
 71
3
 72
11
 73
7
 74
0
 42
0.0000001
 43
0.0000001
 44
0.0000000001
 40
0.0
 40
0.0
 40
0.0
 40
0.0
 40
0.2074334387
 40
0.4428870255
 40
0.7069488642
 40
1.0
 40
1.0
 40
1.0
 40
1.0
 10
11.4794822061
 20
6.4447693482
 30
0.0
 10
11.4787324926
 20
6.4450785246
 30
0.0
 10
11.4771021719
 20
6.4456673812
 30
0.0
 10
11.4744461697
 20
6.4464366168
 30
0.0
 10
11.4714281182
 20
6.4471433649
 30
0.0
 10
11.4692876041
 20
6.447549275
 30
0.0
 10
11.4681585101
 20
6.4477435491
 30
0.0
  0
SPLINE
  5
3DD
100
AcDbEntity
  8
0
100
AcDbSpline
 62
9
  6
CONTINUOUS
 70
0
 71
3
 72
11
 73
7
 74
0
 42
0.0000001
 43
0.0000001
 44
0.0000000001
 40
0.0
 40
0.0
 40
0.0
 40
0.0
 40
0.1997699112
 40
0.4323565725
 40
0.6988772757
 40
1.0
 40
1.0
 40
1.0
 40
1.0
 10
10.614028436
 20
6.1117950534
 30
0.0
 10
10.61501412
 20
6.1113213932
 30
0.0
 10
10.617214363
 20
6.1104349272
 30
0.0
 10
10.6208784323
 20
6.1093233556
 30
0.0
 10
10.6251498998
 20
6.1083391009
 30
0.0
 10
10.628212637
 20
6.1078061044
 30
0.0
 10
10.6298421181
 20
6.1075569993
 30
0.0
  0
SPLINE
  5
3DE
100
AcDbEntity
  8
0
100
AcDbSpline
 62
9
  6
CONTINUOUS
 70
0
 71
3
 72
13
 73
9
 74
0
 42
0.0000001
 43
0.0000001
 44
0.0000000001
 40
0.0
 40
0.0
 40
0.0
 40
0.0
 40
0.2381978887
 40
0.3675848412
 40
0.4999999951
 40
0.6324151278
 40
0.7618020698
 40
1.0
 40
1.0
 40
1.0
 40
1.0
 10
10.819634619
 20
6.474992751
 30
0.0
 10
10.855587002
 20
6.4796988972
 30
0.0
 10
10.9112925809
 20
6.4854143176
 30
0.0
 10
10.9873057993
 20
6.4895061274
 30
0.0
 10
11.0473183316
 20
6.4906019866
 30
0.0
 10
11.1073308545
 20
6.48950599
 30
0.0
 10
11.1833440945
 20
6.4854145301
 30
0.0
 10
11.239049662
 20
6.4796989131
 30
0.0
 10
11.2750020576
 20
6.4749928139
 30
0.0
  0
ENDSEC
  0
SECTION
  2
OBJECTS
  0
DICTIONARY
  5
C
100
AcDbDictionary
280
0
281
1
  3
ACAD_GROUP
350
D
  3
ACAD_MLINESTYLE
350
17
  3
ACAD_LAYOUT
350
1A
  3
ACAD_PLOTSETTINGS
350
19
  3
ACAD_PLOTSTYLENAME
350
E
  0
DICTIONARY
  5
D
102
{ACAD_REACTORS
330
C
102
}
100
AcDbDictionary
280
0
281
1
  0
ACDBDICTIONARYWDFLT
  5
E
102
{ACAD_REACTORS
330
C
102
}
100
AcDbDictionary
281
1
  3
Normal
350
F
100
AcDbDictionaryWithDefault
340
F
  0
DICTIONARY
  5
17
102
{ACAD_REACTORS
330
C
102
}
100
AcDbDictionary
280
0
281
1
  3
Standard
350
18
  0
DICTIONARY
  5
19
102
{ACAD_REACTORS
330
C
102
}
100
AcDbDictionary
281
1
  0
DICTIONARY
  5
1A
102
{ACAD_REACTORS
330
C
102
}
100
AcDbDictionary
281
1
  3
Model
350
3DF
  3
Layout1
350
3E0
  0
ACDBPLACEHOLDER
  5
F
102
{ACAD_REACTORS
330
E
102
}
  0
MLINESTYLE
  5
18
102
{ACAD_REACTORS
330
17
102
}
100
AcDbMlineStyle
  2
STANDARD
 70
0
  3

 62
256
 51
90.0
 52
90.0
 71
2
 49
0.5
 62
256
  6
BYLAYER
 49
-0.5
 62
256
  6
BYLAYER
  0
LAYOUT
  5
3DF
102
{ACAD_REACTORS
330
1A
102
}
100
AcDbPlotSettings
  1

  2
none_device
  4
ANSI_C_(22.00_x_17.00_Inches)
  6

 40
0.0
 41
0.0
 42
0.0
 43
0.0
 44
558.8
 45
431.8
 46
0.0
 47
0.0
 48
0.0
 49
0.0
140
0.0
141
0.0
142
1.0
143
1.0
 70
1024
 72
0
 73
0
 74
0
  7

 75
0
147
1.0
148
0.0
149
0.0
100
AcDbLayout
  1
Model
 70
0
 71
0
 10
0.0
 20
0.0
 11
22.0
 21
17.0
 12
0.0
 22
0.0
 32
0.0
 14
0.0
 24
0.0
 34
0.0
 15
0.0
 25
0.0
 35
0.0
146
0.0
 13
0.0
 23
0.0
 33
0.0
 16
1.0
 26
0.0
 36
0.0
 17
0.0
 27
1.0
 37
0.0
 76
0
330
205
345
0
346
0
  0
LAYOUT
  5
3E0
102
{ACAD_REACTORS
330
1A
102
}
100
AcDbPlotSettings
  1

  2
none_device
  4
ANSI_C_(22.00_x_17.00_Inches)
  6

 40
0.0
 41
0.0
 42
0.0
 43
0.0
 44
558.8
 45
431.8
 46
0.0
 47
0.0
 48
0.0
 49
0.0
140
0.0
141
0.0
142
1.0
143
1.0
 70
0
 72
0
 73
0
 74
0
  7

 75
0
147
1.0
148
0.0
149
0.0
100
AcDbLayout
  1
Layout1
 70
0
 71
1
 10
0.0
 20
0.0
 11
22.0
 21
17.0
 12
0.0
 22
0.0
 32
0.0
 14
0.0
 24
0.0
 34
0.0
 15
0.0
 25
0.0
 35
0.0
146
0.0
 13
0.0
 23
0.0
 33
0.0
 16
1.0
 26
0.0
 36
0.0
 17
0.0
 27
1.0
 37
0.0
 76
0
330
206
345
0
346
0
  0
ENDSEC
  0
EOF
