999
DXF file: E:\BT Custom\CADOUTPUT\_RIGHT.dxf
999
Pro/ENGINEER 2018400 by Parametric Technology Corporation
  0
SECTION
  2
HEADER
  9
$ACADVER
  1
AC1018
  9
$DWGCODEPAGE
  3
ANSI_1252
  9
$EXTMAX
 10
22.0
 20
17.0
 30
0.0
  9
$EXTMIN
 10
0.0
 20
0.0
 30
0.0
  9
$LIMMIN
 10
0.0
 20
0.0
  9
$LIMMAX
 10
22.0
 20
17.0
  9
$VIEWCTR
 10
11.0
 20
8.5
  9
$VIEWSIZE
 40
17.0
  9
$CLAYER
  8
0
  9
$LTSCALE
 40
1.21
  9
$CELTYPE
  6
BYLAYER
  9
$DIMSCALE
 40
1.0
  9
$DIMASZ
 40
0.1
  9
$DIMEXO
 40
0.0625
  9
$DIMDLI
 40
0.836
  9
$DIMEXE
 40
0.125
  9
$DIMCEN
 40
0.198
  9
$DIMLFAC
 40
1.0
  9
$DIMBLK
  1
_FILLED
  9
$DIMALT
 70
1
  9
$DIMALTD
 70
2
  9
$DIMALTTD
 70
2
  9
$DIMALTF
 40
25.4
  9
$DIMTXT
 40
0.08
  9
$DIMTOL
 70
1
  9
$DIMLIM
 70
0
  9
$DIMTFAC
 40
1.0
  9
$DIMTP
 40
0.001
  9
$DIMTM
 40
0.001
  9
$DIMGAP
 40
0.09
  9
$DIMDSEP
 70
46
  9
$AUNITS
 70
0
  9
$PDMODE
 70
3
  9
$PDSIZE
 40
0.06
  9
$HANDSEED
  5
280
  9
$TILEMODE
 70
1
  9
$MEASUREMENT
 70
0
  9
$INSUNITS
 70
1
  0
ENDSEC
  0
SECTION
  2
CLASSES
  0
CLASS
  1
ACDBDICTIONARYWDFLT
  2
AcDbDictionaryWithDefault
  3
AutoCAD 2000
 90
0
 91
1
280
0
281
0
  0
CLASS
  1
ACDBPLACEHOLDER
  2
AcDbPlaceHolder
  3
AutoCAD 2000
 90
0
 91
1
280
0
281
0
  0
CLASS
  1
LAYOUT
  2
AcDbLayout
  3
AutoCAD 2000
 90
0
 91
0
280
0
281
0
  0
ENDSEC
  0
SECTION
  2
TABLES
  0
TABLE
  2
VPORT
  5
8
100
AcDbSymbolTable
 70
2
  0
VPORT
  5
1F4
100
AcDbSymbolTableRecord
100
AcDbViewportTableRecord
  2
*ACTIVE
 70
0
 10
0.0
 20
0.0
 11
1.0
 21
1.0
 12
11.0
 22
8.5
 13
0.0
 23
0.0
 14
1.0
 24
1.0
 15
0.0
 25
0.0
 16
0.0
 26
0.0
 36
1.0
 17
0.0
 27
0.0
 37
0.0
 40
17.0
 41
1.2941176471
 42
50.0
 43
0.0
 44
0.0
 50
0.0
 51
0.0
 71
0
 72
100
 73
1
 74
1
 75
0
 76
0
 77
0
 78
0
  0
ENDTAB
  0
TABLE
  2
LTYPE
  5
5
100
AcDbSymbolTable
 70
6
  0
LTYPE
  5
14
100
AcDbSymbolTableRecord
100
AcDbLinetypeTableRecord
  2
BYBLOCK
 70
0
  3

 72
65
 73
0
 40
0.0
  0
LTYPE
  5
15
100
AcDbSymbolTableRecord
100
AcDbLinetypeTableRecord
  2
BYLAYER
 70
0
  3

 72
65
 73
0
 40
0.0
  0
LTYPE
  5
16
100
AcDbSymbolTableRecord
100
AcDbLinetypeTableRecord
  2
CONTINUOUS
 70
64
  3
Solid line
 72
65
 73
0
 40
0.0
  0
LTYPE
  5
1F5
100
AcDbSymbolTableRecord
100
AcDbLinetypeTableRecord
  2
CENTER
 70
64
  3
____ _ ____ _ ____ _ ____ _ ____ _ ____ _ ____
 72
65
 73
4
 40
0.6
 49
0.375
 74
0
 49
-0.075
 74
0
 49
0.075
 74
0
 49
-0.075
 74
0
  0
LTYPE
  5
1F6
100
AcDbSymbolTableRecord
100
AcDbLinetypeTableRecord
  2
HIDDEN
 70
64
  3
- - - - - - - - - - - - - - - - - - - -
 72
65
 73
2
 40
0.2
 49
0.1
 74
0
 49
-0.1
 74
0
  0
LTYPE
  5
1F7
100
AcDbSymbolTableRecord
100
AcDbLinetypeTableRecord
  2
PHANTOM
 70
64
  3
_____ _ _ _____ _ _ _____ _ _ _____
 72
65
 73
6
 40
0.8
 49
0.45
 74
0
 49
-0.05
 74
0
 49
0.1
 74
0
 49
-0.05
 74
0
 49
0.1
 74
0
 49
-0.05
 74
0
  0
LTYPE
  5
1F8
100
AcDbSymbolTableRecord
100
AcDbLinetypeTableRecord
  2
DOT
 70
64
  3
. . . . . . . . . . . . . . . . . . . .
 72
65
 73
2
 40
0.2
 49
0.1
 74
0
 49
-0.1
 74
0
  0
LTYPE
  5
1F9
100
AcDbSymbolTableRecord
100
AcDbLinetypeTableRecord
  2
DASHED
 70
64
  3
- - - - - - - - - - - - - - - - - - - -
 72
65
 73
2
 40
0.2
 49
0.1
 74
0
 49
-0.1
 74
0
  0
ENDTAB
  0
TABLE
  2
LAYER
  5
2
100
AcDbSymbolTable
 70
36
  0
LAYER
  5
10
100
AcDbSymbolTableRecord
100
AcDbLayerTableRecord
  2
0
 70
0
 62
7
  6
CONTINUOUS
370
-3
390
F
  0
LAYER
  5
1FA
100
AcDbSymbolTableRecord
100
AcDbLayerTableRecord
  2
DEFAULT_1
 70
0
 62
7
  6
CENTER
370
-3
390
F
  0
LAYER
  5
1FB
100
AcDbSymbolTableRecord
100
AcDbLayerTableRecord
  2
DEFAULT_2
 70
0
 62
8
  6
HIDDEN
370
-3
390
F
  0
LAYER
  5
1FC
100
AcDbSymbolTableRecord
100
AcDbLayerTableRecord
  2
DEFAULT_3
 70
0
 62
7
  6
PHANTOM
370
-3
390
F
  0
LAYER
  5
1FD
100
AcDbSymbolTableRecord
100
AcDbLayerTableRecord
  2
ALL_FEATURES
 70
0
 62
7
  6
CONTINUOUS
370
-3
390
F
  0
LAYER
  5
1FE
100
AcDbSymbolTableRecord
100
AcDbLayerTableRecord
  2
AXES_FEATURES
 70
0
 62
7
  6
CONTINUOUS
370
-3
390
F
  0
LAYER
  5
1FF
100
AcDbSymbolTableRecord
100
AcDbLayerTableRecord
  2
DEFAULT_COORDINATE_SYSTEM
 70
0
 62
7
  6
CONTINUOUS
370
-3
390
F
  0
LAYER
  5
200
100
AcDbSymbolTableRecord
100
AcDbLayerTableRecord
  2
DEFAULT_DATUM_AXES
 70
0
 62
7
  6
CONTINUOUS
370
-3
390
F
  0
LAYER
  5
201
100
AcDbSymbolTableRecord
100
AcDbLayerTableRecord
  2
DEFAULT_DATUM_PLANES
 70
0
 62
7
  6
CONTINUOUS
370
-3
390
F
  0
LAYER
  5
202
100
AcDbSymbolTableRecord
100
AcDbLayerTableRecord
  2
DIMENSIONS
 70
0
 62
7
  6
CONTINUOUS
370
-3
390
F
  0
ENDTAB
  0
TABLE
  2
STYLE
  5
3
100
AcDbSymbolTable
 70
1
  0
STYLE
  5
11
100
AcDbSymbolTableRecord
100
AcDbTextStyleTableRecord
  2
STANDARD
 70
0
 40
0.0
 41
0.8
 50
0.0
 71
0
 42
0.2
  3
txt
  4

  0
STYLE
  5
203
100
AcDbSymbolTableRecord
100
AcDbTextStyleTableRecord
  2
TEXTSTYLE_1
 70
0
 40
0.0
 41
0.8
 50
0.0
 71
0
 42
0.2
  3
gdt
  4

  0
ENDTAB
  0
TABLE
  2
VIEW
  5
6
100
AcDbSymbolTable
 70
0
  0
ENDTAB
  0
TABLE
  2
UCS
  5
7
100
AcDbSymbolTable
 70
0
  0
ENDTAB
  0
TABLE
  2
APPID
  5
9
100
AcDbSymbolTable
 70
1
  0
APPID
  5
204
100
AcDbSymbolTableRecord
100
AcDbRegAppTableRecord
  2
ACAD
 70
0
  0
ENDTAB
  0
TABLE
  2
BLOCK_RECORD
  5
1
100
AcDbSymbolTable
 70
0
  0
BLOCK_RECORD
  5
205
100
AcDbSymbolTableRecord
100
AcDbBlockTableRecord
  2
*Model_Space
  0
BLOCK_RECORD
  5
206
100
AcDbSymbolTableRecord
100
AcDbBlockTableRecord
  2
*Paper_Space
  0
BLOCK_RECORD
  5
207
100
AcDbSymbolTableRecord
100
AcDbBlockTableRecord
  2
_FILLED
  0
ENDTAB
  0
TABLE
  2
DIMSTYLE
  5
A
100
AcDbSymbolTable
 70
1
100
AcDbDimStyleTable
 71
0
  0
DIMSTYLE
105
208
100
AcDbSymbolTableRecord
100
AcDbDimStyleTableRecord
  2
STANDARD
 70
0
  3

  4

 40
1.0
 41
0.1
 42
0.0625
 43
0.38
 44
0.125
 45
0.0
 46
0.0
 47
0.001
 48
0.001
140
0.08
141
0.09
142
0.0
143
25.4
144
1.0
145
0.0
146
1.0
147
0.09
 71
1.0
 72
0.0
 73
1
 74
1
 75
0
 76
0
 77
0
 78
4
 79
1
170
1
171
2
172
0
173
0
174
0
175
0
176
0
177
0
178
0
270
2
179
3
271
3
272
3
273
2
274
2
275
0
280
0
281
0
282
0
283
1
284
4
285
0
286
0
287
3
288
0
340
11
278
46
341
207
342
207
343
207
344
207
  0
ENDTAB
  0
ENDSEC
  0
SECTION
  2
BLOCKS
  0
BLOCK
  5
20
100
AcDbEntity
  8
0
100
AcDbBlockBegin
  2
*Model_Space
 70
0
 10
0.0
 20
0.0
 30
0.0
  3
*Model_Space
  1

  0
ENDBLK
  5
21
100
AcDbEntity
  8
0
100
AcDbBlockEnd
  0
BLOCK
  5
1C
100
AcDbEntity
  8
0
100
AcDbBlockBegin
  2
*Paper_Space
 70
0
 10
0.0
 20
0.0
 30
0.0
  3
*Paper_Space
  1

  0
ENDBLK
  5
1D
100
AcDbEntity
  8
0
100
AcDbBlockEnd
  0
BLOCK
  5
209
100
AcDbEntity
  8
0
100
AcDbBlockBegin
  2
_FILLED
 70
64
 10
0.0
 20
0.0
  3
_FILLED
  1

  0
SOLID
  5
20A
100
AcDbEntity
  8
0
  6
BYBLOCK
 62
0
100
AcDbTrace
 10
0.0
 20
0.0
 11
-1.0
 21
0.2
 12
-1.0
 22
-0.2
 13
-1.0
 23
-0.2
  0
ENDBLK
  5
20B
100
AcDbEntity
  8
0
  6
BYBLOCK
 62
0
100
AcDbBlockEnd
  0
ENDSEC
  0
SECTION
  2
ENTITIES
  0
LINE
  5
20C
100
AcDbEntity
  8
0
100
AcDbLine
 62
9
  6
CONTINUOUS
 10
9.1491741959
 20
8.6147471475
 11
9.1491741959
 21
9.4050364606
  0
LINE
  5
20D
100
AcDbEntity
  8
0
100
AcDbLine
 62
7
  6
CONTINUOUS
 10
9.1729834891
 20
8.5098921674
 11
9.1729834891
 21
9.5098914407
  0
LINE
  5
20E
100
AcDbEntity
  8
0
100
AcDbLine
 62
7
  6
CONTINUOUS
 10
9.2729834891
 20
8.6892881441
 11
9.2729834891
 21
8.5142120492
  0
LINE
  5
20F
100
AcDbEntity
  8
0
100
AcDbLine
 62
7
  6
CONTINUOUS
 10
9.2729834891
 20
9.3304955238
 11
9.2729834891
 21
9.5055715589
  0
LINE
  5
210
100
AcDbEntity
  8
0
100
AcDbLine
 62
7
  6
CONTINUOUS
 10
9.5729834891
 20
8.6892881371
 11
9.5729834891
 21
8.5142120492
  0
LINE
  5
211
100
AcDbEntity
  8
0
100
AcDbLine
 62
7
  6
CONTINUOUS
 10
9.5729834891
 20
9.33049552
 11
9.5729834891
 21
9.5055715589
  0
LINE
  5
212
100
AcDbEntity
  8
0
100
AcDbLine
 62
7
  6
CONTINUOUS
 10
9.6729834891
 20
9.509891804
 11
9.6729834891
 21
8.509891804
  0
LINE
  5
213
100
AcDbEntity
  8
0
100
AcDbLine
 62
7
  6
CONTINUOUS
 10
9.7812366646
 20
9.322391804
 11
9.7812366646
 21
8.697391804
  0
LINE
  5
214
100
AcDbEntity
  8
0
100
AcDbLine
 62
7
  6
CONTINUOUS
 10
10.9929834891
 20
7.959891804
 11
11.0929834891
 21
7.959891804
  0
LINE
  5
215
100
AcDbEntity
  8
0
100
AcDbLine
 62
7
  6
CONTINUOUS
 10
10.1729834891
 20
8.6973921424
 11
10.1729834891
 21
9.3223914657
  0
LINE
  5
216
100
AcDbEntity
  8
0
100
AcDbLine
 62
7
  6
CONTINUOUS
 10
9.6729834891
 20
8.509891804
 11
9.7812366646
 21
8.697391804
  0
LINE
  5
217
100
AcDbEntity
  8
0
100
AcDbLine
 62
7
  6
CONTINUOUS
 10
10.2929834891
 20
8.472391804
 11
10.3429834891
 21
8.472391804
  0
LINE
  5
218
100
AcDbEntity
  8
0
100
AcDbLine
 62
7
  6
CONTINUOUS
 10
9.6729834891
 20
9.509891804
 11
9.7812366646
 21
9.322391804
  0
LINE
  5
219
100
AcDbEntity
  8
0
100
AcDbLine
 62
7
  6
CONTINUOUS
 10
10.1929834891
 20
8.572391804
 11
10.1929834891
 21
9.447391804
  0
LINE
  5
21A
100
AcDbEntity
  8
0
100
AcDbLine
 62
7
  6
CONTINUOUS
 10
10.2929834891
 20
8.472391804
 11
10.2929834891
 21
9.547391804
  0
LINE
  5
21B
100
AcDbEntity
  8
0
100
AcDbLine
 62
7
  6
CONTINUOUS
 10
10.3429834891
 20
8.372391804
 11
10.3429834891
 21
9.647391804
  0
LINE
  5
21C
100
AcDbEntity
  8
0
100
AcDbLine
 62
7
  6
CONTINUOUS
 10
9.1729834891
 20
8.509891804
 11
9.2726958075
 21
8.509891804
  0
LINE
  5
21D
100
AcDbEntity
  8
0
100
AcDbLine
 62
7
  6
CONTINUOUS
 10
9.5732644791
 20
8.509891804
 11
9.6729834891
 21
8.509891804
  0
LINE
  5
21E
100
AcDbEntity
  8
0
100
AcDbLine
 62
7
  6
CONTINUOUS
 10
10.1929834891
 20
8.572391804
 11
10.2929834891
 21
8.572391804
  0
LINE
  5
21F
100
AcDbEntity
  8
0
100
AcDbLine
 62
7
  6
CONTINUOUS
 10
9.7812366646
 20
8.697391804
 11
10.1729834891
 21
8.697391804
  0
LINE
  5
220
100
AcDbEntity
  8
0
100
AcDbLine
 62
7
  6
CONTINUOUS
 10
10.1929834891
 20
8.809891804
 11
10.1729834891
 21
8.809891804
  0
LINE
  5
221
100
AcDbEntity
  8
0
100
AcDbLine
 62
7
  6
CONTINUOUS
 10
10.9929834891
 20
7.959891804
 11
10.9929834891
 21
10.059891804
  0
LINE
  5
222
100
AcDbEntity
  8
0
100
AcDbLine
 62
7
  6
CONTINUOUS
 10
10.1929834891
 20
9.209891804
 11
10.1729834891
 21
9.209891804
  0
LINE
  5
223
100
AcDbEntity
  8
0
100
AcDbLine
 62
7
  6
CONTINUOUS
 10
9.7812366646
 20
9.322391804
 11
10.1729834891
 21
9.322391804
  0
LINE
  5
224
100
AcDbEntity
  8
0
100
AcDbLine
 62
7
  6
CONTINUOUS
 10
11.0929834891
 20
10.134891804
 11
11.0929834891
 21
7.884891804
  0
LINE
  5
225
100
AcDbEntity
  8
0
100
AcDbLine
 62
9
  6
CONTINUOUS
 10
11.2374417718
 20
10.1453809125
 11
11.2374417718
 21
7.8744026956
  0
LINE
  5
226
100
AcDbEntity
  8
0
100
AcDbLine
 62
7
  6
CONTINUOUS
 10
10.1929834891
 20
9.447391804
 11
10.2929834891
 21
9.447391804
  0
LINE
  5
227
100
AcDbEntity
  8
0
100
AcDbLine
 62
7
  6
CONTINUOUS
 10
9.1729834891
 20
9.509891804
 11
9.2727024991
 21
9.509891804
  0
LINE
  5
228
100
AcDbEntity
  8
0
100
AcDbLine
 62
7
  6
CONTINUOUS
 10
9.5732711707
 20
9.509891804
 11
9.6729834891
 21
9.509891804
  0
LINE
  5
229
100
AcDbEntity
  8
0
100
AcDbLine
 62
7
  6
CONTINUOUS
 10
10.2929834891
 20
9.547391804
 11
10.3429834891
 21
9.547391804
  0
LINE
  5
22A
100
AcDbEntity
  8
0
100
AcDbLine
 62
7
  6
CONTINUOUS
 10
11.4679834891
 20
10.272391804
 11
11.4679834891
 21
7.747391804
  0
LINE
  5
22B
100
AcDbEntity
  8
0
100
AcDbLine
 62
7
  6
CONTINUOUS
 10
11.5679834891
 20
11.7667305437
 11
11.5679834891
 21
6.2530530644
  0
LINE
  5
22C
100
AcDbEntity
  8
0
100
AcDbLine
 62
9
  6
CONTINUOUS
 10
11.6939834891
 20
6.0359724342
 11
11.6939834891
 21
11.9838111739
  0
LINE
  5
22D
100
AcDbEntity
  8
0
100
AcDbLine
 62
7
  6
CONTINUOUS
 10
11.819983461
 20
12.2007241561
 11
11.819983461
 21
5.819059452
  0
LINE
  5
22E
100
AcDbEntity
  8
0
100
AcDbLine
 62
9
  6
CONTINUOUS
 10
11.8199834751
 20
5.8189756262
 11
11.8199834751
 21
12.2008079819
  0
LINE
  5
22F
100
AcDbEntity
  8
0
100
AcDbLine
 62
7
  6
CONTINUOUS
 10
10.9929834891
 20
10.059891804
 11
11.0929834891
 21
10.059891804
  0
LINE
  5
230
100
AcDbEntity
  8
0
100
AcDbLine
 62
9
  6
CONTINUOUS
 10
11.9459862413
 20
5.6019708621
 11
11.9459862413
 21
12.417812746
  0
LINE
  5
231
100
AcDbEntity
  8
0
100
AcDbLine
 62
7
  6
CONTINUOUS
 10
12.0719834891
 20
12.634891804
 11
12.0719834891
 21
5.384891804
  0
LINE
  5
232
100
AcDbEntity
  8
0
100
AcDbLine
 62
7
  6
CONTINUOUS
 10
12.3219834891
 20
5.134891804
 11
12.3219834891
 21
12.884891804
  0
ARC
  5
233
100
AcDbEntity
  8
0
100
AcDbCircle
 62
7
  6
CONTINUOUS
 10
10.6486535046
 20
9.009891804
 40
1.5506700155
100
AcDbArc
 50
165.2369687319
 51
194.7630312681
  0
ARC
  5
234
100
AcDbEntity
  8
0
100
AcDbCircle
 62
7
  6
CONTINUOUS
 10
11.0929834891
 20
6.884891804
 40
1.0
100
AcDbArc
 50
81.6940891949
 51
90.0
  0
ARC
  5
235
100
AcDbEntity
  8
0
100
AcDbCircle
 62
7
  6
CONTINUOUS
 10
11.0929834891
 20
11.134891804
 40
1.0
100
AcDbArc
 50
270.0
 51
278.3059108051
  0
ARC
  5
236
100
AcDbEntity
  8
0
100
AcDbCircle
 62
7
  6
CONTINUOUS
 10
10.3429834891
 20
10.3657630162
 40
0.7183712121
100
AcDbArc
 50
270.0
 51
334.7996803478
  0
ARC
  5
237
100
AcDbEntity
  8
0
100
AcDbCircle
 62
7
  6
CONTINUOUS
 10
10.3429834891
 20
7.6540205919
 40
0.7183712121
100
AcDbArc
 50
25.2003196522
 51
90.0
  0
ARC
  5
238
100
AcDbEntity
  8
0
100
AcDbCircle
 62
7
  6
CONTINUOUS
 10
9.1752252732
 20
8.1881914186
 40
0.4977669599
100
AcDbArc
 50
344.806863965
 51
15.193136035
  0
ARC
  5
239
100
AcDbEntity
  8
0
100
AcDbCircle
 62
7
  6
CONTINUOUS
 10
9.6707417082
 20
8.1881914186
 40
0.4977669599
100
AcDbArc
 50
164.8068640591
 51
195.1931359409
  0
ARC
  5
23A
100
AcDbEntity
  8
0
100
AcDbCircle
 62
7
  6
CONTINUOUS
 10
9.1752252732
 20
9.8315921895
 40
0.4977669599
100
AcDbArc
 50
344.806863965
 51
15.193136035
  0
ARC
  5
23B
100
AcDbEntity
  8
0
100
AcDbCircle
 62
7
  6
CONTINUOUS
 10
9.6707417082
 20
9.8315921895
 40
0.4977669599
100
AcDbArc
 50
164.8068640591
 51
195.1931359409
  0
ARC
  5
23C
100
AcDbEntity
  8
0
100
AcDbCircle
 62
7
  6
CONTINUOUS
 10
11.1832699158
 20
7.5033361113
 40
0.375
100
AcDbArc
 50
40.6030912348
 51
81.6940891949
  0
ARC
  5
23D
100
AcDbEntity
  8
0
100
AcDbCircle
 62
7
  6
CONTINUOUS
 10
11.1832699158
 20
10.5164474968
 40
0.375
100
AcDbArc
 50
278.3059108051
 51
319.3969087652
  0
ARC
  5
23E
100
AcDbEntity
  8
0
100
AcDbCircle
 62
7
  6
CONTINUOUS
 10
12.0699944384
 20
12.2007241561
 40
0.2500109774
100
AcDbArc
 50
119.7364395186
 51
179.9807893772
  0
ARC
  5
23F
100
AcDbEntity
  8
0
100
AcDbCircle
 62
7
  6
CONTINUOUS
 10
12.0699944384
 20
5.819059452
 40
0.2500109774
100
AcDbArc
 50
180.0192106228
 51
240.2635604814
  0
ARC
  5
240
100
AcDbEntity
  8
0
100
AcDbCircle
 62
7
  6
CONTINUOUS
 10
11.8179834891
 20
11.7667305437
 40
0.25
100
AcDbArc
 50
119.7357131076
 51
180.0
  0
ARC
  5
241
100
AcDbEntity
  8
0
100
AcDbCircle
 62
7
  6
CONTINUOUS
 10
11.5699834891
 20
12.200891804
 40
0.25
100
AcDbArc
 50
299.7357131076
 51
359.9807893772
  0
ARC
  5
242
100
AcDbEntity
  8
0
100
AcDbCircle
 62
7
  6
CONTINUOUS
 10
11.8219834891
 20
12.634891804
 40
0.25
100
AcDbArc
 50
299.7364395186
 51
360.0
  0
ARC
  5
243
100
AcDbEntity
  8
0
100
AcDbCircle
 62
7
  6
CONTINUOUS
 10
12.3219834891
 20
12.634891804
 40
0.25
100
AcDbArc
 50
90.0
 51
180.0
  0
ARC
  5
244
100
AcDbEntity
  8
0
100
AcDbCircle
 62
7
  6
CONTINUOUS
 10
11.8179834891
 20
6.2530530644
 40
0.25
100
AcDbArc
 50
180.0
 51
240.2642868924
  0
ARC
  5
245
100
AcDbEntity
  8
0
100
AcDbCircle
 62
7
  6
CONTINUOUS
 10
11.5699834891
 20
5.818891804
 40
0.25
100
AcDbArc
 50
0.0192106228
 51
60.2642868924
  0
ARC
  5
246
100
AcDbEntity
  8
0
100
AcDbCircle
 62
7
  6
CONTINUOUS
 10
11.8219834891
 20
5.384891804
 40
0.25
100
AcDbArc
 50
0.0
 51
60.2635604814
  0
ARC
  5
247
100
AcDbEntity
  8
0
100
AcDbCircle
 62
7
  6
CONTINUOUS
 10
12.3219834891
 20
5.384891804
 40
0.25
100
AcDbArc
 50
180.0
 51
270.0
  0
ARC
  5
248
100
AcDbEntity
  8
0
100
AcDbCircle
 62
7
  6
CONTINUOUS
 10
9.375964809
 20
9.3702505894
 40
0.1103968942
100
AcDbArc
 50
201.187171211
 51
202.2295954013
  0
ARC
  5
249
100
AcDbEntity
  8
0
100
AcDbCircle
 62
7
  6
CONTINUOUS
 10
9.4700022898
 20
8.6495330676
 40
0.1103967641
100
AcDbArc
 50
21.1870150398
 51
22.2295950472
  0
ARC
  5
24A
100
AcDbEntity
  8
0
100
AcDbCircle
 62
7
  6
CONTINUOUS
 10
9.4703396469
 20
9.3701162335
 40
0.1100336702
100
AcDbArc
 50
337.7686840126
 51
338.8145603871
  0
ARC
  5
24B
100
AcDbEntity
  8
0
100
AcDbCircle
 62
7
  6
CONTINUOUS
 10
9.3756271507
 20
8.6496674468
 40
0.1100334756
100
AcDbArc
 50
157.7686838956
 51
158.8147266797
  0
ARC
  5
24C
100
AcDbEntity
  8
0
100
AcDbCircle
 62
7
  6
CONTINUOUS
 10
9.3505051899
 20
9.3269119291
 40
0.0841513899
100
AcDbArc
 50
157.1806987364
 51
167.2193580835
  0
ARC
  5
24D
100
AcDbEntity
  8
0
100
AcDbCircle
 62
7
  6
CONTINUOUS
 10
9.4954617885
 20
9.3269119291
 40
0.0841513898
100
AcDbArc
 50
12.7806415487
 51
22.8193012684
  0
ARC
  5
24E
100
AcDbEntity
  8
0
100
AcDbCircle
 62
7
  6
CONTINUOUS
 10
9.4954617952
 20
8.6928716766
 40
0.0841513827
100
AcDbArc
 50
337.1806984456
 51
347.2193804415
  0
ARC
  5
24F
100
AcDbEntity
  8
0
100
AcDbCircle
 62
7
  6
CONTINUOUS
 10
9.3505051824
 20
8.6928716764
 40
0.0841513819
100
AcDbArc
 50
192.7806172411
 51
202.8193015845
  0
ARC
  5
250
100
AcDbEntity
  8
0
100
AcDbCircle
 62
7
  6
CONTINUOUS
 10
11.5179834891
 20
10.272391804
 40
0.05
100
AcDbArc
 50
0.0
 51
180.0
  0
ARC
  5
251
100
AcDbEntity
  8
0
100
AcDbCircle
 62
7
  6
CONTINUOUS
 10
11.5179834891
 20
7.747391804
 40
0.05
100
AcDbArc
 50
180.0
 51
360.0
  0
ARC
  5
252
100
AcDbEntity
  8
0
100
AcDbCircle
 62
7
  6
CONTINUOUS
 10
9.1781838361
 20
8.622391804
 40
0.03
100
AcDbArc
 50
194.7630312681
 51
260.0109837019
  0
ARC
  5
253
100
AcDbEntity
  8
0
100
AcDbCircle
 62
7
  6
CONTINUOUS
 10
9.1781838361
 20
9.397391804
 40
0.03
100
AcDbArc
 50
99.9890162981
 51
165.2369687319
  0
SPLINE
  5
254
100
AcDbEntity
  8
0
100
AcDbSpline
 62
7
  6
CONTINUOUS
 70
0
 71
3
 72
23
 73
19
 74
0
 42
0.0000001
 43
0.0000001
 44
0.0000000001
 40
0.0
 40
0.0
 40
0.0
 40
0.0
 40
0.0815856926
 40
0.1626025128
 40
0.2427945625
 40
0.3218740701
 40
0.3994152595
 40
0.4749455416
 40
0.5479868806
 40
0.6180501065
 40
0.6846271987
 40
0.7471623991
 40
0.8576015009
 40
0.9041383942
 40
0.9439167551
 40
0.9762429096
 40
0.9892839283
 40
1.0
 40
1.0
 40
1.0
 40
1.0
 10
9.5729834891
 20
8.5142120492
 30
0.0
 10
9.5729834891
 20
8.5117033104
 30
0.0
 10
9.5730914812
 20
8.5067026613
 30
0.0
 10
9.5735722213
 20
8.4992501256
 30
0.0
 10
9.5743634544
 20
8.4919014621
 30
0.0
 10
9.5754565857
 20
8.4846997688
 30
0.0
 10
9.576828572
 20
8.4776920714
 30
0.0
 10
9.5784562493
 20
8.4709301088
 30
0.0
 10
9.5803146627
 20
8.4644668938
 30
0.0
 10
9.5823613759
 20
8.4583506534
 30
0.0
 10
9.5845572338
 20
8.4526309301
 30
0.0
 10
9.5874947181
 20
8.4458742261
 30
0.0
 10
9.5905713535
 20
8.4398545117
 30
0.0
 10
9.5936886722
 20
8.434667378
 30
0.0
 10
9.5957045037
 20
8.4316252598
 30
0.0
 10
9.5972459881
 20
8.4295077509
 30
0.0
 10
9.5983093313
 20
8.4281499031
 30
0.0
 10
9.5987720432
 20
8.427584509
 30
0.0
 10
9.598983998
 20
8.4273322071
 30
0.0
  0
SPLINE
  5
255
100
AcDbEntity
  8
0
100
AcDbSpline
 62
7
  6
CONTINUOUS
 70
0
 71
3
 72
25
 73
21
 74
0
 42
0.0000001
 43
0.0000001
 44
0.0000000001
 40
0.0
 40
0.0
 40
0.0
 40
0.0
 40
0.010762776
 40
0.0237916549
 40
0.0389403894
 40
0.0560700578
 40
0.095854591
 40
0.1424007148
 40
0.1949749209
 40
0.252856193
 40
0.3153898183
 40
0.3819652943
 40
0.452027391
 40
0.5250672954
 40
0.6005950507
 40
0.6781318557
 40
0.7572052105
 40
0.8373961203
 40
0.9184157485
 40
1.0
 40
1.0
 40
1.0
 40
1.0
 10
9.2469829803
 20
8.4273322071
 30
0.0
 10
9.2471958649
 20
8.4275856159
 30
0.0
 10
9.2476593314
 20
8.428151792
 30
0.0
 10
9.2483976119
 20
8.4290946676
 30
0.0
 10
9.2492324677
 20
8.4302102114
 30
0.0
 10
9.2505198348
 20
8.4320140894
 30
0.0
 10
9.2522780216
 20
8.43466699
 30
0.0
 10
9.2544791415
 20
8.4383291428
 30
0.0
 10
9.2567846752
 20
8.4425727528
 30
0.0
 10
9.2591163445
 20
8.4473559347
 30
0.0
 10
9.2614098167
 20
8.4526307923
 30
0.0
 10
9.2636053993
 20
8.4583504613
 30
0.0
 10
9.2656523969
 20
8.4644667213
 30
0.0
 10
9.2675107002
 20
8.4709299979
 30
0.0
 10
9.2691381367
 20
8.4776919571
 30
0.0
 10
9.2705104779
 20
8.4846993814
 30
0.0
 10
9.2716035164
 20
8.4919009452
 30
0.0
 10
9.2723945565
 20
8.4992497011
 30
0.0
 10
9.2728754169
 20
8.5067024479
 30
0.0
 10
9.2729834891
 20
8.5117032827
 30
0.0
 10
9.2729834891
 20
8.5142120492
 30
0.0
  0
SPLINE
  5
256
100
AcDbEntity
  8
0
100
AcDbSpline
 62
7
  6
CONTINUOUS
 70
0
 71
3
 72
11
 73
7
 74
0
 42
0.0000001
 43
0.0000001
 44
0.0000000001
 40
0.0
 40
0.0
 40
0.0
 40
0.0
 40
0.2504458573
 40
0.5006352287
 40
0.7505021341
 40
1.0
 40
1.0
 40
1.0
 40
1.0
 10
9.6555860773
 20
8.3186407679
 30
0.0
 10
9.6528733168
 20
8.3285825847
 30
0.0
 10
9.646398502
 20
8.3481862453
 30
0.0
 10
9.6336314333
 20
8.3763675593
 30
0.0
 10
9.6179313278
 20
8.4029825068
 30
0.0
 10
9.6055875699
 20
8.4194715977
 30
0.0
 10
9.598983998
 20
8.4273322071
 30
0.0
  0
SPLINE
  5
257
100
AcDbEntity
  8
0
100
AcDbSpline
 62
7
  6
CONTINUOUS
 70
0
 71
3
 72
25
 73
21
 74
0
 42
0.0000001
 43
0.0000001
 44
0.0000000001
 40
0.0
 40
0.0
 40
0.0
 40
0.0
 40
0.0318269443
 40
0.0636070161
 40
0.0952999423
 40
0.126885584
 40
0.1897034274
 40
0.2521570064
 40
0.3143845919
 40
0.3765086362
 40
0.4386133731
 40
0.5007472406
 40
0.5629366641
 40
0.6251937538
 40
0.6875187016
 40
0.7499103474
 40
0.8123625134
 40
0.8748643086
 40
0.9374152179
 40
1.0
 40
1.0
 40
1.0
 40
1.0
 10
9.4229834891
 20
7.861197229
 30
0.0
 10
9.4264469737
 20
7.861197229
 30
0.0
 10
9.4333702151
 20
7.8613784157
 30
0.0
 10
9.4437135805
 20
7.8621898553
 30
0.0
 10
9.4539757355
 20
7.8635298193
 30
0.0
 10
9.4674796857
 20
7.8659939222
 30
0.0
 10
9.4840267628
 20
7.8703028182
 30
0.0
 10
9.503225976
 20
7.8772926027
 30
0.0
 10
9.5216520856
 20
7.8859410267
 30
0.0
 10
9.5392359171
 20
7.8961136213
 30
0.0
 10
9.5559144796
 20
7.9076902381
 30
0.0
 10
9.5716249951
 20
7.9205590768
 30
0.0
 10
9.5863057054
 20
7.9346138369
 30
0.0
 10
9.5998974847
 20
7.94975107
 30
0.0
 10
9.6123449671
 20
7.9658694492
 30
0.0
 10
9.6235972109
 20
7.9828686869
 30
0.0
 10
9.6336082142
 20
8.0006487942
 30
0.0
 10
9.6423377524
 20
8.0191110005
 30
0.0
 10
9.6497497812
 20
8.0381545618
 30
0.0
 10
9.6537932489
 20
8.0511716507
 30
0.0
 10
9.6555860773
 20
8.0577420692
 30
0.0
  0
SPLINE
  5
258
100
AcDbEntity
  8
0
100
AcDbSpline
 62
7
  6
CONTINUOUS
 70
0
 71
3
 72
11
 73
7
 74
0
 42
0.0000001
 43
0.0000001
 44
0.0000000001
 40
0.0
 40
0.0
 40
0.0
 40
0.0
 40
0.2494947078
 40
0.4993637396
 40
0.7495542456
 40
1.0
 40
1.0
 40
1.0
 40
1.0
 10
9.2469829803
 20
8.4273322071
 30
0.0
 10
9.2403794918
 20
8.419471697
 30
0.0
 10
9.2280358767
 20
8.4029825676
 30
0.0
 10
9.2123353844
 20
8.3763678327
 30
0.0
 10
9.199568624
 20
8.3481862259
 30
0.0
 10
9.1930936605
 20
8.3285825809
 30
0.0
 10
9.190380901
 20
8.3186407679
 30
0.0
  0
SPLINE
  5
259
100
AcDbEntity
  8
0
100
AcDbSpline
 62
7
  6
CONTINUOUS
 70
0
 71
3
 72
25
 73
21
 74
0
 42
0.0000001
 43
0.0000001
 44
0.0000000001
 40
0.0
 40
0.0
 40
0.0
 40
0.0
 40
0.0625800899
 40
0.1251304905
 40
0.1876305922
 40
0.2500830603
 40
0.3124755868
 40
0.3748007267
 40
0.4370610684
 40
0.4992521942
 40
0.5613881137
 40
0.6234959599
 40
0.6856210597
 40
0.7478498172
 40
0.8103029059
 40
0.8731199712
 40
0.9047047112
 40
0.9363964165
 40
0.9681750523
 40
1.0
 40
1.0
 40
1.0
 40
1.0
 10
9.190380901
 20
8.0577420692
 30
0.0
 10
9.192173595
 20
8.0511721434
 30
0.0
 10
9.1962169199
 20
8.0381556083
 30
0.0
 10
9.2036284442
 20
8.0191126549
 30
0.0
 10
9.212357898
 20
8.0006506378
 30
0.0
 10
9.2223686613
 20
7.9828704626
 30
0.0
 10
9.2336208743
 20
7.9658710232
 30
0.0
 10
9.2460685131
 20
7.9497521676
 30
0.0
 10
9.2596606733
 20
7.934614523
 30
0.0
 10
9.2743418305
 20
7.920559126
 30
0.0
 10
9.2900529778
 20
7.9076898734
 30
0.0
 10
9.3067321225
 20
7.8961129072
 30
0.0
 10
9.3243165376
 20
7.8859401558
 30
0.0
 10
9.3427428996
 20
7.8772918233
 30
0.0
 10
9.3619421636
 20
7.8703022136
 30
0.0
 10
9.378489048
 20
7.8659935119
 30
0.0
 10
9.3919927132
 20
7.8635296084
 30
0.0
 10
9.4022544913
 20
7.8621897565
 30
0.0
 10
9.4125973544
 20
7.8613783963
 30
0.0
 10
9.4195202218
 20
7.861197229
 30
0.0
 10
9.4229834891
 20
7.861197229
 30
0.0
  0
SPLINE
  5
25A
100
AcDbEntity
  8
0
100
AcDbSpline
 62
7
  6
CONTINUOUS
 70
0
 71
3
 72
25
 73
21
 74
0
 42
0.0000001
 43
0.0000001
 44
0.0000000001
 40
0.0
 40
0.0
 40
0.0
 40
0.0
 40
0.010762776
 40
0.0237916549
 40
0.0389403894
 40
0.0560700578
 40
0.095854591
 40
0.1424007148
 40
0.1949749209
 40
0.252856193
 40
0.3153898183
 40
0.3819652943
 40
0.452027391
 40
0.5250672954
 40
0.6005950507
 40
0.6781318557
 40
0.7572052105
 40
0.8373961203
 40
0.9184157485
 40
1.0
 40
1.0
 40
1.0
 40
1.0
 10
9.598983998
 20
9.592451401
 30
0.0
 10
9.5987711133
 20
9.5921979922
 30
0.0
 10
9.5983076468
 20
9.591631816
 30
0.0
 10
9.5975693664
 20
9.5906889405
 30
0.0
 10
9.5967345106
 20
9.5895733967
 30
0.0
 10
9.5954471435
 20
9.5877695187
 30
0.0
 10
9.5936889566
 20
9.585116618
 30
0.0
 10
9.5914878368
 20
9.5814544653
 30
0.0
 10
9.589182303
 20
9.5772108553
 30
0.0
 10
9.5868506337
 20
9.5724276733
 30
0.0
 10
9.5845571616
 20
9.5671528158
 30
0.0
 10
9.582361579
 20
9.5614331468
 30
0.0
 10
9.5803145814
 20
9.5553168868
 30
0.0
 10
9.5784562781
 20
9.5488536101
 30
0.0
 10
9.5768288416
 20
9.542091651
 30
0.0
 10
9.5754565003
 20
9.5350842267
 30
0.0
 10
9.5743634619
 20
9.5278826629
 30
0.0
 10
9.5735724218
 20
9.520533907
 30
0.0
 10
9.5730915614
 20
9.5130811602
 30
0.0
 10
9.5729834891
 20
9.5080803254
 30
0.0
 10
9.5729834891
 20
9.5055715589
 30
0.0
  0
SPLINE
  5
25B
100
AcDbEntity
  8
0
100
AcDbSpline
 62
7
  6
CONTINUOUS
 70
0
 71
3
 72
23
 73
19
 74
0
 42
0.0000001
 43
0.0000001
 44
0.0000000001
 40
0.0
 40
0.0
 40
0.0
 40
0.0
 40
0.0815856926
 40
0.1626025128
 40
0.2427945625
 40
0.3218740701
 40
0.3994152595
 40
0.4749455416
 40
0.5479868806
 40
0.6180501065
 40
0.6846271987
 40
0.7471623991
 40
0.8576015009
 40
0.9041383942
 40
0.9439167551
 40
0.9762429096
 40
0.9892839283
 40
1.0
 40
1.0
 40
1.0
 40
1.0
 10
9.2729834891
 20
9.5055715589
 30
0.0
 10
9.2729834891
 20
9.5080802977
 30
0.0
 10
9.272875497
 20
9.5130809468
 30
0.0
 10
9.272394757
 20
9.5205334825
 30
0.0
 10
9.2716035238
 20
9.527882146
 30
0.0
 10
9.2705103926
 20
9.5350838393
 30
0.0
 10
9.2691384063
 20
9.5420915367
 30
0.0
 10
9.267510729
 20
9.5488534993
 30
0.0
 10
9.2656523156
 20
9.5553167143
 30
0.0
 10
9.2636056024
 20
9.5614329547
 30
0.0
 10
9.2614097444
 20
9.567152678
 30
0.0
 10
9.2584722602
 20
9.573909382
 30
0.0
 10
9.2553956248
 20
9.5799290964
 30
0.0
 10
9.252278306
 20
9.5851162301
 30
0.0
 10
9.2502624746
 20
9.5881583483
 30
0.0
 10
9.2487209902
 20
9.5902758572
 30
0.0
 10
9.247657647
 20
9.591633705
 30
0.0
 10
9.2471949351
 20
9.5921990991
 30
0.0
 10
9.2469829803
 20
9.592451401
 30
0.0
  0
SPLINE
  5
25C
100
AcDbEntity
  8
0
100
AcDbSpline
 62
7
  6
CONTINUOUS
 70
0
 71
3
 72
11
 73
7
 74
0
 42
0.0000001
 43
0.0000001
 44
0.0000000001
 40
0.0
 40
0.0
 40
0.0
 40
0.0
 40
0.2494947078
 40
0.4993637396
 40
0.7495542456
 40
1.0
 40
1.0
 40
1.0
 40
1.0
 10
9.598983998
 20
9.592451401
 30
0.0
 10
9.6055874865
 20
9.6003119111
 30
0.0
 10
9.6179311016
 20
9.6168010405
 30
0.0
 10
9.6336315938
 20
9.6434157754
 30
0.0
 10
9.6463983543
 20
9.6715973822
 30
0.0
 10
9.6528733178
 20
9.6912010271
 30
0.0
 10
9.6555860773
 20
9.7011428402
 30
0.0
  0
SPLINE
  5
25D
100
AcDbEntity
  8
0
100
AcDbSpline
 62
7
  6
CONTINUOUS
 70
0
 71
3
 72
25
 73
21
 74
0
 42
0.0000001
 43
0.0000001
 44
0.0000000001
 40
0.0
 40
0.0
 40
0.0
 40
0.0
 40
0.0625800899
 40
0.1251304905
 40
0.1876305922
 40
0.2500830603
 40
0.3124755868
 40
0.3748007267
 40
0.4370610684
 40
0.4992521942
 40
0.5613881137
 40
0.6234959599
 40
0.6856210597
 40
0.7478498172
 40
0.8103029059
 40
0.8731199712
 40
0.9047047112
 40
0.9363964165
 40
0.9681750523
 40
1.0
 40
1.0
 40
1.0
 40
1.0
 10
9.6555860773
 20
9.9620415389
 30
0.0
 10
9.6537933833
 20
9.9686114647
 30
0.0
 10
9.6497500583
 20
9.9816279998
 30
0.0
 10
9.6423385341
 20
10.0006709532
 30
0.0
 10
9.6336090802
 20
10.0191329703
 30
0.0
 10
9.623598317
 20
10.0369131455
 30
0.0
 10
9.6123461039
 20
10.0539125849
 30
0.0
 10
9.5998984651
 20
10.0700314405
 30
0.0
 10
9.586306305
 20
10.0851690851
 30
0.0
 10
9.5716251477
 20
10.0992244821
 30
0.0
 10
9.5559140005
 20
10.1120937346
 30
0.0
 10
9.5392348557
 20
10.1236707009
 30
0.0
 10
9.5216504406
 20
10.1338434523
 30
0.0
 10
9.5032240787
 20
10.1424917848
 30
0.0
 10
9.4840248146
 20
10.1494813945
 30
0.0
 10
9.4674779303
 20
10.1537900962
 30
0.0
 10
9.4539742651
 20
10.1562539997
 30
0.0
 10
9.443712487
 20
10.1575938516
 30
0.0
 10
9.4333696239
 20
10.1584052118
 30
0.0
 10
9.4264467564
 20
10.1585863791
 30
0.0
 10
9.4229834891
 20
10.1585863791
 30
0.0
  0
SPLINE
  5
25E
100
AcDbEntity
  8
0
100
AcDbSpline
 62
7
  6
CONTINUOUS
 70
0
 71
3
 72
11
 73
7
 74
0
 42
0.0000001
 43
0.0000001
 44
0.0000000001
 40
0.0
 40
0.0
 40
0.0
 40
0.0
 40
0.2504458573
 40
0.5006352287
 40
0.7505021341
 40
1.0
 40
1.0
 40
1.0
 40
1.0
 10
9.190380901
 20
9.7011428402
 30
0.0
 10
9.1930936615
 20
9.6912010234
 30
0.0
 10
9.1995684762
 20
9.6715973628
 30
0.0
 10
9.212335545
 20
9.6434160488
 30
0.0
 10
9.2280356504
 20
9.6168011013
 30
0.0
 10
9.2403794084
 20
9.6003120104
 30
0.0
 10
9.2469829803
 20
9.592451401
 30
0.0
  0
SPLINE
  5
25F
100
AcDbEntity
  8
0
100
AcDbSpline
 62
7
  6
CONTINUOUS
 70
0
 71
3
 72
25
 73
21
 74
0
 42
0.0000001
 43
0.0000001
 44
0.0000000001
 40
0.0
 40
0.0
 40
0.0
 40
0.0
 40
0.0318269443
 40
0.0636070161
 40
0.0952999423
 40
0.126885584
 40
0.1897034274
 40
0.2521570064
 40
0.3143845919
 40
0.3765086362
 40
0.4386133731
 40
0.5007472406
 40
0.5629366641
 40
0.6251937538
 40
0.6875187016
 40
0.7499103474
 40
0.8123625134
 40
0.8748643086
 40
0.9374152179
 40
1.0
 40
1.0
 40
1.0
 40
1.0
 10
9.4229834891
 20
10.1585863791
 30
0.0
 10
9.4195200045
 20
10.1585863791
 30
0.0
 10
9.4125967632
 20
10.1584051923
 30
0.0
 10
9.4022533978
 20
10.1575937528
 30
0.0
 10
9.3919912427
 20
10.1562537888
 30
0.0
 10
9.3784872925
 20
10.1537896859
 30
0.0
 10
9.3619402155
 20
10.1494807899
 30
0.0
 10
9.3427410023
 20
10.1424910054
 30
0.0
 10
9.3243148927
 20
10.1338425814
 30
0.0
 10
9.3067310612
 20
10.1236699868
 30
0.0
 10
9.2900524986
 20
10.11209337
 30
0.0
 10
9.2743419832
 20
10.0992245313
 30
0.0
 10
9.2596612729
 20
10.0851697712
 30
0.0
 10
9.2460694936
 20
10.0700325381
 30
0.0
 10
9.2336220112
 20
10.0539141589
 30
0.0
 10
9.2223697674
 20
10.0369149212
 30
0.0
 10
9.212358764
 20
10.0191348139
 30
0.0
 10
9.2036292259
 20
10.0006726076
 30
0.0
 10
9.1962171971
 20
9.9816290463
 30
0.0
 10
9.1921737294
 20
9.9686119574
 30
0.0
 10
9.190380901
 20
9.9620415389
 30
0.0
  0
SPLINE
  5
260
100
AcDbEntity
  8
0
100
AcDbSpline
 62
7
  6
CONTINUOUS
 70
0
 71
3
 72
11
 73
7
 74
0
 42
0.0000001
 43
0.0000001
 44
0.0000000001
 40
0.0
 40
0.0
 40
0.0
 40
0.0
 40
0.2398402501
 40
0.4860642986
 40
0.7393061968
 40
1.0
 40
1.0
 40
1.0
 40
1.0
 10
9.2664834891
 20
8.6563384135
 30
0.0
 10
9.2664834891
 20
8.6590498448
 30
0.0
 10
9.2667698385
 20
8.6645483837
 30
0.0
 10
9.2680193658
 20
8.6728245679
 30
0.0
 10
9.2700835775
 20
8.6811782879
 30
0.0
 10
9.2719650722
 20
8.6866838663
 30
0.0
 10
9.2730300985
 20
8.6894318861
 30
0.0
  0
SPLINE
  5
261
100
AcDbEntity
  8
0
100
AcDbSpline
 62
7
  6
CONTINUOUS
 70
0
 71
3
 72
35
 73
31
 74
0
 42
0.0000001
 43
0.0000001
 44
0.0000000001
 40
0.0
 40
0.0
 40
0.0
 40
0.0
 40
0.0547944619
 40
0.0834073945
 40
0.1127545589
 40
0.1427780197
 40
0.1734147587
 40
0.204600001
 40
0.2362691823
 40
0.3007710498
 40
0.3335255982
 40
0.3665286404
 40
0.3997275432
 40
0.4330716873
 40
0.4665119278
 40
0.4999999999
 40
0.5334880719
 40
0.5669283125
 40
0.6002724566
 40
0.6334713594
 40
0.6664744017
 40
0.6992289501
 40
0.7637308177
 40
0.7953999989
 40
0.8265852413
 40
0.8572219802
 40
0.8872454411
 40
0.9165926055
 40
0.9452055381
 40
1.0
 40
1.0
 40
1.0
 40
1.0
 10
9.2737731312
 20
8.6912982583
 30
0.0
 10
9.2763431524
 20
8.6975868841
 30
0.0
 10
9.2811383099
 20
8.7068205237
 30
0.0
 10
9.2889892093
 20
8.7183962787
 30
0.0
 10
9.2957850343
 20
8.726943704
 30
0.0
 10
9.3033568154
 20
8.7351538485
 30
0.0
 10
9.311660773
 20
8.7429594005
 30
0.0
 10
9.3206506724
 20
8.7502922197
 30
0.0
 10
9.3335591241
 20
8.7594022897
 30
0.0
 10
9.3475680483
 20
8.7672297091
 30
0.0
 10
9.3624269029
 20
8.7735827169
 30
0.0
 10
9.3740347437
 20
8.777590177
 30
0.0
 10
9.3859728366
 20
8.7807636864
 30
0.0
 10
9.3981654779
 20
8.7830623869
 30
0.0
 10
9.4105307868
 20
8.7844547378
 30
0.0
 10
9.422983489
 20
8.7849211083
 30
0.0
 10
9.4354361913
 20
8.7844547378
 30
0.0
 10
9.4478015001
 20
8.7830623869
 30
0.0
 10
9.4599941415
 20
8.7807636864
 30
0.0
 10
9.4719322343
 20
8.7775901771
 30
0.0
 10
9.4835400752
 20
8.773582717
 30
0.0
 10
9.4983989298
 20
8.7672297092
 30
0.0
 10
9.512407854
 20
8.7594022898
 30
0.0
 10
9.5253163057
 20
8.7502922198
 30
0.0
 10
9.5343062052
 20
8.7429594006
 30
0.0
 10
9.5426101628
 20
8.7351538486
 30
0.0
 10
9.5501819439
 20
8.7269437042
 30
0.0
 10
9.5569777688
 20
8.7183962788
 30
0.0
 10
9.5648286683
 20
8.7068205239
 30
0.0
 10
9.5696238258
 20
8.6975868842
 30
0.0
 10
9.572193847
 20
8.6912982585
 30
0.0
  0
SPLINE
  5
262
100
AcDbEntity
  8
0
100
AcDbSpline
 62
7
  6
CONTINUOUS
 70
0
 71
3
 72
11
 73
7
 74
0
 42
0.0000001
 43
0.0000001
 44
0.0000000001
 40
0.0
 40
0.0
 40
0.0
 40
0.0
 40
0.2606938154
 40
0.5139357176
 40
0.7601597619
 40
1.0
 40
1.0
 40
1.0
 40
1.0
 10
9.5729368655
 20
8.6894319229
 30
0.0
 10
9.5740018941
 20
8.6866839001
 30
0.0
 10
9.5758833929
 20
8.6811783158
 30
0.0
 10
9.577947609
 20
8.6728245865
 30
0.0
 10
9.5791971391
 20
8.664548393
 30
0.0
 10
9.5794834891
 20
8.6590498479
 30
0.0
 10
9.5794834891
 20
8.6563384135
 30
0.0
  0
SPLINE
  5
263
100
AcDbEntity
  8
0
100
AcDbSpline
 62
7
  6
CONTINUOUS
 70
0
 71
3
 72
11
 73
7
 74
0
 42
0.0000001
 43
0.0000001
 44
0.0000000001
 40
0.0
 40
0.0
 40
0.0
 40
0.0
 40
0.2398401538
 40
0.4860641706
 40
0.7393061009
 40
1.0
 40
1.0
 40
1.0
 40
1.0
 10
9.5794834891
 20
9.3634451946
 30
0.0
 10
9.5794834891
 20
9.360733739
 30
0.0
 10
9.5791971346
 20
9.3552351501
 30
0.0
 10
9.5779475851
 20
9.3469588911
 30
0.0
 10
9.5758833371
 20
9.3386050959
 30
0.0
 10
9.5740018098
 20
9.3330994696
 30
0.0
 10
9.5729367651
 20
9.3303514262
 30
0.0
  0
SPLINE
  5
264
100
AcDbEntity
  8
0
100
AcDbSpline
 62
7
  6
CONTINUOUS
 70
0
 71
3
 72
35
 73
31
 74
0
 42
0.0000001
 43
0.0000001
 44
0.0000000001
 40
0.0
 40
0.0
 40
0.0
 40
0.0
 40
0.0547944621
 40
0.0834073947
 40
0.1127545593
 40
0.1427780201
 40
0.1734147587
 40
0.2046000013
 40
0.2362691825
 40
0.3007710494
 40
0.3335255973
 40
0.3665286366
 40
0.3997275392
 40
0.4330716844
 40
0.4665119254
 40
0.5
 40
0.5334880745
 40
0.5669283156
 40
0.6002724608
 40
0.6334713634
 40
0.6664744027
 40
0.6992289506
 40
0.7637308175
 40
0.7953999987
 40
0.8265852412
 40
0.8572219799
 40
0.8872454407
 40
0.9165926053
 40
0.9452055379
 40
1.0
 40
1.0
 40
1.0
 40
1.0
 10
9.5721938466
 20
9.3284853486
 30
0.0
 10
9.5696238253
 20
9.3221967229
 30
0.0
 10
9.5648286678
 20
9.3129630834
 30
0.0
 10
9.5569777683
 20
9.3013873285
 30
0.0
 10
9.5501819433
 20
9.2928399032
 30
0.0
 10
9.5426101622
 20
9.2846297589
 30
0.0
 10
9.5343062046
 20
9.276824207
 30
0.0
 10
9.5253163052
 20
9.2694913879
 30
0.0
 10
9.5124078536
 20
9.2603813181
 30
0.0
 10
9.4983989296
 20
9.2525538988
 30
0.0
 10
9.4835400755
 20
9.2462008913
 30
0.0
 10
9.4719322352
 20
9.2421934311
 30
0.0
 10
9.4599941427
 20
9.239019922
 30
0.0
 10
9.4478015013
 20
9.2367212213
 30
0.0
 10
9.435436192
 20
9.2353288704
 30
0.0
 10
9.4229834891
 20
9.2348624997
 30
0.0
 10
9.4105307863
 20
9.2353288704
 30
0.0
 10
9.398165477
 20
9.2367212213
 30
0.0
 10
9.3859728356
 20
9.239019922
 30
0.0
 10
9.374034743
 20
9.2421934311
 30
0.0
 10
9.3624269027
 20
9.2462008913
 30
0.0
 10
9.3475680486
 20
9.2525538988
 30
0.0
 10
9.3335591247
 20
9.2603813181
 30
0.0
 10
9.3206506731
 20
9.2694913879
 30
0.0
 10
9.3116607736
 20
9.276824207
 30
0.0
 10
9.303356816
 20
9.2846297589
 30
0.0
 10
9.295785035
 20
9.2928399032
 30
0.0
 10
9.28898921
 20
9.3013873285
 30
0.0
 10
9.2811383105
 20
9.3129630834
 30
0.0
 10
9.2763431529
 20
9.3221967229
 30
0.0
 10
9.2737731317
 20
9.3284853487
 30
0.0
  0
SPLINE
  5
265
100
AcDbEntity
  8
0
100
AcDbSpline
 62
7
  6
CONTINUOUS
 70
0
 71
3
 72
11
 73
7
 74
0
 42
0.0000001
 43
0.0000001
 44
0.0000000001
 40
0.0
 40
0.0
 40
0.0
 40
0.0
 40
0.260693906
 40
0.5139358385
 40
0.7601598528
 40
1.0
 40
1.0
 40
1.0
 40
1.0
 10
9.2730302208
 20
9.3303514065
 30
0.0
 10
9.2719651749
 20
9.3330994515
 30
0.0
 10
9.2700836454
 20
9.338605081
 30
0.0
 10
9.268019395
 20
9.3469588811
 30
0.0
 10
9.266769844
 20
9.3552351452
 30
0.0
 10
9.2664834891
 20
9.3607337374
 30
0.0
 10
9.2664834891
 20
9.3634451946
 30
0.0
  0
SPLINE
  5
266
100
AcDbEntity
  8
0
100
AcDbSpline
 62
9
  6
CONTINUOUS
 70
0
 71
3
 72
16
 73
12
 74
0
 42
0.0000001
 43
0.0000001
 44
0.0000000001
 40
0.0
 40
0.0
 40
0.0
 40
0.0
 40
0.135251212
 40
0.2693764635
 40
0.4013057394
 40
0.5300581131
 40
0.6548009361
 40
0.7748996701
 40
0.8331047255
 40
0.8900300168
 40
1.0
 40
1.0
 40
1.0
 40
1.0
 10
9.4229834891
 20
8.4981574282
 30
0.0
 10
9.414172463
 20
8.4981574282
 30
0.0
 10
9.3966130425
 20
8.4973568721
 30
0.0
 10
9.3706809115
 20
8.4937688341
 30
0.0
 10
9.3456093888
 20
8.4878538495
 30
0.0
 10
9.3218137884
 20
8.47970712
 30
0.0
 10
9.299687544
 20
8.4694614554
 30
0.0
 10
9.2827641804
 20
8.4592009773
 30
0.0
 10
9.2704346808
 20
8.4500845179
 30
0.0
 10
9.2592132887
 20
8.4406346844
 30
0.0
 10
9.2515910946
 20
8.4328175662
 30
0.0
 10
9.2469829939
 20
8.4273322014
 30
0.0
  0
SPLINE
  5
267
100
AcDbEntity
  8
0
100
AcDbSpline
 62
9
  6
CONTINUOUS
 70
0
 71
3
 72
22
 73
18
 74
0
 42
0.0000001
 43
0.0000001
 44
0.0000000001
 40
0.0
 40
0.0
 40
0.0
 40
0.0
 40
0.1448632708
 40
0.2164760813
 40
0.287077164
 40
0.3563691994
 40
0.4240895944
 40
0.490019749
 40
0.5539945973
 40
0.6159122921
 40
0.6757436956
 40
0.733541016
 40
0.7894444683
 40
0.8436853133
 40
0.8965832104
 40
0.9485358815
 40
1.0
 40
1.0
 40
1.0
 40
1.0
 10
9.4229834891
 20
8.6202780664
 30
0.0
 10
9.4132053456
 20
8.6202780664
 30
0.0
 10
9.3985651532
 20
8.6192688058
 30
0.0
 10
9.3794721008
 20
8.615895165
 30
0.0
 10
9.3656161747
 20
8.6123985919
 30
0.0
 10
9.3523098252
 20
8.6079602009
 30
0.0
 10
9.3396785924
 20
8.6026216634
 30
0.0
 10
9.3278435859
 20
8.5964332479
 30
0.0
 10
9.3169179183
 20
8.5894529536
 30
0.0
 10
9.3070064348
 20
8.5817460001
 30
0.0
 10
9.2982047761
 20
8.5733842019
 30
0.0
 10
9.2905987938
 20
8.5644454719
 30
0.0
 10
9.2842639871
 20
8.5550133446
 30
0.0
 10
9.2792648833
 20
8.5451771159
 30
0.0
 10
9.2756541389
 20
8.5350305454
 30
0.0
 10
9.2734712193
 20
8.5246759092
 30
0.0
 10
9.2729834891
 20
8.517685832
 30
0.0
 10
9.2729834891
 20
8.5142120492
 30
0.0
  0
SPLINE
  5
268
100
AcDbEntity
  8
0
100
AcDbSpline
 62
9
  6
CONTINUOUS
 70
0
 71
3
 72
22
 73
18
 74
0
 42
0.0000001
 43
0.0000001
 44
0.0000000001
 40
0.0
 40
0.0
 40
0.0
 40
0.0
 40
0.14159742
 40
0.2117761555
 40
0.2811855649
 40
0.3495918545
 40
0.4167819049
 40
0.4825677758
 40
0.5467924433
 40
0.6093352894
 40
0.6701177777
 40
0.7291089912
 40
0.786330796
 40
0.8418621488
 40
0.895841877
 40
0.948469054
 40
1.0
 40
1.0
 40
1.0
 40
1.0
 10
9.4229834891
 20
8.4544147408
 30
0.0
 10
9.4365645895
 20
8.4544147408
 30
0.0
 10
9.4569067644
 20
8.4531806011
 30
0.0
 10
9.483571364
 20
8.4490578421
 30
0.0
 10
9.5030700258
 20
8.4447723202
 30
0.0
 10
9.5219752048
 20
8.4393166536
 30
0.0
 10
9.5401488777
 20
8.4327306678
 30
0.0
 10
9.5574562866
 20
8.4250625651
 30
0.0
 10
9.5737696008
 20
8.4163683112
 30
0.0
 10
9.5889680838
 20
8.4067112193
 30
0.0
 10
9.6029390666
 20
8.3961614484
 30
0.0
 10
9.6155785771
 20
8.3847955229
 30
0.0
 10
9.6267919677
 20
8.3726957561
 30
0.0
 10
9.6364943339
 20
8.3599501771
 30
0.0
 10
9.6446113524
 20
8.3466509744
 30
0.0
 10
9.6510786712
 20
8.3328986774
 30
0.0
 10
9.6542849991
 20
8.3234089611
 30
0.0
 10
9.6555860426
 20
8.3186407632
 30
0.0
  0
SPLINE
  5
269
100
AcDbEntity
  8
0
100
AcDbSpline
 62
9
  6
CONTINUOUS
 70
0
 71
3
 72
29
 73
25
 74
0
 42
0.0000001
 43
0.0000001
 44
0.0000000001
 40
0.0
 40
0.0
 40
0.0
 40
0.0
 40
0.0740033657
 40
0.1475589768
 40
0.2202376875
 40
0.2916330692
 40
0.3613823104
 40
0.4291785142
 40
0.4947863411
 40
0.5580574556
 40
0.6189458908
 40
0.6775221159
 40
0.7060151664
 40
0.7340152263
 40
0.7615674584
 40
0.7887246523
 40
0.8155469029
 40
0.8421006975
 40
0.8684577841
 40
0.8946939972
 40
0.9208876581
 40
0.9471179749
 40
0.9734633987
 40
1.0
 40
1.0
 40
1.0
 40
1.0
 10
9.4229834891
 20
8.256984836
 30
0.0
 10
9.4316655765
 20
8.256984836
 30
0.0
 10
9.4489848619
 20
8.2563122533
 30
0.0
 10
9.4746719317
 20
8.2532943562
 30
0.0
 10
9.4997405303
 20
8.2483046174
 30
0.0
 10
9.5238882191
 20
8.2414019071
 30
0.0
 10
9.5468259503
 20
8.2326679009
 30
0.0
 10
9.5682787132
 20
8.2222053428
 30
0.0
 10
9.5879890617
 20
8.210137086
 30
0.0
 10
9.6057201477
 20
8.1966032012
 30
0.0
 10
9.621255495
 20
8.1817632634
 30
0.0
 10
9.6323177645
 20
8.1683219872
 30
0.0
 10
9.639842816
 20
8.1571036598
 30
0.0
 10
9.6447792252
 20
8.1485590094
 30
0.0
 10
9.6490435403
 20
8.1398338908
 30
0.0
 10
9.6526224633
 20
8.1309543032
 30
0.0
 10
9.6555048033
 20
8.121947399
 30
0.0
 10
9.6576815028
 20
8.1128406505
 30
0.0
 10
9.6591453778
 20
8.1036619323
 30
0.0
 10
9.6598920414
 20
8.0944395038
 30
0.0
 10
9.6599188765
 20
8.0852017954
 30
0.0
 10
9.6592257892
 20
8.0759771427
 30
0.0
 10
9.6578153695
 20
8.0667945946
 30
0.0
 10
9.6564055673
 20
8.0607455524
 30
0.0
 10
9.6555860426
 20
8.0577420739
 30
0.0
  0
SPLINE
  5
26A
100
AcDbEntity
  8
0
100
AcDbSpline
 62
9
  6
CONTINUOUS
 70
0
 71
3
 72
39
 73
35
 74
0
 42
0.0000001
 43
0.0000001
 44
0.0000000001
 40
0.0
 40
0.0
 40
0.0
 40
0.0
 40
0.0724305473
 40
0.1082357938
 40
0.1435358098
 40
0.178181077
 40
0.2120406209
 40
0.2450050454
 40
0.2769918498
 40
0.307950102
 40
0.3230421803
 40
0.3378750466
 40
0.3667731482
 40
0.3947243258
 40
0.4218442108
 40
0.4482926331
 40
0.474268452
 40
0.5
 40
0.525731548
 40
0.5517073669
 40
0.5781557892
 40
0.6052756742
 40
0.6332268518
 40
0.6621249534
 40
0.6769578197
 40
0.692049898
 40
0.7230081502
 40
0.7549949546
 40
0.7879593791
 40
0.821818923
 40
0.8564641902
 40
0.8917642062
 40
0.9275694527
 40
1.0
 40
1.0
 40
1.0
 40
1.0
 10
9.4229834891
 20
8.0153503009
 30
0.0
 10
9.4299579835
 20
8.0153503009
 30
0.0
 10
9.4404003954
 20
8.0146304515
 30
0.0
 10
9.4540189
 20
8.0122240619
 30
0.0
 10
9.4639018956
 20
8.0097300959
 30
0.0
 10
9.4733929334
 20
8.006564292
 30
0.0
 10
9.4824023936
 20
8.0027565012
 30
0.0
 10
9.4908440434
 20
7.998342416
 30
0.0
 10
9.4986367007
 20
7.9933638371
 30
0.0
 10
9.5045786933
 20
7.9887434401
 30
0.0
 10
9.5089265178
 20
7.9848073161
 30
0.0
 10
9.5129270251
 20
7.9807945585
 30
0.0
 10
9.5174097852
 20
7.9755263553
 30
0.0
 10
9.5219280001
 20
7.9687989505
 30
0.0
 10
9.5254937577
 20
7.961782905
 30
0.0
 10
9.5280691708
 20
7.9545459889
 30
0.0
 10
9.5296261787
 20
7.947159161
 30
0.0
 10
9.5301471782
 20
7.9396965159
 30
0.0
 10
9.5296261787
 20
7.9322338707
 30
0.0
 10
9.5280691708
 20
7.9248470428
 30
0.0
 10
9.5254937577
 20
7.9176101268
 30
0.0
 10
9.5219280001
 20
7.9105940813
 30
0.0
 10
9.5174097852
 20
7.9038666764
 30
0.0
 10
9.5129270251
 20
7.8985984733
 30
0.0
 10
9.5089265178
 20
7.8945857157
 30
0.0
 10
9.5045786933
 20
7.8906495916
 30
0.0
 10
9.4986367007
 20
7.8860291947
 30
0.0
 10
9.4908440434
 20
7.8810506157
 30
0.0
 10
9.4824023936
 20
7.8766365306
 30
0.0
 10
9.4733929334
 20
7.8728287397
 30
0.0
 10
9.4639018956
 20
7.8696629359
 30
0.0
 10
9.4540189
 20
7.8671689698
 30
0.0
 10
9.4404003954
 20
7.8647625803
 30
0.0
 10
9.4299579835
 20
7.8640427308
 30
0.0
 10
9.4229834891
 20
7.8640427308
 30
0.0
  0
SPLINE
  5
26B
100
AcDbEntity
  8
0
100
AcDbSpline
 62
9
  6
CONTINUOUS
 70
0
 71
3
 72
22
 73
18
 74
0
 42
0.0000001
 43
0.0000001
 44
0.0000000001
 40
0.0
 40
0.0
 40
0.0
 40
0.0
 40
0.14159742
 40
0.2117761555
 40
0.2811855649
 40
0.3495918545
 40
0.4167819049
 40
0.4825677758
 40
0.5467924433
 40
0.6093352894
 40
0.6701177777
 40
0.7291089912
 40
0.786330796
 40
0.8418621488
 40
0.895841877
 40
0.948469054
 40
1.0
 40
1.0
 40
1.0
 40
1.0
 10
9.4229834891
 20
8.4544147408
 30
0.0
 10
9.4094023887
 20
8.4544147408
 30
0.0
 10
9.3890602138
 20
8.4531806011
 30
0.0
 10
9.3623956143
 20
8.4490578421
 30
0.0
 10
9.3428969525
 20
8.4447723202
 30
0.0
 10
9.3239917735
 20
8.4393166536
 30
0.0
 10
9.3058181006
 20
8.4327306678
 30
0.0
 10
9.2885106916
 20
8.4250625651
 30
0.0
 10
9.2721973774
 20
8.4163683112
 30
0.0
 10
9.2569988945
 20
8.4067112193
 30
0.0
 10
9.2430279117
 20
8.3961614484
 30
0.0
 10
9.2303884011
 20
8.3847955229
 30
0.0
 10
9.2191750106
 20
8.3726957561
 30
0.0
 10
9.2094726444
 20
8.3599501771
 30
0.0
 10
9.2013556259
 20
8.3466509744
 30
0.0
 10
9.1948883071
 20
8.3328986774
 30
0.0
 10
9.1916819791
 20
8.3234089611
 30
0.0
 10
9.1903809357
 20
8.3186407632
 30
0.0
  0
SPLINE
  5
26C
100
AcDbEntity
  8
0
100
AcDbSpline
 62
9
  6
CONTINUOUS
 70
0
 71
3
 72
29
 73
25
 74
0
 42
0.0000001
 43
0.0000001
 44
0.0000000001
 40
0.0
 40
0.0
 40
0.0
 40
0.0
 40
0.0740033657
 40
0.1475589768
 40
0.2202376875
 40
0.2916330692
 40
0.3613823104
 40
0.4291785142
 40
0.4947863411
 40
0.5580574556
 40
0.6189458908
 40
0.6775221159
 40
0.7060151664
 40
0.7340152263
 40
0.7615674584
 40
0.7887246523
 40
0.8155469029
 40
0.8421006975
 40
0.8684577841
 40
0.8946939972
 40
0.9208876581
 40
0.9471179749
 40
0.9734633987
 40
1.0
 40
1.0
 40
1.0
 40
1.0
 10
9.4229834891
 20
8.256984836
 30
0.0
 10
9.4143014017
 20
8.256984836
 30
0.0
 10
9.3969821163
 20
8.2563122533
 30
0.0
 10
9.3712950466
 20
8.2532943562
 30
0.0
 10
9.3462264479
 20
8.2483046174
 30
0.0
 10
9.3220787591
 20
8.2414019071
 30
0.0
 10
9.299141028
 20
8.2326679009
 30
0.0
 10
9.2776882651
 20
8.2222053428
 30
0.0
 10
9.2579779166
 20
8.210137086
 30
0.0
 10
9.2402468306
 20
8.1966032012
 30
0.0
 10
9.2247114833
 20
8.1817632634
 30
0.0
 10
9.2136492138
 20
8.1683219872
 30
0.0
 10
9.2061241623
 20
8.1571036598
 30
0.0
 10
9.201187753
 20
8.1485590094
 30
0.0
 10
9.196923438
 20
8.1398338908
 30
0.0
 10
9.193344515
 20
8.1309543032
 30
0.0
 10
9.1904621749
 20
8.121947399
 30
0.0
 10
9.1882854755
 20
8.1128406505
 30
0.0
 10
9.1868216005
 20
8.1036619323
 30
0.0
 10
9.1860749368
 20
8.0944395038
 30
0.0
 10
9.1860481017
 20
8.0852017954
 30
0.0
 10
9.1867411891
 20
8.0759771427
 30
0.0
 10
9.1881516088
 20
8.0667945946
 30
0.0
 10
9.189561411
 20
8.0607455524
 30
0.0
 10
9.1903809357
 20
8.0577420739
 30
0.0
  0
SPLINE
  5
26D
100
AcDbEntity
  8
0
100
AcDbSpline
 62
9
  6
CONTINUOUS
 70
0
 71
3
 72
39
 73
35
 74
0
 42
0.0000001
 43
0.0000001
 44
0.0000000001
 40
0.0
 40
0.0
 40
0.0
 40
0.0
 40
0.0724305473
 40
0.1082357938
 40
0.1435358098
 40
0.178181077
 40
0.2120406209
 40
0.2450050454
 40
0.2769918498
 40
0.307950102
 40
0.3230421803
 40
0.3378750466
 40
0.3667731482
 40
0.3947243258
 40
0.4218442108
 40
0.4482926331
 40
0.474268452
 40
0.5
 40
0.525731548
 40
0.5517073669
 40
0.5781557892
 40
0.6052756742
 40
0.6332268518
 40
0.6621249534
 40
0.6769578197
 40
0.692049898
 40
0.7230081502
 40
0.7549949546
 40
0.7879593791
 40
0.821818923
 40
0.8564641902
 40
0.8917642062
 40
0.9275694527
 40
1.0
 40
1.0
 40
1.0
 40
1.0
 10
9.4229834891
 20
8.0153503009
 30
0.0
 10
9.4160089948
 20
8.0153503009
 30
0.0
 10
9.4055665829
 20
8.0146304515
 30
0.0
 10
9.3919480783
 20
8.0122240619
 30
0.0
 10
9.3820650826
 20
8.0097300959
 30
0.0
 10
9.3725740449
 20
8.006564292
 30
0.0
 10
9.3635645846
 20
8.0027565012
 30
0.0
 10
9.3551229349
 20
7.998342416
 30
0.0
 10
9.3473302775
 20
7.9933638371
 30
0.0
 10
9.341388285
 20
7.9887434401
 30
0.0
 10
9.3370404604
 20
7.9848073161
 30
0.0
 10
9.3330399531
 20
7.9807945585
 30
0.0
 10
9.3285571931
 20
7.9755263553
 30
0.0
 10
9.3240389782
 20
7.9687989505
 30
0.0
 10
9.3204732205
 20
7.961782905
 30
0.0
 10
9.3178978075
 20
7.9545459889
 30
0.0
 10
9.3163407996
 20
7.947159161
 30
0.0
 10
9.3158198001
 20
7.9396965159
 30
0.0
 10
9.3163407996
 20
7.9322338707
 30
0.0
 10
9.3178978075
 20
7.9248470428
 30
0.0
 10
9.3204732205
 20
7.9176101268
 30
0.0
 10
9.3240389782
 20
7.9105940813
 30
0.0
 10
9.3285571931
 20
7.9038666764
 30
0.0
 10
9.3330399531
 20
7.8985984733
 30
0.0
 10
9.3370404604
 20
7.8945857157
 30
0.0
 10
9.341388285
 20
7.8906495916
 30
0.0
 10
9.3473302775
 20
7.8860291947
 30
0.0
 10
9.3551229349
 20
7.8810506157
 30
0.0
 10
9.3635645846
 20
7.8766365306
 30
0.0
 10
9.3725740449
 20
7.8728287397
 30
0.0
 10
9.3820650826
 20
7.8696629359
 30
0.0
 10
9.3919480783
 20
7.8671689698
 30
0.0
 10
9.4055665829
 20
7.8647625803
 30
0.0
 10
9.4160089948
 20
7.8640427308
 30
0.0
 10
9.4229834891
 20
7.8640427308
 30
0.0
  0
SPLINE
  5
26E
100
AcDbEntity
  8
0
100
AcDbSpline
 62
9
  6
CONTINUOUS
 70
0
 71
3
 72
16
 73
12
 74
0
 42
0.0000001
 43
0.0000001
 44
0.0000000001
 40
0.0
 40
0.0
 40
0.0
 40
0.0
 40
0.135251212
 40
0.2693764635
 40
0.4013057394
 40
0.5300581131
 40
0.6548009361
 40
0.7748996701
 40
0.8331047255
 40
0.8900300168
 40
1.0
 40
1.0
 40
1.0
 40
1.0
 10
9.4229834891
 20
9.5216261799
 30
0.0
 10
9.4317945153
 20
9.5216261799
 30
0.0
 10
9.4493539358
 20
9.522426736
 30
0.0
 10
9.4752860668
 20
9.526014774
 30
0.0
 10
9.5003575895
 20
9.5319297586
 30
0.0
 10
9.5241531898
 20
9.5400764881
 30
0.0
 10
9.5462794343
 20
9.5503221527
 30
0.0
 10
9.5632027979
 20
9.5605826308
 30
0.0
 10
9.5755322974
 20
9.5696990902
 30
0.0
 10
9.5867536896
 20
9.5791489237
 30
0.0
 10
9.5943758837
 20
9.5869660419
 30
0.0
 10
9.5989839844
 20
9.5924514067
 30
0.0
  0
SPLINE
  5
26F
100
AcDbEntity
  8
0
100
AcDbSpline
 62
9
  6
CONTINUOUS
 70
0
 71
3
 72
22
 73
18
 74
0
 42
0.0000001
 43
0.0000001
 44
0.0000000001
 40
0.0
 40
0.0
 40
0.0
 40
0.0
 40
0.1448632708
 40
0.2164760813
 40
0.287077164
 40
0.3563691994
 40
0.4240895944
 40
0.490019749
 40
0.5539945973
 40
0.6159122921
 40
0.6757436956
 40
0.733541016
 40
0.7894444683
 40
0.8436853133
 40
0.8965832104
 40
0.9485358815
 40
1.0
 40
1.0
 40
1.0
 40
1.0
 10
9.4229834891
 20
9.3995055417
 30
0.0
 10
9.4327616327
 20
9.3995055417
 30
0.0
 10
9.4474018251
 20
9.4005148022
 30
0.0
 10
9.4664948774
 20
9.4038884431
 30
0.0
 10
9.4803508036
 20
9.4073850162
 30
0.0
 10
9.4936571531
 20
9.4118234072
 30
0.0
 10
9.5062883859
 20
9.4171619447
 30
0.0
 10
9.5181233923
 20
9.4233503602
 30
0.0
 10
9.52904906
 20
9.4303306545
 30
0.0
 10
9.5389605435
 20
9.438037608
 30
0.0
 10
9.5477622022
 20
9.4463994062
 30
0.0
 10
9.5553681845
 20
9.4553381361
 30
0.0
 10
9.5617029912
 20
9.4647702635
 30
0.0
 10
9.5667020949
 20
9.4746064922
 30
0.0
 10
9.5703128394
 20
9.4847530627
 30
0.0
 10
9.572495759
 20
9.4951076989
 30
0.0
 10
9.5729834891
 20
9.5020977761
 30
0.0
 10
9.5729834891
 20
9.5055715589
 30
0.0
  0
SPLINE
  5
270
100
AcDbEntity
  8
0
100
AcDbSpline
 62
9
  6
CONTINUOUS
 70
0
 71
3
 72
39
 73
35
 74
0
 42
0.0000001
 43
0.0000001
 44
0.0000000001
 40
0.0
 40
0.0
 40
0.0
 40
0.0
 40
0.0724305473
 40
0.1082357938
 40
0.1435358098
 40
0.178181077
 40
0.2120406209
 40
0.2450050454
 40
0.2769918498
 40
0.307950102
 40
0.3230421803
 40
0.3378750466
 40
0.3667731482
 40
0.3947243258
 40
0.4218442108
 40
0.4482926331
 40
0.474268452
 40
0.5
 40
0.525731548
 40
0.5517073669
 40
0.5781557892
 40
0.6052756742
 40
0.6332268518
 40
0.6621249534
 40
0.6769578197
 40
0.692049898
 40
0.7230081502
 40
0.7549949546
 40
0.7879593791
 40
0.821818923
 40
0.8564641902
 40
0.8917642062
 40
0.9275694527
 40
1.0
 40
1.0
 40
1.0
 40
1.0
 10
9.4229834891
 20
10.1557408773
 30
0.0
 10
9.4299579835
 20
10.1557408773
 30
0.0
 10
9.4404003954
 20
10.1550210278
 30
0.0
 10
9.4540189
 20
10.1526146383
 30
0.0
 10
9.4639018956
 20
10.1501206722
 30
0.0
 10
9.4733929334
 20
10.1469548684
 30
0.0
 10
9.4824023936
 20
10.1431470775
 30
0.0
 10
9.4908440434
 20
10.1387329924
 30
0.0
 10
9.4986367007
 20
10.1337544134
 30
0.0
 10
9.5045786933
 20
10.1291340165
 30
0.0
 10
9.5089265178
 20
10.1251978924
 30
0.0
 10
9.5129270251
 20
10.1211851348
 30
0.0
 10
9.5174097852
 20
10.1159169317
 30
0.0
 10
9.5219280001
 20
10.1091895268
 30
0.0
 10
9.5254937577
 20
10.1021734813
 30
0.0
 10
9.5280691708
 20
10.0949365653
 30
0.0
 10
9.5296261787
 20
10.0875497373
 30
0.0
 10
9.5301471782
 20
10.0800870922
 30
0.0
 10
9.5296261787
 20
10.0726244471
 30
0.0
 10
9.5280691708
 20
10.0652376192
 30
0.0
 10
9.5254937577
 20
10.0580007031
 30
0.0
 10
9.5219280001
 20
10.0509846576
 30
0.0
 10
9.5174097852
 20
10.0442572528
 30
0.0
 10
9.5129270251
 20
10.0389890496
 30
0.0
 10
9.5089265178
 20
10.034976292
 30
0.0
 10
9.5045786933
 20
10.031040168
 30
0.0
 10
9.4986367007
 20
10.026419771
 30
0.0
 10
9.4908440434
 20
10.0214411921
 30
0.0
 10
9.4824023936
 20
10.0170271069
 30
0.0
 10
9.4733929334
 20
10.0132193161
 30
0.0
 10
9.4639018956
 20
10.0100535122
 30
0.0
 10
9.4540189
 20
10.0075595462
 30
0.0
 10
9.4404003954
 20
10.0051531566
 30
0.0
 10
9.4299579835
 20
10.0044333072
 30
0.0
 10
9.4229834891
 20
10.0044333072
 30
0.0
  0
SPLINE
  5
271
100
AcDbEntity
  8
0
100
AcDbSpline
 62
9
  6
CONTINUOUS
 70
0
 71
3
 72
29
 73
25
 74
0
 42
0.0000001
 43
0.0000001
 44
0.0000000001
 40
0.0
 40
0.0
 40
0.0
 40
0.0
 40
0.0265366013
 40
0.0528820251
 40
0.0791123419
 40
0.1053060028
 40
0.1315422159
 40
0.1578993025
 40
0.1844530971
 40
0.2112753477
 40
0.2384325416
 40
0.2659847737
 40
0.2939848336
 40
0.3224778841
 40
0.3810541092
 40
0.4419425444
 40
0.5052136589
 40
0.5708214858
 40
0.6386176896
 40
0.7083669308
 40
0.7797623125
 40
0.8524410232
 40
0.9259966343
 40
1.0
 40
1.0
 40
1.0
 40
1.0
 10
9.6555860426
 20
9.9620415341
 30
0.0
 10
9.6564055673
 20
9.9590380557
 30
0.0
 10
9.6578153695
 20
9.9529890135
 30
0.0
 10
9.6592257892
 20
9.9438064654
 30
0.0
 10
9.6599188765
 20
9.9345818127
 30
0.0
 10
9.6598920414
 20
9.9253441043
 30
0.0
 10
9.6591453778
 20
9.9161216758
 30
0.0
 10
9.6576815028
 20
9.9069429576
 30
0.0
 10
9.6555048033
 20
9.8978362091
 30
0.0
 10
9.6526224633
 20
9.8888293049
 30
0.0
 10
9.6490435403
 20
9.8799497173
 30
0.0
 10
9.6447792252
 20
9.8712245987
 30
0.0
 10
9.639842816
 20
9.8626799483
 30
0.0
 10
9.6323177645
 20
9.8514616209
 30
0.0
 10
9.621255495
 20
9.8380203447
 30
0.0
 10
9.6057201477
 20
9.8231804069
 30
0.0
 10
9.5879890617
 20
9.8096465221
 30
0.0
 10
9.5682787132
 20
9.7975782653
 30
0.0
 10
9.5468259503
 20
9.7871157072
 30
0.0
 10
9.5238882191
 20
9.778381701
 30
0.0
 10
9.4997405303
 20
9.7714789907
 30
0.0
 10
9.4746719317
 20
9.7664892519
 30
0.0
 10
9.4489848619
 20
9.7634713548
 30
0.0
 10
9.4316655765
 20
9.7627987721
 30
0.0
 10
9.4229834891
 20
9.7627987721
 30
0.0
  0
SPLINE
  5
272
100
AcDbEntity
  8
0
100
AcDbSpline
 62
9
  6
CONTINUOUS
 70
0
 71
3
 72
39
 73
35
 74
0
 42
0.0000001
 43
0.0000001
 44
0.0000000001
 40
0.0
 40
0.0
 40
0.0
 40
0.0
 40
0.0724305473
 40
0.1082357938
 40
0.1435358098
 40
0.178181077
 40
0.2120406209
 40
0.2450050454
 40
0.2769918498
 40
0.307950102
 40
0.3230421803
 40
0.3378750466
 40
0.3667731482
 40
0.3947243258
 40
0.4218442108
 40
0.4482926331
 40
0.474268452
 40
0.5
 40
0.525731548
 40
0.5517073669
 40
0.5781557892
 40
0.6052756742
 40
0.6332268518
 40
0.6621249534
 40
0.6769578197
 40
0.692049898
 40
0.7230081502
 40
0.7549949546
 40
0.7879593791
 40
0.821818923
 40
0.8564641902
 40
0.8917642062
 40
0.9275694527
 40
1.0
 40
1.0
 40
1.0
 40
1.0
 10
9.4229834891
 20
10.1557408773
 30
0.0
 10
9.4160089948
 20
10.1557408773
 30
0.0
 10
9.4055665829
 20
10.1550210278
 30
0.0
 10
9.3919480783
 20
10.1526146383
 30
0.0
 10
9.3820650826
 20
10.1501206722
 30
0.0
 10
9.3725740449
 20
10.1469548684
 30
0.0
 10
9.3635645846
 20
10.1431470775
 30
0.0
 10
9.3551229349
 20
10.1387329924
 30
0.0
 10
9.3473302775
 20
10.1337544134
 30
0.0
 10
9.341388285
 20
10.1291340165
 30
0.0
 10
9.3370404604
 20
10.1251978924
 30
0.0
 10
9.3330399531
 20
10.1211851348
 30
0.0
 10
9.3285571931
 20
10.1159169317
 30
0.0
 10
9.3240389782
 20
10.1091895268
 30
0.0
 10
9.3204732205
 20
10.1021734813
 30
0.0
 10
9.3178978075
 20
10.0949365653
 30
0.0
 10
9.3163407996
 20
10.0875497373
 30
0.0
 10
9.3158198001
 20
10.0800870922
 30
0.0
 10
9.3163407996
 20
10.0726244471
 30
0.0
 10
9.3178978075
 20
10.0652376192
 30
0.0
 10
9.3204732205
 20
10.0580007031
 30
0.0
 10
9.3240389782
 20
10.0509846576
 30
0.0
 10
9.3285571931
 20
10.0442572528
 30
0.0
 10
9.3330399531
 20
10.0389890496
 30
0.0
 10
9.3370404604
 20
10.034976292
 30
0.0
 10
9.341388285
 20
10.031040168
 30
0.0
 10
9.3473302775
 20
10.026419771
 30
0.0
 10
9.3551229349
 20
10.0214411921
 30
0.0
 10
9.3635645846
 20
10.0170271069
 30
0.0
 10
9.3725740449
 20
10.0132193161
 30
0.0
 10
9.3820650826
 20
10.0100535122
 30
0.0
 10
9.3919480783
 20
10.0075595462
 30
0.0
 10
9.4055665829
 20
10.0051531566
 30
0.0
 10
9.4160089948
 20
10.0044333072
 30
0.0
 10
9.4229834891
 20
10.0044333072
 30
0.0
  0
SPLINE
  5
273
100
AcDbEntity
  8
0
100
AcDbSpline
 62
7
  6
CONTINUOUS
 70
0
 71
3
 72
11
 73
7
 74
0
 42
0.0000001
 43
0.0000001
 44
0.0000000001
 40
0.0
 40
0.0
 40
0.0
 40
0.0
 40
0.2550040246
 40
0.5055812467
 40
0.7532993142
 40
1.0
 40
1.0
 40
1.0
 40
1.0
 10
9.5794834891
 20
8.6563384135
 30
0.0
 10
9.5794834891
 20
8.653699007
 30
0.0
 10
9.5792179127
 20
8.648461557
 30
0.0
 10
9.577993725
 20
8.6407462748
 30
0.0
 10
9.5759553529
 20
8.6332938421
 30
0.0
 10
9.5740630705
 20
8.6285259114
 30
0.0
 10
9.5729923823
 20
8.6262077654
 30
0.0
  0
SPLINE
  5
274
100
AcDbEntity
  8
0
100
AcDbSpline
 62
7
  6
CONTINUOUS
 70
0
 71
3
 72
11
 73
7
 74
0
 42
0.0000001
 43
0.0000001
 44
0.0000000001
 40
0.0
 40
0.0
 40
0.0
 40
0.0
 40
0.2467006848
 40
0.4944187527
 40
0.7449959756
 40
1.0
 40
1.0
 40
1.0
 40
1.0
 10
9.2729745933
 20
8.6262077711
 30
0.0
 10
9.2719039055
 20
8.6285259167
 30
0.0
 10
9.270011624
 20
8.6332938466
 30
0.0
 10
9.2679732526
 20
8.6407462779
 30
0.0
 10
9.2667490655
 20
8.6484615586
 30
0.0
 10
9.2664834891
 20
8.6536990075
 30
0.0
 10
9.2664834891
 20
8.6563384135
 30
0.0
  0
SPLINE
  5
275
100
AcDbEntity
  8
0
100
AcDbSpline
 62
9
  6
CONTINUOUS
 70
0
 71
3
 72
16
 73
12
 74
0
 42
0.0000001
 43
0.0000001
 44
0.0000000001
 40
0.0
 40
0.0
 40
0.0
 40
0.0
 40
0.1099699832
 40
0.1668952746
 40
0.2251003301
 40
0.3451990642
 40
0.4699418872
 40
0.5986942611
 40
0.7306235374
 40
0.8647487892
 40
1.0
 40
1.0
 40
1.0
 40
1.0
 10
9.2469829939
 20
9.5924514067
 30
0.0
 10
9.2515910946
 20
9.5869660419
 30
0.0
 10
9.2592132887
 20
9.5791489237
 30
0.0
 10
9.2704346808
 20
9.5696990902
 30
0.0
 10
9.2827641804
 20
9.5605826308
 30
0.0
 10
9.2996875441
 20
9.5503221526
 30
0.0
 10
9.3218137885
 20
9.5400764881
 30
0.0
 10
9.3456093889
 20
9.5319297585
 30
0.0
 10
9.3706809116
 20
9.5260147739
 30
0.0
 10
9.3966130426
 20
9.522426736
 30
0.0
 10
9.4141724631
 20
9.5216261799
 30
0.0
 10
9.4229834891
 20
9.5216261799
 30
0.0
  0
SPLINE
  5
276
100
AcDbEntity
  8
0
100
AcDbSpline
 62
9
  6
CONTINUOUS
 70
0
 71
3
 72
22
 73
18
 74
0
 42
0.0000001
 43
0.0000001
 44
0.0000000001
 40
0.0
 40
0.0
 40
0.0
 40
0.0
 40
0.051530946
 40
0.104158123
 40
0.1581378512
 40
0.213669204
 40
0.2708910088
 40
0.3298822223
 40
0.3906647106
 40
0.4532075567
 40
0.5174322242
 40
0.5832180951
 40
0.6504081455
 40
0.7188144351
 40
0.7882238445
 40
0.85840258
 40
1.0
 40
1.0
 40
1.0
 40
1.0
 10
9.1903809357
 20
9.7011428449
 30
0.0
 10
9.1916819791
 20
9.696374647
 30
0.0
 10
9.1948883071
 20
9.6868849307
 30
0.0
 10
9.2013556259
 20
9.6731326337
 30
0.0
 10
9.2094726444
 20
9.6598334309
 30
0.0
 10
9.2191750106
 20
9.647087852
 30
0.0
 10
9.2303884011
 20
9.6349880852
 30
0.0
 10
9.2430279117
 20
9.6236221597
 30
0.0
 10
9.2569988945
 20
9.6130723888
 30
0.0
 10
9.2721973774
 20
9.6034152969
 30
0.0
 10
9.2885106916
 20
9.594721043
 30
0.0
 10
9.3058181006
 20
9.5870529403
 30
0.0
 10
9.3239917735
 20
9.5804669545
 30
0.0
 10
9.3428969525
 20
9.5750112879
 30
0.0
 10
9.3623956143
 20
9.570725766
 30
0.0
 10
9.3890602138
 20
9.566603007
 30
0.0
 10
9.4094023887
 20
9.5653688673
 30
0.0
 10
9.4229834891
 20
9.5653688673
 30
0.0
  0
SPLINE
  5
277
100
AcDbEntity
  8
0
100
AcDbSpline
 62
9
  6
CONTINUOUS
 70
0
 71
3
 72
29
 73
25
 74
0
 42
0.0000001
 43
0.0000001
 44
0.0000000001
 40
0.0
 40
0.0
 40
0.0
 40
0.0
 40
0.0265366013
 40
0.0528820251
 40
0.0791123419
 40
0.1053060028
 40
0.1315422159
 40
0.1578993025
 40
0.1844530971
 40
0.2112753477
 40
0.2384325416
 40
0.2659847737
 40
0.2939848336
 40
0.3224778841
 40
0.3810541092
 40
0.4419425444
 40
0.5052136589
 40
0.5708214858
 40
0.6386176896
 40
0.7083669308
 40
0.7797623125
 40
0.8524410232
 40
0.9259966343
 40
1.0
 40
1.0
 40
1.0
 40
1.0
 10
9.1903809357
 20
9.9620415341
 30
0.0
 10
9.189561411
 20
9.9590380557
 30
0.0
 10
9.1881516088
 20
9.9529890135
 30
0.0
 10
9.1867411891
 20
9.9438064654
 30
0.0
 10
9.1860481017
 20
9.9345818127
 30
0.0
 10
9.1860749368
 20
9.9253441043
 30
0.0
 10
9.1868216005
 20
9.9161216758
 30
0.0
 10
9.1882854755
 20
9.9069429576
 30
0.0
 10
9.1904621749
 20
9.8978362091
 30
0.0
 10
9.193344515
 20
9.8888293049
 30
0.0
 10
9.196923438
 20
9.8799497173
 30
0.0
 10
9.201187753
 20
9.8712245987
 30
0.0
 10
9.2061241623
 20
9.8626799483
 30
0.0
 10
9.2136492138
 20
9.8514616209
 30
0.0
 10
9.2247114833
 20
9.8380203447
 30
0.0
 10
9.2402468306
 20
9.8231804069
 30
0.0
 10
9.2579779166
 20
9.8096465221
 30
0.0
 10
9.2776882651
 20
9.7975782653
 30
0.0
 10
9.299141028
 20
9.7871157072
 30
0.0
 10
9.3220787591
 20
9.778381701
 30
0.0
 10
9.3462264479
 20
9.7714789907
 30
0.0
 10
9.3712950466
 20
9.7664892519
 30
0.0
 10
9.3969821163
 20
9.7634713548
 30
0.0
 10
9.4143014017
 20
9.7627987721
 30
0.0
 10
9.4229834891
 20
9.7627987721
 30
0.0
  0
SPLINE
  5
278
100
AcDbEntity
  8
0
100
AcDbSpline
 62
7
  6
CONTINUOUS
 70
0
 71
3
 72
11
 73
7
 74
0
 42
0.0000001
 43
0.0000001
 44
0.0000000001
 40
0.0
 40
0.0
 40
0.0
 40
0.0
 40
0.2550040233
 40
0.5055812526
 40
0.7532993228
 40
1.0
 40
1.0
 40
1.0
 40
1.0
 10
9.2664834891
 20
9.3634451946
 30
0.0
 10
9.2664834891
 20
9.3660845978
 30
0.0
 10
9.2667490649
 20
9.3713220412
 30
0.0
 10
9.2679732495
 20
9.379037314
 30
0.0
 10
9.2700116164
 20
9.386489738
 30
0.0
 10
9.271903894
 20
9.3912576636
 30
0.0
 10
9.2729745795
 20
9.3935758072
 30
0.0
  0
SPLINE
  5
279
100
AcDbEntity
  8
0
100
AcDbSpline
 62
7
  6
CONTINUOUS
 70
0
 71
3
 72
11
 73
7
 74
0
 42
0.0000001
 43
0.0000001
 44
0.0000000001
 40
0.0
 40
0.0
 40
0.0
 40
0.0
 40
0.2467006769
 40
0.4944187475
 40
0.7449959771
 40
1.0
 40
1.0
 40
1.0
 40
1.0
 10
9.5729924008
 20
9.3935758027
 30
0.0
 10
9.574063086
 20
9.3912576594
 30
0.0
 10
9.575955363
 20
9.3864897345
 30
0.0
 10
9.5779937293
 20
9.3790373115
 30
0.0
 10
9.5792179134
 20
9.3713220399
 30
0.0
 10
9.5794834891
 20
9.3660845974
 30
0.0
 10
9.5794834891
 20
9.3634451946
 30
0.0
  0
SPLINE
  5
27A
100
AcDbEntity
  8
0
100
AcDbSpline
 62
9
  6
CONTINUOUS
 70
0
 71
3
 72
16
 73
12
 74
0
 42
0.0000001
 43
0.0000001
 44
0.0000000001
 40
0.0
 40
0.0
 40
0.0
 40
0.0
 40
0.1099699832
 40
0.1668952746
 40
0.2251003301
 40
0.3451990642
 40
0.4699418872
 40
0.5986942611
 40
0.7306235374
 40
0.8647487892
 40
1.0
 40
1.0
 40
1.0
 40
1.0
 10
9.5989839844
 20
8.4273322014
 30
0.0
 10
9.5943758837
 20
8.4328175662
 30
0.0
 10
9.5867536896
 20
8.4406346844
 30
0.0
 10
9.5755322974
 20
8.4500845179
 30
0.0
 10
9.5632027978
 20
8.4592009773
 30
0.0
 10
9.5462794342
 20
8.4694614555
 30
0.0
 10
9.5241531898
 20
8.47970712
 30
0.0
 10
9.5003575894
 20
8.4878538496
 30
0.0
 10
9.4752860666
 20
8.4937688341
 30
0.0
 10
9.4493539356
 20
8.4973568721
 30
0.0
 10
9.4317945152
 20
8.4981574282
 30
0.0
 10
9.4229834891
 20
8.4981574282
 30
0.0
  0
SPLINE
  5
27B
100
AcDbEntity
  8
0
100
AcDbSpline
 62
9
  6
CONTINUOUS
 70
0
 71
3
 72
22
 73
18
 74
0
 42
0.0000001
 43
0.0000001
 44
0.0000000001
 40
0.0
 40
0.0
 40
0.0
 40
0.0
 40
0.0514641185
 40
0.1034167896
 40
0.1563146867
 40
0.2105555317
 40
0.266458984
 40
0.3242563044
 40
0.3840877079
 40
0.4460054027
 40
0.509980251
 40
0.5759104056
 40
0.6436308006
 40
0.7129228359
 40
0.7835239187
 40
0.8551367292
 40
1.0
 40
1.0
 40
1.0
 40
1.0
 10
9.2729834891
 20
9.5055715589
 30
0.0
 10
9.2729834891
 20
9.5020977761
 30
0.0
 10
9.2734712193
 20
9.4951076989
 30
0.0
 10
9.2756541389
 20
9.4847530627
 30
0.0
 10
9.2792648833
 20
9.4746064922
 30
0.0
 10
9.2842639871
 20
9.4647702635
 30
0.0
 10
9.2905987938
 20
9.4553381361
 30
0.0
 10
9.2982047761
 20
9.4463994062
 30
0.0
 10
9.3070064348
 20
9.438037608
 30
0.0
 10
9.3169179183
 20
9.4303306545
 30
0.0
 10
9.3278435859
 20
9.4233503602
 30
0.0
 10
9.3396785924
 20
9.4171619447
 30
0.0
 10
9.3523098252
 20
9.4118234072
 30
0.0
 10
9.3656161747
 20
9.4073850162
 30
0.0
 10
9.3794721008
 20
9.4038884431
 30
0.0
 10
9.3985651532
 20
9.4005148022
 30
0.0
 10
9.4132053456
 20
9.3995055417
 30
0.0
 10
9.4229834891
 20
9.3995055417
 30
0.0
  0
SPLINE
  5
27C
100
AcDbEntity
  8
0
100
AcDbSpline
 62
9
  6
CONTINUOUS
 70
0
 71
3
 72
22
 73
18
 74
0
 42
0.0000001
 43
0.0000001
 44
0.0000000001
 40
0.0
 40
0.0
 40
0.0
 40
0.0
 40
0.0514641185
 40
0.1034167896
 40
0.1563146867
 40
0.2105555317
 40
0.266458984
 40
0.3242563044
 40
0.3840877079
 40
0.4460054027
 40
0.509980251
 40
0.5759104056
 40
0.6436308006
 40
0.7129228359
 40
0.7835239187
 40
0.8551367292
 40
1.0
 40
1.0
 40
1.0
 40
1.0
 10
9.5729834891
 20
8.5142120492
 30
0.0
 10
9.5729834891
 20
8.517685832
 30
0.0
 10
9.572495759
 20
8.5246759092
 30
0.0
 10
9.5703128394
 20
8.5350305454
 30
0.0
 10
9.5667020949
 20
8.5451771159
 30
0.0
 10
9.5617029912
 20
8.5550133446
 30
0.0
 10
9.5553681845
 20
8.5644454719
 30
0.0
 10
9.5477622022
 20
8.5733842019
 30
0.0
 10
9.5389605435
 20
8.5817460001
 30
0.0
 10
9.52904906
 20
8.5894529536
 30
0.0
 10
9.5181233923
 20
8.5964332479
 30
0.0
 10
9.5062883859
 20
8.6026216634
 30
0.0
 10
9.4936571531
 20
8.6079602009
 30
0.0
 10
9.4803508036
 20
8.6123985919
 30
0.0
 10
9.4664948775
 20
8.615895165
 30
0.0
 10
9.4474018251
 20
8.6192688058
 30
0.0
 10
9.4327616327
 20
8.6202780664
 30
0.0
 10
9.4229834891
 20
8.6202780664
 30
0.0
  0
SPLINE
  5
27D
100
AcDbEntity
  8
0
100
AcDbSpline
 62
9
  6
CONTINUOUS
 70
0
 71
3
 72
22
 73
18
 74
0
 42
0.0000001
 43
0.0000001
 44
0.0000000001
 40
0.0
 40
0.0
 40
0.0
 40
0.0
 40
0.051530946
 40
0.104158123
 40
0.1581378512
 40
0.213669204
 40
0.2708910088
 40
0.3298822223
 40
0.3906647106
 40
0.4532075567
 40
0.5174322242
 40
0.5832180951
 40
0.6504081455
 40
0.7188144351
 40
0.7882238445
 40
0.85840258
 40
1.0
 40
1.0
 40
1.0
 40
1.0
 10
9.6555860426
 20
9.7011428449
 30
0.0
 10
9.6542849991
 20
9.696374647
 30
0.0
 10
9.6510786712
 20
9.6868849307
 30
0.0
 10
9.6446113524
 20
9.6731326337
 30
0.0
 10
9.6364943339
 20
9.6598334309
 30
0.0
 10
9.6267919677
 20
9.647087852
 30
0.0
 10
9.6155785771
 20
9.6349880852
 30
0.0
 10
9.6029390666
 20
9.6236221597
 30
0.0
 10
9.5889680838
 20
9.6130723888
 30
0.0
 10
9.5737696008
 20
9.6034152969
 30
0.0
 10
9.5574562866
 20
9.594721043
 30
0.0
 10
9.5401488777
 20
9.5870529403
 30
0.0
 10
9.5219752048
 20
9.5804669545
 30
0.0
 10
9.5030700258
 20
9.5750112879
 30
0.0
 10
9.483571364
 20
9.570725766
 30
0.0
 10
9.4569067644
 20
9.566603007
 30
0.0
 10
9.4365645895
 20
9.5653688673
 30
0.0
 10
9.4229834891
 20
9.5653688673
 30
0.0
  0
ENDSEC
  0
SECTION
  2
OBJECTS
  0
DICTIONARY
  5
C
100
AcDbDictionary
280
0
281
1
  3
ACAD_GROUP
350
D
  3
ACAD_MLINESTYLE
350
17
  3
ACAD_LAYOUT
350
1A
  3
ACAD_PLOTSETTINGS
350
19
  3
ACAD_PLOTSTYLENAME
350
E
  0
DICTIONARY
  5
D
102
{ACAD_REACTORS
330
C
102
}
100
AcDbDictionary
280
0
281
1
  0
ACDBDICTIONARYWDFLT
  5
E
102
{ACAD_REACTORS
330
C
102
}
100
AcDbDictionary
281
1
  3
Normal
350
F
100
AcDbDictionaryWithDefault
340
F
  0
DICTIONARY
  5
17
102
{ACAD_REACTORS
330
C
102
}
100
AcDbDictionary
280
0
281
1
  3
Standard
350
18
  0
DICTIONARY
  5
19
102
{ACAD_REACTORS
330
C
102
}
100
AcDbDictionary
281
1
  0
DICTIONARY
  5
1A
102
{ACAD_REACTORS
330
C
102
}
100
AcDbDictionary
281
1
  3
Model
350
27E
  3
Layout1
350
27F
  0
ACDBPLACEHOLDER
  5
F
102
{ACAD_REACTORS
330
E
102
}
  0
MLINESTYLE
  5
18
102
{ACAD_REACTORS
330
17
102
}
100
AcDbMlineStyle
  2
STANDARD
 70
0
  3

 62
256
 51
90.0
 52
90.0
 71
2
 49
0.5
 62
256
  6
BYLAYER
 49
-0.5
 62
256
  6
BYLAYER
  0
LAYOUT
  5
27E
102
{ACAD_REACTORS
330
1A
102
}
100
AcDbPlotSettings
  1

  2
none_device
  4
ANSI_C_(22.00_x_17.00_Inches)
  6

 40
0.0
 41
0.0
 42
0.0
 43
0.0
 44
558.8
 45
431.8
 46
0.0
 47
0.0
 48
0.0
 49
0.0
140
0.0
141
0.0
142
1.0
143
1.0
 70
1024
 72
0
 73
0
 74
0
  7

 75
0
147
1.0
148
0.0
149
0.0
100
AcDbLayout
  1
Model
 70
0
 71
0
 10
0.0
 20
0.0
 11
22.0
 21
17.0
 12
0.0
 22
0.0
 32
0.0
 14
0.0
 24
0.0
 34
0.0
 15
0.0
 25
0.0
 35
0.0
146
0.0
 13
0.0
 23
0.0
 33
0.0
 16
1.0
 26
0.0
 36
0.0
 17
0.0
 27
1.0
 37
0.0
 76
0
330
205
345
0
346
0
  0
LAYOUT
  5
27F
102
{ACAD_REACTORS
330
1A
102
}
100
AcDbPlotSettings
  1

  2
none_device
  4
ANSI_C_(22.00_x_17.00_Inches)
  6

 40
0.0
 41
0.0
 42
0.0
 43
0.0
 44
558.8
 45
431.8
 46
0.0
 47
0.0
 48
0.0
 49
0.0
140
0.0
141
0.0
142
1.0
143
1.0
 70
0
 72
0
 73
0
 74
0
  7

 75
0
147
1.0
148
0.0
149
0.0
100
AcDbLayout
  1
Layout1
 70
0
 71
1
 10
0.0
 20
0.0
 11
22.0
 21
17.0
 12
0.0
 22
0.0
 32
0.0
 14
0.0
 24
0.0
 34
0.0
 15
0.0
 25
0.0
 35
0.0
146
0.0
 13
0.0
 23
0.0
 33
0.0
 16
1.0
 26
0.0
 36
0.0
 17
0.0
 27
1.0
 37
0.0
 76
0
330
206
345
0
346
0
  0
ENDSEC
  0
EOF
