999
DXF file: E:\BT Custom\CADOUTPUT\_TOP.dxf
999
Pro/ENGINEER 2018400 by Parametric Technology Corporation
  0
SECTION
  2
HEADER
  9
$ACADVER
  1
AC1018
  9
$DWGCODEPAGE
  3
ANSI_1252
  9
$EXTMAX
 10
22.0
 20
17.0
 30
0.0
  9
$EXTMIN
 10
0.0
 20
0.0
 30
0.0
  9
$LIMMIN
 10
0.0
 20
0.0
  9
$LIMMAX
 10
22.0
 20
17.0
  9
$VIEWCTR
 10
11.0
 20
8.5
  9
$VIEWSIZE
 40
17.0
  9
$CLAYER
  8
0
  9
$LTSCALE
 40
1.21
  9
$CELTYPE
  6
BYLAYER
  9
$DIMSCALE
 40
1.0
  9
$DIMASZ
 40
0.1
  9
$DIMEXO
 40
0.0625
  9
$DIMDLI
 40
0.836
  9
$DIMEXE
 40
0.125
  9
$DIMCEN
 40
0.198
  9
$DIMLFAC
 40
1.0
  9
$DIMBLK
  1
_FILLED
  9
$DIMALT
 70
1
  9
$DIMALTD
 70
2
  9
$DIMALTTD
 70
2
  9
$DIMALTF
 40
25.4
  9
$DIMTXT
 40
0.08
  9
$DIMTOL
 70
1
  9
$DIMLIM
 70
0
  9
$DIMTFAC
 40
1.0
  9
$DIMTP
 40
0.001
  9
$DIMTM
 40
0.001
  9
$DIMGAP
 40
0.09
  9
$DIMDSEP
 70
46
  9
$AUNITS
 70
0
  9
$PDMODE
 70
3
  9
$PDSIZE
 40
0.06
  9
$HANDSEED
  5
27F
  9
$TILEMODE
 70
1
  9
$MEASUREMENT
 70
0
  9
$INSUNITS
 70
1
  0
ENDSEC
  0
SECTION
  2
CLASSES
  0
CLASS
  1
ACDBDICTIONARYWDFLT
  2
AcDbDictionaryWithDefault
  3
AutoCAD 2000
 90
0
 91
1
280
0
281
0
  0
CLASS
  1
ACDBPLACEHOLDER
  2
AcDbPlaceHolder
  3
AutoCAD 2000
 90
0
 91
1
280
0
281
0
  0
CLASS
  1
LAYOUT
  2
AcDbLayout
  3
AutoCAD 2000
 90
0
 91
0
280
0
281
0
  0
ENDSEC
  0
SECTION
  2
TABLES
  0
TABLE
  2
VPORT
  5
8
100
AcDbSymbolTable
 70
2
  0
VPORT
  5
1F4
100
AcDbSymbolTableRecord
100
AcDbViewportTableRecord
  2
*ACTIVE
 70
0
 10
0.0
 20
0.0
 11
1.0
 21
1.0
 12
11.0
 22
8.5
 13
0.0
 23
0.0
 14
1.0
 24
1.0
 15
0.0
 25
0.0
 16
0.0
 26
0.0
 36
1.0
 17
0.0
 27
0.0
 37
0.0
 40
17.0
 41
1.2941176471
 42
50.0
 43
0.0
 44
0.0
 50
0.0
 51
0.0
 71
0
 72
100
 73
1
 74
1
 75
0
 76
0
 77
0
 78
0
  0
ENDTAB
  0
TABLE
  2
LTYPE
  5
5
100
AcDbSymbolTable
 70
6
  0
LTYPE
  5
14
100
AcDbSymbolTableRecord
100
AcDbLinetypeTableRecord
  2
BYBLOCK
 70
0
  3

 72
65
 73
0
 40
0.0
  0
LTYPE
  5
15
100
AcDbSymbolTableRecord
100
AcDbLinetypeTableRecord
  2
BYLAYER
 70
0
  3

 72
65
 73
0
 40
0.0
  0
LTYPE
  5
16
100
AcDbSymbolTableRecord
100
AcDbLinetypeTableRecord
  2
CONTINUOUS
 70
64
  3
Solid line
 72
65
 73
0
 40
0.0
  0
LTYPE
  5
1F5
100
AcDbSymbolTableRecord
100
AcDbLinetypeTableRecord
  2
CENTER
 70
64
  3
____ _ ____ _ ____ _ ____ _ ____ _ ____ _ ____
 72
65
 73
4
 40
0.6
 49
0.375
 74
0
 49
-0.075
 74
0
 49
0.075
 74
0
 49
-0.075
 74
0
  0
LTYPE
  5
1F6
100
AcDbSymbolTableRecord
100
AcDbLinetypeTableRecord
  2
HIDDEN
 70
64
  3
- - - - - - - - - - - - - - - - - - - -
 72
65
 73
2
 40
0.2
 49
0.1
 74
0
 49
-0.1
 74
0
  0
LTYPE
  5
1F7
100
AcDbSymbolTableRecord
100
AcDbLinetypeTableRecord
  2
PHANTOM
 70
64
  3
_____ _ _ _____ _ _ _____ _ _ _____
 72
65
 73
6
 40
0.8
 49
0.45
 74
0
 49
-0.05
 74
0
 49
0.1
 74
0
 49
-0.05
 74
0
 49
0.1
 74
0
 49
-0.05
 74
0
  0
LTYPE
  5
1F8
100
AcDbSymbolTableRecord
100
AcDbLinetypeTableRecord
  2
DOT
 70
64
  3
. . . . . . . . . . . . . . . . . . . .
 72
65
 73
2
 40
0.2
 49
0.1
 74
0
 49
-0.1
 74
0
  0
LTYPE
  5
1F9
100
AcDbSymbolTableRecord
100
AcDbLinetypeTableRecord
  2
DASHED
 70
64
  3
- - - - - - - - - - - - - - - - - - - -
 72
65
 73
2
 40
0.2
 49
0.1
 74
0
 49
-0.1
 74
0
  0
ENDTAB
  0
TABLE
  2
LAYER
  5
2
100
AcDbSymbolTable
 70
36
  0
LAYER
  5
10
100
AcDbSymbolTableRecord
100
AcDbLayerTableRecord
  2
0
 70
0
 62
7
  6
CONTINUOUS
370
-3
390
F
  0
LAYER
  5
1FA
100
AcDbSymbolTableRecord
100
AcDbLayerTableRecord
  2
DEFAULT_1
 70
0
 62
7
  6
CENTER
370
-3
390
F
  0
LAYER
  5
1FB
100
AcDbSymbolTableRecord
100
AcDbLayerTableRecord
  2
DEFAULT_2
 70
0
 62
8
  6
HIDDEN
370
-3
390
F
  0
LAYER
  5
1FC
100
AcDbSymbolTableRecord
100
AcDbLayerTableRecord
  2
DEFAULT_3
 70
0
 62
7
  6
PHANTOM
370
-3
390
F
  0
LAYER
  5
1FD
100
AcDbSymbolTableRecord
100
AcDbLayerTableRecord
  2
ALL_FEATURES
 70
0
 62
7
  6
CONTINUOUS
370
-3
390
F
  0
LAYER
  5
1FE
100
AcDbSymbolTableRecord
100
AcDbLayerTableRecord
  2
AXES_FEATURES
 70
0
 62
7
  6
CONTINUOUS
370
-3
390
F
  0
LAYER
  5
1FF
100
AcDbSymbolTableRecord
100
AcDbLayerTableRecord
  2
DEFAULT_COORDINATE_SYSTEM
 70
0
 62
7
  6
CONTINUOUS
370
-3
390
F
  0
LAYER
  5
200
100
AcDbSymbolTableRecord
100
AcDbLayerTableRecord
  2
DEFAULT_DATUM_AXES
 70
0
 62
7
  6
CONTINUOUS
370
-3
390
F
  0
LAYER
  5
201
100
AcDbSymbolTableRecord
100
AcDbLayerTableRecord
  2
DEFAULT_DATUM_PLANES
 70
0
 62
7
  6
CONTINUOUS
370
-3
390
F
  0
LAYER
  5
202
100
AcDbSymbolTableRecord
100
AcDbLayerTableRecord
  2
DIMENSIONS
 70
0
 62
7
  6
CONTINUOUS
370
-3
390
F
  0
ENDTAB
  0
TABLE
  2
STYLE
  5
3
100
AcDbSymbolTable
 70
1
  0
STYLE
  5
11
100
AcDbSymbolTableRecord
100
AcDbTextStyleTableRecord
  2
STANDARD
 70
0
 40
0.0
 41
0.8
 50
0.0
 71
0
 42
0.2
  3
txt
  4

  0
STYLE
  5
203
100
AcDbSymbolTableRecord
100
AcDbTextStyleTableRecord
  2
TEXTSTYLE_1
 70
0
 40
0.0
 41
0.8
 50
0.0
 71
0
 42
0.2
  3
gdt
  4

  0
ENDTAB
  0
TABLE
  2
VIEW
  5
6
100
AcDbSymbolTable
 70
0
  0
ENDTAB
  0
TABLE
  2
UCS
  5
7
100
AcDbSymbolTable
 70
0
  0
ENDTAB
  0
TABLE
  2
APPID
  5
9
100
AcDbSymbolTable
 70
1
  0
APPID
  5
204
100
AcDbSymbolTableRecord
100
AcDbRegAppTableRecord
  2
ACAD
 70
0
  0
ENDTAB
  0
TABLE
  2
BLOCK_RECORD
  5
1
100
AcDbSymbolTable
 70
0
  0
BLOCK_RECORD
  5
205
100
AcDbSymbolTableRecord
100
AcDbBlockTableRecord
  2
*Model_Space
  0
BLOCK_RECORD
  5
206
100
AcDbSymbolTableRecord
100
AcDbBlockTableRecord
  2
*Paper_Space
  0
BLOCK_RECORD
  5
207
100
AcDbSymbolTableRecord
100
AcDbBlockTableRecord
  2
_FILLED
  0
ENDTAB
  0
TABLE
  2
DIMSTYLE
  5
A
100
AcDbSymbolTable
 70
1
100
AcDbDimStyleTable
 71
0
  0
DIMSTYLE
105
208
100
AcDbSymbolTableRecord
100
AcDbDimStyleTableRecord
  2
STANDARD
 70
0
  3

  4

 40
1.0
 41
0.1
 42
0.0625
 43
0.38
 44
0.125
 45
0.0
 46
0.0
 47
0.001
 48
0.001
140
0.08
141
0.09
142
0.0
143
25.4
144
1.0
145
0.0
146
1.0
147
0.09
 71
1.0
 72
0.0
 73
1
 74
1
 75
0
 76
0
 77
0
 78
4
 79
1
170
1
171
2
172
0
173
0
174
0
175
0
176
0
177
0
178
0
270
2
179
3
271
3
272
3
273
2
274
2
275
0
280
0
281
0
282
0
283
1
284
4
285
0
286
0
287
3
288
0
340
11
278
46
341
207
342
207
343
207
344
207
  0
ENDTAB
  0
ENDSEC
  0
SECTION
  2
BLOCKS
  0
BLOCK
  5
20
100
AcDbEntity
  8
0
100
AcDbBlockBegin
  2
*Model_Space
 70
0
 10
0.0
 20
0.0
 30
0.0
  3
*Model_Space
  1

  0
ENDBLK
  5
21
100
AcDbEntity
  8
0
100
AcDbBlockEnd
  0
BLOCK
  5
1C
100
AcDbEntity
  8
0
100
AcDbBlockBegin
  2
*Paper_Space
 70
0
 10
0.0
 20
0.0
 30
0.0
  3
*Paper_Space
  1

  0
ENDBLK
  5
1D
100
AcDbEntity
  8
0
100
AcDbBlockEnd
  0
BLOCK
  5
209
100
AcDbEntity
  8
0
100
AcDbBlockBegin
  2
_FILLED
 70
64
 10
0.0
 20
0.0
  3
_FILLED
  1

  0
SOLID
  5
20A
100
AcDbEntity
  8
0
  6
BYBLOCK
 62
0
100
AcDbTrace
 10
0.0
 20
0.0
 11
-1.0
 21
0.2
 12
-1.0
 22
-0.2
 13
-1.0
 23
-0.2
  0
ENDBLK
  5
20B
100
AcDbEntity
  8
0
  6
BYBLOCK
 62
0
100
AcDbBlockEnd
  0
ENDSEC
  0
SECTION
  2
ENTITIES
  0
LINE
  5
20C
100
AcDbEntity
  8
0
100
AcDbLine
 62
9
  6
CONTINUOUS
 10
10.6521736817
 20
5.9215225672
 11
11.4424629948
 21
5.9215225672
  0
LINE
  5
20D
100
AcDbEntity
  8
0
100
AcDbLine
 62
7
  6
CONTINUOUS
 10
10.5473187016
 20
5.9453318604
 11
11.5473179749
 21
5.9453318604
  0
LINE
  5
20E
100
AcDbEntity
  8
0
100
AcDbLine
 62
7
  6
CONTINUOUS
 10
10.7267146666
 20
6.0453318604
 11
10.5516385834
 21
6.0453318604
  0
LINE
  5
20F
100
AcDbEntity
  8
0
100
AcDbLine
 62
7
  6
CONTINUOUS
 10
11.3679220529
 20
6.0453318604
 11
11.5429980931
 21
6.0453318604
  0
LINE
  5
210
100
AcDbEntity
  8
0
100
AcDbLine
 62
7
  6
CONTINUOUS
 10
10.7267146597
 20
6.3453318604
 11
10.5516385834
 21
6.3453318604
  0
LINE
  5
211
100
AcDbEntity
  8
0
100
AcDbLine
 62
7
  6
CONTINUOUS
 10
11.3679220583
 20
6.3453318604
 11
11.5429980931
 21
6.3453318604
  0
LINE
  5
212
100
AcDbEntity
  8
0
100
AcDbLine
 62
7
  6
CONTINUOUS
 10
9.9973183383
 20
7.8653318604
 11
9.9973183383
 21
7.7653318604
  0
LINE
  5
213
100
AcDbEntity
  8
0
100
AcDbLine
 62
7
  6
CONTINUOUS
 10
10.5473183383
 20
6.4453318604
 11
11.5473183383
 21
6.4453318604
  0
LINE
  5
214
100
AcDbEntity
  8
0
100
AcDbLine
 62
7
  6
CONTINUOUS
 10
10.7348183383
 20
6.5535850359
 11
11.3598183383
 21
6.5535850359
  0
LINE
  5
215
100
AcDbEntity
  8
0
100
AcDbLine
 62
7
  6
CONTINUOUS
 10
10.5098183383
 20
7.1153318604
 11
10.5098183383
 21
7.0653318604
  0
LINE
  5
216
100
AcDbEntity
  8
0
100
AcDbLine
 62
7
  6
CONTINUOUS
 10
10.7348186766
 20
6.9453318604
 11
11.359818
 21
6.9453318604
  0
LINE
  5
217
100
AcDbEntity
  8
0
100
AcDbLine
 62
7
  6
CONTINUOUS
 10
11.5473183383
 20
6.4453318604
 11
11.3598183383
 21
6.5535850359
  0
LINE
  5
218
100
AcDbEntity
  8
0
100
AcDbLine
 62
7
  6
CONTINUOUS
 10
10.5473183383
 20
5.9453318604
 11
10.5473183383
 21
6.0450508704
  0
LINE
  5
219
100
AcDbEntity
  8
0
100
AcDbLine
 62
7
  6
CONTINUOUS
 10
10.5473183383
 20
6.345619542
 11
10.5473183383
 21
6.4453318604
  0
LINE
  5
21A
100
AcDbEntity
  8
0
100
AcDbLine
 62
7
  6
CONTINUOUS
 10
10.6098183383
 20
7.0653318604
 11
10.6098183383
 21
6.9653318604
  0
LINE
  5
21B
100
AcDbEntity
  8
0
100
AcDbLine
 62
7
  6
CONTINUOUS
 10
10.7348183383
 20
6.5535850359
 11
10.7348183383
 21
6.9453318604
  0
LINE
  5
21C
100
AcDbEntity
  8
0
100
AcDbLine
 62
7
  6
CONTINUOUS
 10
10.609819129
 20
6.9653318604
 11
11.4848175476
 21
6.9653318604
  0
LINE
  5
21D
100
AcDbEntity
  8
0
100
AcDbLine
 62
7
  6
CONTINUOUS
 10
10.5098189864
 20
7.0653318604
 11
11.5848176902
 21
7.0653318604
  0
LINE
  5
21E
100
AcDbEntity
  8
0
100
AcDbLine
 62
7
  6
CONTINUOUS
 10
10.4098184045
 20
7.1153318604
 11
11.684818272
 21
7.1153318604
  0
LINE
  5
21F
100
AcDbEntity
  8
0
100
AcDbLine
 62
7
  6
CONTINUOUS
 10
10.8473183383
 20
6.9653318604
 11
10.8473183383
 21
6.9453318604
  0
LINE
  5
220
100
AcDbEntity
  8
0
100
AcDbLine
 62
7
  6
CONTINUOUS
 10
11.2473183383
 20
6.9653318604
 11
11.2473183383
 21
6.9453318604
  0
LINE
  5
221
100
AcDbEntity
  8
0
100
AcDbLine
 62
7
  6
CONTINUOUS
 10
11.3598183383
 20
6.5535850359
 11
11.3598183383
 21
6.9453318604
  0
LINE
  5
222
100
AcDbEntity
  8
0
100
AcDbLine
 62
7
  6
CONTINUOUS
 10
9.9973183383
 20
7.7653318604
 11
12.0973183383
 21
7.7653318604
  0
LINE
  5
223
100
AcDbEntity
  8
0
100
AcDbLine
 62
7
  6
CONTINUOUS
 10
11.4848183383
 20
7.0653318604
 11
11.4848183383
 21
6.9653318604
  0
LINE
  5
224
100
AcDbEntity
  8
0
100
AcDbLine
 62
7
  6
CONTINUOUS
 10
11.5473183383
 20
5.9453318604
 11
11.5473183383
 21
6.0450441788
  0
LINE
  5
225
100
AcDbEntity
  8
0
100
AcDbLine
 62
7
  6
CONTINUOUS
 10
11.5473183383
 20
6.3456128504
 11
11.5473183383
 21
6.4453318604
  0
LINE
  5
226
100
AcDbEntity
  8
0
100
AcDbLine
 62
7
  6
CONTINUOUS
 10
11.5848183383
 20
7.1153318604
 11
11.5848183383
 21
7.0653318604
  0
LINE
  5
227
100
AcDbEntity
  8
0
100
AcDbLine
 62
7
  6
CONTINUOUS
 10
9.9223189039
 20
7.8653318604
 11
12.1723177726
 21
7.8653318604
  0
LINE
  5
228
100
AcDbEntity
  8
0
100
AcDbLine
 62
9
  6
CONTINUOUS
 10
9.9118292299
 20
8.0097901431
 11
12.1828074467
 21
8.0097901431
  0
LINE
  5
229
100
AcDbEntity
  8
0
100
AcDbLine
 62
7
  6
CONTINUOUS
 10
10.5473183383
 20
6.4453318604
 11
10.7348183383
 21
6.5535850359
  0
LINE
  5
22A
100
AcDbEntity
  8
0
100
AcDbLine
 62
7
  6
CONTINUOUS
 10
12.3098183383
 20
8.2403318604
 11
9.7848183383
 21
8.2403318604
  0
LINE
  5
22B
100
AcDbEntity
  8
0
100
AcDbLine
 62
7
  6
CONTINUOUS
 10
13.8041570779
 20
8.3403318604
 11
8.2904795986
 21
8.3403318604
  0
LINE
  5
22C
100
AcDbEntity
  8
0
100
AcDbLine
 62
7
  6
CONTINUOUS
 10
12.0973183383
 20
7.8653318604
 11
12.0973183383
 21
7.7653318604
  0
LINE
  5
22D
100
AcDbEntity
  8
0
100
AcDbLine
 62
9
  6
CONTINUOUS
 10
14.0212377081
 20
8.4663318604
 11
8.0733989685
 21
8.4663318604
  0
LINE
  5
22E
100
AcDbEntity
  8
0
100
AcDbLine
 62
7
  6
CONTINUOUS
 10
14.2382345161
 20
8.5923318464
 11
7.8564021604
 21
8.5923318464
  0
LINE
  5
22F
100
AcDbEntity
  8
0
100
AcDbLine
 62
9
  6
CONTINUOUS
 10
14.4552392802
 20
8.7183346126
 11
7.6393973963
 21
8.7183346126
  0
LINE
  5
230
100
AcDbEntity
  8
0
100
AcDbLine
 62
7
  6
CONTINUOUS
 10
14.6723183383
 20
8.8443318604
 11
7.4223183383
 21
8.8443318604
  0
LINE
  5
231
100
AcDbEntity
  8
0
100
AcDbLine
 62
7
  6
CONTINUOUS
 10
14.9223183383
 20
9.0943318604
 11
7.1723183383
 21
9.0943318604
  0
ARC
  5
232
100
AcDbEntity
  8
0
100
AcDbCircle
 62
7
  6
CONTINUOUS
 10
11.0473183383
 20
7.4210018759
 40
1.5506700155
100
AcDbArc
 50
255.2369687319
 51
284.7630312681
  0
ARC
  5
233
100
AcDbEntity
  8
0
100
AcDbCircle
 62
7
  6
CONTINUOUS
 10
13.1723183383
 20
7.8653318604
 40
1.0
100
AcDbArc
 50
171.6940891949
 51
180.0
  0
ARC
  5
234
100
AcDbEntity
  8
0
100
AcDbCircle
 62
7
  6
CONTINUOUS
 10
8.9223183383
 20
7.8653318604
 40
1.0
100
AcDbArc
 50
0.0
 51
8.3059108051
  0
ARC
  5
235
100
AcDbEntity
  8
0
100
AcDbCircle
 62
7
  6
CONTINUOUS
 10
9.6914471262
 20
7.1153318604
 40
0.7183712121
100
AcDbArc
 50
0.0
 51
64.7996803478
  0
ARC
  5
236
100
AcDbEntity
  8
0
100
AcDbCircle
 62
7
  6
CONTINUOUS
 10
12.4031895504
 20
7.1153318604
 40
0.7183712121
100
AcDbArc
 50
115.2003196522
 51
180.0
  0
ARC
  5
237
100
AcDbEntity
  8
0
100
AcDbCircle
 62
7
  6
CONTINUOUS
 10
10.2256179528
 20
5.9475736444
 40
0.4977669599
100
AcDbArc
 50
74.806863965
 51
105.193136035
  0
ARC
  5
238
100
AcDbEntity
  8
0
100
AcDbCircle
 62
7
  6
CONTINUOUS
 10
10.2256179528
 20
6.4430900795
 40
0.4977669599
100
AcDbArc
 50
254.8068640591
 51
285.1931359409
  0
ARC
  5
239
100
AcDbEntity
  8
0
100
AcDbCircle
 62
7
  6
CONTINUOUS
 10
11.8690187238
 20
5.9475736444
 40
0.4977669599
100
AcDbArc
 50
74.806863965
 51
105.193136035
  0
ARC
  5
23A
100
AcDbEntity
  8
0
100
AcDbCircle
 62
7
  6
CONTINUOUS
 10
11.8690187238
 20
6.4430900795
 40
0.4977669599
100
AcDbArc
 50
254.8068640591
 51
285.1931359409
  0
ARC
  5
23B
100
AcDbEntity
  8
0
100
AcDbCircle
 62
7
  6
CONTINUOUS
 10
12.553874031
 20
7.9556182871
 40
0.375
100
AcDbArc
 50
130.6030912348
 51
171.6940891949
  0
ARC
  5
23C
100
AcDbEntity
  8
0
100
AcDbCircle
 62
7
  6
CONTINUOUS
 10
9.5407626455
 20
7.9556182871
 40
0.375
100
AcDbArc
 50
8.3059108051
 51
49.3969087652
  0
ARC
  5
23D
100
AcDbEntity
  8
0
100
AcDbCircle
 62
7
  6
CONTINUOUS
 10
14.2381506903
 20
8.8423428097
 40
0.2500109774
100
AcDbArc
 50
270.0192106228
 51
330.2635604814
  0
ARC
  5
23E
100
AcDbEntity
  8
0
100
AcDbCircle
 62
7
  6
CONTINUOUS
 10
7.8564859863
 20
8.8423428097
 40
0.2500109774
100
AcDbArc
 50
209.7364395186
 51
269.9807893772
  0
ARC
  5
23F
100
AcDbEntity
  8
0
100
AcDbCircle
 62
7
  6
CONTINUOUS
 10
14.6723183383
 20
9.0943318604
 40
0.25
100
AcDbArc
 50
270.0
 51
360.0
  0
ARC
  5
240
100
AcDbEntity
  8
0
100
AcDbCircle
 62
7
  6
CONTINUOUS
 10
7.4223183383
 20
9.0943318604
 40
0.25
100
AcDbArc
 50
180.0
 51
270.0
  0
ARC
  5
241
100
AcDbEntity
  8
0
100
AcDbCircle
 62
7
  6
CONTINUOUS
 10
14.6723183383
 20
8.5943318604
 40
0.25
100
AcDbArc
 50
90.0
 51
150.2635604814
  0
ARC
  5
242
100
AcDbEntity
  8
0
100
AcDbCircle
 62
7
  6
CONTINUOUS
 10
7.4223183383
 20
8.5943318604
 40
0.25
100
AcDbArc
 50
29.7364395186
 51
90.0
  0
ARC
  5
243
100
AcDbEntity
  8
0
100
AcDbCircle
 62
7
  6
CONTINUOUS
 10
14.2383183383
 20
8.3423318604
 40
0.25
100
AcDbArc
 50
90.0192106228
 51
150.2642868924
  0
ARC
  5
244
100
AcDbEntity
  8
0
100
AcDbCircle
 62
7
  6
CONTINUOUS
 10
7.8563183383
 20
8.3423318604
 40
0.25
100
AcDbArc
 50
29.7357131076
 51
89.9807893772
  0
ARC
  5
245
100
AcDbEntity
  8
0
100
AcDbCircle
 62
7
  6
CONTINUOUS
 10
13.8041570779
 20
8.5903318604
 40
0.25
100
AcDbArc
 50
270.0
 51
330.2642868924
  0
ARC
  5
246
100
AcDbEntity
  8
0
100
AcDbCircle
 62
7
  6
CONTINUOUS
 10
8.2904795986
 20
8.5903318604
 40
0.25
100
AcDbArc
 50
209.7357131076
 51
270.0
  0
ARC
  5
247
100
AcDbEntity
  8
0
100
AcDbCircle
 62
7
  6
CONTINUOUS
 10
11.4076771239
 20
6.2423505399
 40
0.1103968949
100
AcDbArc
 50
111.1871721347
 51
112.2295954017
  0
ARC
  5
248
100
AcDbEntity
  8
0
100
AcDbCircle
 62
7
  6
CONTINUOUS
 10
10.6869595977
 20
6.1483130699
 40
0.1103967751
100
AcDbArc
 50
291.1870287356
 51
292.2295950297
  0
ARC
  5
249
100
AcDbEntity
  8
0
100
AcDbCircle
 62
7
  6
CONTINUOUS
 10
11.4075427662
 20
6.1479756986
 40
0.1100336658
100
AcDbArc
 50
247.768684001
 51
248.8145642028
  0
ARC
  5
24A
100
AcDbEntity
  8
0
100
AcDbCircle
 62
7
  6
CONTINUOUS
 10
10.6870939576
 20
6.24268814
 40
0.1100335389
100
AcDbArc
 50
67.7686840033
 51
68.8146717184
  0
ARC
  5
24B
100
AcDbEntity
  8
0
100
AcDbCircle
 62
7
  6
CONTINUOUS
 10
11.3643384633
 20
6.2678101597
 40
0.0841513899
100
AcDbArc
 50
67.1806987374
 51
77.2193580109
  0
ARC
  5
24C
100
AcDbEntity
  8
0
100
AcDbCircle
 62
7
  6
CONTINUOUS
 10
11.3643384634
 20
6.1228535609
 40
0.0841513897
100
AcDbArc
 50
282.7806412347
 51
292.8193012724
  0
ARC
  5
24D
100
AcDbEntity
  8
0
100
AcDbCircle
 62
7
  6
CONTINUOUS
 10
10.7302982112
 20
6.2678101655
 40
0.0841513837
100
AcDbArc
 50
102.7806226277
 51
112.8193015145
  0
ARC
  5
24E
100
AcDbEntity
  8
0
100
AcDbCircle
 62
7
  6
CONTINUOUS
 10
10.730298211
 20
6.1228535546
 40
0.0841513829
100
AcDbArc
 50
247.1806984555
 51
257.2193796772
  0
ARC
  5
24F
100
AcDbEntity
  8
0
100
AcDbCircle
 62
7
  6
CONTINUOUS
 10
12.3098183383
 20
8.2903318604
 40
0.05
100
AcDbArc
 50
270.0
 51
90.0
  0
ARC
  5
250
100
AcDbEntity
  8
0
100
AcDbCircle
 62
7
  6
CONTINUOUS
 10
9.7848183383
 20
8.2903318604
 40
0.05
100
AcDbArc
 50
90.0
 51
270.0
  0
ARC
  5
251
100
AcDbEntity
  8
0
100
AcDbCircle
 62
7
  6
CONTINUOUS
 10
11.4348183383
 20
5.9505322074
 40
0.03
100
AcDbArc
 50
284.7630312681
 51
350.0109837019
  0
ARC
  5
252
100
AcDbEntity
  8
0
100
AcDbCircle
 62
7
  6
CONTINUOUS
 10
10.6598183383
 20
5.9505322074
 40
0.03
100
AcDbArc
 50
189.9890162981
 51
255.2369687319
  0
SPLINE
  5
253
100
AcDbEntity
  8
0
100
AcDbSpline
 62
7
  6
CONTINUOUS
 70
0
 71
3
 72
25
 73
21
 74
0
 42
0.0000001
 43
0.0000001
 44
0.0000000001
 40
0.0
 40
0.0
 40
0.0
 40
0.0
 40
0.010762776
 40
0.0237916549
 40
0.0389403894
 40
0.0560700578
 40
0.095854591
 40
0.1424007148
 40
0.1949749209
 40
0.252856193
 40
0.3153898183
 40
0.3819652943
 40
0.452027391
 40
0.5250672954
 40
0.6005950507
 40
0.6781318557
 40
0.7572052105
 40
0.8373961203
 40
0.9184157485
 40
1.0
 40
1.0
 40
1.0
 40
1.0
 10
10.4647587413
 20
6.3713323692
 30
0.0
 10
10.4650121501
 20
6.3711194846
 30
0.0
 10
10.4655783263
 20
6.3706560181
 30
0.0
 10
10.4665212018
 20
6.3699177376
 30
0.0
 10
10.4676367457
 20
6.3690828819
 30
0.0
 10
10.4694406236
 20
6.3677955147
 30
0.0
 10
10.4720935243
 20
6.3660373279
 30
0.0
 10
10.475755677
 20
6.363836208
 30
0.0
 10
10.4799992871
 20
6.3615306743
 30
0.0
 10
10.484782469
 20
6.359199005
 30
0.0
 10
10.4900573266
 20
6.3569055329
 30
0.0
 10
10.4957769955
 20
6.3547099503
 30
0.0
 10
10.5018932555
 20
6.3526629526
 30
0.0
 10
10.5083565322
 20
6.3508046494
 30
0.0
 10
10.5151184914
 20
6.3491772128
 30
0.0
 10
10.5221259156
 20
6.3478048716
 30
0.0
 10
10.5293274794
 20
6.3467118332
 30
0.0
 10
10.5366762353
 20
6.345920793
 30
0.0
 10
10.5441289821
 20
6.3454399327
 30
0.0
 10
10.5491298169
 20
6.3453318604
 30
0.0
 10
10.5516385834
 20
6.3453318604
 30
0.0
  0
SPLINE
  5
254
100
AcDbEntity
  8
0
100
AcDbSpline
 62
7
  6
CONTINUOUS
 70
0
 71
3
 72
23
 73
19
 74
0
 42
0.0000001
 43
0.0000001
 44
0.0000000001
 40
0.0
 40
0.0
 40
0.0
 40
0.0
 40
0.0815856926
 40
0.1626025128
 40
0.2427945625
 40
0.3218740701
 40
0.3994152595
 40
0.4749455416
 40
0.5479868806
 40
0.6180501065
 40
0.6846271987
 40
0.7471623991
 40
0.8576015009
 40
0.9041383942
 40
0.9439167551
 40
0.9762429096
 40
0.9892839283
 40
1.0
 40
1.0
 40
1.0
 40
1.0
 10
10.5516385834
 20
6.0453318604
 30
0.0
 10
10.5491298446
 20
6.0453318604
 30
0.0
 10
10.5441291956
 20
6.0452238683
 30
0.0
 10
10.5366766598
 20
6.0447431282
 30
0.0
 10
10.5293279963
 20
6.0439518951
 30
0.0
 10
10.5221263031
 20
6.0428587639
 30
0.0
 10
10.5151186056
 20
6.0414867776
 30
0.0
 10
10.508356643
 20
6.0398591003
 30
0.0
 10
10.501893428
 20
6.0380006868
 30
0.0
 10
10.4957771876
 20
6.0359539736
 30
0.0
 10
10.4900574644
 20
6.0337581157
 30
0.0
 10
10.4833007603
 20
6.0308206315
 30
0.0
 10
10.4772810459
 20
6.027743996
 30
0.0
 10
10.4720939122
 20
6.0246266773
 30
0.0
 10
10.4690517941
 20
6.0226108458
 30
0.0
 10
10.4669342851
 20
6.0210693614
 30
0.0
 10
10.4655764374
 20
6.0200060183
 30
0.0
 10
10.4650110432
 20
6.0195433063
 30
0.0
 10
10.4647587413
 20
6.0193313516
 30
0.0
  0
SPLINE
  5
255
100
AcDbEntity
  8
0
100
AcDbSpline
 62
7
  6
CONTINUOUS
 70
0
 71
3
 72
11
 73
7
 74
0
 42
0.0000001
 43
0.0000001
 44
0.0000000001
 40
0.0
 40
0.0
 40
0.0
 40
0.0
 40
0.2494947078
 40
0.4993637396
 40
0.7495542456
 40
1.0
 40
1.0
 40
1.0
 40
1.0
 10
10.4647587413
 20
6.3713323692
 30
0.0
 10
10.4568982312
 20
6.3779358578
 30
0.0
 10
10.4404091019
 20
6.3902794728
 30
0.0
 10
10.4137943669
 20
6.4059799651
 30
0.0
 10
10.3856127601
 20
6.4187467256
 30
0.0
 10
10.3660091152
 20
6.4252216891
 30
0.0
 10
10.3560673022
 20
6.4279344486
 30
0.0
  0
SPLINE
  5
256
100
AcDbEntity
  8
0
100
AcDbSpline
 62
7
  6
CONTINUOUS
 70
0
 71
3
 72
25
 73
21
 74
0
 42
0.0000001
 43
0.0000001
 44
0.0000000001
 40
0.0
 40
0.0
 40
0.0
 40
0.0
 40
0.0625800899
 40
0.1251304905
 40
0.1876305922
 40
0.2500830603
 40
0.3124755868
 40
0.3748007267
 40
0.4370610684
 40
0.4992521942
 40
0.5613881137
 40
0.6234959599
 40
0.6856210597
 40
0.7478498172
 40
0.8103029059
 40
0.8731199712
 40
0.9047047112
 40
0.9363964165
 40
0.9681750523
 40
1.0
 40
1.0
 40
1.0
 40
1.0
 10
10.0951686034
 20
6.4279344486
 30
0.0
 10
10.0885986776
 20
6.4261417546
 30
0.0
 10
10.0755821426
 20
6.4220984296
 30
0.0
 10
10.0565391892
 20
6.4146869054
 30
0.0
 10
10.0380771721
 20
6.4059574515
 30
0.0
 10
10.0202969968
 20
6.3959466883
 30
0.0
 10
10.0032975574
 20
6.3846944752
 30
0.0
 10
9.9871787018
 20
6.3722468364
 30
0.0
 10
9.9720410572
 20
6.3586546762
 30
0.0
 10
9.9579856602
 20
6.343973519
 30
0.0
 10
9.9451164077
 20
6.3282623718
 30
0.0
 10
9.9335394414
 20
6.311583227
 30
0.0
 10
9.92336669
 20
6.2939988119
 30
0.0
 10
9.9147183575
 20
6.27557245
 30
0.0
 10
9.9077287478
 20
6.2563731859
 30
0.0
 10
9.9034200461
 20
6.2398263015
 30
0.0
 10
9.9009561427
 20
6.2263226363
 30
0.0
 10
9.8996162907
 20
6.2160608583
 30
0.0
 10
9.8988049305
 20
6.2057179951
 30
0.0
 10
9.8986237632
 20
6.1987951277
 30
0.0
 10
9.8986237632
 20
6.1953318604
 30
0.0
  0
SPLINE
  5
257
100
AcDbEntity
  8
0
100
AcDbSpline
 62
7
  6
CONTINUOUS
 70
0
 71
3
 72
11
 73
7
 74
0
 42
0.0000001
 43
0.0000001
 44
0.0000000001
 40
0.0
 40
0.0
 40
0.0
 40
0.0
 40
0.2504458573
 40
0.5006352287
 40
0.7505021341
 40
1.0
 40
1.0
 40
1.0
 40
1.0
 10
10.3560673022
 20
5.9627292722
 30
0.0
 10
10.366009119
 20
5.9654420328
 30
0.0
 10
10.3856127796
 20
5.9719168475
 30
0.0
 10
10.4137940936
 20
5.9846839163
 30
0.0
 10
10.440409041
 20
6.0003840217
 30
0.0
 10
10.4568981319
 20
6.0127277796
 30
0.0
 10
10.4647587413
 20
6.0193313516
 30
0.0
  0
SPLINE
  5
258
100
AcDbEntity
  8
0
100
AcDbSpline
 62
7
  6
CONTINUOUS
 70
0
 71
3
 72
25
 73
21
 74
0
 42
0.0000001
 43
0.0000001
 44
0.0000000001
 40
0.0
 40
0.0
 40
0.0
 40
0.0
 40
0.0318269443
 40
0.0636070161
 40
0.0952999423
 40
0.126885584
 40
0.1897034274
 40
0.2521570064
 40
0.3143845919
 40
0.3765086362
 40
0.4386133731
 40
0.5007472406
 40
0.5629366641
 40
0.6251937538
 40
0.6875187016
 40
0.7499103474
 40
0.8123625134
 40
0.8748643086
 40
0.9374152179
 40
1.0
 40
1.0
 40
1.0
 40
1.0
 10
9.8986237632
 20
6.1953318604
 30
0.0
 10
9.8986237632
 20
6.1918683758
 30
0.0
 10
9.89880495
 20
6.1849451345
 30
0.0
 10
9.8996163895
 20
6.174601769
 30
0.0
 10
9.9009563535
 20
6.164339614
 30
0.0
 10
9.9034204564
 20
6.1508356638
 30
0.0
 10
9.9077293525
 20
6.1342885867
 30
0.0
 10
9.914719137
 20
6.1150893735
 30
0.0
 10
9.9233675609
 20
6.096663264
 30
0.0
 10
9.9335401556
 20
6.0790794325
 30
0.0
 10
9.9451167723
 20
6.0624008699
 30
0.0
 10
9.957985611
 20
6.0466903545
 30
0.0
 10
9.9720403712
 20
6.0320096441
 30
0.0
 10
9.9871776042
 20
6.0184178648
 30
0.0
 10
10.0032959835
 20
6.0059703824
 30
0.0
 10
10.0202952211
 20
5.9947181386
 30
0.0
 10
10.0380753285
 20
5.9847071353
 30
0.0
 10
10.0565375348
 20
5.9759775972
 30
0.0
 10
10.075581096
 20
5.9685655683
 30
0.0
 10
10.088598185
 20
5.9645221007
 30
0.0
 10
10.0951686034
 20
5.9627292722
 30
0.0
  0
SPLINE
  5
259
100
AcDbEntity
  8
0
100
AcDbSpline
 62
7
  6
CONTINUOUS
 70
0
 71
3
 72
23
 73
19
 74
0
 42
0.0000001
 43
0.0000001
 44
0.0000000001
 40
0.0
 40
0.0
 40
0.0
 40
0.0
 40
0.0815856926
 40
0.1626025128
 40
0.2427945625
 40
0.3218740701
 40
0.3994152595
 40
0.4749455416
 40
0.5479868806
 40
0.6180501065
 40
0.6846271987
 40
0.7471623991
 40
0.8576015009
 40
0.9041383942
 40
0.9439167551
 40
0.9762429096
 40
0.9892839283
 40
1.0
 40
1.0
 40
1.0
 40
1.0
 10
11.5429980931
 20
6.3453318604
 30
0.0
 10
11.5455068319
 20
6.3453318604
 30
0.0
 10
11.550507481
 20
6.3454398525
 30
0.0
 10
11.5579600167
 20
6.3459205926
 30
0.0
 10
11.5653086803
 20
6.3467118257
 30
0.0
 10
11.5725103735
 20
6.3478049569
 30
0.0
 10
11.579518071
 20
6.3491769432
 30
0.0
 10
11.5862800335
 20
6.3508046205
 30
0.0
 10
11.5927432485
 20
6.352663034
 30
0.0
 10
11.5988594889
 20
6.3547097472
 30
0.0
 10
11.6045792122
 20
6.3569056051
 30
0.0
 10
11.6113359162
 20
6.3598430893
 30
0.0
 10
11.6173556306
 20
6.3629197248
 30
0.0
 10
11.6225427644
 20
6.3660370435
 30
0.0
 10
11.6255848825
 20
6.368052875
 30
0.0
 10
11.6277023915
 20
6.3695943594
 30
0.0
 10
11.6290602392
 20
6.3706577025
 30
0.0
 10
11.6296256333
 20
6.3711204145
 30
0.0
 10
11.6298779352
 20
6.3713323692
 30
0.0
  0
SPLINE
  5
25A
100
AcDbEntity
  8
0
100
AcDbSpline
 62
7
  6
CONTINUOUS
 70
0
 71
3
 72
25
 73
21
 74
0
 42
0.0000001
 43
0.0000001
 44
0.0000000001
 40
0.0
 40
0.0
 40
0.0
 40
0.0
 40
0.010762776
 40
0.0237916549
 40
0.0389403894
 40
0.0560700578
 40
0.095854591
 40
0.1424007148
 40
0.1949749209
 40
0.252856193
 40
0.3153898183
 40
0.3819652943
 40
0.452027391
 40
0.5250672954
 40
0.6005950507
 40
0.6781318557
 40
0.7572052105
 40
0.8373961203
 40
0.9184157485
 40
1.0
 40
1.0
 40
1.0
 40
1.0
 10
11.6298779352
 20
6.0193313516
 30
0.0
 10
11.6296245264
 20
6.0195442362
 30
0.0
 10
11.6290583503
 20
6.0200077027
 30
0.0
 10
11.6281154747
 20
6.0207459832
 30
0.0
 10
11.6269999309
 20
6.021580839
 30
0.0
 10
11.6251960529
 20
6.0228682061
 30
0.0
 10
11.6225431523
 20
6.0246263929
 30
0.0
 10
11.6188809996
 20
6.0268275128
 30
0.0
 10
11.6146373895
 20
6.0291330465
 30
0.0
 10
11.6098542076
 20
6.0314647158
 30
0.0
 10
11.60457935
 20
6.0337581879
 30
0.0
 10
11.598859681
 20
6.0359537705
 30
0.0
 10
11.592743421
 20
6.0380007682
 30
0.0
 10
11.5862801444
 20
6.0398590714
 30
0.0
 10
11.5795181852
 20
6.041486508
 30
0.0
 10
11.5725107609
 20
6.0428588492
 30
0.0
 10
11.5653091971
 20
6.0439518876
 30
0.0
 10
11.5579604412
 20
6.0447429278
 30
0.0
 10
11.5505076945
 20
6.0452237882
 30
0.0
 10
11.5455068597
 20
6.0453318604
 30
0.0
 10
11.5429980931
 20
6.0453318604
 30
0.0
  0
SPLINE
  5
25B
100
AcDbEntity
  8
0
100
AcDbSpline
 62
7
  6
CONTINUOUS
 70
0
 71
3
 72
11
 73
7
 74
0
 42
0.0000001
 43
0.0000001
 44
0.0000000001
 40
0.0
 40
0.0
 40
0.0
 40
0.0
 40
0.2504458573
 40
0.5006352287
 40
0.7505021341
 40
1.0
 40
1.0
 40
1.0
 40
1.0
 10
11.7385693744
 20
6.4279344486
 30
0.0
 10
11.7286275576
 20
6.425221688
 30
0.0
 10
11.709023897
 20
6.4187468733
 30
0.0
 10
11.680842583
 20
6.4059798046
 30
0.0
 10
11.6542276356
 20
6.3902796991
 30
0.0
 10
11.6377385446
 20
6.3779359412
 30
0.0
 10
11.6298779352
 20
6.3713323692
 30
0.0
  0
SPLINE
  5
25C
100
AcDbEntity
  8
0
100
AcDbSpline
 62
7
  6
CONTINUOUS
 70
0
 71
3
 72
25
 73
21
 74
0
 42
0.0000001
 43
0.0000001
 44
0.0000000001
 40
0.0
 40
0.0
 40
0.0
 40
0.0
 40
0.0318269443
 40
0.0636070161
 40
0.0952999423
 40
0.126885584
 40
0.1897034274
 40
0.2521570064
 40
0.3143845919
 40
0.3765086362
 40
0.4386133731
 40
0.5007472406
 40
0.5629366641
 40
0.6251937538
 40
0.6875187016
 40
0.7499103474
 40
0.8123625134
 40
0.8748643086
 40
0.9374152179
 40
1.0
 40
1.0
 40
1.0
 40
1.0
 10
12.1960129133
 20
6.1953318604
 30
0.0
 10
12.1960129133
 20
6.198795345
 30
0.0
 10
12.1958317266
 20
6.2057185863
 30
0.0
 10
12.195020287
 20
6.2160619518
 30
0.0
 10
12.193680323
 20
6.2263241068
 30
0.0
 10
12.1912162201
 20
6.239828057
 30
0.0
 10
12.1869073241
 20
6.2563751341
 30
0.0
 10
12.1799175396
 20
6.2755743473
 30
0.0
 10
12.1712691156
 20
6.2940004568
 30
0.0
 10
12.161096521
 20
6.3115842883
 30
0.0
 10
12.1495199042
 20
6.3282628509
 30
0.0
 10
12.1366510656
 20
6.3439733663
 30
0.0
 10
12.1225963054
 20
6.3586540767
 30
0.0
 10
12.1074590723
 20
6.372245856
 30
0.0
 10
12.0913406931
 20
6.3846933384
 30
0.0
 10
12.0743414554
 20
6.3959455822
 30
0.0
 10
12.0565613481
 20
6.4059565855
 30
0.0
 10
12.0380991418
 20
6.4146861236
 30
0.0
 10
12.0190555806
 20
6.4220981525
 30
0.0
 10
12.0060384916
 20
6.4261416201
 30
0.0
 10
11.9994680731
 20
6.4279344486
 30
0.0
  0
SPLINE
  5
25D
100
AcDbEntity
  8
0
100
AcDbSpline
 62
7
  6
CONTINUOUS
 70
0
 71
3
 72
11
 73
7
 74
0
 42
0.0000001
 43
0.0000001
 44
0.0000000001
 40
0.0
 40
0.0
 40
0.0
 40
0.0
 40
0.2494947078
 40
0.4993637396
 40
0.7495542456
 40
1.0
 40
1.0
 40
1.0
 40
1.0
 10
11.6298779352
 20
6.0193313516
 30
0.0
 10
11.6377384454
 20
6.012727863
 30
0.0
 10
11.6542275747
 20
6.000384248
 30
0.0
 10
11.6808423097
 20
5.9846837557
 30
0.0
 10
11.7090239165
 20
5.9719169953
 30
0.0
 10
11.7286275614
 20
5.9654420317
 30
0.0
 10
11.7385693744
 20
5.9627292722
 30
0.0
  0
SPLINE
  5
25E
100
AcDbEntity
  8
0
100
AcDbSpline
 62
7
  6
CONTINUOUS
 70
0
 71
3
 72
25
 73
21
 74
0
 42
0.0000001
 43
0.0000001
 44
0.0000000001
 40
0.0
 40
0.0
 40
0.0
 40
0.0
 40
0.0625800899
 40
0.1251304905
 40
0.1876305922
 40
0.2500830603
 40
0.3124755868
 40
0.3748007267
 40
0.4370610684
 40
0.4992521942
 40
0.5613881137
 40
0.6234959599
 40
0.6856210597
 40
0.7478498172
 40
0.8103029059
 40
0.8731199712
 40
0.9047047112
 40
0.9363964165
 40
0.9681750523
 40
1.0
 40
1.0
 40
1.0
 40
1.0
 10
11.9994680731
 20
5.9627292722
 30
0.0
 10
12.0060379989
 20
5.9645219662
 30
0.0
 10
12.019054534
 20
5.9685652912
 30
0.0
 10
12.0380974874
 20
5.9759768154
 30
0.0
 10
12.0565595045
 20
5.9847062693
 30
0.0
 10
12.0743396797
 20
5.9947170325
 30
0.0
 10
12.0913391191
 20
6.0059692456
 30
0.0
 10
12.1074579748
 20
6.0184168844
 30
0.0
 10
12.1225956193
 20
6.0320090446
 30
0.0
 10
12.1366510164
 20
6.0466902018
 30
0.0
 10
12.1495202689
 20
6.062401349
 30
0.0
 10
12.1610972352
 20
6.0790804938
 30
0.0
 10
12.1712699866
 20
6.0966649089
 30
0.0
 10
12.1799183191
 20
6.1150912708
 30
0.0
 10
12.1869079288
 20
6.1342905349
 30
0.0
 10
12.1912166304
 20
6.1508374193
 30
0.0
 10
12.1936805339
 20
6.1643410845
 30
0.0
 10
12.1950203858
 20
6.1746028625
 30
0.0
 10
12.1958317461
 20
6.1849457257
 30
0.0
 10
12.1960129133
 20
6.1918685931
 30
0.0
 10
12.1960129133
 20
6.1953318604
 30
0.0
  0
SPLINE
  5
25F
100
AcDbEntity
  8
0
100
AcDbSpline
 62
7
  6
CONTINUOUS
 70
0
 71
3
 72
11
 73
7
 74
0
 42
0.0000001
 43
0.0000001
 44
0.0000000001
 40
0.0
 40
0.0
 40
0.0
 40
0.0
 40
0.2398402181
 40
0.4860642553
 40
0.7393061641
 40
1.0
 40
1.0
 40
1.0
 40
1.0
 10
10.6937649477
 20
6.3518318604
 30
0.0
 10
10.6964763871
 20
6.3518318604
 30
0.0
 10
10.7019749425
 20
6.3515455093
 30
0.0
 10
10.7102511514
 20
6.3502959747
 30
0.0
 10
10.7186048963
 20
6.348231751
 30
0.0
 10
10.7241104905
 20
6.3463502455
 30
0.0
 10
10.7268585181
 20
6.3452852132
 30
0.0
  0
SPLINE
  5
260
100
AcDbEntity
  8
0
100
AcDbSpline
 62
7
  6
CONTINUOUS
 70
0
 71
3
 72
35
 73
31
 74
0
 42
0.0000001
 43
0.0000001
 44
0.0000000001
 40
0.0
 40
0.0
 40
0.0
 40
0.0
 40
0.054794462
 40
0.0834073947
 40
0.1127545591
 40
0.1427780199
 40
0.1734147589
 40
0.2046000013
 40
0.2362691826
 40
0.3007710502
 40
0.3335255985
 40
0.3665286408
 40
0.3997275435
 40
0.4330716874
 40
0.466511928
 40
0.5000000001
 40
0.5334880723
 40
0.5669283128
 40
0.6002724567
 40
0.6334713594
 40
0.6664744015
 40
0.6992289499
 40
0.7637308175
 40
0.7953999987
 40
0.8265852411
 40
0.8572219801
 40
0.887245441
 40
0.9165926054
 40
0.945205538
 40
1.0
 40
1.0
 40
1.0
 40
1.0
 10
10.7287247928
 20
6.3445422182
 30
0.0
 10
10.7350134186
 20
6.341972197
 30
0.0
 10
10.7442470582
 20
6.3371770395
 30
0.0
 10
10.7558228132
 20
6.32932614
 30
0.0
 10
10.7643702385
 20
6.322530315
 30
0.0
 10
10.772580383
 20
6.3149585339
 30
0.0
 10
10.780385935
 20
6.3066545763
 30
0.0
 10
10.7877187541
 20
6.2976646768
 30
0.0
 10
10.7968288241
 20
6.2847562251
 30
0.0
 10
10.8046562435
 20
6.270747301
 30
0.0
 10
10.8110092513
 20
6.2558884464
 30
0.0
 10
10.8150167114
 20
6.2442806055
 30
0.0
 10
10.8181902207
 20
6.2323425127
 30
0.0
 10
10.8204889212
 20
6.2201498714
 30
0.0
 10
10.821881272
 20
6.2077845626
 30
0.0
 10
10.8223476426
 20
6.1953318603
 30
0.0
 10
10.821881272
 20
6.182879158
 30
0.0
 10
10.8204889212
 20
6.1705138492
 30
0.0
 10
10.8181902206
 20
6.1583212079
 30
0.0
 10
10.8150167113
 20
6.1463831151
 30
0.0
 10
10.8110092512
 20
6.1347752743
 30
0.0
 10
10.8046562434
 20
6.1199164197
 30
0.0
 10
10.796828824
 20
6.1059074955
 30
0.0
 10
10.787718754
 20
6.0929990439
 30
0.0
 10
10.7803859349
 20
6.0840091444
 30
0.0
 10
10.7725803829
 20
6.0757051868
 30
0.0
 10
10.7643702384
 20
6.0681334057
 30
0.0
 10
10.7558228131
 20
6.0613375807
 30
0.0
 10
10.7442470581
 20
6.0534866813
 30
0.0
 10
10.7350134185
 20
6.0486915238
 30
0.0
 10
10.7287247927
 20
6.0461215025
 30
0.0
  0
SPLINE
  5
261
100
AcDbEntity
  8
0
100
AcDbSpline
 62
7
  6
CONTINUOUS
 70
0
 71
3
 72
11
 73
7
 74
0
 42
0.0000001
 43
0.0000001
 44
0.0000000001
 40
0.0
 40
0.0
 40
0.0
 40
0.0
 40
0.2606938238
 40
0.5139357287
 40
0.76015977
 40
1.0
 40
1.0
 40
1.0
 40
1.0
 10
10.7268584816
 20
6.0453784935
 30
0.0
 10
10.7241104569
 20
6.0443134634
 30
0.0
 10
10.7186048686
 20
6.0424319619
 30
0.0
 10
10.710251133
 20
6.0403677427
 30
0.0
 10
10.7019749333
 20
6.0391182109
 30
0.0
 10
10.6964763841
 20
6.0388318604
 30
0.0
 10
10.6937649477
 20
6.0388318604
 30
0.0
  0
SPLINE
  5
262
100
AcDbEntity
  8
0
100
AcDbSpline
 62
7
  6
CONTINUOUS
 70
0
 71
3
 72
11
 73
7
 74
0
 42
0.0000001
 43
0.0000001
 44
0.0000000001
 40
0.0
 40
0.0
 40
0.0
 40
0.0
 40
0.239840156
 40
0.4860641737
 40
0.7393061032
 40
1.0
 40
1.0
 40
1.0
 40
1.0
 10
11.4008717289
 20
6.0388318604
 30
0.0
 10
11.3981602738
 20
6.0388318604
 30
0.0
 10
11.3926616861
 20
6.0391182148
 30
0.0
 10
11.3843854287
 20
6.0403677638
 30
0.0
 10
11.3760316353
 20
6.042432011
 30
0.0
 10
11.3705260101
 20
6.0443135375
 30
0.0
 10
11.3677779673
 20
6.0453785818
 30
0.0
  0
SPLINE
  5
263
100
AcDbEntity
  8
0
100
AcDbSpline
 62
7
  6
CONTINUOUS
 70
0
 71
3
 72
35
 73
31
 74
0
 42
0.0000001
 43
0.0000001
 44
0.0000000001
 40
0.0
 40
0.0
 40
0.0
 40
0.0
 40
0.0547944621
 40
0.0834073947
 40
0.1127545593
 40
0.1427780201
 40
0.1734147587
 40
0.2046000013
 40
0.2362691825
 40
0.3007710494
 40
0.3335255973
 40
0.3665286366
 40
0.3997275392
 40
0.4330716844
 40
0.4665119254
 40
0.5
 40
0.5334880745
 40
0.5669283156
 40
0.6002724608
 40
0.6334713634
 40
0.6664744027
 40
0.6992289506
 40
0.7637308175
 40
0.7953999987
 40
0.8265852412
 40
0.8572219799
 40
0.8872454407
 40
0.9165926053
 40
0.9452055379
 40
1.0
 40
1.0
 40
1.0
 40
1.0
 10
11.3659118829
 20
6.0461215029
 30
0.0
 10
11.3596232572
 20
6.0486915242
 30
0.0
 10
11.3503896176
 20
6.0534866818
 30
0.0
 10
11.3388138627
 20
6.0613375813
 30
0.0
 10
11.3302664375
 20
6.0681334062
 30
0.0
 10
11.3220562931
 20
6.0757051873
 30
0.0
 10
11.3142507412
 20
6.0840091449
 30
0.0
 10
11.3069179222
 20
6.0929990444
 30
0.0
 10
11.2978078523
 20
6.1059074959
 30
0.0
 10
11.289980433
 20
6.1199164199
 30
0.0
 10
11.2836274256
 20
6.134775274
 30
0.0
 10
11.2796199654
 20
6.1463831143
 30
0.0
 10
11.2764464563
 20
6.1583212068
 30
0.0
 10
11.2741477555
 20
6.1705138482
 30
0.0
 10
11.2727554047
 20
6.1828791575
 30
0.0
 10
11.2722890339
 20
6.1953318604
 30
0.0
 10
11.2727554047
 20
6.2077845632
 30
0.0
 10
11.2741477555
 20
6.2201498726
 30
0.0
 10
11.2764464563
 20
6.232342514
 30
0.0
 10
11.2796199654
 20
6.2442806065
 30
0.0
 10
11.2836274256
 20
6.2558884468
 30
0.0
 10
11.289980433
 20
6.2707473009
 30
0.0
 10
11.2978078523
 20
6.2847562249
 30
0.0
 10
11.3069179222
 20
6.2976646765
 30
0.0
 10
11.3142507412
 20
6.3066545759
 30
0.0
 10
11.3220562931
 20
6.3149585335
 30
0.0
 10
11.3302664375
 20
6.3225303146
 30
0.0
 10
11.3388138627
 20
6.3293261395
 30
0.0
 10
11.3503896176
 20
6.337177039
 30
0.0
 10
11.3596232572
 20
6.3419721966
 30
0.0
 10
11.3659118829
 20
6.3445422179
 30
0.0
  0
SPLINE
  5
264
100
AcDbEntity
  8
0
100
AcDbSpline
 62
7
  6
CONTINUOUS
 70
0
 71
3
 72
11
 73
7
 74
0
 42
0.0000001
 43
0.0000001
 44
0.0000000001
 40
0.0
 40
0.0
 40
0.0
 40
0.0
 40
0.2606939066
 40
0.5139358392
 40
0.7601598533
 40
1.0
 40
1.0
 40
1.0
 40
1.0
 10
11.3677779391
 20
6.3452851281
 30
0.0
 10
11.3705259842
 20
6.3463501741
 30
0.0
 10
11.376031614
 20
6.3482317038
 30
0.0
 10
11.3843854145
 20
6.3502959544
 30
0.0
 10
11.392661679
 20
6.3515455055
 30
0.0
 10
11.3981602715
 20
6.3518318604
 30
0.0
 10
11.4008717289
 20
6.3518318604
 30
0.0
  0
SPLINE
  5
265
100
AcDbEntity
  8
0
100
AcDbSpline
 62
9
  6
CONTINUOUS
 70
0
 71
3
 72
22
 73
18
 74
0
 42
0.0000001
 43
0.0000001
 44
0.0000000001
 40
0.0
 40
0.0
 40
0.0
 40
0.0
 40
0.0514641185
 40
0.1034167896
 40
0.1563146867
 40
0.2105555317
 40
0.266458984
 40
0.3242563044
 40
0.3840877079
 40
0.4460054027
 40
0.509980251
 40
0.5759104056
 40
0.6436308006
 40
0.7129228359
 40
0.7835239187
 40
0.8551367292
 40
1.0
 40
1.0
 40
1.0
 40
1.0
 10
10.5516385834
 20
6.0453318604
 30
0.0
 10
10.5551123662
 20
6.0453318604
 30
0.0
 10
10.5621024434
 20
6.0458195906
 30
0.0
 10
10.5724570796
 20
6.0480025101
 30
0.0
 10
10.5826036501
 20
6.0516132546
 30
0.0
 10
10.5924398788
 20
6.0566123584
 30
0.0
 10
10.6018720062
 20
6.062947165
 30
0.0
 10
10.6108107362
 20
6.0705531473
 30
0.0
 10
10.6191725344
 20
6.079354806
 30
0.0
 10
10.6268794878
 20
6.0892662896
 30
0.0
 10
10.6338597821
 20
6.1001919572
 30
0.0
 10
10.6400481976
 20
6.1120269637
 30
0.0
 10
10.6453867351
 20
6.1246581965
 30
0.0
 10
10.6498251261
 20
6.1379645459
 30
0.0
 10
10.6533216993
 20
6.1518204721
 30
0.0
 10
10.6566953401
 20
6.1709135244
 30
0.0
 10
10.6577046006
 20
6.1855537169
 30
0.0
 10
10.6577046006
 20
6.1953318604
 30
0.0
  0
SPLINE
  5
266
100
AcDbEntity
  8
0
100
AcDbSpline
 62
9
  6
CONTINUOUS
 70
0
 71
3
 72
22
 73
18
 74
0
 42
0.0000001
 43
0.0000001
 44
0.0000000001
 40
0.0
 40
0.0
 40
0.0
 40
0.0
 40
0.0514641185
 40
0.1034167896
 40
0.1563146867
 40
0.2105555317
 40
0.266458984
 40
0.3242563044
 40
0.3840877079
 40
0.4460054027
 40
0.509980251
 40
0.5759104056
 40
0.6436308006
 40
0.7129228359
 40
0.7835239187
 40
0.8551367292
 40
1.0
 40
1.0
 40
1.0
 40
1.0
 10
11.5429980931
 20
6.3453318604
 30
0.0
 10
11.5395243103
 20
6.3453318604
 30
0.0
 10
11.5325342331
 20
6.3448441302
 30
0.0
 10
11.522179597
 20
6.3426612107
 30
0.0
 10
11.5120330264
 20
6.3390504662
 30
0.0
 10
11.5021967977
 20
6.3340513624
 30
0.0
 10
11.4927646704
 20
6.3277165558
 30
0.0
 10
11.4838259404
 20
6.3201105735
 30
0.0
 10
11.4754641422
 20
6.3113089148
 30
0.0
 10
11.4677571887
 20
6.3013974312
 30
0.0
 10
11.4607768944
 20
6.2904717636
 30
0.0
 10
11.4545884789
 20
6.2786367571
 30
0.0
 10
11.4492499414
 20
6.2660055244
 30
0.0
 10
11.4448115504
 20
6.2526991749
 30
0.0
 10
11.4413149773
 20
6.2388432487
 30
0.0
 10
11.4379413365
 20
6.2197501964
 30
0.0
 10
11.436932076
 20
6.2051100039
 30
0.0
 10
11.436932076
 20
6.1953318604
 30
0.0
  0
SPLINE
  5
267
100
AcDbEntity
  8
0
100
AcDbSpline
 62
9
  6
CONTINUOUS
 70
0
 71
3
 72
16
 73
12
 74
0
 42
0.0000001
 43
0.0000001
 44
0.0000000001
 40
0.0
 40
0.0
 40
0.0
 40
0.0
 40
0.135251212
 40
0.2693764635
 40
0.4013057394
 40
0.5300581131
 40
0.6548009361
 40
0.7748996701
 40
0.8331047255
 40
0.8900300168
 40
1.0
 40
1.0
 40
1.0
 40
1.0
 10
10.5355839625
 20
6.1953318604
 30
0.0
 10
10.5355839625
 20
6.2041428866
 30
0.0
 10
10.5347834064
 20
6.2217023071
 30
0.0
 10
10.5311953683
 20
6.2476344381
 30
0.0
 10
10.5252803838
 20
6.2727059608
 30
0.0
 10
10.5171336542
 20
6.2965015611
 30
0.0
 10
10.5068879897
 20
6.3186278055
 30
0.0
 10
10.4966275115
 20
6.3355511691
 30
0.0
 10
10.4875110521
 20
6.3478806687
 30
0.0
 10
10.4780612187
 20
6.3591020609
 30
0.0
 10
10.4702441005
 20
6.366724255
 30
0.0
 10
10.4647587356
 20
6.3713323556
 30
0.0
  0
SPLINE
  5
268
100
AcDbEntity
  8
0
100
AcDbSpline
 62
9
  6
CONTINUOUS
 70
0
 71
3
 72
22
 73
18
 74
0
 42
0.0000001
 43
0.0000001
 44
0.0000000001
 40
0.0
 40
0.0
 40
0.0
 40
0.0
 40
0.1448632708
 40
0.2164760813
 40
0.287077164
 40
0.3563691994
 40
0.4240895944
 40
0.490019749
 40
0.5539945973
 40
0.6159122921
 40
0.6757436956
 40
0.733541016
 40
0.7894444683
 40
0.8436853133
 40
0.8965832104
 40
0.9485358815
 40
1.0
 40
1.0
 40
1.0
 40
1.0
 10
10.6577046006
 20
6.1953318604
 30
0.0
 10
10.6577046006
 20
6.2051100039
 30
0.0
 10
10.6566953401
 20
6.2197501964
 30
0.0
 10
10.6533216993
 20
6.2388432487
 30
0.0
 10
10.6498251261
 20
6.2526991749
 30
0.0
 10
10.6453867351
 20
6.2660055244
 30
0.0
 10
10.6400481976
 20
6.2786367571
 30
0.0
 10
10.6338597821
 20
6.2904717636
 30
0.0
 10
10.6268794878
 20
6.3013974312
 30
0.0
 10
10.6191725344
 20
6.3113089148
 30
0.0
 10
10.6108107362
 20
6.3201105735
 30
0.0
 10
10.6018720062
 20
6.3277165558
 30
0.0
 10
10.5924398788
 20
6.3340513624
 30
0.0
 10
10.5826036501
 20
6.3390504662
 30
0.0
 10
10.5724570796
 20
6.3426612107
 30
0.0
 10
10.5621024434
 20
6.3448441302
 30
0.0
 10
10.5551123662
 20
6.3453318604
 30
0.0
 10
10.5516385834
 20
6.3453318604
 30
0.0
  0
SPLINE
  5
269
100
AcDbEntity
  8
0
100
AcDbSpline
 62
9
  6
CONTINUOUS
 70
0
 71
3
 72
39
 73
35
 74
0
 42
0.0000001
 43
0.0000001
 44
0.0000000001
 40
0.0
 40
0.0
 40
0.0
 40
0.0
 40
0.0724305473
 40
0.1082357938
 40
0.1435358098
 40
0.178181077
 40
0.2120406209
 40
0.2450050454
 40
0.2769918498
 40
0.307950102
 40
0.3230421803
 40
0.3378750466
 40
0.3667731482
 40
0.3947243258
 40
0.4218442108
 40
0.4482926331
 40
0.474268452
 40
0.5
 40
0.525731548
 40
0.5517073669
 40
0.5781557892
 40
0.6052756742
 40
0.6332268518
 40
0.6621249534
 40
0.6769578197
 40
0.692049898
 40
0.7230081502
 40
0.7549949546
 40
0.7879593791
 40
0.821818923
 40
0.8564641902
 40
0.8917642062
 40
0.9275694527
 40
1.0
 40
1.0
 40
1.0
 40
1.0
 10
9.9014692651
 20
6.1953318604
 30
0.0
 10
9.9014692651
 20
6.2023063548
 30
0.0
 10
9.9021891145
 20
6.2127487666
 30
0.0
 10
9.9045955041
 20
6.2263672713
 30
0.0
 10
9.9070894701
 20
6.2362502669
 30
0.0
 10
9.910255274
 20
6.2457413047
 30
0.0
 10
9.9140630648
 20
6.2547507649
 30
0.0
 10
9.91847715
 20
6.2631924147
 30
0.0
 10
9.9234557289
 20
6.270985072
 30
0.0
 10
9.9280761259
 20
6.2769270645
 30
0.0
 10
9.9320122499
 20
6.2812748891
 30
0.0
 10
9.9360250075
 20
6.2852753964
 30
0.0
 10
9.9412932107
 20
6.2897581565
 30
0.0
 10
9.9480206155
 20
6.2942763714
 30
0.0
 10
9.955036661
 20
6.297842129
 30
0.0
 10
9.962273577
 20
6.300417542
 30
0.0
 10
9.969660405
 20
6.30197455
 30
0.0
 10
9.9771230501
 20
6.3024955494
 30
0.0
 10
9.9845856952
 20
6.30197455
 30
0.0
 10
9.9919725232
 20
6.300417542
 30
0.0
 10
9.9992094392
 20
6.297842129
 30
0.0
 10
10.0062254847
 20
6.2942763714
 30
0.0
 10
10.0129528896
 20
6.2897581565
 30
0.0
 10
10.0182210927
 20
6.2852753964
 30
0.0
 10
10.0222338503
 20
6.2812748891
 30
0.0
 10
10.0261699743
 20
6.2769270645
 30
0.0
 10
10.0307903713
 20
6.270985072
 30
0.0
 10
10.0357689503
 20
6.2631924147
 30
0.0
 10
10.0401830354
 20
6.2547507649
 30
0.0
 10
10.0439908263
 20
6.2457413047
 30
0.0
 10
10.0471566301
 20
6.2362502669
 30
0.0
 10
10.0496505962
 20
6.2263672713
 30
0.0
 10
10.0520569857
 20
6.2127487666
 30
0.0
 10
10.0527768351
 20
6.2023063548
 30
0.0
 10
10.0527768351
 20
6.1953318604
 30
0.0
  0
SPLINE
  5
26A
100
AcDbEntity
  8
0
100
AcDbSpline
 62
9
  6
CONTINUOUS
 70
0
 71
3
 72
22
 73
18
 74
0
 42
0.0000001
 43
0.0000001
 44
0.0000000001
 40
0.0
 40
0.0
 40
0.0
 40
0.0
 40
0.051530946
 40
0.104158123
 40
0.1581378512
 40
0.213669204
 40
0.2708910088
 40
0.3298822223
 40
0.3906647106
 40
0.4532075567
 40
0.5174322242
 40
0.5832180951
 40
0.6504081455
 40
0.7188144351
 40
0.7882238445
 40
0.85840258
 40
1.0
 40
1.0
 40
1.0
 40
1.0
 10
10.3560672974
 20
5.962729307
 30
0.0
 10
10.3608354953
 20
5.9640303504
 30
0.0
 10
10.3703252117
 20
5.9672366783
 30
0.0
 10
10.3840775087
 20
5.9737039972
 30
0.0
 10
10.3973767114
 20
5.9818210156
 30
0.0
 10
10.4101222904
 20
5.9915233819
 30
0.0
 10
10.4222220571
 20
6.0027367724
 30
0.0
 10
10.4335879826
 20
6.015376283
 30
0.0
 10
10.4441377536
 20
6.0293472657
 30
0.0
 10
10.4537948454
 20
6.0445457487
 30
0.0
 10
10.4624890994
 20
6.0608590629
 30
0.0
 10
10.470157202
 20
6.0781664719
 30
0.0
 10
10.4767431878
 20
6.0963401448
 30
0.0
 10
10.4821988544
 20
6.1152453237
 30
0.0
 10
10.4864843763
 20
6.1347439856
 30
0.0
 10
10.4906071353
 20
6.1614085851
 30
0.0
 10
10.491841275
 20
6.18175076
 30
0.0
 10
10.491841275
 20
6.1953318604
 30
0.0
  0
SPLINE
  5
26B
100
AcDbEntity
  8
0
100
AcDbSpline
 62
9
  6
CONTINUOUS
 70
0
 71
3
 72
39
 73
35
 74
0
 42
0.0000001
 43
0.0000001
 44
0.0000000001
 40
0.0
 40
0.0
 40
0.0
 40
0.0
 40
0.0724305473
 40
0.1082357938
 40
0.1435358098
 40
0.178181077
 40
0.2120406209
 40
0.2450050454
 40
0.2769918498
 40
0.307950102
 40
0.3230421803
 40
0.3378750466
 40
0.3667731482
 40
0.3947243258
 40
0.4218442108
 40
0.4482926331
 40
0.474268452
 40
0.5
 40
0.525731548
 40
0.5517073669
 40
0.5781557892
 40
0.6052756742
 40
0.6332268518
 40
0.6621249534
 40
0.6769578197
 40
0.692049898
 40
0.7230081502
 40
0.7549949546
 40
0.7879593791
 40
0.821818923
 40
0.8564641902
 40
0.8917642062
 40
0.9275694527
 40
1.0
 40
1.0
 40
1.0
 40
1.0
 10
9.9014692651
 20
6.1953318604
 30
0.0
 10
9.9014692651
 20
6.188357366
 30
0.0
 10
9.9021891145
 20
6.1779149542
 30
0.0
 10
9.9045955041
 20
6.1642964495
 30
0.0
 10
9.9070894701
 20
6.1544134539
 30
0.0
 10
9.910255274
 20
6.1449224161
 30
0.0
 10
9.9140630648
 20
6.1359129559
 30
0.0
 10
9.91847715
 20
6.1274713061
 30
0.0
 10
9.9234557289
 20
6.1196786488
 30
0.0
 10
9.9280761259
 20
6.1137366563
 30
0.0
 10
9.9320122499
 20
6.1093888317
 30
0.0
 10
9.9360250075
 20
6.1053883244
 30
0.0
 10
9.9412932107
 20
6.1009055643
 30
0.0
 10
9.9480206155
 20
6.0963873494
 30
0.0
 10
9.955036661
 20
6.0928215918
 30
0.0
 10
9.962273577
 20
6.0902461788
 30
0.0
 10
9.969660405
 20
6.0886891708
 30
0.0
 10
9.9771230501
 20
6.0881681714
 30
0.0
 10
9.9845856952
 20
6.0886891708
 30
0.0
 10
9.9919725232
 20
6.0902461788
 30
0.0
 10
9.9992094392
 20
6.0928215918
 30
0.0
 10
10.0062254847
 20
6.0963873494
 30
0.0
 10
10.0129528896
 20
6.1009055643
 30
0.0
 10
10.0182210927
 20
6.1053883244
 30
0.0
 10
10.0222338503
 20
6.1093888317
 30
0.0
 10
10.0261699743
 20
6.1137366563
 30
0.0
 10
10.0307903713
 20
6.1196786488
 30
0.0
 10
10.0357689503
 20
6.1274713061
 30
0.0
 10
10.0401830354
 20
6.1359129559
 30
0.0
 10
10.0439908263
 20
6.1449224161
 30
0.0
 10
10.0471566301
 20
6.1544134539
 30
0.0
 10
10.0496505962
 20
6.1642964495
 30
0.0
 10
10.0520569857
 20
6.1779149542
 30
0.0
 10
10.0527768351
 20
6.188357366
 30
0.0
 10
10.0527768351
 20
6.1953318604
 30
0.0
  0
SPLINE
  5
26C
100
AcDbEntity
  8
0
100
AcDbSpline
 62
9
  6
CONTINUOUS
 70
0
 71
3
 72
16
 73
12
 74
0
 42
0.0000001
 43
0.0000001
 44
0.0000000001
 40
0.0
 40
0.0
 40
0.0
 40
0.0
 40
0.135251212
 40
0.2693764635
 40
0.4013057394
 40
0.5300581131
 40
0.6548009361
 40
0.7748996701
 40
0.8331047255
 40
0.8900300168
 40
1.0
 40
1.0
 40
1.0
 40
1.0
 10
11.5590527141
 20
6.1953318604
 30
0.0
 10
11.5590527141
 20
6.1865208342
 30
0.0
 10
11.5598532702
 20
6.1689614138
 30
0.0
 10
11.5634413082
 20
6.1430292827
 30
0.0
 10
11.5693562928
 20
6.1179577601
 30
0.0
 10
11.5775030224
 20
6.0941621597
 30
0.0
 10
11.5877486869
 20
6.0720359153
 30
0.0
 10
11.5980091651
 20
6.0551125517
 30
0.0
 10
11.6071256244
 20
6.0427830521
 30
0.0
 10
11.6165754579
 20
6.0315616599
 30
0.0
 10
11.6243925761
 20
6.0239394659
 30
0.0
 10
11.6298779409
 20
6.0193313652
 30
0.0
  0
SPLINE
  5
26D
100
AcDbEntity
  8
0
100
AcDbSpline
 62
9
  6
CONTINUOUS
 70
0
 71
3
 72
22
 73
18
 74
0
 42
0.0000001
 43
0.0000001
 44
0.0000000001
 40
0.0
 40
0.0
 40
0.0
 40
0.0
 40
0.1448632708
 40
0.2164760813
 40
0.287077164
 40
0.3563691994
 40
0.4240895944
 40
0.490019749
 40
0.5539945973
 40
0.6159122921
 40
0.6757436956
 40
0.733541016
 40
0.7894444683
 40
0.8436853133
 40
0.8965832104
 40
0.9485358815
 40
1.0
 40
1.0
 40
1.0
 40
1.0
 10
11.436932076
 20
6.1953318604
 30
0.0
 10
11.436932076
 20
6.1855537169
 30
0.0
 10
11.4379413365
 20
6.1709135244
 30
0.0
 10
11.4413149773
 20
6.1518204721
 30
0.0
 10
11.4448115504
 20
6.1379645459
 30
0.0
 10
11.4492499414
 20
6.1246581965
 30
0.0
 10
11.4545884789
 20
6.1120269637
 30
0.0
 10
11.4607768944
 20
6.1001919572
 30
0.0
 10
11.4677571887
 20
6.0892662896
 30
0.0
 10
11.4754641422
 20
6.079354806
 30
0.0
 10
11.4838259404
 20
6.0705531473
 30
0.0
 10
11.4927646704
 20
6.062947165
 30
0.0
 10
11.5021967977
 20
6.0566123584
 30
0.0
 10
11.5120330264
 20
6.0516132546
 30
0.0
 10
11.522179597
 20
6.0480025101
 30
0.0
 10
11.5325342331
 20
6.0458195906
 30
0.0
 10
11.5395243103
 20
6.0453318604
 30
0.0
 10
11.5429980931
 20
6.0453318604
 30
0.0
  0
SPLINE
  5
26E
100
AcDbEntity
  8
0
100
AcDbSpline
 62
9
  6
CONTINUOUS
 70
0
 71
3
 72
22
 73
18
 74
0
 42
0.0000001
 43
0.0000001
 44
0.0000000001
 40
0.0
 40
0.0
 40
0.0
 40
0.0
 40
0.14159742
 40
0.2117761555
 40
0.2811855649
 40
0.3495918545
 40
0.4167819049
 40
0.4825677758
 40
0.5467924433
 40
0.6093352894
 40
0.6701177777
 40
0.7291089912
 40
0.786330796
 40
0.8418621488
 40
0.895841877
 40
0.948469054
 40
1.0
 40
1.0
 40
1.0
 40
1.0
 10
11.6027954016
 20
6.1953318604
 30
0.0
 10
11.6027954016
 20
6.2089129608
 30
0.0
 10
11.6040295413
 20
6.2292551357
 30
0.0
 10
11.6081523002
 20
6.2559197352
 30
0.0
 10
11.6124378222
 20
6.2754183971
 30
0.0
 10
11.6178934888
 20
6.294323576
 30
0.0
 10
11.6244794746
 20
6.3124972489
 30
0.0
 10
11.6321475772
 20
6.3298046579
 30
0.0
 10
11.6408418312
 20
6.3461179721
 30
0.0
 10
11.650498923
 20
6.3613164551
 30
0.0
 10
11.661048694
 20
6.3752874378
 30
0.0
 10
11.6724146195
 20
6.3879269484
 30
0.0
 10
11.6845143862
 20
6.399140339
 30
0.0
 10
11.6972599652
 20
6.4088427052
 30
0.0
 10
11.7105591679
 20
6.4169597236
 30
0.0
 10
11.7243114649
 20
6.4234270425
 30
0.0
 10
11.7338011813
 20
6.4266333704
 30
0.0
 10
11.7385693792
 20
6.4279344138
 30
0.0
  0
SPLINE
  5
26F
100
AcDbEntity
  8
0
100
AcDbSpline
 62
9
  6
CONTINUOUS
 70
0
 71
3
 72
29
 73
25
 74
0
 42
0.0000001
 43
0.0000001
 44
0.0000000001
 40
0.0
 40
0.0
 40
0.0
 40
0.0
 40
0.0740033657
 40
0.1475589768
 40
0.2202376875
 40
0.2916330692
 40
0.3613823104
 40
0.4291785142
 40
0.4947863411
 40
0.5580574556
 40
0.6189458908
 40
0.6775221159
 40
0.7060151664
 40
0.7340152263
 40
0.7615674584
 40
0.7887246523
 40
0.8155469029
 40
0.8421006975
 40
0.8684577841
 40
0.8946939972
 40
0.9208876581
 40
0.9471179749
 40
0.9734633987
 40
1.0
 40
1.0
 40
1.0
 40
1.0
 10
11.8002253063
 20
6.1953318604
 30
0.0
 10
11.8002253063
 20
6.2040139478
 30
0.0
 10
11.800897889
 20
6.2213332332
 30
0.0
 10
11.8039157862
 20
6.247020303
 30
0.0
 10
11.8089055249
 20
6.2720889016
 30
0.0
 10
11.8158082353
 20
6.2962365904
 30
0.0
 10
11.8245422414
 20
6.3191743215
 30
0.0
 10
11.8350047995
 20
6.3406270845
 30
0.0
 10
11.8470730563
 20
6.3603374329
 30
0.0
 10
11.8606069411
 20
6.3780685189
 30
0.0
 10
11.8754468789
 20
6.3936038662
 30
0.0
 10
11.8888881552
 20
6.4046661357
 30
0.0
 10
11.9001064826
 20
6.4121911873
 30
0.0
 10
11.908651133
 20
6.4171275965
 30
0.0
 10
11.9173762515
 20
6.4213919116
 30
0.0
 10
11.9262558391
 20
6.4249708345
 30
0.0
 10
11.9352627433
 20
6.4278531746
 30
0.0
 10
11.9443694918
 20
6.4300298741
 30
0.0
 10
11.95354821
 20
6.431493749
 30
0.0
 10
11.9627706385
 20
6.4322404127
 30
0.0
 10
11.9720083469
 20
6.4322672478
 30
0.0
 10
11.9812329996
 20
6.4315741605
 30
0.0
 10
11.9904155478
 20
6.4301637408
 30
0.0
 10
11.99646459
 20
6.4287539385
 30
0.0
 10
11.9994680684
 20
6.4279344138
 30
0.0
  0
SPLINE
  5
270
100
AcDbEntity
  8
0
100
AcDbSpline
 62
9
  6
CONTINUOUS
 70
0
 71
3
 72
39
 73
35
 74
0
 42
0.0000001
 43
0.0000001
 44
0.0000000001
 40
0.0
 40
0.0
 40
0.0
 40
0.0
 40
0.0724305473
 40
0.1082357938
 40
0.1435358098
 40
0.178181077
 40
0.2120406209
 40
0.2450050454
 40
0.2769918498
 40
0.307950102
 40
0.3230421803
 40
0.3378750466
 40
0.3667731482
 40
0.3947243258
 40
0.4218442108
 40
0.4482926331
 40
0.474268452
 40
0.5
 40
0.525731548
 40
0.5517073669
 40
0.5781557892
 40
0.6052756742
 40
0.6332268518
 40
0.6621249534
 40
0.6769578197
 40
0.692049898
 40
0.7230081502
 40
0.7549949546
 40
0.7879593791
 40
0.821818923
 40
0.8564641902
 40
0.8917642062
 40
0.9275694527
 40
1.0
 40
1.0
 40
1.0
 40
1.0
 10
12.0418598414
 20
6.1953318604
 30
0.0
 10
12.0418598414
 20
6.2023063548
 30
0.0
 10
12.0425796909
 20
6.2127487666
 30
0.0
 10
12.0449860804
 20
6.2263672713
 30
0.0
 10
12.0474800465
 20
6.2362502669
 30
0.0
 10
12.0506458503
 20
6.2457413047
 30
0.0
 10
12.0544536412
 20
6.2547507649
 30
0.0
 10
12.0588677263
 20
6.2631924147
 30
0.0
 10
12.0638463053
 20
6.270985072
 30
0.0
 10
12.0684667022
 20
6.2769270645
 30
0.0
 10
12.0724028263
 20
6.2812748891
 30
0.0
 10
12.0764155839
 20
6.2852753964
 30
0.0
 10
12.081683787
 20
6.2897581565
 30
0.0
 10
12.0884111918
 20
6.2942763714
 30
0.0
 10
12.0954272374
 20
6.297842129
 30
0.0
 10
12.1026641534
 20
6.300417542
 30
0.0
 10
12.1100509813
 20
6.30197455
 30
0.0
 10
12.1175136265
 20
6.3024955494
 30
0.0
 10
12.1249762716
 20
6.30197455
 30
0.0
 10
12.1323630995
 20
6.300417542
 30
0.0
 10
12.1396000155
 20
6.297842129
 30
0.0
 10
12.1466160611
 20
6.2942763714
 30
0.0
 10
12.1533434659
 20
6.2897581565
 30
0.0
 10
12.1586116691
 20
6.2852753964
 30
0.0
 10
12.1626244266
 20
6.2812748891
 30
0.0
 10
12.1665605507
 20
6.2769270645
 30
0.0
 10
12.1711809477
 20
6.270985072
 30
0.0
 10
12.1761595266
 20
6.2631924147
 30
0.0
 10
12.1805736117
 20
6.2547507649
 30
0.0
 10
12.1843814026
 20
6.2457413047
 30
0.0
 10
12.1875472064
 20
6.2362502669
 30
0.0
 10
12.1900411725
 20
6.2263672713
 30
0.0
 10
12.192447562
 20
6.2127487666
 30
0.0
 10
12.1931674115
 20
6.2023063548
 30
0.0
 10
12.1931674115
 20
6.1953318604
 30
0.0
  0
SPLINE
  5
271
100
AcDbEntity
  8
0
100
AcDbSpline
 62
9
  6
CONTINUOUS
 70
0
 71
3
 72
29
 73
25
 74
0
 42
0.0000001
 43
0.0000001
 44
0.0000000001
 40
0.0
 40
0.0
 40
0.0
 40
0.0
 40
0.0265366013
 40
0.0528820251
 40
0.0791123419
 40
0.1053060028
 40
0.1315422159
 40
0.1578993025
 40
0.1844530971
 40
0.2112753477
 40
0.2384325416
 40
0.2659847737
 40
0.2939848336
 40
0.3224778841
 40
0.3810541092
 40
0.4419425444
 40
0.5052136589
 40
0.5708214858
 40
0.6386176896
 40
0.7083669308
 40
0.7797623125
 40
0.8524410232
 40
0.9259966343
 40
1.0
 40
1.0
 40
1.0
 40
1.0
 10
10.0951686082
 20
5.962729307
 30
0.0
 10
10.0981720866
 20
5.9619097823
 30
0.0
 10
10.1042211288
 20
5.96049998
 30
0.0
 10
10.1134036769
 20
5.9590895604
 30
0.0
 10
10.1226283297
 20
5.958396473
 30
0.0
 10
10.1318660381
 20
5.9584233081
 30
0.0
 10
10.1410884665
 20
5.9591699718
 30
0.0
 10
10.1502671847
 20
5.9606338467
 30
0.0
 10
10.1593739333
 20
5.9628105462
 30
0.0
 10
10.1683808375
 20
5.9656928863
 30
0.0
 10
10.177260425
 20
5.9692718092
 30
0.0
 10
10.1859855436
 20
5.9735361243
 30
0.0
 10
10.194530194
 20
5.9784725335
 30
0.0
 10
10.2057485214
 20
5.9859975851
 30
0.0
 10
10.2191897977
 20
5.9970598546
 30
0.0
 10
10.2340297354
 20
6.0125952019
 30
0.0
 10
10.2475636202
 20
6.0303262879
 30
0.0
 10
10.2596318771
 20
6.0500366363
 30
0.0
 10
10.2700944352
 20
6.0714893993
 30
0.0
 10
10.2788284413
 20
6.0944271304
 30
0.0
 10
10.2857311517
 20
6.1185748192
 30
0.0
 10
10.2907208904
 20
6.1436434179
 30
0.0
 10
10.2937387875
 20
6.1693304876
 30
0.0
 10
10.2944113702
 20
6.186649773
 30
0.0
 10
10.2944113702
 20
6.1953318604
 30
0.0
  0
SPLINE
  5
272
100
AcDbEntity
  8
0
100
AcDbSpline
 62
9
  6
CONTINUOUS
 70
0
 71
3
 72
22
 73
18
 74
0
 42
0.0000001
 43
0.0000001
 44
0.0000000001
 40
0.0
 40
0.0
 40
0.0
 40
0.0
 40
0.14159742
 40
0.2117761555
 40
0.2811855649
 40
0.3495918545
 40
0.4167819049
 40
0.4825677758
 40
0.5467924433
 40
0.6093352894
 40
0.6701177777
 40
0.7291089912
 40
0.786330796
 40
0.8418621488
 40
0.895841877
 40
0.948469054
 40
1.0
 40
1.0
 40
1.0
 40
1.0
 10
11.6027954016
 20
6.1953318604
 30
0.0
 10
11.6027954016
 20
6.18175076
 30
0.0
 10
11.6040295413
 20
6.1614085851
 30
0.0
 10
11.6081523002
 20
6.1347439856
 30
0.0
 10
11.6124378222
 20
6.1152453237
 30
0.0
 10
11.6178934888
 20
6.0963401448
 30
0.0
 10
11.6244794746
 20
6.0781664719
 30
0.0
 10
11.6321475772
 20
6.0608590629
 30
0.0
 10
11.6408418312
 20
6.0445457487
 30
0.0
 10
11.650498923
 20
6.0293472657
 30
0.0
 10
11.661048694
 20
6.015376283
 30
0.0
 10
11.6724146195
 20
6.0027367724
 30
0.0
 10
11.6845143862
 20
5.9915233819
 30
0.0
 10
11.6972599652
 20
5.9818210156
 30
0.0
 10
11.7105591679
 20
5.9737039972
 30
0.0
 10
11.7243114649
 20
5.9672366783
 30
0.0
 10
11.7338011813
 20
5.9640303504
 30
0.0
 10
11.7385693792
 20
5.962729307
 30
0.0
  0
SPLINE
  5
273
100
AcDbEntity
  8
0
100
AcDbSpline
 62
9
  6
CONTINUOUS
 70
0
 71
3
 72
29
 73
25
 74
0
 42
0.0000001
 43
0.0000001
 44
0.0000000001
 40
0.0
 40
0.0
 40
0.0
 40
0.0
 40
0.0740033657
 40
0.1475589768
 40
0.2202376875
 40
0.2916330692
 40
0.3613823104
 40
0.4291785142
 40
0.4947863411
 40
0.5580574556
 40
0.6189458908
 40
0.6775221159
 40
0.7060151664
 40
0.7340152263
 40
0.7615674584
 40
0.7887246523
 40
0.8155469029
 40
0.8421006975
 40
0.8684577841
 40
0.8946939972
 40
0.9208876581
 40
0.9471179749
 40
0.9734633987
 40
1.0
 40
1.0
 40
1.0
 40
1.0
 10
11.8002253063
 20
6.1953318604
 30
0.0
 10
11.8002253063
 20
6.186649773
 30
0.0
 10
11.800897889
 20
6.1693304876
 30
0.0
 10
11.8039157862
 20
6.1436434179
 30
0.0
 10
11.8089055249
 20
6.1185748192
 30
0.0
 10
11.8158082353
 20
6.0944271304
 30
0.0
 10
11.8245422414
 20
6.0714893993
 30
0.0
 10
11.8350047995
 20
6.0500366363
 30
0.0
 10
11.8470730563
 20
6.0303262879
 30
0.0
 10
11.8606069411
 20
6.0125952019
 30
0.0
 10
11.8754468789
 20
5.9970598546
 30
0.0
 10
11.8888881552
 20
5.9859975851
 30
0.0
 10
11.9001064826
 20
5.9784725335
 30
0.0
 10
11.908651133
 20
5.9735361243
 30
0.0
 10
11.9173762515
 20
5.9692718092
 30
0.0
 10
11.9262558391
 20
5.9656928863
 30
0.0
 10
11.9352627433
 20
5.9628105462
 30
0.0
 10
11.9443694918
 20
5.9606338467
 30
0.0
 10
11.95354821
 20
5.9591699718
 30
0.0
 10
11.9627706385
 20
5.9584233081
 30
0.0
 10
11.9720083469
 20
5.958396473
 30
0.0
 10
11.9812329996
 20
5.9590895604
 30
0.0
 10
11.9904155478
 20
5.96049998
 30
0.0
 10
11.99646459
 20
5.9619097823
 30
0.0
 10
11.9994680684
 20
5.962729307
 30
0.0
  0
SPLINE
  5
274
100
AcDbEntity
  8
0
100
AcDbSpline
 62
9
  6
CONTINUOUS
 70
0
 71
3
 72
39
 73
35
 74
0
 42
0.0000001
 43
0.0000001
 44
0.0000000001
 40
0.0
 40
0.0
 40
0.0
 40
0.0
 40
0.0724305473
 40
0.1082357938
 40
0.1435358098
 40
0.178181077
 40
0.2120406209
 40
0.2450050454
 40
0.2769918498
 40
0.307950102
 40
0.3230421803
 40
0.3378750466
 40
0.3667731482
 40
0.3947243258
 40
0.4218442108
 40
0.4482926331
 40
0.474268452
 40
0.5
 40
0.525731548
 40
0.5517073669
 40
0.5781557892
 40
0.6052756742
 40
0.6332268518
 40
0.6621249534
 40
0.6769578197
 40
0.692049898
 40
0.7230081502
 40
0.7549949546
 40
0.7879593791
 40
0.821818923
 40
0.8564641902
 40
0.8917642062
 40
0.9275694527
 40
1.0
 40
1.0
 40
1.0
 40
1.0
 10
12.0418598414
 20
6.1953318604
 30
0.0
 10
12.0418598414
 20
6.188357366
 30
0.0
 10
12.0425796909
 20
6.1779149542
 30
0.0
 10
12.0449860804
 20
6.1642964495
 30
0.0
 10
12.0474800465
 20
6.1544134539
 30
0.0
 10
12.0506458503
 20
6.1449224161
 30
0.0
 10
12.0544536412
 20
6.1359129559
 30
0.0
 10
12.0588677263
 20
6.1274713061
 30
0.0
 10
12.0638463053
 20
6.1196786488
 30
0.0
 10
12.0684667022
 20
6.1137366563
 30
0.0
 10
12.0724028263
 20
6.1093888317
 30
0.0
 10
12.0764155839
 20
6.1053883244
 30
0.0
 10
12.081683787
 20
6.1009055643
 30
0.0
 10
12.0884111918
 20
6.0963873494
 30
0.0
 10
12.0954272374
 20
6.0928215918
 30
0.0
 10
12.1026641534
 20
6.0902461788
 30
0.0
 10
12.1100509813
 20
6.0886891708
 30
0.0
 10
12.1175136265
 20
6.0881681714
 30
0.0
 10
12.1249762716
 20
6.0886891708
 30
0.0
 10
12.1323630995
 20
6.0902461788
 30
0.0
 10
12.1396000155
 20
6.0928215918
 30
0.0
 10
12.1466160611
 20
6.0963873494
 30
0.0
 10
12.1533434659
 20
6.1009055643
 30
0.0
 10
12.1586116691
 20
6.1053883244
 30
0.0
 10
12.1626244266
 20
6.1093888317
 30
0.0
 10
12.1665605507
 20
6.1137366563
 30
0.0
 10
12.1711809477
 20
6.1196786488
 30
0.0
 10
12.1761595266
 20
6.1274713061
 30
0.0
 10
12.1805736117
 20
6.1359129559
 30
0.0
 10
12.1843814026
 20
6.1449224161
 30
0.0
 10
12.1875472064
 20
6.1544134539
 30
0.0
 10
12.1900411725
 20
6.1642964495
 30
0.0
 10
12.192447562
 20
6.1779149542
 30
0.0
 10
12.1931674115
 20
6.188357366
 30
0.0
 10
12.1931674115
 20
6.1953318604
 30
0.0
  0
SPLINE
  5
275
100
AcDbEntity
  8
0
100
AcDbSpline
 62
9
  6
CONTINUOUS
 70
0
 71
3
 72
16
 73
12
 74
0
 42
0.0000001
 43
0.0000001
 44
0.0000000001
 40
0.0
 40
0.0
 40
0.0
 40
0.0
 40
0.1099699832
 40
0.1668952746
 40
0.2251003301
 40
0.3451990642
 40
0.4699418872
 40
0.5986942611
 40
0.7306235374
 40
0.8647487892
 40
1.0
 40
1.0
 40
1.0
 40
1.0
 10
11.6298779409
 20
6.3713323556
 30
0.0
 10
11.6243925761
 20
6.366724255
 30
0.0
 10
11.6165754579
 20
6.3591020609
 30
0.0
 10
11.6071256244
 20
6.3478806687
 30
0.0
 10
11.598009165
 20
6.3355511691
 30
0.0
 10
11.5877486869
 20
6.3186278055
 30
0.0
 10
11.5775030223
 20
6.296501561
 30
0.0
 10
11.5693562928
 20
6.2727059606
 30
0.0
 10
11.5634413082
 20
6.2476344379
 30
0.0
 10
11.5598532702
 20
6.2217023069
 30
0.0
 10
11.5590527141
 20
6.2041428865
 30
0.0
 10
11.5590527141
 20
6.1953318604
 30
0.0
  0
SPLINE
  5
276
100
AcDbEntity
  8
0
100
AcDbSpline
 62
9
  6
CONTINUOUS
 70
0
 71
3
 72
22
 73
18
 74
0
 42
0.0000001
 43
0.0000001
 44
0.0000000001
 40
0.0
 40
0.0
 40
0.0
 40
0.0
 40
0.051530946
 40
0.104158123
 40
0.1581378512
 40
0.213669204
 40
0.2708910088
 40
0.3298822223
 40
0.3906647106
 40
0.4532075567
 40
0.5174322242
 40
0.5832180951
 40
0.6504081455
 40
0.7188144351
 40
0.7882238445
 40
0.85840258
 40
1.0
 40
1.0
 40
1.0
 40
1.0
 10
10.3560672974
 20
6.4279344138
 30
0.0
 10
10.3608354953
 20
6.4266333704
 30
0.0
 10
10.3703252117
 20
6.4234270425
 30
0.0
 10
10.3840775087
 20
6.4169597236
 30
0.0
 10
10.3973767114
 20
6.4088427052
 30
0.0
 10
10.4101222904
 20
6.399140339
 30
0.0
 10
10.4222220571
 20
6.3879269484
 30
0.0
 10
10.4335879826
 20
6.3752874378
 30
0.0
 10
10.4441377536
 20
6.3613164551
 30
0.0
 10
10.4537948454
 20
6.3461179721
 30
0.0
 10
10.4624890994
 20
6.3298046579
 30
0.0
 10
10.470157202
 20
6.3124972489
 30
0.0
 10
10.4767431878
 20
6.294323576
 30
0.0
 10
10.4821988544
 20
6.2754183971
 30
0.0
 10
10.4864843763
 20
6.2559197352
 30
0.0
 10
10.4906071353
 20
6.2292551357
 30
0.0
 10
10.491841275
 20
6.2089129608
 30
0.0
 10
10.491841275
 20
6.1953318604
 30
0.0
  0
SPLINE
  5
277
100
AcDbEntity
  8
0
100
AcDbSpline
 62
7
  6
CONTINUOUS
 70
0
 71
3
 72
11
 73
7
 74
0
 42
0.0000001
 43
0.0000001
 44
0.0000000001
 40
0.0
 40
0.0
 40
0.0
 40
0.0
 40
0.2550040232
 40
0.5055812526
 40
0.7532993229
 40
1.0
 40
1.0
 40
1.0
 40
1.0
 10
11.4008717289
 20
6.3518318604
 30
0.0
 10
11.4035111319
 20
6.3518318604
 30
0.0
 10
11.4087485751
 20
6.3515662846
 30
0.0
 10
11.4164638476
 20
6.3503421002
 30
0.0
 10
11.4239162714
 20
6.3483037334
 30
0.0
 10
11.4286841968
 20
6.346411456
 30
0.0
 10
11.4310023403
 20
6.3453407705
 30
0.0
  0
SPLINE
  5
278
100
AcDbEntity
  8
0
100
AcDbSpline
 62
7
  6
CONTINUOUS
 70
0
 71
3
 72
11
 73
7
 74
0
 42
0.0000001
 43
0.0000001
 44
0.0000000001
 40
0.0
 40
0.0
 40
0.0
 40
0.0
 40
0.2467006769
 40
0.4944187475
 40
0.7449959771
 40
1.0
 40
1.0
 40
1.0
 40
1.0
 10
11.4310023372
 20
6.0453229488
 30
0.0
 10
11.4286841939
 20
6.0442522636
 30
0.0
 10
11.4239162689
 20
6.0423599866
 30
0.0
 10
11.4164638459
 20
6.0403216203
 30
0.0
 10
11.4087485742
 20
6.0390974361
 30
0.0
 10
11.4035111316
 20
6.0388318604
 30
0.0
 10
11.4008717289
 20
6.0388318604
 30
0.0
  0
SPLINE
  5
279
100
AcDbEntity
  8
0
100
AcDbSpline
 62
7
  6
CONTINUOUS
 70
0
 71
3
 72
11
 73
7
 74
0
 42
0.0000001
 43
0.0000001
 44
0.0000000001
 40
0.0
 40
0.0
 40
0.0
 40
0.0
 40
0.2550040249
 40
0.5055812466
 40
0.7532993139
 40
1.0
 40
1.0
 40
1.0
 40
1.0
 10
10.6937649477
 20
6.0388318604
 30
0.0
 10
10.6911255408
 20
6.0388318604
 30
0.0
 10
10.6858880902
 20
6.0390974369
 30
0.0
 10
10.6781728069
 20
6.0403216249
 30
0.0
 10
10.6707203733
 20
6.0423599977
 30
0.0
 10
10.665952442
 20
6.0442522805
 30
0.0
 10
10.6636342957
 20
6.045322969
 30
0.0
  0
SPLINE
  5
27A
100
AcDbEntity
  8
0
100
AcDbSpline
 62
7
  6
CONTINUOUS
 70
0
 71
3
 72
11
 73
7
 74
0
 42
0.0000001
 43
0.0000001
 44
0.0000000001
 40
0.0
 40
0.0
 40
0.0
 40
0.0
 40
0.2467006871
 40
0.4944187539
 40
0.7449959748
 40
1.0
 40
1.0
 40
1.0
 40
1.0
 10
10.6636342899
 20
6.3453407491
 30
0.0
 10
10.6659524366
 20
6.3464114381
 30
0.0
 10
10.6707203687
 20
6.3483037217
 30
0.0
 10
10.6781728038
 20
6.3503420953
 30
0.0
 10
10.6858880886
 20
6.3515662838
 30
0.0
 10
10.6911255403
 20
6.3518318604
 30
0.0
 10
10.6937649477
 20
6.3518318604
 30
0.0
  0
SPLINE
  5
27B
100
AcDbEntity
  8
0
100
AcDbSpline
 62
9
  6
CONTINUOUS
 70
0
 71
3
 72
29
 73
25
 74
0
 42
0.0000001
 43
0.0000001
 44
0.0000000001
 40
0.0
 40
0.0
 40
0.0
 40
0.0
 40
0.0265366013
 40
0.0528820251
 40
0.0791123419
 40
0.1053060028
 40
0.1315422159
 40
0.1578993025
 40
0.1844530971
 40
0.2112753477
 40
0.2384325416
 40
0.2659847737
 40
0.2939848336
 40
0.3224778841
 40
0.3810541092
 40
0.4419425444
 40
0.5052136589
 40
0.5708214858
 40
0.6386176896
 40
0.7083669308
 40
0.7797623125
 40
0.8524410232
 40
0.9259966343
 40
1.0
 40
1.0
 40
1.0
 40
1.0
 10
10.0951686082
 20
6.4279344138
 30
0.0
 10
10.0981720866
 20
6.4287539385
 30
0.0
 10
10.1042211288
 20
6.4301637408
 30
0.0
 10
10.1134036769
 20
6.4315741605
 30
0.0
 10
10.1226283297
 20
6.4322672478
 30
0.0
 10
10.1318660381
 20
6.4322404127
 30
0.0
 10
10.1410884665
 20
6.431493749
 30
0.0
 10
10.1502671847
 20
6.4300298741
 30
0.0
 10
10.1593739333
 20
6.4278531746
 30
0.0
 10
10.1683808375
 20
6.4249708345
 30
0.0
 10
10.177260425
 20
6.4213919116
 30
0.0
 10
10.1859855436
 20
6.4171275965
 30
0.0
 10
10.194530194
 20
6.4121911873
 30
0.0
 10
10.2057485214
 20
6.4046661357
 30
0.0
 10
10.2191897977
 20
6.3936038662
 30
0.0
 10
10.2340297354
 20
6.3780685189
 30
0.0
 10
10.2475636202
 20
6.3603374329
 30
0.0
 10
10.2596318771
 20
6.3406270845
 30
0.0
 10
10.2700944352
 20
6.3191743215
 30
0.0
 10
10.2788284413
 20
6.2962365904
 30
0.0
 10
10.2857311517
 20
6.2720889016
 30
0.0
 10
10.2907208904
 20
6.247020303
 30
0.0
 10
10.2937387875
 20
6.2213332332
 30
0.0
 10
10.2944113702
 20
6.2040139478
 30
0.0
 10
10.2944113702
 20
6.1953318604
 30
0.0
  0
SPLINE
  5
27C
100
AcDbEntity
  8
0
100
AcDbSpline
 62
9
  6
CONTINUOUS
 70
0
 71
3
 72
16
 73
12
 74
0
 42
0.0000001
 43
0.0000001
 44
0.0000000001
 40
0.0
 40
0.0
 40
0.0
 40
0.0
 40
0.1099699832
 40
0.1668952746
 40
0.2251003301
 40
0.3451990642
 40
0.4699418872
 40
0.5986942611
 40
0.7306235374
 40
0.8647487892
 40
1.0
 40
1.0
 40
1.0
 40
1.0
 10
10.4647587356
 20
6.0193313652
 30
0.0
 10
10.4702441005
 20
6.0239394659
 30
0.0
 10
10.4780612187
 20
6.0315616599
 30
0.0
 10
10.4875110521
 20
6.0427830521
 30
0.0
 10
10.4966275115
 20
6.0551125517
 30
0.0
 10
10.5068879897
 20
6.0720359153
 30
0.0
 10
10.5171336542
 20
6.0941621598
 30
0.0
 10
10.5252803838
 20
6.1179577602
 30
0.0
 10
10.5311953684
 20
6.1430292829
 30
0.0
 10
10.5347834064
 20
6.1689614139
 30
0.0
 10
10.5355839625
 20
6.1865208343
 30
0.0
 10
10.5355839625
 20
6.1953318604
 30
0.0
  0
ENDSEC
  0
SECTION
  2
OBJECTS
  0
DICTIONARY
  5
C
100
AcDbDictionary
280
0
281
1
  3
ACAD_GROUP
350
D
  3
ACAD_MLINESTYLE
350
17
  3
ACAD_LAYOUT
350
1A
  3
ACAD_PLOTSETTINGS
350
19
  3
ACAD_PLOTSTYLENAME
350
E
  0
DICTIONARY
  5
D
102
{ACAD_REACTORS
330
C
102
}
100
AcDbDictionary
280
0
281
1
  0
ACDBDICTIONARYWDFLT
  5
E
102
{ACAD_REACTORS
330
C
102
}
100
AcDbDictionary
281
1
  3
Normal
350
F
100
AcDbDictionaryWithDefault
340
F
  0
DICTIONARY
  5
17
102
{ACAD_REACTORS
330
C
102
}
100
AcDbDictionary
280
0
281
1
  3
Standard
350
18
  0
DICTIONARY
  5
19
102
{ACAD_REACTORS
330
C
102
}
100
AcDbDictionary
281
1
  0
DICTIONARY
  5
1A
102
{ACAD_REACTORS
330
C
102
}
100
AcDbDictionary
281
1
  3
Model
350
27D
  3
Layout1
350
27E
  0
ACDBPLACEHOLDER
  5
F
102
{ACAD_REACTORS
330
E
102
}
  0
MLINESTYLE
  5
18
102
{ACAD_REACTORS
330
17
102
}
100
AcDbMlineStyle
  2
STANDARD
 70
0
  3

 62
256
 51
90.0
 52
90.0
 71
2
 49
0.5
 62
256
  6
BYLAYER
 49
-0.5
 62
256
  6
BYLAYER
  0
LAYOUT
  5
27D
102
{ACAD_REACTORS
330
1A
102
}
100
AcDbPlotSettings
  1

  2
none_device
  4
ANSI_C_(22.00_x_17.00_Inches)
  6

 40
0.0
 41
0.0
 42
0.0
 43
0.0
 44
558.8
 45
431.8
 46
0.0
 47
0.0
 48
0.0
 49
0.0
140
0.0
141
0.0
142
1.0
143
1.0
 70
1024
 72
0
 73
0
 74
0
  7

 75
0
147
1.0
148
0.0
149
0.0
100
AcDbLayout
  1
Model
 70
0
 71
0
 10
0.0
 20
0.0
 11
22.0
 21
17.0
 12
0.0
 22
0.0
 32
0.0
 14
0.0
 24
0.0
 34
0.0
 15
0.0
 25
0.0
 35
0.0
146
0.0
 13
0.0
 23
0.0
 33
0.0
 16
1.0
 26
0.0
 36
0.0
 17
0.0
 27
1.0
 37
0.0
 76
0
330
205
345
0
346
0
  0
LAYOUT
  5
27E
102
{ACAD_REACTORS
330
1A
102
}
100
AcDbPlotSettings
  1

  2
none_device
  4
ANSI_C_(22.00_x_17.00_Inches)
  6

 40
0.0
 41
0.0
 42
0.0
 43
0.0
 44
558.8
 45
431.8
 46
0.0
 47
0.0
 48
0.0
 49
0.0
140
0.0
141
0.0
142
1.0
143
1.0
 70
0
 72
0
 73
0
 74
0
  7

 75
0
147
1.0
148
0.0
149
0.0
100
AcDbLayout
  1
Layout1
 70
0
 71
1
 10
0.0
 20
0.0
 11
22.0
 21
17.0
 12
0.0
 22
0.0
 32
0.0
 14
0.0
 24
0.0
 34
0.0
 15
0.0
 25
0.0
 35
0.0
146
0.0
 13
0.0
 23
0.0
 33
0.0
 16
1.0
 26
0.0
 36
0.0
 17
0.0
 27
1.0
 37
0.0
 76
0
330
206
345
0
346
0
  0
ENDSEC
  0
EOF
