999
DXF file: E:\BT Custom\CADOUTPUT\_RIGHT.dxf
999
Pro/ENGINEER 2018400 by Parametric Technology Corporation
  0
SECTION
  2
HEADER
  9
$ACADVER
  1
AC1018
  9
$DWGCODEPAGE
  3
ANSI_1252
  9
$EXTMAX
 10
22.0
 20
17.0
 30
0.0
  9
$EXTMIN
 10
0.0
 20
0.0
 30
0.0
  9
$LIMMIN
 10
0.0
 20
0.0
  9
$LIMMAX
 10
22.0
 20
17.0
  9
$VIEWCTR
 10
11.0
 20
8.5
  9
$VIEWSIZE
 40
17.0
  9
$CLAYER
  8
0
  9
$LTSCALE
 40
1.21
  9
$CELTYPE
  6
BYLAYER
  9
$DIMSCALE
 40
1.0
  9
$DIMASZ
 40
0.1
  9
$DIMEXO
 40
0.0625
  9
$DIMDLI
 40
0.836
  9
$DIMEXE
 40
0.125
  9
$DIMCEN
 40
0.198
  9
$DIMLFAC
 40
1.0
  9
$DIMBLK
  1
_FILLED
  9
$DIMALT
 70
1
  9
$DIMALTD
 70
2
  9
$DIMALTTD
 70
2
  9
$DIMALTF
 40
25.4
  9
$DIMTXT
 40
0.08
  9
$DIMTOL
 70
1
  9
$DIMLIM
 70
0
  9
$DIMTFAC
 40
1.0
  9
$DIMTP
 40
0.001
  9
$DIMTM
 40
0.001
  9
$DIMGAP
 40
0.09
  9
$DIMDSEP
 70
46
  9
$AUNITS
 70
0
  9
$PDMODE
 70
3
  9
$PDSIZE
 40
0.06
  9
$HANDSEED
  5
26E
  9
$TILEMODE
 70
1
  9
$MEASUREMENT
 70
0
  9
$INSUNITS
 70
1
  0
ENDSEC
  0
SECTION
  2
CLASSES
  0
CLASS
  1
ACDBDICTIONARYWDFLT
  2
AcDbDictionaryWithDefault
  3
AutoCAD 2000
 90
0
 91
1
280
0
281
0
  0
CLASS
  1
ACDBPLACEHOLDER
  2
AcDbPlaceHolder
  3
AutoCAD 2000
 90
0
 91
1
280
0
281
0
  0
CLASS
  1
LAYOUT
  2
AcDbLayout
  3
AutoCAD 2000
 90
0
 91
0
280
0
281
0
  0
ENDSEC
  0
SECTION
  2
TABLES
  0
TABLE
  2
VPORT
  5
8
100
AcDbSymbolTable
 70
2
  0
VPORT
  5
1F4
100
AcDbSymbolTableRecord
100
AcDbViewportTableRecord
  2
*ACTIVE
 70
0
 10
0.0
 20
0.0
 11
1.0
 21
1.0
 12
11.0
 22
8.5
 13
0.0
 23
0.0
 14
1.0
 24
1.0
 15
0.0
 25
0.0
 16
0.0
 26
0.0
 36
1.0
 17
0.0
 27
0.0
 37
0.0
 40
17.0
 41
1.2941176471
 42
50.0
 43
0.0
 44
0.0
 50
0.0
 51
0.0
 71
0
 72
100
 73
1
 74
1
 75
0
 76
0
 77
0
 78
0
  0
ENDTAB
  0
TABLE
  2
LTYPE
  5
5
100
AcDbSymbolTable
 70
6
  0
LTYPE
  5
14
100
AcDbSymbolTableRecord
100
AcDbLinetypeTableRecord
  2
BYBLOCK
 70
0
  3

 72
65
 73
0
 40
0.0
  0
LTYPE
  5
15
100
AcDbSymbolTableRecord
100
AcDbLinetypeTableRecord
  2
BYLAYER
 70
0
  3

 72
65
 73
0
 40
0.0
  0
LTYPE
  5
16
100
AcDbSymbolTableRecord
100
AcDbLinetypeTableRecord
  2
CONTINUOUS
 70
64
  3
Solid line
 72
65
 73
0
 40
0.0
  0
LTYPE
  5
1F5
100
AcDbSymbolTableRecord
100
AcDbLinetypeTableRecord
  2
CENTER
 70
64
  3
____ _ ____ _ ____ _ ____ _ ____ _ ____ _ ____
 72
65
 73
4
 40
0.6
 49
0.375
 74
0
 49
-0.075
 74
0
 49
0.075
 74
0
 49
-0.075
 74
0
  0
LTYPE
  5
1F6
100
AcDbSymbolTableRecord
100
AcDbLinetypeTableRecord
  2
HIDDEN
 70
64
  3
- - - - - - - - - - - - - - - - - - - -
 72
65
 73
2
 40
0.2
 49
0.1
 74
0
 49
-0.1
 74
0
  0
LTYPE
  5
1F7
100
AcDbSymbolTableRecord
100
AcDbLinetypeTableRecord
  2
PHANTOM
 70
64
  3
_____ _ _ _____ _ _ _____ _ _ _____
 72
65
 73
6
 40
0.8
 49
0.45
 74
0
 49
-0.05
 74
0
 49
0.1
 74
0
 49
-0.05
 74
0
 49
0.1
 74
0
 49
-0.05
 74
0
  0
LTYPE
  5
1F8
100
AcDbSymbolTableRecord
100
AcDbLinetypeTableRecord
  2
DOT
 70
64
  3
. . . . . . . . . . . . . . . . . . . .
 72
65
 73
2
 40
0.2
 49
0.1
 74
0
 49
-0.1
 74
0
  0
LTYPE
  5
1F9
100
AcDbSymbolTableRecord
100
AcDbLinetypeTableRecord
  2
DASHED
 70
64
  3
- - - - - - - - - - - - - - - - - - - -
 72
65
 73
2
 40
0.2
 49
0.1
 74
0
 49
-0.1
 74
0
  0
ENDTAB
  0
TABLE
  2
LAYER
  5
2
100
AcDbSymbolTable
 70
36
  0
LAYER
  5
10
100
AcDbSymbolTableRecord
100
AcDbLayerTableRecord
  2
0
 70
0
 62
7
  6
CONTINUOUS
370
-3
390
F
  0
LAYER
  5
1FA
100
AcDbSymbolTableRecord
100
AcDbLayerTableRecord
  2
DEFAULT_1
 70
0
 62
7
  6
CENTER
370
-3
390
F
  0
LAYER
  5
1FB
100
AcDbSymbolTableRecord
100
AcDbLayerTableRecord
  2
DEFAULT_2
 70
0
 62
8
  6
HIDDEN
370
-3
390
F
  0
LAYER
  5
1FC
100
AcDbSymbolTableRecord
100
AcDbLayerTableRecord
  2
DEFAULT_3
 70
0
 62
7
  6
PHANTOM
370
-3
390
F
  0
LAYER
  5
1FD
100
AcDbSymbolTableRecord
100
AcDbLayerTableRecord
  2
ALL_FEATURES
 70
0
 62
7
  6
CONTINUOUS
370
-3
390
F
  0
LAYER
  5
1FE
100
AcDbSymbolTableRecord
100
AcDbLayerTableRecord
  2
AXES_FEATURES
 70
0
 62
7
  6
CONTINUOUS
370
-3
390
F
  0
LAYER
  5
1FF
100
AcDbSymbolTableRecord
100
AcDbLayerTableRecord
  2
DEFAULT_COORDINATE_SYSTEM
 70
0
 62
7
  6
CONTINUOUS
370
-3
390
F
  0
LAYER
  5
200
100
AcDbSymbolTableRecord
100
AcDbLayerTableRecord
  2
DEFAULT_DATUM_AXES
 70
0
 62
7
  6
CONTINUOUS
370
-3
390
F
  0
LAYER
  5
201
100
AcDbSymbolTableRecord
100
AcDbLayerTableRecord
  2
DEFAULT_DATUM_PLANES
 70
0
 62
7
  6
CONTINUOUS
370
-3
390
F
  0
LAYER
  5
202
100
AcDbSymbolTableRecord
100
AcDbLayerTableRecord
  2
DIMENSIONS
 70
0
 62
7
  6
CONTINUOUS
370
-3
390
F
  0
ENDTAB
  0
TABLE
  2
STYLE
  5
3
100
AcDbSymbolTable
 70
1
  0
STYLE
  5
11
100
AcDbSymbolTableRecord
100
AcDbTextStyleTableRecord
  2
STANDARD
 70
0
 40
0.0
 41
0.8
 50
0.0
 71
0
 42
0.2
  3
txt
  4

  0
STYLE
  5
203
100
AcDbSymbolTableRecord
100
AcDbTextStyleTableRecord
  2
TEXTSTYLE_1
 70
0
 40
0.0
 41
0.8
 50
0.0
 71
0
 42
0.2
  3
gdt
  4

  0
ENDTAB
  0
TABLE
  2
VIEW
  5
6
100
AcDbSymbolTable
 70
0
  0
ENDTAB
  0
TABLE
  2
UCS
  5
7
100
AcDbSymbolTable
 70
0
  0
ENDTAB
  0
TABLE
  2
APPID
  5
9
100
AcDbSymbolTable
 70
1
  0
APPID
  5
204
100
AcDbSymbolTableRecord
100
AcDbRegAppTableRecord
  2
ACAD
 70
0
  0
ENDTAB
  0
TABLE
  2
BLOCK_RECORD
  5
1
100
AcDbSymbolTable
 70
0
  0
BLOCK_RECORD
  5
205
100
AcDbSymbolTableRecord
100
AcDbBlockTableRecord
  2
*Model_Space
  0
BLOCK_RECORD
  5
206
100
AcDbSymbolTableRecord
100
AcDbBlockTableRecord
  2
*Paper_Space
  0
BLOCK_RECORD
  5
207
100
AcDbSymbolTableRecord
100
AcDbBlockTableRecord
  2
_FILLED
  0
ENDTAB
  0
TABLE
  2
DIMSTYLE
  5
A
100
AcDbSymbolTable
 70
1
100
AcDbDimStyleTable
 71
0
  0
DIMSTYLE
105
208
100
AcDbSymbolTableRecord
100
AcDbDimStyleTableRecord
  2
STANDARD
 70
0
  3

  4

 40
1.0
 41
0.1
 42
0.0625
 43
0.38
 44
0.125
 45
0.0
 46
0.0
 47
0.001
 48
0.001
140
0.08
141
0.09
142
0.0
143
25.4
144
1.0
145
0.0
146
1.0
147
0.09
 71
1.0
 72
0.0
 73
1
 74
1
 75
0
 76
0
 77
0
 78
4
 79
1
170
1
171
2
172
0
173
0
174
0
175
0
176
0
177
0
178
0
270
2
179
3
271
3
272
3
273
2
274
2
275
0
280
0
281
0
282
0
283
1
284
4
285
0
286
0
287
3
288
0
340
11
278
46
341
207
342
207
343
207
344
207
  0
ENDTAB
  0
ENDSEC
  0
SECTION
  2
BLOCKS
  0
BLOCK
  5
20
100
AcDbEntity
  8
0
100
AcDbBlockBegin
  2
*Model_Space
 70
0
 10
0.0
 20
0.0
 30
0.0
  3
*Model_Space
  1

  0
ENDBLK
  5
21
100
AcDbEntity
  8
0
100
AcDbBlockEnd
  0
BLOCK
  5
1C
100
AcDbEntity
  8
0
100
AcDbBlockBegin
  2
*Paper_Space
 70
0
 10
0.0
 20
0.0
 30
0.0
  3
*Paper_Space
  1

  0
ENDBLK
  5
1D
100
AcDbEntity
  8
0
100
AcDbBlockEnd
  0
BLOCK
  5
209
100
AcDbEntity
  8
0
100
AcDbBlockBegin
  2
_FILLED
 70
64
 10
0.0
 20
0.0
  3
_FILLED
  1

  0
SOLID
  5
20A
100
AcDbEntity
  8
0
  6
BYBLOCK
 62
0
100
AcDbTrace
 10
0.0
 20
0.0
 11
-1.0
 21
0.2
 12
-1.0
 22
-0.2
 13
-1.0
 23
-0.2
  0
ENDBLK
  5
20B
100
AcDbEntity
  8
0
  6
BYBLOCK
 62
0
100
AcDbBlockEnd
  0
ENDSEC
  0
SECTION
  2
ENTITIES
  0
LINE
  5
20C
100
AcDbEntity
  8
0
100
AcDbLine
 62
7
  6
CONTINUOUS
 10
8.4480355998
 20
8.0061418009
 11
8.4480355998
 21
8.171141804
  0
LINE
  5
20D
100
AcDbEntity
  8
0
100
AcDbLine
 62
7
  6
CONTINUOUS
 10
8.8355355998
 20
5.231141804
 11
8.7105355998
 21
8.006141804
  0
LINE
  5
20E
100
AcDbEntity
  8
0
100
AcDbLine
 62
7
  6
CONTINUOUS
 10
8.5155355998
 20
8.435141804
 11
8.5155355998
 21
8.901141804
  0
LINE
  5
20F
100
AcDbEntity
  8
0
100
AcDbLine
 62
7
  6
CONTINUOUS
 10
8.5024604168
 20
5.231141804
 11
8.5249200698
 21
8.006141804
  0
LINE
  5
210
100
AcDbEntity
  8
0
100
AcDbLine
 62
7
  6
CONTINUOUS
 10
8.5855355998
 20
5.231141804
 11
8.7105355998
 21
8.006141804
  0
LINE
  5
211
100
AcDbEntity
  8
0
100
AcDbLine
 62
7
  6
CONTINUOUS
 10
8.2854313784
 20
5.1277365288
 11
8.4480355998
 21
8.006141804
  0
LINE
  5
212
100
AcDbEntity
  8
0
100
AcDbLine
 62
7
  6
CONTINUOUS
 10
8.3256837215
 20
5.231141804
 11
8.5249200698
 21
8.006141804
  0
LINE
  5
213
100
AcDbEntity
  8
0
100
AcDbLine
 62
7
  6
CONTINUOUS
 10
9.0953874781
 20
5.231141804
 11
8.8961511299
 21
8.006141804
  0
LINE
  5
214
100
AcDbEntity
  8
0
100
AcDbLine
 62
7
  6
CONTINUOUS
 10
9.1356398212
 20
5.1277365288
 11
8.9730355998
 21
8.006141804
  0
LINE
  5
215
100
AcDbEntity
  8
0
100
AcDbLine
 62
7
  6
CONTINUOUS
 10
8.9186107828
 20
5.231141804
 11
8.8961511299
 21
8.006141804
  0
LINE
  5
216
100
AcDbEntity
  8
0
100
AcDbLine
 62
7
  6
CONTINUOUS
 10
8.9055355998
 20
8.435141804
 11
8.9055355998
 21
8.901141804
  0
LINE
  5
217
100
AcDbEntity
  8
0
100
AcDbLine
 62
7
  6
CONTINUOUS
 10
8.9730355998
 20
8.0061418006
 11
8.9730355998
 21
8.171141804
  0
LINE
  5
218
100
AcDbEntity
  8
0
100
AcDbLine
 62
9
  6
CONTINUOUS
 10
9.1605355998
 20
9.546141804
 11
9.1605355998
 21
9.156141804
  0
LINE
  5
219
100
AcDbEntity
  8
0
100
AcDbLine
 62
7
  6
CONTINUOUS
 10
9.3755355998
 20
9.603641804
 11
9.3755355998
 21
9.098641804
  0
LINE
  5
21A
100
AcDbEntity
  8
0
100
AcDbLine
 62
9
  6
CONTINUOUS
 10
9.4954182977
 20
9.607391804
 11
9.4954182977
 21
9.094891804
  0
LINE
  5
21B
100
AcDbEntity
  8
0
100
AcDbLine
 62
9
  6
CONTINUOUS
 10
9.515379197
 20
9.588641804
 11
9.515379197
 21
9.113641804
  0
LINE
  5
21C
100
AcDbEntity
  8
0
100
AcDbLine
 62
9
  6
CONTINUOUS
 10
9.565379197
 20
9.588641804
 11
9.565379197
 21
9.113641804
  0
LINE
  5
21D
100
AcDbEntity
  8
0
100
AcDbLine
 62
9
  6
CONTINUOUS
 10
9.8445873508
 20
9.6664266952
 11
9.8445873508
 21
9.0358569129
  0
LINE
  5
21E
100
AcDbEntity
  8
0
100
AcDbLine
 62
7
  6
CONTINUOUS
 10
10.1755355998
 20
9.703641804
 11
10.1155142079
 21
9.651641804
  0
LINE
  5
21F
100
AcDbEntity
  8
0
100
AcDbLine
 62
7
  6
CONTINUOUS
 10
8.9925355998
 20
8.171141804
 11
8.4285355998
 21
8.171141804
  0
LINE
  5
220
100
AcDbEntity
  8
0
100
AcDbLine
 62
9
  6
CONTINUOUS
 10
9.022426715
 20
8.2895991862
 11
8.3986444847
 21
8.2895991862
  0
LINE
  5
221
100
AcDbEntity
  8
0
100
AcDbLine
 62
7
  6
CONTINUOUS
 10
10.1155142079
 20
9.651641804
 11
10.1155142079
 21
9.050641804
  0
LINE
  5
222
100
AcDbEntity
  8
0
100
AcDbLine
 62
7
  6
CONTINUOUS
 10
10.1755355998
 20
9.703641804
 11
10.1755355998
 21
8.998641804
  0
LINE
  5
223
100
AcDbEntity
  8
0
100
AcDbLine
 62
7
  6
CONTINUOUS
 10
10.6255355998
 20
9.760641804
 11
10.6055355998
 21
9.740641804
  0
LINE
  5
224
100
AcDbEntity
  8
0
100
AcDbLine
 62
9
  6
CONTINUOUS
 10
8.4852664802
 20
8.4257121327
 11
8.9358047194
 21
8.4257121327
  0
LINE
  5
225
100
AcDbEntity
  8
0
100
AcDbLine
 62
7
  6
CONTINUOUS
 10
8.4952502032
 20
8.435141804
 11
8.9258209964
 21
8.435141804
  0
LINE
  5
226
100
AcDbEntity
  8
0
100
AcDbLine
 62
7
  6
CONTINUOUS
 10
12.0055355998
 20
8.538641804
 11
11.9185355998
 21
8.538641804
  0
LINE
  5
227
100
AcDbEntity
  8
0
100
AcDbLine
 62
7
  6
CONTINUOUS
 10
10.1755355998
 20
8.998641804
 11
10.1155142079
 21
9.050641804
  0
LINE
  5
228
100
AcDbEntity
  8
0
100
AcDbLine
 62
7
  6
CONTINUOUS
 10
10.5755355998
 20
9.703641804
 11
10.5755355998
 21
8.998641804
  0
LINE
  5
229
100
AcDbEntity
  8
0
100
AcDbLine
 62
7
  6
CONTINUOUS
 10
10.6055355998
 20
8.961641804
 11
10.6055355998
 21
9.740641804
  0
LINE
  5
22A
100
AcDbEntity
  8
0
100
AcDbLine
 62
7
  6
CONTINUOUS
 10
10.6255355998
 20
8.941641804
 11
10.6255355998
 21
9.760641804
  0
LINE
  5
22B
100
AcDbEntity
  8
0
100
AcDbLine
 62
9
  6
CONTINUOUS
 10
8.5155355998
 20
8.901141804
 11
8.9055355998
 21
8.901141804
  0
LINE
  5
22C
100
AcDbEntity
  8
0
100
AcDbLine
 62
7
  6
CONTINUOUS
 10
10.5755355998
 20
8.998641804
 11
10.1755355998
 21
8.998641804
  0
LINE
  5
22D
100
AcDbEntity
  8
0
100
AcDbLine
 62
7
  6
CONTINUOUS
 10
10.6255355998
 20
8.941641804
 11
10.6055355998
 21
8.961641804
  0
LINE
  5
22E
100
AcDbEntity
  8
0
100
AcDbLine
 62
7
  6
CONTINUOUS
 10
9.565379197
 20
9.113641804
 11
9.515379197
 21
9.113641804
  0
LINE
  5
22F
100
AcDbEntity
  8
0
100
AcDbLine
 62
7
  6
CONTINUOUS
 10
10.6055355998
 20
9.151141804
 11
10.5755355998
 21
9.151141804
  0
LINE
  5
230
100
AcDbEntity
  8
0
100
AcDbLine
 62
7
  6
CONTINUOUS
 10
9.1605355998
 20
9.156141804
 11
9.3755355998
 21
9.156141804
  0
LINE
  5
231
100
AcDbEntity
  8
0
100
AcDbLine
 62
7
  6
CONTINUOUS
 10
9.1605355998
 20
9.546141804
 11
9.3755355998
 21
9.546141804
  0
LINE
  5
232
100
AcDbEntity
  8
0
100
AcDbLine
 62
7
  6
CONTINUOUS
 10
10.6055355998
 20
9.551141804
 11
10.5755355998
 21
9.551141804
  0
LINE
  5
233
100
AcDbEntity
  8
0
100
AcDbLine
 62
7
  6
CONTINUOUS
 10
9.565379197
 20
9.588641804
 11
9.515379197
 21
9.588641804
  0
LINE
  5
234
100
AcDbEntity
  8
0
100
AcDbLine
 62
7
  6
CONTINUOUS
 10
10.5755355998
 20
9.703641804
 11
10.1755355998
 21
9.703641804
  0
LINE
  5
235
100
AcDbEntity
  8
0
100
AcDbLine
 62
7
  6
CONTINUOUS
 10
11.9185355998
 20
8.538641804
 11
11.9185355998
 21
10.163641804
  0
LINE
  5
236
100
AcDbEntity
  8
0
100
AcDbLine
 62
7
  6
CONTINUOUS
 10
12.0055355998
 20
8.5381391302
 11
12.0055355998
 21
10.1641444779
  0
LINE
  5
237
100
AcDbEntity
  8
0
100
AcDbLine
 62
7
  6
CONTINUOUS
 10
12.0055355998
 20
10.163641804
 11
11.9185355998
 21
10.163641804
  0
LINE
  5
238
100
AcDbEntity
  8
0
100
AcDbLine
 62
7
  6
CONTINUOUS
 10
12.1935355998
 20
8.351141804
 11
12.1935355998
 21
10.351141804
  0
LINE
  5
239
100
AcDbEntity
  8
0
100
AcDbLine
 62
7
  6
CONTINUOUS
 10
12.3805355998
 20
12.1079805437
 11
12.3805355998
 21
6.5943030644
  0
LINE
  5
23A
100
AcDbEntity
  8
0
100
AcDbLine
 62
9
  6
CONTINUOUS
 10
12.5065355998
 20
6.3772224342
 11
12.5065355998
 21
12.3250611739
  0
LINE
  5
23B
100
AcDbEntity
  8
0
100
AcDbLine
 62
7
  6
CONTINUOUS
 10
12.6325355717
 20
12.5419741561
 11
12.6325355717
 21
6.160309452
  0
LINE
  5
23C
100
AcDbEntity
  8
0
100
AcDbLine
 62
9
  6
CONTINUOUS
 10
12.6325355858
 20
6.1602256262
 11
12.6325355858
 21
12.5420579819
  0
LINE
  5
23D
100
AcDbEntity
  8
0
100
AcDbLine
 62
9
  6
CONTINUOUS
 10
12.758538352
 20
5.9432208621
 11
12.758538352
 21
12.759062746
  0
LINE
  5
23E
100
AcDbEntity
  8
0
100
AcDbLine
 62
7
  6
CONTINUOUS
 10
12.8845355998
 20
12.976141804
 11
12.8845355998
 21
5.726141804
  0
LINE
  5
23F
100
AcDbEntity
  8
0
100
AcDbLine
 62
7
  6
CONTINUOUS
 10
13.1345355998
 20
5.476141804
 11
13.1345355998
 21
13.226141804
  0
ARC
  5
240
100
AcDbEntity
  8
0
100
AcDbCircle
 62
7
  6
CONTINUOUS
 10
10.4023940767
 20
12.7523316042
 40
3.0
100
AcDbArc
 50
274.2656285905
 51
300.3566145709
  0
ARC
  5
241
100
AcDbEntity
  8
0
100
AcDbCircle
 62
7
  6
CONTINUOUS
 10
10.4023940767
 20
5.9499520038
 40
3.0
100
AcDbArc
 50
59.6433854291
 51
85.7343714095
  0
ARC
  5
242
100
AcDbEntity
  8
0
100
AcDbCircle
 62
7
  6
CONTINUOUS
 10
9.1605355998
 20
8.901141804
 40
0.645
100
AcDbArc
 50
90.0
 51
180.0
  0
ARC
  5
243
100
AcDbEntity
  8
0
100
AcDbCircle
 62
7
  6
CONTINUOUS
 10
9.565379197
 20
8.573641804
 40
0.54
100
AcDbArc
 50
58.8652784311
 51
90.0
  0
ARC
  5
244
100
AcDbEntity
  8
0
100
AcDbCircle
 62
7
  6
CONTINUOUS
 10
9.565379197
 20
10.128641804
 40
0.54
100
AcDbArc
 50
270.0
 51
301.1347215689
  0
ARC
  5
245
100
AcDbEntity
  8
0
100
AcDbCircle
 62
7
  6
CONTINUOUS
 10
8.7105355998
 20
5.231141804
 40
0.4375
100
AcDbArc
 50
193.6715038208
 51
346.3284961792
  0
ARC
  5
246
100
AcDbEntity
  8
0
100
AcDbCircle
 62
7
  6
CONTINUOUS
 10
9.1605355998
 20
8.901141804
 40
0.255
100
AcDbArc
 50
90.0
 51
180.0
  0
ARC
  5
247
100
AcDbEntity
  8
0
100
AcDbCircle
 62
7
  6
CONTINUOUS
 10
12.8825465491
 20
12.5419741561
 40
0.2500109774
100
AcDbArc
 50
119.7364395186
 51
179.9807893772
  0
ARC
  5
248
100
AcDbEntity
  8
0
100
AcDbCircle
 62
7
  6
CONTINUOUS
 10
12.8825465491
 20
6.160309452
 40
0.2500109774
100
AcDbArc
 50
180.0192106228
 51
240.2635604814
  0
ARC
  5
249
100
AcDbEntity
  8
0
100
AcDbCircle
 62
7
  6
CONTINUOUS
 10
12.6305355998
 20
12.1079805437
 40
0.25
100
AcDbArc
 50
119.7357131076
 51
180.0
  0
ARC
  5
24A
100
AcDbEntity
  8
0
100
AcDbCircle
 62
7
  6
CONTINUOUS
 10
12.3825355998
 20
12.542141804
 40
0.25
100
AcDbArc
 50
299.7357131076
 51
359.9807893772
  0
ARC
  5
24B
100
AcDbEntity
  8
0
100
AcDbCircle
 62
7
  6
CONTINUOUS
 10
12.6345355998
 20
12.976141804
 40
0.25
100
AcDbArc
 50
299.7364395186
 51
360.0
  0
ARC
  5
24C
100
AcDbEntity
  8
0
100
AcDbCircle
 62
7
  6
CONTINUOUS
 10
13.1345355998
 20
12.976141804
 40
0.25
100
AcDbArc
 50
90.0
 51
180.0
  0
ARC
  5
24D
100
AcDbEntity
  8
0
100
AcDbCircle
 62
7
  6
CONTINUOUS
 10
12.6305355998
 20
6.5943030644
 40
0.25
100
AcDbArc
 50
180.0
 51
240.2642868924
  0
ARC
  5
24E
100
AcDbEntity
  8
0
100
AcDbCircle
 62
7
  6
CONTINUOUS
 10
12.3825355998
 20
6.160141804
 40
0.25
100
AcDbArc
 50
0.0192106228
 51
60.2642868924
  0
ARC
  5
24F
100
AcDbEntity
  8
0
100
AcDbCircle
 62
7
  6
CONTINUOUS
 10
12.6345355998
 20
5.726141804
 40
0.25
100
AcDbArc
 50
0.0
 51
60.2635604814
  0
ARC
  5
250
100
AcDbEntity
  8
0
100
AcDbCircle
 62
7
  6
CONTINUOUS
 10
13.1345355998
 20
5.726141804
 40
0.25
100
AcDbArc
 50
180.0
 51
270.0
  0
ARC
  5
251
100
AcDbEntity
  8
0
100
AcDbCircle
 62
7
  6
CONTINUOUS
 10
9.9691969157
 20
9.242141804
 40
0.241
100
AcDbArc
 50
238.8652784311
 51
307.3819608307
  0
ARC
  5
252
100
AcDbEntity
  8
0
100
AcDbCircle
 62
7
  6
CONTINUOUS
 10
9.9691969157
 20
9.460141804
 40
0.241
100
AcDbArc
 50
52.6180391693
 51
121.1347215689
  0
ARC
  5
253
100
AcDbEntity
  8
0
100
AcDbCircle
 62
7
  6
CONTINUOUS
 10
12.3805355998
 20
10.3440056929
 40
0.1871361111
100
AcDbArc
 50
90.0
 51
177.8145949287
  0
ARC
  5
254
100
AcDbEntity
  8
0
100
AcDbCircle
 62
7
  6
CONTINUOUS
 10
12.3805355998
 20
8.3582779152
 40
0.1871361111
100
AcDbArc
 50
182.1854050713
 51
270.0
  0
ARC
  5
255
100
AcDbEntity
  8
0
100
AcDbCircle
 62
7
  6
CONTINUOUS
 10
12.1925355998
 20
10.1641444779
 40
0.187
100
AcDbArc
 50
89.6936039968
 51
180.0
  0
ARC
  5
256
100
AcDbEntity
  8
0
100
AcDbCircle
 62
7
  6
CONTINUOUS
 10
12.1925355998
 20
8.5381391302
 40
0.187
100
AcDbArc
 50
180.0
 51
270.3063960032
  0
ARC
  5
257
100
AcDbEntity
  8
0
100
AcDbCircle
 62
7
  6
CONTINUOUS
 10
9.1008730998
 20
8.435141804
 40
0.1653375
100
AcDbArc
 50
183.2695165906
 51
241.6756638894
  0
ARC
  5
258
100
AcDbEntity
  8
0
100
AcDbCircle
 62
7
  6
CONTINUOUS
 10
8.3201980998
 20
8.435141804
 40
0.1653375
100
AcDbArc
 50
298.3243361106
 51
356.7304834094
  0
ARC
  5
259
100
AcDbEntity
  8
0
100
AcDbCircle
 62
7
  6
CONTINUOUS
 10
8.7105355998
 20
5.2550007265
 40
0.1272797849
100
AcDbArc
 50
190.8061462211
 51
349.1938537789
  0
ARC
  5
25A
100
AcDbEntity
  8
0
100
AcDbCircle
 62
7
  6
CONTINUOUS
 10
8.4285355998
 20
8.234141804
 40
0.063
100
AcDbArc
 50
118.3243361106
 51
270.0
  0
ARC
  5
25B
100
AcDbEntity
  8
0
100
AcDbCircle
 62
7
  6
CONTINUOUS
 10
8.9925355998
 20
8.234141804
 40
0.063
100
AcDbArc
 50
270.0
 51
61.6756638894
  0
ARC
  5
25C
100
AcDbEntity
  8
0
100
AcDbCircle
 62
7
  6
CONTINUOUS
 10
9.4355355998
 20
9.098641804
 40
0.06
100
AcDbArc
 50
180.0
 51
356.4166783015
  0
ARC
  5
25D
100
AcDbEntity
  8
0
100
AcDbCircle
 62
7
  6
CONTINUOUS
 10
9.4355355998
 20
9.603641804
 40
0.06
100
AcDbArc
 50
3.5833216985
 51
180.0
  0
ARC
  5
25E
100
AcDbEntity
  8
0
100
AcDbCircle
 62
7
  6
CONTINUOUS
 10
9.515379197
 20
9.093641804
 40
0.02
100
AcDbArc
 50
90.0
 51
176.4166783015
  0
ARC
  5
25F
100
AcDbEntity
  8
0
100
AcDbCircle
 62
7
  6
CONTINUOUS
 10
9.515379197
 20
9.608641804
 40
0.02
100
AcDbArc
 50
183.5833216985
 51
270.0
  0
ARC
  5
260
100
AcDbEntity
  8
0
100
AcDbCircle
 62
7
  6
CONTINUOUS
 10
8.9258209964
 20
8.425141804
 40
0.01
100
AcDbArc
 50
3.2695165963
 51
90.0
  0
ARC
  5
261
100
AcDbEntity
  8
0
100
AcDbCircle
 62
7
  6
CONTINUOUS
 10
8.4952502032
 20
8.425141804
 40
0.01
100
AcDbArc
 50
90.0
 51
176.7304834037
  0
LINE
  5
262
100
AcDbEntity
  8
0
100
AcDbLine
 62
7
  6
CONTINUOUS
 10
8.5855355998
 20
5.231141804
 11
8.5024604168
 21
5.231141804
  0
LINE
  5
263
100
AcDbEntity
  8
0
100
AcDbLine
 62
7
  6
CONTINUOUS
 10
8.9186107828
 20
5.231141804
 11
8.8355355998
 21
5.231141804
  0
LINE
  5
264
100
AcDbEntity
  8
0
100
AcDbLine
 62
7
  6
CONTINUOUS
 10
9.1297983456
 20
5.231141804
 11
9.0953874781
 21
5.231141804
  0
SPLINE
  5
265
100
AcDbEntity
  8
0
100
AcDbSpline
 62
7
  6
CONTINUOUS
 70
0
 71
3
 72
30
 73
26
 74
0
 42
0.0000001
 43
0.0000001
 44
0.0000000001
 40
0.0
 40
0.0
 40
0.0
 40
0.0
 40
0.0723167689
 40
0.1421498749
 40
0.2087586397
 40
0.271690952
 40
0.3017774048
 40
0.3309635249
 40
0.3593182202
 40
0.3869416434
 40
0.4139649686
 40
0.4405468298
 40
0.4668668777
 40
0.4931183567
 40
0.5194978512
 40
0.5461951807
 40
0.5733847547
 40
0.6012169902
 40
0.6298141827
 40
0.6592671145
 40
0.7208826801
 40
0.7862414107
 40
0.8550241374
 40
0.9265722901
 40
1.0
 40
1.0
 40
1.0
 40
1.0
 10
9.0953874781
 20
5.231141804
 30
0.0
 10
9.0947198469
 20
5.2240419981
 30
0.0
 10
9.0925414202
 20
5.2101492575
 30
0.0
 10
9.0866804457
 20
5.1903499729
 30
0.0
 10
9.07843286
 20
5.172423953
 30
0.0
 10
9.0696154403
 20
5.1592825297
 30
0.0
 10
9.0615852142
 20
5.1502764829
 30
0.0
 10
9.0552311741
 20
5.1443992815
 30
0.0
 10
9.0485051936
 20
5.1393449966
 30
0.0
 10
9.0414556602
 20
5.1351534747
 30
0.0
 10
9.034135548
 20
5.1318577743
 30
0.0
 10
9.0266001706
 20
5.1294845268
 30
0.0
 10
9.0189073008
 20
5.1280541866
 30
0.0
 10
9.0111169587
 20
5.1275771444
 30
0.0
 10
9.0032899169
 20
5.1280587603
 30
0.0
 10
8.995486954
 20
5.1294926522
 30
0.0
 10
8.9877681965
 20
5.1318677368
 30
0.0
 10
8.9801920214
 20
5.1351632251
 30
0.0
 10
8.9728145246
 20
5.1393530697
 30
0.0
 10
8.9631748633
 20
5.1461879267
 30
0.0
 10
8.9519298816
 20
5.1568784632
 30
0.0
 10
8.94029097
 20
5.1723731576
 30
0.0
 10
8.9306104483
 20
5.1902757307
 30
0.0
 10
8.923162717
 20
5.2100560556
 30
0.0
 10
8.9198514957
 20
5.2240082194
 30
0.0
 10
8.9186107828
 20
5.231141804
 30
0.0
  0
SPLINE
  5
266
100
AcDbEntity
  8
0
100
AcDbSpline
 62
7
  6
CONTINUOUS
 70
0
 71
3
 72
30
 73
26
 74
0
 42
0.0000001
 43
0.0000001
 44
0.0000000001
 40
0.0
 40
0.0
 40
0.0
 40
0.0
 40
0.0734277099
 40
0.1449758626
 40
0.2137585893
 40
0.2791173199
 40
0.3407328855
 40
0.3701858173
 40
0.3987830098
 40
0.4266152453
 40
0.4538048193
 40
0.4805021488
 40
0.5068816433
 40
0.5331331223
 40
0.5594531702
 40
0.5860350314
 40
0.6130583566
 40
0.6406817798
 40
0.6690364751
 40
0.6982225952
 40
0.728309048
 40
0.7912413603
 40
0.8578501251
 40
0.9276832311
 40
1.0
 40
1.0
 40
1.0
 40
1.0
 10
8.5024604168
 20
5.231141804
 30
0.0
 10
8.501219704
 20
5.2240082194
 30
0.0
 10
8.4979084827
 20
5.2100560556
 30
0.0
 10
8.4904607514
 20
5.1902757307
 30
0.0
 10
8.4807802297
 20
5.1723731576
 30
0.0
 10
8.4691413181
 20
5.1568784632
 30
0.0
 10
8.4578963364
 20
5.1461879267
 30
0.0
 10
8.4482566751
 20
5.1393530697
 30
0.0
 10
8.4408791782
 20
5.1351632251
 30
0.0
 10
8.4333030032
 20
5.1318677368
 30
0.0
 10
8.4255842457
 20
5.1294926522
 30
0.0
 10
8.4177812828
 20
5.1280587603
 30
0.0
 10
8.409954241
 20
5.1275771444
 30
0.0
 10
8.4021638989
 20
5.1280541866
 30
0.0
 10
8.3944710291
 20
5.1294845268
 30
0.0
 10
8.3869356517
 20
5.1318577743
 30
0.0
 10
8.3796155395
 20
5.1351534747
 30
0.0
 10
8.3725660061
 20
5.1393449966
 30
0.0
 10
8.3658400256
 20
5.1443992815
 30
0.0
 10
8.3594859855
 20
5.1502764829
 30
0.0
 10
8.3514557594
 20
5.1592825297
 30
0.0
 10
8.3426383397
 20
5.172423953
 30
0.0
 10
8.334390754
 20
5.1903499729
 30
0.0
 10
8.3285297795
 20
5.2101492575
 30
0.0
 10
8.3263513528
 20
5.2240419981
 30
0.0
 10
8.3256837215
 20
5.231141804
 30
0.0
  0
SPLINE
  5
267
100
AcDbEntity
  8
0
100
AcDbSpline
 62
7
  6
CONTINUOUS
 70
0
 71
3
 72
42
 73
38
 74
0
 42
0.0000001
 43
0.0000001
 44
0.0000000001
 40
0.0
 40
0.0
 40
0.0
 40
0.0
 40
0.1155007632
 40
0.2249570361
 40
0.3280482085
 40
0.4245173605
 40
0.4702007165
 40
0.5141481338
 40
0.5967350905
 40
0.6720724148
 40
0.7399670456
 40
0.8002665788
 40
0.8275237064
 40
0.8528308674
 40
0.8761724179
 40
0.8975318712
 40
0.9168931063
 40
0.9342437201
 40
0.9495776589
 40
0.9628898836
 40
0.9741756897
 40
0.9790575489
 40
0.9834314839
 40
0.9872969548
 40
0.9906530699
 40
0.9934985909
 40
0.9958319351
 40
0.996805959
 40
0.9976511893
 40
0.9983673325
 40
0.9989540738
 40
0.9994110778
 40
0.9997379881
 40
0.9998525414
 40
0.9999344282
 40
0.9999835983
 40
1.0
 40
1.0
 40
1.0
 40
1.0
 10
8.5249200698
 20
8.0061418004
 30
0.0
 10
8.5219592874
 20
8.0061418003
 30
0.0
 10
8.5161926679
 20
8.0061017393
 30
0.0
 10
8.507784221
 20
8.0059837252
 30
0.0
 10
8.499863305
 20
8.0058914367
 30
0.0
 10
8.4935766341
 20
8.0058619828
 30
0.0
 10
8.4888060859
 20
8.0058756879
 30
0.0
 10
8.484391557
 20
8.0059158917
 30
0.0
 10
8.4792173679
 20
8.0059991084
 30
0.0
 10
8.4734294178
 20
8.0060948781
 30
0.0
 10
8.4682120297
 20
8.0061278478
 30
0.0
 10
8.4642270544
 20
8.0061057135
 30
0.0
 10
8.4613343116
 20
8.0060533746
 30
0.0
 10
8.4593891115
 20
8.0060049775
 30
0.0
 10
8.457595212
 20
8.005954441
 30
0.0
 10
8.4559536422
 20
8.0059092763
 30
0.0
 10
8.4544653435
 20
8.0058772934
 30
0.0
 10
8.4531311942
 20
8.0058656934
 30
0.0
 10
8.45195207
 20
8.0058720375
 30
0.0
 10
8.4509286346
 20
8.0058942464
 30
0.0
 10
8.4501735058
 20
8.0059253518
 30
0.0
 10
8.4496478994
 20
8.0059574639
 30
0.0
 10
8.4493125031
 20
8.0059830087
 30
0.0
 10
8.4490164757
 20
8.0060099837
 30
0.0
 10
8.4487598424
 20
8.0060372059
 30
0.0
 10
8.4485426312
 20
8.0060634873
 30
0.0
 10
8.4483863336
 20
8.0060847162
 30
0.0
 10
8.4482810278
 20
8.0061002661
 30
0.0
 10
8.4482167963
 20
8.0061102236
 30
0.0
 10
8.4481624605
 20
8.0061190722
 30
0.0
 10
8.4481179381
 20
8.0061265937
 30
0.0
 10
8.4480834609
 20
8.0061328266
 30
0.0
 10
8.4480605646
 20
8.0061368057
 30
0.0
 10
8.4480477189
 20
8.0061395904
 30
0.0
 10
8.448040991
 20
8.0061403441
 30
0.0
 10
8.4480382506
 20
8.0061418686
 30
0.0
 10
8.4480355998
 20
8.0061413805
 30
0.0
 10
8.4480355998
 20
8.0061418009
 30
0.0
  0
SPLINE
  5
268
100
AcDbEntity
  8
0
100
AcDbSpline
 62
7
  6
CONTINUOUS
 70
0
 71
3
 72
24
 73
20
 74
0
 42
0.0000001
 43
0.0000001
 44
0.0000000001
 40
0.0
 40
0.0
 40
0.0
 40
0.0
 40
0.1386118963
 40
0.207509764
 40
0.2758990197
 40
0.3098537552
 40
0.3436224436
 40
0.4105212207
 40
0.4764321249
 40
0.5411940728
 40
0.6046525991
 40
0.6666548551
 40
0.7270509072
 40
0.7566000192
 40
0.7856924987
 40
0.8424421465
 40
0.8971695139
 40
0.9497378053
 40
1.0
 40
1.0
 40
1.0
 40
1.0
 10
8.7105356124
 20
8.0061418002
 30
0.0
 10
8.7019592758
 20
8.0061417929
 30
0.0
 10
8.6891203801
 20
8.0060114754
 30
0.0
 10
8.6720501458
 20
8.0058894133
 30
0.0
 10
8.6614548648
 20
8.0058620935
 30
0.0
 10
8.6530331629
 20
8.0058760236
 30
0.0
 10
8.644703769
 20
8.0059174286
 30
0.0
 10
8.6343974164
 20
8.0060033752
 30
0.0
 10
8.6221734066
 20
8.0060978382
 30
0.0
 10
8.6101618934
 20
8.0061279536
 30
0.0
 10
8.5983922108
 20
8.0060991768
 30
0.0
 10
8.5868930404
 20
8.0060056621
 30
0.0
 10
8.5774919968
 20
8.0059183742
 30
0.0
 10
8.5701268836
 20
8.0058762401
 30
0.0
 10
8.5629872794
 20
8.0058621777
 30
0.0
 10
8.5542897954
 20
8.0058880888
 30
0.0
 10
8.5441401696
 20
8.0059779878
 30
0.0
 10
8.5343923391
 20
8.006096553
 30
0.0
 10
8.5280299436
 20
8.0061418004
 30
0.0
 10
8.5249200698
 20
8.0061418004
 30
0.0
  0
SPLINE
  5
269
100
AcDbEntity
  8
0
100
AcDbSpline
 62
7
  6
CONTINUOUS
 70
0
 71
3
 72
24
 73
20
 74
0
 42
0.0000001
 43
0.0000001
 44
0.0000000001
 40
0.0
 40
0.0
 40
0.0
 40
0.0
 40
0.050262193
 40
0.1028304803
 40
0.1575578409
 40
0.2143074817
 40
0.2433999586
 40
0.2729490686
 40
0.3333451177
 40
0.3953473723
 40
0.458805898
 40
0.5235678455
 40
0.5894787507
 40
0.65637753
 40
0.6901462202
 40
0.7241009585
 40
0.7924902214
 40
0.8613880967
 40
1.0
 40
1.0
 40
1.0
 40
1.0
 10
8.8961511413
 20
8.0061418003
 30
0.0
 10
8.8930412679
 20
8.0061417955
 30
0.0
 10
8.8866788733
 20
8.0060965457
 30
0.0
 10
8.8769310442
 20
8.0059779871
 30
0.0
 10
8.8667814202
 20
8.0058880912
 30
0.0
 10
8.8580839379
 20
8.0058621779
 30
0.0
 10
8.8509443349
 20
8.0058762415
 30
0.0
 10
8.8435792227
 20
8.0059183768
 30
0.0
 10
8.8341781802
 20
8.0060056596
 30
0.0
 10
8.8226790109
 20
8.0060991655
 30
0.0
 10
8.8109093293
 20
8.0061279535
 30
0.0
 10
8.798897817
 20
8.0060978493
 30
0.0
 10
8.786673808
 20
8.0060033779
 30
0.0
 10
8.7763674559
 20
8.0059174267
 30
0.0
 10
8.7680380622
 20
8.0058760224
 30
0.0
 10
8.7596163602
 20
8.0058620927
 30
0.0
 10
8.7490210788
 20
8.0058894096
 30
0.0
 10
8.7319508445
 20
8.0060114783
 30
0.0
 10
8.7191119488
 20
8.0061418075
 30
0.0
 10
8.7105356124
 20
8.0061418002
 30
0.0
  0
SPLINE
  5
26A
100
AcDbEntity
  8
0
100
AcDbSpline
 62
7
  6
CONTINUOUS
 70
0
 71
3
 72
42
 73
38
 74
0
 42
0.0000001
 43
0.0000001
 44
0.0000000001
 40
0.0
 40
0.0
 40
0.0
 40
0.0
 40
0.0000164017
 40
0.0000655718
 40
0.0001474586
 40
0.0002620119
 40
0.0005889222
 40
0.0010459262
 40
0.0016326675
 40
0.0023488106
 40
0.0031940409
 40
0.0041680648
 40
0.0065014089
 40
0.0093469298
 40
0.0127030448
 40
0.0165685154
 40
0.0209424503
 40
0.0258243093
 40
0.0371101149
 40
0.0504223392
 40
0.0657562774
 40
0.0831068907
 40
0.1024681252
 40
0.1238275776
 40
0.147169127
 40
0.1724762869
 40
0.199733414
 40
0.2600329457
 40
0.3279275747
 40
0.4032648978
 40
0.4858518537
 40
0.5297992716
 40
0.5754826291
 40
0.6719517851
 40
0.7750429614
 40
0.8844992364
 40
1.0
 40
1.0
 40
1.0
 40
1.0
 10
8.9730355998
 20
8.0061418006
 30
0.0
 10
8.9730355998
 20
8.0061413802
 30
0.0
 10
8.9730329491
 20
8.0061418683
 30
0.0
 10
8.9730302087
 20
8.0061403438
 30
0.0
 10
8.9730234808
 20
8.0061395901
 30
0.0
 10
8.9730106351
 20
8.0061368055
 30
0.0
 10
8.9729877388
 20
8.0061328263
 30
0.0
 10
8.9729532616
 20
8.0061265934
 30
0.0
 10
8.9729087392
 20
8.0061190719
 30
0.0
 10
8.9728544034
 20
8.0061102233
 30
0.0
 10
8.972790172
 20
8.0061002659
 30
0.0
 10
8.9726848662
 20
8.0060847159
 30
0.0
 10
8.9725285686
 20
8.006063487
 30
0.0
 10
8.9723113574
 20
8.0060372056
 30
0.0
 10
8.9720547241
 20
8.0060099835
 30
0.0
 10
8.9717586968
 20
8.0059830086
 30
0.0
 10
8.9714233006
 20
8.0059574638
 30
0.0
 10
8.9708976943
 20
8.0059253519
 30
0.0
 10
8.9701425656
 20
8.0058942465
 30
0.0
 10
8.9691191304
 20
8.0058720375
 30
0.0
 10
8.9679400064
 20
8.0058656935
 30
0.0
 10
8.9666058573
 20
8.0058772937
 30
0.0
 10
8.9651175589
 20
8.0059092767
 30
0.0
 10
8.9634759894
 20
8.0059544408
 30
0.0
 10
8.9616820902
 20
8.0060049765
 30
0.0
 10
8.9597368905
 20
8.0060533729
 30
0.0
 10
8.9568441482
 20
8.0061057111
 30
0.0
 10
8.9528591736
 20
8.0061278487
 30
0.0
 10
8.9476417864
 20
8.0060948816
 30
0.0
 10
8.9418538372
 20
8.005999109
 30
0.0
 10
8.936679649
 20
8.005915891
 30
0.0
 10
8.9322651207
 20
8.0058756874
 30
0.0
 10
8.9274945731
 20
8.0058619822
 30
0.0
 10
8.9212079028
 20
8.0058914346
 30
0.0
 10
8.9132869878
 20
8.0059837258
 30
0.0
 10
8.904878542
 20
8.0061017463
 30
0.0
 10
8.8991119233
 20
8.0061418048
 30
0.0
 10
8.8961511413
 20
8.0061418003
 30
0.0
  0
LINE
  5
26B
100
AcDbEntity
  8
0
100
AcDbLine
 62
7
  6
CONTINUOUS
 10
8.3256837215
 20
5.231141804
 11
8.2912728541
 21
5.231141804
  0
ENDSEC
  0
SECTION
  2
OBJECTS
  0
DICTIONARY
  5
C
100
AcDbDictionary
280
0
281
1
  3
ACAD_GROUP
350
D
  3
ACAD_MLINESTYLE
350
17
  3
ACAD_LAYOUT
350
1A
  3
ACAD_PLOTSETTINGS
350
19
  3
ACAD_PLOTSTYLENAME
350
E
  0
DICTIONARY
  5
D
102
{ACAD_REACTORS
330
C
102
}
100
AcDbDictionary
280
0
281
1
  0
ACDBDICTIONARYWDFLT
  5
E
102
{ACAD_REACTORS
330
C
102
}
100
AcDbDictionary
281
1
  3
Normal
350
F
100
AcDbDictionaryWithDefault
340
F
  0
DICTIONARY
  5
17
102
{ACAD_REACTORS
330
C
102
}
100
AcDbDictionary
280
0
281
1
  3
Standard
350
18
  0
DICTIONARY
  5
19
102
{ACAD_REACTORS
330
C
102
}
100
AcDbDictionary
281
1
  0
DICTIONARY
  5
1A
102
{ACAD_REACTORS
330
C
102
}
100
AcDbDictionary
281
1
  3
Model
350
26C
  3
Layout1
350
26D
  0
ACDBPLACEHOLDER
  5
F
102
{ACAD_REACTORS
330
E
102
}
  0
MLINESTYLE
  5
18
102
{ACAD_REACTORS
330
17
102
}
100
AcDbMlineStyle
  2
STANDARD
 70
0
  3

 62
256
 51
90.0
 52
90.0
 71
2
 49
0.5
 62
256
  6
BYLAYER
 49
-0.5
 62
256
  6
BYLAYER
  0
LAYOUT
  5
26C
102
{ACAD_REACTORS
330
1A
102
}
100
AcDbPlotSettings
  1

  2
none_device
  4
ANSI_C_(22.00_x_17.00_Inches)
  6

 40
0.0
 41
0.0
 42
0.0
 43
0.0
 44
558.8
 45
431.8
 46
0.0
 47
0.0
 48
0.0
 49
0.0
140
0.0
141
0.0
142
1.0
143
1.0
 70
1024
 72
0
 73
0
 74
0
  7

 75
0
147
1.0
148
0.0
149
0.0
100
AcDbLayout
  1
Model
 70
0
 71
0
 10
0.0
 20
0.0
 11
22.0
 21
17.0
 12
0.0
 22
0.0
 32
0.0
 14
0.0
 24
0.0
 34
0.0
 15
0.0
 25
0.0
 35
0.0
146
0.0
 13
0.0
 23
0.0
 33
0.0
 16
1.0
 26
0.0
 36
0.0
 17
0.0
 27
1.0
 37
0.0
 76
0
330
205
345
0
346
0
  0
LAYOUT
  5
26D
102
{ACAD_REACTORS
330
1A
102
}
100
AcDbPlotSettings
  1

  2
none_device
  4
ANSI_C_(22.00_x_17.00_Inches)
  6

 40
0.0
 41
0.0
 42
0.0
 43
0.0
 44
558.8
 45
431.8
 46
0.0
 47
0.0
 48
0.0
 49
0.0
140
0.0
141
0.0
142
1.0
143
1.0
 70
0
 72
0
 73
0
 74
0
  7

 75
0
147
1.0
148
0.0
149
0.0
100
AcDbLayout
  1
Layout1
 70
0
 71
1
 10
0.0
 20
0.0
 11
22.0
 21
17.0
 12
0.0
 22
0.0
 32
0.0
 14
0.0
 24
0.0
 34
0.0
 15
0.0
 25
0.0
 35
0.0
146
0.0
 13
0.0
 23
0.0
 33
0.0
 16
1.0
 26
0.0
 36
0.0
 17
0.0
 27
1.0
 37
0.0
 76
0
330
206
345
0
346
0
  0
ENDSEC
  0
EOF
