999
DXF file: E:\BT Custom\CADOUTPUT\_TOP.dxf
999
Pro/ENGINEER 2018400 by Parametric Technology Corporation
  0
SECTION
  2
HEADER
  9
$ACADVER
  1
AC1018
  9
$DWGCODEPAGE
  3
ANSI_1252
  9
$EXTMAX
 10
22.0
 20
17.0
 30
0.0
  9
$EXTMIN
 10
0.0
 20
0.0
 30
0.0
  9
$LIMMIN
 10
0.0
 20
0.0
  9
$LIMMAX
 10
22.0
 20
17.0
  9
$VIEWCTR
 10
11.0
 20
8.5
  9
$VIEWSIZE
 40
17.0
  9
$CLAYER
  8
0
  9
$LTSCALE
 40
1.21
  9
$CELTYPE
  6
BYLAYER
  9
$DIMSCALE
 40
1.0
  9
$DIMASZ
 40
0.1
  9
$DIMEXO
 40
0.0625
  9
$DIMDLI
 40
0.836
  9
$DIMEXE
 40
0.125
  9
$DIMCEN
 40
0.198
  9
$DIMLFAC
 40
1.0
  9
$DIMBLK
  1
_FILLED
  9
$DIMALT
 70
1
  9
$DIMALTD
 70
2
  9
$DIMALTTD
 70
2
  9
$DIMALTF
 40
25.4
  9
$DIMTXT
 40
0.08
  9
$DIMTOL
 70
1
  9
$DIMLIM
 70
0
  9
$DIMTFAC
 40
1.0
  9
$DIMTP
 40
0.001
  9
$DIMTM
 40
0.001
  9
$DIMGAP
 40
0.09
  9
$DIMDSEP
 70
46
  9
$AUNITS
 70
0
  9
$PDMODE
 70
3
  9
$PDSIZE
 40
0.06
  9
$HANDSEED
  5
30B
  9
$TILEMODE
 70
1
  9
$MEASUREMENT
 70
0
  9
$INSUNITS
 70
1
  0
ENDSEC
  0
SECTION
  2
CLASSES
  0
CLASS
  1
ACDBDICTIONARYWDFLT
  2
AcDbDictionaryWithDefault
  3
AutoCAD 2000
 90
0
 91
1
280
0
281
0
  0
CLASS
  1
ACDBPLACEHOLDER
  2
AcDbPlaceHolder
  3
AutoCAD 2000
 90
0
 91
1
280
0
281
0
  0
CLASS
  1
LAYOUT
  2
AcDbLayout
  3
AutoCAD 2000
 90
0
 91
0
280
0
281
0
  0
ENDSEC
  0
SECTION
  2
TABLES
  0
TABLE
  2
VPORT
  5
8
100
AcDbSymbolTable
 70
2
  0
VPORT
  5
1F4
100
AcDbSymbolTableRecord
100
AcDbViewportTableRecord
  2
*ACTIVE
 70
0
 10
0.0
 20
0.0
 11
1.0
 21
1.0
 12
11.0
 22
8.5
 13
0.0
 23
0.0
 14
1.0
 24
1.0
 15
0.0
 25
0.0
 16
0.0
 26
0.0
 36
1.0
 17
0.0
 27
0.0
 37
0.0
 40
17.0
 41
1.2941176471
 42
50.0
 43
0.0
 44
0.0
 50
0.0
 51
0.0
 71
0
 72
100
 73
1
 74
1
 75
0
 76
0
 77
0
 78
0
  0
ENDTAB
  0
TABLE
  2
LTYPE
  5
5
100
AcDbSymbolTable
 70
6
  0
LTYPE
  5
14
100
AcDbSymbolTableRecord
100
AcDbLinetypeTableRecord
  2
BYBLOCK
 70
0
  3

 72
65
 73
0
 40
0.0
  0
LTYPE
  5
15
100
AcDbSymbolTableRecord
100
AcDbLinetypeTableRecord
  2
BYLAYER
 70
0
  3

 72
65
 73
0
 40
0.0
  0
LTYPE
  5
16
100
AcDbSymbolTableRecord
100
AcDbLinetypeTableRecord
  2
CONTINUOUS
 70
64
  3
Solid line
 72
65
 73
0
 40
0.0
  0
LTYPE
  5
1F5
100
AcDbSymbolTableRecord
100
AcDbLinetypeTableRecord
  2
CENTER
 70
64
  3
____ _ ____ _ ____ _ ____ _ ____ _ ____ _ ____
 72
65
 73
4
 40
0.6
 49
0.375
 74
0
 49
-0.075
 74
0
 49
0.075
 74
0
 49
-0.075
 74
0
  0
LTYPE
  5
1F6
100
AcDbSymbolTableRecord
100
AcDbLinetypeTableRecord
  2
HIDDEN
 70
64
  3
- - - - - - - - - - - - - - - - - - - -
 72
65
 73
2
 40
0.2
 49
0.1
 74
0
 49
-0.1
 74
0
  0
LTYPE
  5
1F7
100
AcDbSymbolTableRecord
100
AcDbLinetypeTableRecord
  2
PHANTOM
 70
64
  3
_____ _ _ _____ _ _ _____ _ _ _____
 72
65
 73
6
 40
0.8
 49
0.45
 74
0
 49
-0.05
 74
0
 49
0.1
 74
0
 49
-0.05
 74
0
 49
0.1
 74
0
 49
-0.05
 74
0
  0
LTYPE
  5
1F8
100
AcDbSymbolTableRecord
100
AcDbLinetypeTableRecord
  2
DOT
 70
64
  3
. . . . . . . . . . . . . . . . . . . .
 72
65
 73
2
 40
0.2
 49
0.1
 74
0
 49
-0.1
 74
0
  0
LTYPE
  5
1F9
100
AcDbSymbolTableRecord
100
AcDbLinetypeTableRecord
  2
DASHED
 70
64
  3
- - - - - - - - - - - - - - - - - - - -
 72
65
 73
2
 40
0.2
 49
0.1
 74
0
 49
-0.1
 74
0
  0
ENDTAB
  0
TABLE
  2
LAYER
  5
2
100
AcDbSymbolTable
 70
36
  0
LAYER
  5
10
100
AcDbSymbolTableRecord
100
AcDbLayerTableRecord
  2
0
 70
0
 62
7
  6
CONTINUOUS
370
-3
390
F
  0
LAYER
  5
1FA
100
AcDbSymbolTableRecord
100
AcDbLayerTableRecord
  2
DEFAULT_1
 70
0
 62
7
  6
CENTER
370
-3
390
F
  0
LAYER
  5
1FB
100
AcDbSymbolTableRecord
100
AcDbLayerTableRecord
  2
DEFAULT_2
 70
0
 62
8
  6
HIDDEN
370
-3
390
F
  0
LAYER
  5
1FC
100
AcDbSymbolTableRecord
100
AcDbLayerTableRecord
  2
DEFAULT_3
 70
0
 62
7
  6
PHANTOM
370
-3
390
F
  0
LAYER
  5
1FD
100
AcDbSymbolTableRecord
100
AcDbLayerTableRecord
  2
ALL_FEATURES
 70
0
 62
7
  6
CONTINUOUS
370
-3
390
F
  0
LAYER
  5
1FE
100
AcDbSymbolTableRecord
100
AcDbLayerTableRecord
  2
AXES_FEATURES
 70
0
 62
7
  6
CONTINUOUS
370
-3
390
F
  0
LAYER
  5
1FF
100
AcDbSymbolTableRecord
100
AcDbLayerTableRecord
  2
DEFAULT_COORDINATE_SYSTEM
 70
0
 62
7
  6
CONTINUOUS
370
-3
390
F
  0
LAYER
  5
200
100
AcDbSymbolTableRecord
100
AcDbLayerTableRecord
  2
DEFAULT_DATUM_AXES
 70
0
 62
7
  6
CONTINUOUS
370
-3
390
F
  0
LAYER
  5
201
100
AcDbSymbolTableRecord
100
AcDbLayerTableRecord
  2
DEFAULT_DATUM_PLANES
 70
0
 62
7
  6
CONTINUOUS
370
-3
390
F
  0
LAYER
  5
202
100
AcDbSymbolTableRecord
100
AcDbLayerTableRecord
  2
DIMENSIONS
 70
0
 62
7
  6
CONTINUOUS
370
-3
390
F
  0
ENDTAB
  0
TABLE
  2
STYLE
  5
3
100
AcDbSymbolTable
 70
1
  0
STYLE
  5
11
100
AcDbSymbolTableRecord
100
AcDbTextStyleTableRecord
  2
STANDARD
 70
0
 40
0.0
 41
0.8
 50
0.0
 71
0
 42
0.2
  3
txt
  4

  0
STYLE
  5
203
100
AcDbSymbolTableRecord
100
AcDbTextStyleTableRecord
  2
TEXTSTYLE_1
 70
0
 40
0.0
 41
0.8
 50
0.0
 71
0
 42
0.2
  3
gdt
  4

  0
ENDTAB
  0
TABLE
  2
VIEW
  5
6
100
AcDbSymbolTable
 70
0
  0
ENDTAB
  0
TABLE
  2
UCS
  5
7
100
AcDbSymbolTable
 70
0
  0
ENDTAB
  0
TABLE
  2
APPID
  5
9
100
AcDbSymbolTable
 70
1
  0
APPID
  5
204
100
AcDbSymbolTableRecord
100
AcDbRegAppTableRecord
  2
ACAD
 70
0
  0
ENDTAB
  0
TABLE
  2
BLOCK_RECORD
  5
1
100
AcDbSymbolTable
 70
0
  0
BLOCK_RECORD
  5
205
100
AcDbSymbolTableRecord
100
AcDbBlockTableRecord
  2
*Model_Space
  0
BLOCK_RECORD
  5
206
100
AcDbSymbolTableRecord
100
AcDbBlockTableRecord
  2
*Paper_Space
  0
BLOCK_RECORD
  5
207
100
AcDbSymbolTableRecord
100
AcDbBlockTableRecord
  2
_FILLED
  0
ENDTAB
  0
TABLE
  2
DIMSTYLE
  5
A
100
AcDbSymbolTable
 70
1
100
AcDbDimStyleTable
 71
0
  0
DIMSTYLE
105
208
100
AcDbSymbolTableRecord
100
AcDbDimStyleTableRecord
  2
STANDARD
 70
0
  3

  4

 40
1.0
 41
0.1
 42
0.0625
 43
0.38
 44
0.125
 45
0.0
 46
0.0
 47
0.001
 48
0.001
140
0.08
141
0.09
142
0.0
143
25.4
144
1.0
145
0.0
146
1.0
147
0.09
 71
1.0
 72
0.0
 73
1
 74
1
 75
0
 76
0
 77
0
 78
4
 79
1
170
1
171
2
172
0
173
0
174
0
175
0
176
0
177
0
178
0
270
2
179
3
271
3
272
3
273
2
274
2
275
0
280
0
281
0
282
0
283
1
284
4
285
0
286
0
287
3
288
0
340
11
278
46
341
207
342
207
343
207
344
207
  0
ENDTAB
  0
ENDSEC
  0
SECTION
  2
BLOCKS
  0
BLOCK
  5
20
100
AcDbEntity
  8
0
100
AcDbBlockBegin
  2
*Model_Space
 70
0
 10
0.0
 20
0.0
 30
0.0
  3
*Model_Space
  1

  0
ENDBLK
  5
21
100
AcDbEntity
  8
0
100
AcDbBlockEnd
  0
BLOCK
  5
1C
100
AcDbEntity
  8
0
100
AcDbBlockBegin
  2
*Paper_Space
 70
0
 10
0.0
 20
0.0
 30
0.0
  3
*Paper_Space
  1

  0
ENDBLK
  5
1D
100
AcDbEntity
  8
0
100
AcDbBlockEnd
  0
BLOCK
  5
209
100
AcDbEntity
  8
0
100
AcDbBlockBegin
  2
_FILLED
 70
64
 10
0.0
 20
0.0
  3
_FILLED
  1

  0
SOLID
  5
20A
100
AcDbEntity
  8
0
  6
BYBLOCK
 62
0
100
AcDbTrace
 10
0.0
 20
0.0
 11
-1.0
 21
0.2
 12
-1.0
 22
-0.2
 13
-1.0
 23
-0.2
  0
ENDBLK
  5
20B
100
AcDbEntity
  8
0
  6
BYBLOCK
 62
0
100
AcDbBlockEnd
  0
ENDSEC
  0
SECTION
  2
ENTITIES
  0
LINE
  5
20C
100
AcDbEntity
  8
0
100
AcDbLine
 62
9
  6
CONTINUOUS
 10
10.6608004812
 20
5.7180203346
 11
11.4338361955
 21
5.7180203346
  0
LINE
  5
20D
100
AcDbEntity
  8
0
100
AcDbLine
 62
7
  6
CONTINUOUS
 10
11.5020494333
 20
5.7623318604
 11
10.5925872434
 21
5.7623318604
  0
LINE
  5
20E
100
AcDbEntity
  8
0
100
AcDbLine
 62
9
  6
CONTINUOUS
 10
11.5179436327
 20
5.7764948847
 11
10.576693044
 21
5.7764948847
  0
LINE
  5
20F
100
AcDbEntity
  8
0
100
AcDbLine
 62
9
  6
CONTINUOUS
 10
10.5248286155
 20
5.8530262295
 11
11.5698080612
 21
5.8530262295
  0
LINE
  5
210
100
AcDbEntity
  8
0
100
AcDbLine
 62
9
  6
CONTINUOUS
 10
10.5091773222
 20
5.9082312068
 11
11.5854593545
 21
5.9082312068
  0
LINE
  5
211
100
AcDbEntity
  8
0
100
AcDbLine
 62
7
  6
CONTINUOUS
 10
11.5773183394
 20
5.9223318586
 11
10.5173183373
 21
5.9223318586
  0
LINE
  5
212
100
AcDbEntity
  8
0
100
AcDbLine
 62
9
  6
CONTINUOUS
 10
11.6250770345
 20
5.9708019811
 11
10.4695596422
 21
5.9708019811
  0
LINE
  5
213
100
AcDbEntity
  8
0
100
AcDbLine
 62
7
  6
CONTINUOUS
 10
10.6325959854
 20
6.0263318604
 11
10.6513385409
 21
6.0263318604
  0
LINE
  5
214
100
AcDbEntity
  8
0
100
AcDbLine
 62
7
  6
CONTINUOUS
 10
11.4432981358
 20
6.0263318604
 11
11.4620406913
 21
6.0263318604
  0
LINE
  5
215
100
AcDbEntity
  8
0
100
AcDbLine
 62
7
  6
CONTINUOUS
 10
10.6325959854
 20
6.4183318604
 11
10.6513385409
 21
6.4183318604
  0
LINE
  5
216
100
AcDbEntity
  8
0
100
AcDbLine
 62
7
  6
CONTINUOUS
 10
11.4432981358
 20
6.4183318604
 11
11.4620406913
 21
6.4183318604
  0
LINE
  5
217
100
AcDbEntity
  8
0
100
AcDbLine
 62
9
  6
CONTINUOUS
 10
11.6268749976
 20
6.4685981412
 11
10.4677616792
 21
6.4685981412
  0
LINE
  5
218
100
AcDbEntity
  8
0
100
AcDbLine
 62
7
  6
CONTINUOUS
 10
10.4090192032
 20
6.3421218141
 11
10.3794326773
 21
6.3831587031
  0
LINE
  5
219
100
AcDbEntity
  8
0
100
AcDbLine
 62
7
  6
CONTINUOUS
 10
11.5520234208
 20
6.5223318604
 11
10.542613256
 21
6.5223318604
  0
LINE
  5
21A
100
AcDbEntity
  8
0
100
AcDbLine
 62
9
  6
CONTINUOUS
 10
10.7973183384
 20
6.6403318604
 11
11.2973183384
 21
6.6403318604
  0
LINE
  5
21B
100
AcDbEntity
  8
0
100
AcDbLine
 62
7
  6
CONTINUOUS
 10
9.8959823511
 20
8.8652082614
 11
9.8648183384
 21
8.9993318604
  0
LINE
  5
21C
100
AcDbEntity
  8
0
100
AcDbLine
 62
7
  6
CONTINUOUS
 10
10.3598183384
 20
8.5211008527
 11
10.3598183384
 21
8.3675574245
  0
LINE
  5
21D
100
AcDbEntity
  8
0
100
AcDbLine
 62
7
  6
CONTINUOUS
 10
10.6986028524
 20
7.3956105009
 11
10.6986028524
 21
7.48505322
  0
LINE
  5
21E
100
AcDbEntity
  8
0
100
AcDbLine
 62
7
  6
CONTINUOUS
 10
10.7357846711
 20
7.3956105009
 11
10.7357846711
 21
7.48505322
  0
LINE
  5
21F
100
AcDbEntity
  8
0
100
AcDbLine
 62
7
  6
CONTINUOUS
 10
10.7754749149
 20
7.3956105009
 11
10.7754749149
 21
7.48505322
  0
LINE
  5
220
100
AcDbEntity
  8
0
100
AcDbLine
 62
7
  6
CONTINUOUS
 10
10.7973183384
 20
7.1843318604
 11
10.7973183384
 21
6.6403318604
  0
LINE
  5
221
100
AcDbEntity
  8
0
100
AcDbLine
 62
7
  6
CONTINUOUS
 10
10.8173540037
 20
7.3956105009
 11
10.8173540037
 21
7.48505322
  0
LINE
  5
222
100
AcDbEntity
  8
0
100
AcDbLine
 62
7
  6
CONTINUOUS
 10
10.7572800294
 20
7.1843318604
 11
11.3373566473
 21
7.1843318604
  0
LINE
  5
223
100
AcDbEntity
  8
0
100
AcDbLine
 62
7
  6
CONTINUOUS
 10
11.6856174735
 20
6.1025419067
 11
11.7152039994
 21
6.0615050177
  0
LINE
  5
224
100
AcDbEntity
  8
0
100
AcDbLine
 62
7
  6
CONTINUOUS
 10
11.5773183394
 20
5.9223318586
 11
11.5854593545
 21
5.9082312068
  0
LINE
  5
225
100
AcDbEntity
  8
0
100
AcDbLine
 62
7
  6
CONTINUOUS
 10
10.8610847328
 20
7.3956105009
 11
10.8610847328
 21
7.48505322
  0
LINE
  5
226
100
AcDbEntity
  8
0
100
AcDbLine
 62
7
  6
CONTINUOUS
 10
10.9063149887
 20
7.3956105009
 11
10.9063149887
 21
7.48505322
  0
LINE
  5
227
100
AcDbEntity
  8
0
100
AcDbLine
 62
7
  6
CONTINUOUS
 10
10.9526805837
 20
7.3956105009
 11
10.9526805837
 21
7.48505322
  0
LINE
  5
228
100
AcDbEntity
  8
0
100
AcDbLine
 62
7
  6
CONTINUOUS
 10
10.9998081885
 20
7.3956105009
 11
10.9998081885
 21
7.48505322
  0
LINE
  5
229
100
AcDbEntity
  8
0
100
AcDbLine
 62
7
  6
CONTINUOUS
 10
11.0473183384
 20
7.3956105009
 11
11.0473183384
 21
7.48505322
  0
LINE
  5
22A
100
AcDbEntity
  8
0
100
AcDbLine
 62
7
  6
CONTINUOUS
 10
10.5573183384
 20
7.3803318604
 11
11.5373183384
 21
7.3803318604
  0
LINE
  5
22B
100
AcDbEntity
  8
0
100
AcDbLine
 62
7
  6
CONTINUOUS
 10
10.5573183384
 20
7.5003318604
 11
11.5373183384
 21
7.5003318604
  0
LINE
  5
22C
100
AcDbEntity
  8
0
100
AcDbLine
 62
7
  6
CONTINUOUS
 10
11.0947363575
 20
7.3956105009
 11
11.0947363575
 21
7.48505322
  0
LINE
  5
22D
100
AcDbEntity
  8
0
100
AcDbLine
 62
7
  6
CONTINUOUS
 10
11.1418650758
 20
7.3956105009
 11
11.1418650758
 21
7.48505322
  0
LINE
  5
22E
100
AcDbEntity
  8
0
100
AcDbLine
 62
7
  6
CONTINUOUS
 10
11.1882325171
 20
7.3956105009
 11
11.1882325171
 21
7.48505322
  0
LINE
  5
22F
100
AcDbEntity
  8
0
100
AcDbLine
 62
7
  6
CONTINUOUS
 10
11.2334653374
 20
7.3956105009
 11
11.2334653374
 21
7.48505322
  0
LINE
  5
230
100
AcDbEntity
  8
0
100
AcDbLine
 62
7
  6
CONTINUOUS
 10
11.2771993282
 20
7.3956105009
 11
11.2771993282
 21
7.48505322
  0
LINE
  5
231
100
AcDbEntity
  8
0
100
AcDbLine
 62
7
  6
CONTINUOUS
 10
11.2973183384
 20
7.1843318604
 11
11.2973183384
 21
6.6403318604
  0
LINE
  5
232
100
AcDbEntity
  8
0
100
AcDbLine
 62
7
  6
CONTINUOUS
 10
11.3190823498
 20
7.3956105009
 11
11.3190823498
 21
7.48505322
  0
LINE
  5
233
100
AcDbEntity
  8
0
100
AcDbLine
 62
7
  6
CONTINUOUS
 10
11.3587771658
 20
7.3956105009
 11
11.3587771658
 21
7.48505322
  0
LINE
  5
234
100
AcDbEntity
  8
0
100
AcDbLine
 62
7
  6
CONTINUOUS
 10
11.3959641592
 20
7.3956105009
 11
11.3959641592
 21
7.48505322
  0
LINE
  5
235
100
AcDbEntity
  8
0
100
AcDbLine
 62
7
  6
CONTINUOUS
 10
10.5173183373
 20
5.9223318586
 11
10.5091773222
 21
5.9082312068
  0
LINE
  5
236
100
AcDbEntity
  8
0
100
AcDbLine
 62
7
  6
CONTINUOUS
 10
10.4090192032
 20
6.1025419067
 11
10.3794326773
 21
6.0615050177
  0
LINE
  5
237
100
AcDbEntity
  8
0
100
AcDbLine
 62
7
  6
CONTINUOUS
 10
11.7348183384
 20
8.3675574245
 11
11.7348183384
 21
8.5211008527
  0
LINE
  5
238
100
AcDbEntity
  8
0
100
AcDbLine
 62
7
  6
CONTINUOUS
 10
12.1986543256
 20
8.8652082614
 11
12.2298183384
 21
8.9993318604
  0
LINE
  5
239
100
AcDbEntity
  8
0
100
AcDbLine
 62
7
  6
CONTINUOUS
 10
10.3808183384
 20
8.3643459241
 11
11.7138183384
 21
8.3643459241
  0
LINE
  5
23A
100
AcDbEntity
  8
0
100
AcDbLine
 62
7
  6
CONTINUOUS
 10
10.3823183384
 20
8.5243318604
 11
11.7123183384
 21
8.5243318604
  0
LINE
  5
23B
100
AcDbEntity
  8
0
100
AcDbLine
 62
7
  6
CONTINUOUS
 10
11.6856174735
 20
6.3421218141
 11
11.7152039994
 21
6.3831587031
  0
LINE
  5
23C
100
AcDbEntity
  8
0
100
AcDbLine
 62
9
  6
CONTINUOUS
 10
11.8761955267
 20
8.6165537978
 11
10.2184411501
 21
8.6165537978
  0
LINE
  5
23D
100
AcDbEntity
  8
0
100
AcDbLine
 62
9
  6
CONTINUOUS
 10
12.1564388562
 20
8.8215672688
 11
9.9381978206
 21
8.8215672688
  0
LINE
  5
23E
100
AcDbEntity
  8
0
100
AcDbLine
 62
9
  6
CONTINUOUS
 10
12.1986543256
 20
8.8652082614
 11
9.8959823511
 21
8.8652082614
  0
LINE
  5
23F
100
AcDbEntity
  8
0
100
AcDbLine
 62
7
  6
CONTINUOUS
 10
14.1714838146
 20
8.9993318604
 11
7.9231528622
 21
8.9993318604
  0
LINE
  5
240
100
AcDbEntity
  8
0
100
AcDbLine
 62
9
  6
CONTINUOUS
 10
7.8854607949
 20
9.0118510912
 11
14.2091758819
 21
9.0118510912
  0
LINE
  5
241
100
AcDbEntity
  8
0
100
AcDbLine
 62
7
  6
CONTINUOUS
 10
7.7348219076
 20
9.3123318604
 11
14.3598147691
 21
9.3123318604
  0
ARC
  5
242
100
AcDbEntity
  8
0
100
AcDbCircle
 62
7
  6
CONTINUOUS
 10
10.8973183384
 20
6.2223318604
 40
0.77
100
AcDbArc
 50
11.3965564605
 51
18.6524229102
  0
ARC
  5
243
100
AcDbEntity
  8
0
100
AcDbCircle
 62
7
  6
CONTINUOUS
 10
10.8973183384
 20
6.2223318604
 40
0.77
100
AcDbArc
 50
340.9336918347
 51
348.6059328789
  0
ARC
  5
244
100
AcDbEntity
  8
0
100
AcDbCircle
 62
7
  6
CONTINUOUS
 10
10.1563639577
 20
6.2223318604
 40
0.275
100
AcDbArc
 50
35.790620998
 51
324.2093783992
  0
ARC
  5
245
100
AcDbEntity
  8
0
100
AcDbCircle
 62
7
  6
CONTINUOUS
 10
10.156442479
 20
6.2224663866
 40
0.2748441183
100
AcDbArc
 50
58.0596748151
 51
60.9635128422
  0
ARC
  5
246
100
AcDbEntity
  8
0
100
AcDbCircle
 62
7
  6
CONTINUOUS
 10
10.1564428884
 20
6.2225189606
 40
0.2747968438
100
AcDbArc
 50
65.559295581
 51
68.335179584
  0
ARC
  5
247
100
AcDbEntity
  8
0
100
AcDbCircle
 62
7
  6
CONTINUOUS
 10
10.7142287559
 20
6.2459738649
 40
0.2218998874
100
AcDbArc
 50
153.6378403016
 51
155.5027934576
  0
ARC
  5
248
100
AcDbEntity
  8
0
100
AcDbCircle
 62
7
  6
CONTINUOUS
 10
10.7132025604
 20
6.198202213
 40
0.2207638982
100
AcDbArc
 50
204.4398388457
 51
206.2835227564
  0
ARC
  5
249
100
AcDbEntity
  8
0
100
AcDbCircle
 62
7
  6
CONTINUOUS
 10
10.7572783344
 20
7.3843318604
 40
0.2
100
AcDbArc
 50
181.1459919984
 51
270.0
  0
ARC
  5
24A
100
AcDbEntity
  8
0
100
AcDbCircle
 62
7
  6
CONTINUOUS
 10
10.6883030665
 20
6.202321051
 40
0.1996821258
100
AcDbArc
 50
208.5361797165
 51
210.6498908084
  0
ARC
  5
24B
100
AcDbEntity
  8
0
100
AcDbCircle
 62
7
  6
CONTINUOUS
 10
10.6872005715
 20
6.2429700627
 40
0.1984137777
100
AcDbArc
 50
149.2590391707
 51
151.3598213756
  0
ARC
  5
24C
100
AcDbEntity
  8
0
100
AcDbCircle
 62
9
  6
CONTINUOUS
 10
10.6779268298
 20
6.2461384122
 40
0.188506343
100
AcDbArc
 50
148.751440362
 51
150.7098907569
  0
ARC
  5
24D
100
AcDbEntity
  8
0
100
AcDbCircle
 62
9
  6
CONTINUOUS
 10
10.677099971
 20
6.1980421539
 40
0.1875488244
100
AcDbArc
 50
209.2779166893
 51
211.1553809173
  0
ARC
  5
24E
100
AcDbEntity
  8
0
100
AcDbCircle
 62
9
  6
CONTINUOUS
 10
10.6740259695
 20
6.1961932872
 40
0.1839616632
100
AcDbArc
 50
211.157924827
 51
211.5859764216
  0
ARC
  5
24F
100
AcDbEntity
  8
0
100
AcDbCircle
 62
9
  6
CONTINUOUS
 10
10.673597227
 20
6.2487323352
 40
0.1834592577
100
AcDbArc
 50
148.2163811724
 51
148.7425771594
  0
ARC
  5
250
100
AcDbEntity
  8
0
100
AcDbCircle
 62
7
  6
CONTINUOUS
 10
10.6793183384
 20
6.6403318604
 40
0.118
100
AcDbArc
 50
270.0
 51
360.0
  0
ARC
  5
251
100
AcDbEntity
  8
0
100
AcDbCircle
 62
7
  6
CONTINUOUS
 10
10.3530584174
 20
6.3123875339
 40
0.1059443266
100
AcDbArc
 50
90.0006661128
 51
92.2069572785
  0
ARC
  5
252
100
AcDbEntity
  8
0
100
AcDbCircle
 62
7
  6
CONTINUOUS
 10
10.353058447
 20
6.1322758134
 40
0.105943953
100
AcDbArc
 50
267.7774209576
 51
269.9993178977
  0
ARC
  5
253
100
AcDbEntity
  8
0
100
AcDbCircle
 62
7
  6
CONTINUOUS
 10
10.6515312762
 20
6.3229085649
 40
0.1044337702
100
AcDbArc
 50
96.3729860922
 51
102.4180793862
  0
ARC
  5
254
100
AcDbEntity
  8
0
100
AcDbCircle
 62
7
  6
CONTINUOUS
 10
10.6515312759
 20
6.1217551544
 40
0.1044337687
100
AcDbArc
 50
257.5819205919
 51
263.6270195869
  0
ARC
  5
255
100
AcDbEntity
  8
0
100
AcDbCircle
 62
7
  6
CONTINUOUS
 10
10.4773543085
 20
5.7650137862
 40
0.1
100
AcDbArc
 50
6.592723027
 51
61.6573772921
  0
ARC
  5
256
100
AcDbEntity
  8
0
100
AcDbCircle
 62
7
  6
CONTINUOUS
 10
10.5442257942
 20
5.9966082934
 40
0.079
100
AcDbArc
 50
199.0663081681
 51
250.0865226333
  0
ARC
  5
257
100
AcDbEntity
  8
0
100
AcDbCircle
 62
7
  6
CONTINUOUS
 10
10.5426122975
 20
6.4433318604
 40
0.079
100
AcDbArc
 50
90.0
 51
161.3475770898
  0
ARC
  5
258
100
AcDbEntity
  8
0
100
AcDbCircle
 62
7
  6
CONTINUOUS
 10
10.5573183384
 20
7.4403318604
 40
0.06
100
AcDbArc
 50
227.6470588235
 51
270.0
  0
ARC
  5
259
100
AcDbEntity
  8
0
100
AcDbCircle
 62
7
  6
CONTINUOUS
 10
10.5573183384
 20
7.4403318604
 40
0.06
100
AcDbArc
 50
90.0
 51
132.3529411765
  0
ARC
  5
25A
100
AcDbEntity
  8
0
100
AcDbCircle
 62
7
  6
CONTINUOUS
 10
10.6773183384
 20
5.7652131348
 40
0.05
100
AcDbArc
 50
183.3188636135
 51
250.7095459639
  0
ARC
  5
25B
100
AcDbEntity
  8
0
100
AcDbCircle
 62
7
  6
CONTINUOUS
 10
10.5438183384
 20
5.8882312068
 40
0.04
100
AcDbArc
 50
150.0
 51
241.6573772921
  0
ARC
  5
25C
100
AcDbEntity
  8
0
100
AcDbCircle
 62
7
  6
CONTINUOUS
 10
10.5925872417
 20
5.7783318604
 40
0.016
100
AcDbArc
 50
186.592723027
 51
270.0
  0
ARC
  5
25D
100
AcDbEntity
  8
0
100
AcDbCircle
 62
7
  6
CONTINUOUS
 10
9.5603064
 20
7.7466978375
 40
1.027
100
AcDbArc
 50
346.1200123407
 51
36.9709495039
  0
ARC
  5
25E
100
AcDbEntity
  8
0
100
AcDbCircle
 62
7
  6
CONTINUOUS
 10
9.814100697
 20
8.3578864477
 40
0.48
100
AcDbArc
 50
32.6081295413
 51
75.0168080473
  0
ARC
  5
25F
100
AcDbEntity
  8
0
100
AcDbCircle
 62
7
  6
CONTINUOUS
 10
8.1098183384
 20
9.3123318604
 40
0.375
100
AcDbArc
 50
180.0
 51
233.2527042231
  0
ARC
  5
260
100
AcDbEntity
  8
0
100
AcDbCircle
 62
7
  6
CONTINUOUS
 10
10.3869163388
 20
8.7243318604
 40
0.2
100
AcDbArc
 50
212.6081295413
 51
270.0
  0
ARC
  5
261
100
AcDbEntity
  8
0
100
AcDbCircle
 62
7
  6
CONTINUOUS
 10
10.3823183384
 20
8.4443318604
 40
0.08
100
AcDbArc
 50
90.0
 51
106.3348227807
  0
ARC
  5
262
100
AcDbEntity
  8
0
100
AcDbCircle
 62
7
  6
CONTINUOUS
 10
10.3823183384
 20
8.4443318604
 40
0.08
100
AcDbArc
 50
253.6651772193
 51
268.9256411771
  0
ARC
  5
263
100
AcDbEntity
  8
0
100
AcDbCircle
 62
7
  6
CONTINUOUS
 10
7.9231528622
 20
9.0623318604
 40
0.063
100
AcDbArc
 50
233.2527042231
 51
270.0
  0
ARC
  5
264
100
AcDbEntity
  8
0
100
AcDbCircle
 62
7
  6
CONTINUOUS
 10
9.9534514253
 20
8.8785613698
 40
0.059
100
AcDbArc
 50
193.080738792
 51
255.0168080473
  0
ARC
  5
265
100
AcDbEntity
  8
0
100
AcDbCircle
 62
7
  6
CONTINUOUS
 10
11.0473183384
 20
6.8223318604
 40
1.17
100
AcDbArc
 50
250.7095459639
 51
289.2904540361
  0
ARC
  5
266
100
AcDbEntity
  8
0
100
AcDbCircle
 62
7
  6
CONTINUOUS
 10
11.1973183384
 20
6.2223318604
 40
0.77
100
AcDbArc
 50
161.3475770898
 51
168.5683864077
  0
ARC
  5
267
100
AcDbEntity
  8
0
100
AcDbCircle
 62
7
  6
CONTINUOUS
 10
11.1973183384
 20
6.2223318604
 40
0.77
100
AcDbArc
 50
191.4292140482
 51
199.0663081681
  0
ARC
  5
268
100
AcDbEntity
  8
0
100
AcDbCircle
 62
7
  6
CONTINUOUS
 10
11.9382728064
 20
6.2223319532
 40
0.2749999702
100
AcDbArc
 50
215.7906447115
 51
144.2093331021
  0
ARC
  5
269
100
AcDbEntity
  8
0
100
AcDbCircle
 62
7
  6
CONTINUOUS
 10
11.3798897578
 20
6.1989271881
 40
0.2224698192
100
AcDbArc
 50
333.8945599236
 51
335.5409755779
  0
ARC
  5
26A
100
AcDbEntity
  8
0
100
AcDbCircle
 62
7
  6
CONTINUOUS
 10
11.3816121662
 20
6.2465491051
 40
0.2205655509
100
AcDbArc
 50
24.4462280237
 51
26.3179786188
  0
ARC
  5
26B
100
AcDbEntity
  8
0
100
AcDbCircle
 62
7
  6
CONTINUOUS
 10
11.3373583424
 20
7.3843318604
 40
0.2
100
AcDbArc
 50
270.0
 51
358.8540080016
  0
ARC
  5
26C
100
AcDbEntity
  8
0
100
AcDbCircle
 62
7
  6
CONTINUOUS
 10
11.4066341809
 20
6.2425151831
 40
0.1993355946
100
AcDbArc
 50
28.6293864647
 51
30.7780494998
  0
ARC
  5
26D
100
AcDbEntity
  8
0
100
AcDbCircle
 62
7
  6
CONTINUOUS
 10
11.4070129957
 20
6.2019297627
 40
0.1988981911
100
AcDbArc
 50
329.5455925607
 51
331.3036615434
  0
ARC
  5
26E
100
AcDbEntity
  8
0
100
AcDbCircle
 62
9
  6
CONTINUOUS
 10
11.4163689054
 20
6.1987195349
 40
0.1888987144
100
AcDbArc
 50
328.9992945681
 51
330.7194830274
  0
ARC
  5
26F
100
AcDbEntity
  8
0
100
AcDbCircle
 62
9
  6
CONTINUOUS
 10
11.4177194232
 20
6.2467276091
 40
0.1873375843
100
AcDbArc
 50
29.2744903403
 51
31.2573204175
  0
ARC
  5
270
100
AcDbEntity
  8
0
100
AcDbCircle
 62
9
  6
CONTINUOUS
 10
11.4206017215
 20
6.1961987282
 40
0.1839721676
100
AcDbArc
 50
328.4037269757
 51
328.8598423135
  0
ARC
  5
271
100
AcDbEntity
  8
0
100
AcDbCircle
 62
7
  6
CONTINUOUS
 10
11.4153183384
 20
6.6403318604
 40
0.118
100
AcDbArc
 50
180.0
 51
270.0
  0
ARC
  5
272
100
AcDbEntity
  8
0
100
AcDbCircle
 62
7
  6
CONTINUOUS
 10
11.4430068336
 20
6.122329882
 40
0.1050162501
100
AcDbArc
 50
276.9279260922
 51
282.4033580837
  0
ARC
  5
273
100
AcDbEntity
  8
0
100
AcDbCircle
 62
7
  6
CONTINUOUS
 10
11.4430070566
 20
6.3223349564
 40
0.1050151106
100
AcDbArc
 50
77.5966297871
 51
83.0777900076
  0
ARC
  5
274
100
AcDbEntity
  8
0
100
AcDbCircle
 62
7
  6
CONTINUOUS
 10
11.6172823683
 20
5.7650137862
 40
0.1
100
AcDbArc
 50
118.3426227079
 51
173.407276973
  0
ARC
  5
275
100
AcDbEntity
  8
0
100
AcDbCircle
 62
9
  6
CONTINUOUS
 10
11.4620672948
 20
6.3196170434
 40
0.0987146421
100
AcDbArc
 50
90.01544118
 51
100.7355589021
  0
ARC
  5
276
100
AcDbEntity
  8
0
100
AcDbCircle
 62
7
  6
CONTINUOUS
 10
11.5504108826
 20
5.9966082934
 40
0.079
100
AcDbArc
 50
289.9134773481
 51
340.9336918347
  0
ARC
  5
277
100
AcDbEntity
  8
0
100
AcDbCircle
 62
7
  6
CONTINUOUS
 10
11.5520243793
 20
6.4433318604
 40
0.079
100
AcDbArc
 50
18.6524229102
 51
90.0
  0
ARC
  5
278
100
AcDbEntity
  8
0
100
AcDbCircle
 62
7
  6
CONTINUOUS
 10
11.5373183384
 20
7.4403318604
 40
0.06
100
AcDbArc
 50
270.0
 51
312.3529411765
  0
ARC
  5
279
100
AcDbEntity
  8
0
100
AcDbCircle
 62
7
  6
CONTINUOUS
 10
11.5373183384
 20
7.4403318604
 40
0.06
100
AcDbArc
 50
47.6470588235
 51
90.0
  0
ARC
  5
27A
100
AcDbEntity
  8
0
100
AcDbCircle
 62
7
  6
CONTINUOUS
 10
11.4173183384
 20
5.7652131348
 40
0.05
100
AcDbArc
 50
289.2904540361
 51
356.6811363865
  0
ARC
  5
27B
100
AcDbEntity
  8
0
100
AcDbCircle
 62
7
  6
CONTINUOUS
 10
11.5508183384
 20
5.8882312068
 40
0.04
100
AcDbArc
 50
298.3426227079
 51
30.0
  0
ARC
  5
27C
100
AcDbEntity
  8
0
100
AcDbCircle
 62
7
  6
CONTINUOUS
 10
11.502049435
 20
5.7783318604
 40
0.016
100
AcDbArc
 50
270.0
 51
353.407276973
  0
ARC
  5
27D
100
AcDbEntity
  8
0
100
AcDbCircle
 62
7
  6
CONTINUOUS
 10
12.5343302768
 20
7.7466978375
 40
1.027
100
AcDbArc
 50
143.0290504961
 51
193.8799876593
  0
ARC
  5
27E
100
AcDbEntity
  8
0
100
AcDbCircle
 62
7
  6
CONTINUOUS
 10
12.2805359797
 20
8.3578864477
 40
0.48
100
AcDbArc
 50
104.9831919527
 51
147.3918704587
  0
ARC
  5
27F
100
AcDbEntity
  8
0
100
AcDbCircle
 62
7
  6
CONTINUOUS
 10
13.9848183384
 20
9.3123318604
 40
0.375
100
AcDbArc
 50
306.7472957769
 51
360.0
  0
ARC
  5
280
100
AcDbEntity
  8
0
100
AcDbCircle
 62
7
  6
CONTINUOUS
 10
11.7077203379
 20
8.7243318604
 40
0.2
100
AcDbArc
 50
270.0
 51
327.3918704587
  0
ARC
  5
281
100
AcDbEntity
  8
0
100
AcDbCircle
 62
7
  6
CONTINUOUS
 10
11.7123183384
 20
8.4443318604
 40
0.08
100
AcDbArc
 50
73.6651772193
 51
90.0
  0
ARC
  5
282
100
AcDbEntity
  8
0
100
AcDbCircle
 62
7
  6
CONTINUOUS
 10
11.7123183384
 20
8.4443318604
 40
0.08
100
AcDbArc
 50
271.0743588229
 51
286.3348227807
  0
ARC
  5
283
100
AcDbEntity
  8
0
100
AcDbCircle
 62
7
  6
CONTINUOUS
 10
14.1714838146
 20
9.0623318604
 40
0.063
100
AcDbArc
 50
270.0
 51
306.7472957769
  0
ARC
  5
284
100
AcDbEntity
  8
0
100
AcDbCircle
 62
7
  6
CONTINUOUS
 10
12.1411852514
 20
8.8785613698
 40
0.059
100
AcDbArc
 50
284.9831919527
 51
346.919261208
  0
SPLINE
  5
285
100
AcDbEntity
  8
0
100
AcDbSpline
 62
7
  6
CONTINUOUS
 70
0
 71
3
 72
17
 73
13
 74
0
 42
0.0000001
 43
0.0000001
 44
0.0000000001
 40
0.0
 40
0.0
 40
0.0
 40
0.0
 40
0.1193016207
 40
0.2391539324
 40
0.2995171919
 40
0.3602284126
 40
0.4213644252
 40
0.4829916414
 40
0.6079223085
 40
0.7355384672
 40
0.8661723141
 40
1.0
 40
1.0
 40
1.0
 40
1.0
 10
10.6325959854
 20
6.4183318604
 30
0.0
 10
10.6268751222
 20
6.4183318604
 30
0.0
 10
10.6153892818
 20
6.4174604624
 30
0.0
 10
10.6013394737
 20
6.4142277655
 30
0.0
 10
10.5904203128
 20
6.410427779
 30
0.0
 10
10.5823870058
 20
6.4069721454
 30
0.0
 10
10.5745591623
 20
6.4029402773
 30
0.0
 10
10.5643850168
 20
6.396796564
 30
0.0
 10
10.5522826904
 20
6.3877494988
 30
0.0
 10
10.5389926493
 20
6.3750002359
 30
0.0
 10
10.5269715012
 20
6.3604962038
 30
0.0
 10
10.5199470816
 20
6.3499062923
 30
0.0
 10
10.5166664962
 20
6.3443907527
 30
0.0
  0
SPLINE
  5
286
100
AcDbEntity
  8
0
100
AcDbSpline
 62
7
  6
CONTINUOUS
 70
0
 71
3
 72
17
 73
13
 74
0
 42
0.0000001
 43
0.0000001
 44
0.0000000001
 40
0.0
 40
0.0
 40
0.0
 40
0.0
 40
0.1338514999
 40
0.2645024825
 40
0.3921275059
 40
0.5170583298
 40
0.5786831812
 40
0.6398150726
 40
0.7005208741
 40
0.7608770611
 40
0.8807149627
 40
1.0
 40
1.0
 40
1.0
 40
1.0
 10
10.5165168434
 20
6.100524956
 30
0.0
 10
10.5197964354
 20
6.0949923109
 30
0.0
 10
10.5268208066
 20
6.0843689361
 30
0.0
 10
10.5388483669
 20
6.0698172449
 30
0.0
 10
10.5521507075
 20
6.0570247476
 30
0.0
 10
10.5642681772
 20
6.0479458769
 30
0.0
 10
10.5744569732
 20
6.041780202
 30
0.0
 10
10.5822968387
 20
6.0377337586
 30
0.0
 10
10.5903432569
 20
6.0342655488
 30
0.0
 10
10.6012810536
 20
6.0304514017
 30
0.0
 10
10.6153565063
 20
6.0272066396
 30
0.0
 10
10.6268642797
 20
6.0263318604
 30
0.0
 10
10.6325959854
 20
6.0263318604
 30
0.0
  0
SPLINE
  5
287
100
AcDbEntity
  8
0
100
AcDbSpline
 62
7
  6
CONTINUOUS
 70
0
 71
3
 72
11
 73
7
 74
0
 42
0.0000001
 43
0.0000001
 44
0.0000000001
 40
0.0
 40
0.0
 40
0.0
 40
0.0
 40
0.222211594
 40
0.4680838383
 40
0.729261528
 40
1.0
 40
1.0
 40
1.0
 40
1.0
 10
10.4690544053
 20
6.3373964345
 30
0.0
 10
10.4705821358
 20
6.3368519038
 30
0.0
 10
10.4738538926
 20
6.335851934
 30
0.0
 10
10.4790613343
 20
6.3347204096
 30
0.0
 10
10.4846992162
 20
6.3340007451
 30
0.0
 10
10.4885833978
 20
6.3338318604
 30
0.0
 10
10.4905594584
 20
6.3338318604
 30
0.0
  0
SPLINE
  5
288
100
AcDbEntity
  8
0
100
AcDbSpline
 62
7
  6
CONTINUOUS
 70
0
 71
3
 72
13
 73
9
 74
0
 42
0.0000001
 43
0.0000001
 44
0.0000000001
 40
0.0
 40
0.0
 40
0.0
 40
0.0
 40
0.2722058217
 40
0.4048106993
 40
0.5340763204
 40
0.6592463865
 40
0.7794581896
 40
1.0
 40
1.0
 40
1.0
 40
1.0
 10
10.4905594584
 20
6.1108318604
 30
0.0
 10
10.4885315462
 20
6.1108318604
 30
0.0
 10
10.4855135552
 20
6.1106966815
 30
0.0
 10
10.4815579362
 20
6.1102602409
 30
0.0
 10
10.4787072846
 20
6.109820401
 30
0.0
 10
10.4759692344
 20
6.1092735524
 30
0.0
 10
10.4725992389
 20
6.1084388754
 30
0.0
 10
10.4701739373
 20
6.1076754459
 30
0.0
 10
10.4686308279
 20
6.1071112419
 30
0.0
  0
SPLINE
  5
289
100
AcDbEntity
  8
0
100
AcDbSpline
 62
7
  6
CONTINUOUS
 70
0
 71
3
 72
26
 73
22
 74
0
 42
0.0000001
 43
0.0000001
 44
0.0000000001
 40
0.0
 40
0.0
 40
0.0
 40
0.0
 40
0.0262610485
 40
0.0525987306
 40
0.0791003496
 40
0.1058424296
 40
0.1328959791
 40
0.1603297821
 40
0.2165218616
 40
0.2748314797
 40
0.3354389535
 40
0.3983319651
 40
0.4633151038
 40
0.5300373955
 40
0.5980248614
 40
0.6667181482
 40
0.7355121343
 40
0.8037951918
 40
0.837573667
 40
0.8710123736
 40
1.0
 40
1.0
 40
1.0
 40
1.0
 10
10.3530571857
 20
6.0263318604
 30
0.0
 10
10.35651858
 20
6.0263318604
 30
0.0
 10
10.363456199
 20
6.0266727648
 30
0.0
 10
10.3737857031
 20
6.0281985324
 30
0.0
 10
10.3839823454
 20
6.0307273676
 30
0.0
 10
10.3939842987
 20
6.0342339295
 30
0.0
 10
10.4037348816
 20
6.0386923505
 30
0.0
 10
10.4164300384
 20
6.0459115846
 30
0.0
 10
10.4314486298
 20
6.0572190773
 30
0.0
 10
10.447579762
 20
6.0738393815
 30
0.0
 10
10.4617394478
 20
6.0932624163
 30
0.0
 10
10.4737171395
 20
6.1150989082
 30
0.0
 10
10.4833372278
 20
6.138935937
 30
0.0
 10
10.4904521076
 20
6.1643296288
 30
0.0
 10
10.4949490455
 20
6.1908078826
 30
0.0
 10
10.4967547042
 20
6.2178768425
 30
0.0
 10
10.4958393863
 20
6.2450282036
 30
0.0
 10
10.492810207
 20
6.2673856494
 30
0.0
 10
10.4890362338
 20
6.2848521714
 30
0.0
 10
10.4822446372
 20
6.3098017784
 30
0.0
 10
10.4738469564
 20
6.3297856537
 30
0.0
 10
10.4653186408
 20
6.3444934268
 30
0.0
  0
SPLINE
  5
28A
100
AcDbEntity
  8
0
100
AcDbSpline
 62
7
  6
CONTINUOUS
 70
0
 71
3
 72
17
 73
13
 74
0
 42
0.0000001
 43
0.0000001
 44
0.0000000001
 40
0.0
 40
0.0
 40
0.0
 40
0.0
 40
0.1369836538
 40
0.2698900995
 40
0.3987997846
 40
0.5240049288
 40
0.5853976304
 40
0.6460646099
 40
0.7060915313
 40
0.7655770856
 40
0.883237435
 40
1.0
 40
1.0
 40
1.0
 40
1.0
 10
10.4653186408
 20
6.3444934268
 30
0.0
 10
10.4620958983
 20
6.350051308
 30
0.0
 10
10.4552077252
 20
6.360701771
 30
0.0
 10
10.4434241824
 20
6.375274179
 30
0.0
 10
10.4304502514
 20
6.388028144
 30
0.0
 10
10.4186683823
 20
6.3970542913
 30
0.0
 10
10.4087991852
 20
6.4031587111
 30
0.0
 10
10.4012398973
 20
6.4071472746
 30
0.0
 10
10.3935000611
 20
6.4105580958
 30
0.0
 10
10.3830148883
 20
6.4142971306
 30
0.0
 10
10.3695458197
 20
6.4174747798
 30
0.0
 10
10.3585334484
 20
6.4183318604
 30
0.0
 10
10.3530571857
 20
6.4183318604
 30
0.0
  0
SPLINE
  5
28B
100
AcDbEntity
  8
0
100
AcDbSpline
 62
7
  6
CONTINUOUS
 70
0
 71
3
 72
34
 73
30
 74
0
 42
0.0000001
 43
0.0000001
 44
0.0000000001
 40
0.0
 40
0.0
 40
0.0
 40
0.0
 40
0.0042124424
 40
0.0074589537
 40
0.0097566862
 40
0.0111224508
 40
0.0115727093
 40
0.0120218979
 40
0.0133547959
 40
0.0155560956
 40
0.0186108918
 40
0.0225035867
 40
0.0272151891
 40
0.0327261529
 40
0.0390171638
 40
0.046069155
 40
0.0623808891
 40
0.0815144705
 40
0.1033276619
 40
0.154440384
 40
0.2146248097
 40
0.2828136263
 40
0.3579901907
 40
0.4391284345
 40
0.5251962457
 40
0.6151916512
 40
0.708257161
 40
0.8037935143
 40
1.0
 40
1.0
 40
1.0
 40
1.0
 10
10.5205927883
 20
6.103146546
 30
0.0
 10
10.5206263895
 20
6.1031164339
 30
0.0
 10
10.5206868717
 20
6.10306284
 30
0.0
 10
10.5207633998
 20
6.1029962251
 30
0.0
 10
10.5208251152
 20
6.1029442577
 30
0.0
 10
10.5208499437
 20
6.1029232557
 30
0.0
 10
10.5208804717
 20
6.1028989273
 30
0.0
 10
10.5208504817
 20
6.1029230132
 30
0.0
 10
10.5208253064
 20
6.1029420303
 30
0.0
 10
10.5207640596
 20
6.102988443
 30
0.0
 10
10.5206871292
 20
6.1030446186
 30
0.0
 10
10.5205846477
 20
6.1031178162
 30
0.0
 10
10.5204608624
 20
6.1032039718
 30
0.0
 10
10.5203145025
 20
6.103303524
 30
0.0
 10
10.5201463308
 20
6.103415261
 30
0.0
 10
10.5198798841
 20
6.1035882084
 30
0.0
 10
10.519493925
 20
6.1038295802
 30
0.0
 10
10.5189669109
 20
6.1041433575
 30
0.0
 10
10.5181083866
 20
6.1046285316
 30
0.0
 10
10.5168413018
 20
6.1052834309
 30
0.0
 10
10.5150952284
 20
6.1060893151
 30
0.0
 10
10.5130760972
 20
6.1069139067
 30
0.0
 10
10.5108086436
 20
6.1077172062
 30
0.0
 10
10.5083240152
 20
6.1084729259
 30
0.0
 10
10.5056546547
 20
6.1091577522
 30
0.0
 10
10.5028318633
 20
6.109747116
 30
0.0
 10
10.4998842928
 20
6.1102197501
 30
0.0
 10
10.495788368
 20
6.1106878267
 30
0.0
 10
10.492661032
 20
6.1108318604
 30
0.0
 10
10.4905594584
 20
6.1108318604
 30
0.0
  0
SPLINE
  5
28C
100
AcDbEntity
  8
0
100
AcDbSpline
 62
7
  6
CONTINUOUS
 70
0
 71
3
 72
26
 73
22
 74
0
 42
0.0000001
 43
0.0000001
 44
0.0000000001
 40
0.0
 40
0.0
 40
0.0
 40
0.0
 40
0.186516848
 40
0.3662125546
 40
0.4523140528
 40
0.5352046786
 40
0.6141255262
 40
0.688222562
 40
0.7566131533
 40
0.8184011031
 40
0.8727159114
 40
0.8967946673
 40
0.9186654698
 40
0.9382088937
 40
0.9553031023
 40
0.9698297694
 40
0.9816796334
 40
0.9907403637
 40
0.994188496
 40
0.9968951865
 40
1.0
 40
1.0
 40
1.0
 40
1.0
 10
10.4905594584
 20
6.3338318604
 30
0.0
 10
10.492533256
 20
6.3338318604
 30
0.0
 10
10.4964104482
 20
6.3340011371
 30
0.0
 10
10.5011642042
 20
6.3346084955
 30
0.0
 10
10.5047876514
 20
6.3353114634
 30
0.0
 10
10.5073392416
 20
6.3359252661
 30
0.0
 10
10.5097403008
 20
6.3366114865
 30
0.0
 10
10.5119652862
 20
6.3373478977
 30
0.0
 10
10.5139883815
 20
6.3381114846
 30
0.0
 10
10.5157831866
 20
6.3388815085
 30
0.0
 10
10.5171201535
 20
6.3395254563
 30
0.0
 10
10.5180607558
 20
6.3400165344
 30
0.0
 10
10.5186684231
 20
6.3403500705
 30
0.0
 10
10.5192047289
 20
6.3406591948
 30
0.0
 10
10.5196683072
 20
6.3409401451
 30
0.0
 10
10.5200548201
 20
6.3411865361
 30
0.0
 10
10.5203702186
 20
6.341397973
 30
0.0
 10
10.5205731601
 20
6.3415392768
 30
0.0
 10
10.5207159129
 20
6.3416431035
 30
0.0
 10
10.5207675431
 20
6.3416801084
 30
0.0
 10
10.5208892194
 20
6.34177325
 30
0.0
 10
10.5208641298
 20
6.3417520354
 30
0.0
  0
SPLINE
  5
28D
100
AcDbEntity
  8
0
100
AcDbSpline
 62
7
  6
CONTINUOUS
 70
0
 71
3
 72
17
 73
13
 74
0
 42
0.0000001
 43
0.0000001
 44
0.0000000001
 40
0.0
 40
0.0
 40
0.0
 40
0.0
 40
0.1192421543
 40
0.2390356352
 40
0.2993770291
 40
0.3600697848
 40
0.4211924101
 40
0.4828118894
 40
0.6077460735
 40
0.7353952098
 40
0.8660910008
 40
1.0
 40
1.0
 40
1.0
 40
1.0
 10
11.4620406913
 20
6.0263318604
 30
0.0
 10
11.4677976579
 20
6.0263318604
 30
0.0
 10
11.4793562698
 20
6.0272143168
 30
0.0
 10
11.493491125
 20
6.0304878901
 30
0.0
 10
11.5044724939
 20
6.034334395
 30
0.0
 10
11.5125496987
 20
6.0378323388
 30
0.0
 10
11.5204177883
 20
6.041912966
 30
0.0
 10
11.5306412029
 20
6.0481301196
 30
0.0
 10
11.5427944004
 20
6.0572839022
 30
0.0
 10
11.5561257825
 20
6.0701784168
 30
0.0
 10
11.5681682619
 20
6.0848425962
 30
0.0
 10
11.5751927178
 20
6.0955447095
 30
0.0
 10
11.5784697516
 20
6.1011177035
 30
0.0
  0
SPLINE
  5
28E
100
AcDbEntity
  8
0
100
AcDbSpline
 62
7
  6
CONTINUOUS
 70
0
 71
3
 72
15
 73
11
 74
0
 42
0.0000001
 43
0.0000001
 44
0.0000000001
 40
0.0
 40
0.0
 40
0.0
 40
0.0
 40
0.1338349628
 40
0.2644818074
 40
0.3921123049
 40
0.5170579098
 40
0.6397712397
 40
0.7607903527
 40
0.8806720722
 40
1.0
 40
1.0
 40
1.0
 40
1.0
 10
11.5778945534
 20
6.3445179482
 30
0.0
 10
11.5746134709
 20
6.3500248326
 30
0.0
 10
11.5675888776
 20
6.3605979605
 30
0.0
 10
11.555571215
 20
6.3750778072
 30
0.0
 10
11.5422860934
 20
6.3878057482
 30
0.0
 10
11.5278453309
 20
6.3985900421
 30
0.0
 10
11.5123909379
 20
6.407243309
 30
0.0
 10
11.4961063111
 20
6.4135846715
 30
0.0
 10
11.4792320462
 20
6.4174614344
 30
0.0
 10
11.4677561007
 20
6.4183318604
 30
0.0
 10
11.4620406913
 20
6.4183318604
 30
0.0
  0
SPLINE
  5
28F
100
AcDbEntity
  8
0
100
AcDbSpline
 62
7
  6
CONTINUOUS
 70
0
 71
3
 72
33
 73
29
 74
0
 42
0.0000001
 43
0.0000001
 44
0.0000000001
 40
0.0
 40
0.0
 40
0.0
 40
0.0
 40
0.0003697443
 40
0.0010762504
 40
0.0028339637
 40
0.0056163133
 40
0.0093908397
 40
0.0141245869
 40
0.0197852152
 40
0.0263410472
 40
0.0420146964
 40
0.0609073883
 40
0.0827849391
 40
0.1074061214
 40
0.1345348568
 40
0.1639433114
 40
0.1954137048
 40
0.2287378453
 40
0.3001253643
 40
0.3765361575
 40
0.4565061486
 40
0.5386354583
 40
0.6215535759
 40
0.7039231476
 40
0.7843766863
 40
0.8615261266
 40
0.9339221806
 40
1.0
 40
1.0
 40
1.0
 40
1.0
 10
11.5737782293
 20
6.3417469138
 30
0.0
 10
11.5737730585
 20
6.3417511236
 30
0.0
 10
11.5737487192
 20
6.3417703145
 30
0.0
 10
11.5738241186
 20
6.3417109133
 30
0.0
 10
11.5738737011
 20
6.3416751069
 30
0.0
 10
11.5740090883
 20
6.3415761559
 30
0.0
 10
11.5741700153
 20
6.3414640669
 30
0.0
 10
11.5743837083
 20
6.3413188911
 30
0.0
 10
11.5746384778
 20
6.3411517523
 30
0.0
 10
11.5750634404
 20
6.3408819165
 30
0.0
 10
11.5756990043
 20
6.340500057
 30
0.0
 10
11.5765885108
 20
6.3400046351
 30
0.0
 10
11.5776375982
 20
6.3394657294
 30
0.0
 10
11.5788374144
 20
6.338896541
 30
0.0
 10
11.5801791593
 20
6.3383113472
 30
0.0
 10
11.5816538691
 20
6.3377240167
 30
0.0
 10
11.5832526694
 20
6.3371487983
 30
0.0
 10
11.5855896352
 20
6.3363929052
 30
0.0
 10
11.5887446329
 20
6.3355383195
 30
0.0
 10
11.5927732857
 20
6.3347228114
 30
0.0
 10
11.5970388739
 20
6.3341482157
 30
0.0
 10
11.6014491451
 20
6.3338334217
 30
0.0
 10
11.6059141466
 20
6.3338088346
 30
0.0
 10
11.610340766
 20
6.3340732772
 30
0.0
 10
11.6146389345
 20
6.3346014165
 30
0.0
 10
11.6187162335
 20
6.3353789977
 30
0.0
 10
11.6224828921
 20
6.3363541978
 30
0.0
 10
11.6248586085
 20
6.337130006
 30
0.0
 10
11.625977708
 20
6.3375393284
 30
0.0
  0
SPLINE
  5
290
100
AcDbEntity
  8
0
100
AcDbSpline
 62
7
  6
CONTINUOUS
 70
0
 71
3
 72
18
 73
14
 74
0
 42
0.0000001
 43
0.0000001
 44
0.0000000001
 40
0.0
 40
0.0
 40
0.0
 40
0.0
 40
0.0584324781
 40
0.1169276049
 40
0.2345029425
 40
0.3537616639
 40
0.4143358914
 40
0.4756445538
 40
0.6007261786
 40
0.7296275001
 40
0.7956484129
 40
0.8627257407
 40
1.0
 40
1.0
 40
1.0
 40
1.0
 10
11.7456516254
 20
6.4182533689
 30
0.0
 10
11.7428166832
 20
6.4183622076
 30
0.0
 10
11.7371320739
 20
6.4183525244
 30
0.0
 10
11.7257749429
 20
6.4174190819
 30
0.0
 10
11.7116646219
 20
6.4145281025
 30
0.0
 10
11.6980840444
 20
6.4094530467
 30
0.0
 10
11.68762561
 20
6.4041712304
 30
0.0
 10
11.677326931
 20
6.398012272
 30
0.0
 10
11.665038824
 20
6.3888009713
 30
0.0
 10
11.6538716312
 20
6.3779402376
 30
0.0
 10
11.6455643362
 20
6.3682987259
 30
0.0
 10
11.6375730799
 20
6.3578773158
 30
0.0
 10
11.6321949267
 20
6.3495104511
 30
0.0
 10
11.628877434
 20
6.3437297768
 30
0.0
  0
SPLINE
  5
291
100
AcDbEntity
  8
0
100
AcDbSpline
 62
7
  6
CONTINUOUS
 70
0
 71
3
 72
11
 73
7
 74
0
 42
0.0000001
 43
0.0000001
 44
0.0000000001
 40
0.0
 40
0.0
 40
0.0
 40
0.0
 40
0.239630244
 40
0.4878456154
 40
0.7422817983
 40
1.0
 40
1.0
 40
1.0
 40
1.0
 10
11.628877434
 20
6.3437297768
 30
0.0
 10
11.6238481466
 20
6.3349663296
 30
0.0
 10
11.6149574853
 20
6.3163246911
 30
0.0
 10
11.6054164199
 20
6.2864269584
 30
0.0
 10
11.5995996144
 20
6.2548165536
 30
0.0
 10
11.5983002704
 20
6.2331985875
 30
0.0
 10
11.5983002704
 20
6.2223318604
 30
0.0
  0
SPLINE
  5
292
100
AcDbEntity
  8
0
100
AcDbSpline
 62
7
  6
CONTINUOUS
 70
0
 71
3
 72
22
 73
18
 74
0
 42
0.0000001
 43
0.0000001
 44
0.0000000001
 40
0.0
 40
0.0
 40
0.0
 40
0.0
 40
0.0600846923
 40
0.1254517586
 40
0.1949459045
 40
0.2674890449
 40
0.4175618085
 40
0.4931576308
 40
0.5677895422
 40
0.6404462081
 40
0.7101066338
 40
0.7756903818
 40
0.8360433231
 40
0.8899668215
 40
0.9361909186
 40
0.9733408027
 40
1.0
 40
1.0
 40
1.0
 40
1.0
 10
11.625930965
 20
6.1071415928
 30
0.0
 10
11.6249317658
 20
6.1075061756
 30
0.0
 10
11.6228214419
 20
6.1082025295
 30
0.0
 10
11.6194869784
 20
6.1090983102
 30
0.0
 10
11.6158896253
 20
6.1098442546
 30
0.0
 10
11.6107708341
 20
6.110591868
 30
0.0
 10
11.6054870798
 20
6.110909317
 30
0.0
 10
11.6001709376
 20
6.110756836
 30
0.0
 10
11.5962376057
 20
6.1104196242
 30
0.0
 10
11.5924337779
 20
6.1098746209
 30
0.0
 10
11.5888263949
 20
6.1091345939
 30
0.0
 10
11.585478348
 20
6.1082446616
 30
0.0
 10
11.5824500314
 20
6.1072556524
 30
0.0
 10
11.5798050883
 20
6.1062132815
 30
0.0
 10
11.5775979156
 20
6.1051926677
 30
0.0
 10
11.5758762499
 20
6.1042794107
 30
0.0
 10
11.5749113463
 20
6.1036906385
 30
0.0
 10
11.5745171173
 20
6.1034312167
 30
0.0
  0
SPLINE
  5
293
100
AcDbEntity
  8
0
100
AcDbSpline
 62
7
  6
CONTINUOUS
 70
0
 71
3
 72
11
 73
7
 74
0
 42
0.0000001
 43
0.0000001
 44
0.0000000001
 40
0.0
 40
0.0
 40
0.0
 40
0.0
 40
0.2578180034
 40
0.512308498
 40
0.7604969194
 40
1.0
 40
1.0
 40
1.0
 40
1.0
 10
11.5983002704
 20
6.2223318604
 30
0.0
 10
11.5983002704
 20
6.2113926449
 30
0.0
 10
11.5996168741
 20
6.189632036
 30
0.0
 10
11.6055105366
 20
6.1578238594
 30
0.0
 10
11.6151757405
 20
6.1277619951
 30
0.0
 10
11.6241816715
 20
6.1090373479
 30
0.0
 10
11.629275257
 20
6.1002439449
 30
0.0
  0
SPLINE
  5
294
100
AcDbEntity
  8
0
100
AcDbSpline
 62
7
  6
CONTINUOUS
 70
0
 71
3
 72
17
 73
13
 74
0
 42
0.0000001
 43
0.0000001
 44
0.0000000001
 40
0.0
 40
0.0
 40
0.0
 40
0.0
 40
0.1372089577
 40
0.2042589119
 40
0.2702574132
 40
0.3991321269
 40
0.5242136902
 40
0.6460454055
 40
0.7653535928
 40
0.8829960827
 40
0.9415287633
 40
1.0
 40
1.0
 40
1.0
 40
1.0
 10
11.629275257
 20
6.1002439449
 30
0.0
 10
11.6325966041
 20
6.0945100777
 30
0.0
 10
11.6379761518
 20
6.0862125958
 30
0.0
 10
11.6459603462
 20
6.0758809422
 30
0.0
 10
11.6542554269
 20
6.0663235635
 30
0.0
 10
11.6653994739
 20
6.0555598184
 30
0.0
 10
11.6799956278
 20
6.0446871497
 30
0.0
 10
11.6955485064
 20
6.0361397966
 30
0.0
 10
11.7118521958
 20
6.0300863835
 30
0.0
 10
11.7258992137
 20
6.0272283685
 30
0.0
 10
11.7372034059
 20
6.0263094626
 30
0.0
 10
11.7428614032
 20
6.0263023604
 30
0.0
 10
11.7456830969
 20
6.0264115044
 30
0.0
  0
SPLINE
  5
295
100
AcDbEntity
  8
0
100
AcDbSpline
 62
7
  6
CONTINUOUS
 70
0
 71
3
 72
9
 73
5
 74
0
 42
0.0000001
 43
0.0000001
 44
0.0000000001
 40
0.0
 40
0.0
 40
0.0
 40
0.0
 40
0.4968038837
 40
1.0
 40
1.0
 40
1.0
 40
1.0
 10
11.4660737194
 20
6.0173318604
 30
0.0
 10
11.4619989206
 20
6.0173318604
 30
0.0
 10
11.4537899945
 20
6.0178233566
 30
0.0
 10
11.4456957259
 20
6.0192686085
 30
0.0
 10
11.4416799425
 20
6.0202212341
 30
0.0
  0
SPLINE
  5
296
100
AcDbEntity
  8
0
100
AcDbSpline
 62
7
  6
CONTINUOUS
 70
0
 71
3
 72
18
 73
14
 74
0
 42
0.0000001
 43
0.0000001
 44
0.0000000001
 40
0.0
 40
0.0
 40
0.0
 40
0.0
 40
0.0516100546
 40
0.1044663979
 40
0.1587833567
 40
0.2147122378
 40
0.3316003712
 40
0.3927021816
 40
0.4554721573
 40
0.5855010575
 40
0.7206467194
 40
0.8593905232
 40
1.0
 40
1.0
 40
1.0
 40
1.0
 10
11.4416799425
 20
6.0202212341
 30
0.0
 10
11.4374120123
 20
6.021233674
 30
0.0
 10
11.4288879929
 20
6.0238012236
 30
0.0
 10
11.4164658546
 20
6.0291400692
 30
0.0
 10
11.4043683865
 20
6.0359628444
 30
0.0
 10
11.3885833378
 20
6.0471213576
 30
0.0
 10
11.3740990374
 20
6.0609316375
 30
0.0
 10
11.3611913418
 20
6.0768294179
 30
0.0
 10
11.3489939735
 20
6.094658015
 30
0.0
 10
11.3360366794
 20
6.1194656172
 30
0.0
 10
11.3246672531
 20
6.1519751799
 30
0.0
 10
11.3176776839
 20
6.1866085763
 30
0.0
 10
11.31610956
 20
6.2103813687
 30
0.0
 10
11.31610956
 20
6.2223318604
 30
0.0
  0
SPLINE
  5
297
100
AcDbEntity
  8
0
100
AcDbSpline
 62
7
  6
CONTINUOUS
 70
0
 71
3
 72
21
 73
17
 74
0
 42
0.0000001
 43
0.0000001
 44
0.0000000001
 40
0.0
 40
0.0
 40
0.0
 40
0.0
 40
0.0511243821
 40
0.1030614711
 40
0.1562149435
 40
0.2109081507
 40
0.2673766417
 40
0.3257679454
 40
0.3861463646
 40
0.4485018303
 40
0.5127603274
 40
0.5787929685
 40
0.7153311044
 40
0.7854927758
 40
0.8565277959
 40
1.0
 40
1.0
 40
1.0
 40
1.0
 10
10.6285629947
 20
6.4273316787
 30
0.0
 10
10.6333279836
 20
6.4273316787
 30
0.0
 10
10.6429462366
 20
6.4266582863
 30
0.0
 10
10.6572381186
 20
6.4236696106
 30
0.0
 10
10.6713319317
 20
6.4187327266
 30
0.0
 10
10.6850805802
 20
6.4119026493
 30
0.0
 10
10.6983452914
 20
6.4032509329
 30
0.0
 10
10.710989989
 20
6.3928644722
 30
0.0
 10
10.7228841624
 20
6.3808450824
 30
0.0
 10
10.733903427
 20
6.3673094247
 30
0.0
 10
10.7439315859
 20
6.352385347
 30
0.0
 10
10.755964633
 20
6.3305926954
 30
0.0
 10
10.7654026561
 20
6.3068484162
 30
0.0
 10
10.7721272579
 20
6.2818313065
 30
0.0
 10
10.7770482306
 20
6.2557395932
 30
0.0
 10
10.7785271167
 20
6.2357040214
 30
0.0
 10
10.7785271167
 20
6.2223318604
 30
0.0
  0
SPLINE
  5
298
100
AcDbEntity
  8
0
100
AcDbSpline
 62
7
  6
CONTINUOUS
 70
0
 71
3
 72
15
 73
11
 74
0
 42
0.0000001
 43
0.0000001
 44
0.0000000001
 40
0.0
 40
0.0
 40
0.0
 40
0.0
 40
0.0936936432
 40
0.2107002437
 40
0.3487496109
 40
0.4999999902
 40
0.6512503779
 40
0.7892997529
 40
0.9063063544
 40
1.0
 40
1.0
 40
1.0
 40
1.0
 10
10.6642288417
 20
7.3956105009
 30
0.0
 10
10.6641296877
 20
7.3984025361
 30
0.0
 10
10.6639532297
 20
7.404682973
 30
0.0
 10
10.6637613204
 20
7.4150804669
 30
0.0
 10
10.6636341472
 20
7.4271953285
 30
0.0
 10
10.6635893407
 20
7.4403318598
 30
0.0
 10
10.6636341472
 20
7.4534683913
 30
0.0
 10
10.6637613204
 20
7.4655832534
 30
0.0
 10
10.6639532297
 20
7.4759807476
 30
0.0
 10
10.6641296877
 20
7.4822611846
 30
0.0
 10
10.6642288417
 20
7.48505322
 30
0.0
  0
SPLINE
  5
299
100
AcDbEntity
  8
0
100
AcDbSpline
 62
7
  6
CONTINUOUS
 70
0
 71
3
 72
19
 73
15
 74
0
 42
0.0000001
 43
0.0000001
 44
0.0000000001
 40
0.0
 40
0.0
 40
0.0
 40
0.0
 40
0.0443203357
 40
0.0943299518
 40
0.1500725183
 40
0.2114545244
 40
0.3492335245
 40
0.4999999902
 40
0.6507664644
 40
0.7885454723
 40
0.8499274767
 40
0.9056700458
 40
0.9556796638
 40
1.0
 40
1.0
 40
1.0
 40
1.0
 10
10.6329394136
 20
7.3956105009
 30
0.0
 10
10.6327082148
 20
7.396916188
 30
0.0
 10
10.6322645118
 20
7.399703832
 30
0.0
 10
10.6316827631
 20
7.4041563942
 30
0.0
 10
10.6311565906
 20
7.4091295124
 30
0.0
 10
10.6305217764
 20
7.4167298895
 30
0.0
 10
10.629974579
 20
7.4271876888
 30
0.0
 10
10.6297506929
 20
7.4403318598
 30
0.0
 10
10.629974579
 20
7.453476031
 30
0.0
 10
10.6305217764
 20
7.4639338307
 30
0.0
 10
10.6311565906
 20
7.4715342081
 30
0.0
 10
10.6316827631
 20
7.4765073264
 30
0.0
 10
10.6322645118
 20
7.4809598887
 30
0.0
 10
10.6327082148
 20
7.4837475328
 30
0.0
 10
10.6329394136
 20
7.48505322
 30
0.0
  0
SPLINE
  5
29A
100
AcDbEntity
  8
0
100
AcDbSpline
 62
7
  6
CONTINUOUS
 70
0
 71
3
 72
21
 73
17
 74
0
 42
0.0000001
 43
0.0000001
 44
0.0000000001
 40
0.0
 40
0.0
 40
0.0
 40
0.0
 40
0.0451896357
 40
0.0957464556
 40
0.1517486747
 40
0.2131368064
 40
0.2795629863
 40
0.3503267187
 40
0.4999999903
 40
0.6496732702
 40
0.7204370093
 40
0.7868631903
 40
0.8482513203
 40
0.904253542
 40
0.9548103638
 40
1.0
 40
1.0
 40
1.0
 40
1.0
 10
10.6049865062
 20
7.3956105009
 30
0.0
 10
10.6045745945
 20
7.3969090784
 30
0.0
 10
10.6037819824
 20
7.39968621
 30
0.0
 10
10.602738371
 20
7.4041418422
 30
0.0
 10
10.6017948066
 20
7.409117737
 30
0.0
 10
10.6009738398
 20
7.4145994083
 30
0.0
 10
10.6002989033
 20
7.4205490567
 30
0.0
 10
10.5996142494
 20
7.4291714191
 30
0.0
 10
10.5992745232
 20
7.4403318598
 30
0.0
 10
10.5996142493
 20
7.4514923007
 30
0.0
 10
10.6002989032
 20
7.4601146635
 30
0.0
 10
10.6009738398
 20
7.4660643121
 30
0.0
 10
10.6017948065
 20
7.4715459835
 30
0.0
 10
10.602738371
 20
7.4765218784
 30
0.0
 10
10.6037819823
 20
7.4809775107
 30
0.0
 10
10.6045745945
 20
7.4837546424
 30
0.0
 10
10.6049865062
 20
7.48505322
 30
0.0
  0
SPLINE
  5
29B
100
AcDbEntity
  8
0
100
AcDbSpline
 62
7
  6
CONTINUOUS
 70
0
 71
3
 72
23
 73
19
 74
0
 42
0.0000001
 43
0.0000001
 44
0.0000000001
 40
0.0
 40
0.0
 40
0.0
 40
0.0
 40
0.0464461202
 40
0.0978034096
 40
0.1541904786
 40
0.2155917747
 40
0.2817103788
 40
0.3519070621
 40
0.4251403728
 40
0.4999999904
 40
0.57485961
 40
0.6480929269
 40
0.7182896169
 40
0.7844082219
 40
0.8458095163
 40
0.9021965879
 40
0.9535538793
 40
1.0
 40
1.0
 40
1.0
 40
1.0
 10
10.5805951923
 20
7.3956105009
 30
0.0
 10
10.5800088895
 20
7.3968997023
 30
0.0
 10
10.5788771402
 20
7.3996619003
 30
0.0
 10
10.5773781961
 20
7.4041210987
 30
0.0
 10
10.5760232988
 20
7.4091005101
 30
0.0
 10
10.5748446712
 20
7.4145856089
 30
0.0
 10
10.5738759473
 20
7.4205386002
 30
0.0
 10
10.5731521371
 20
7.4268894991
 30
0.0
 10
10.5727037361
 20
7.4335328889
 30
0.0
 10
10.5725517322
 20
7.4403318596
 30
0.0
 10
10.572703736
 20
7.4471308305
 30
0.0
 10
10.573152137
 20
7.4537742208
 30
0.0
 10
10.5738759473
 20
7.4601251201
 30
0.0
 10
10.5748446711
 20
7.4660781115
 30
0.0
 10
10.5760232987
 20
7.4715632104
 30
0.0
 10
10.5773781961
 20
7.4765426218
 30
0.0
 10
10.5788771401
 20
7.4810018204
 30
0.0
 10
10.5800088895
 20
7.4837640185
 30
0.0
 10
10.5805951923
 20
7.48505322
 30
0.0
  0
SPLINE
  5
29C
100
AcDbEntity
  8
0
100
AcDbSpline
 62
7
  6
CONTINUOUS
 70
0
 71
3
 72
23
 73
19
 74
0
 42
0.0000001
 43
0.0000001
 44
0.0000000001
 40
0.0
 40
0.0
 40
0.0
 40
0.0
 40
0.0479812093
 40
0.1003340899
 40
0.1572122673
 40
0.2186451931
 40
0.2843938509
 40
0.3538929381
 40
0.4261945388
 40
0.4999999906
 40
0.5738054442
 40
0.646107051
 40
0.7156061448
 40
0.7813548036
 40
0.8427877277
 40
0.8996659076
 40
0.9520187902
 40
1.0
 40
1.0
 40
1.0
 40
1.0
 10
10.5599618674
 20
7.3956105009
 30
0.0
 10
10.5592089012
 20
7.3968895426
 30
0.0
 10
10.5577511377
 20
7.3996341124
 30
0.0
 10
10.5558071885
 20
7.4040963623
 30
0.0
 10
10.5540503057
 20
7.4090792591
 30
0.0
 10
10.5525222088
 20
7.4145681468
 30
0.0
 10
10.5512663861
 20
7.4205251571
 30
0.0
 10
10.5503281164
 20
7.4268803501
 30
0.0
 10
10.5497468782
 20
7.4335282547
 30
0.0
 10
10.5495498471
 20
7.4403318596
 30
0.0
 10
10.5497468782
 20
7.4471354647
 30
0.0
 10
10.5503281163
 20
7.4537833697
 30
0.0
 10
10.551266386
 20
7.4601385631
 30
0.0
 10
10.5525222087
 20
7.4660955736
 30
0.0
 10
10.5540503057
 20
7.4715844613
 30
0.0
 10
10.5558071884
 20
7.4765673583
 30
0.0
 10
10.5577511376
 20
7.4810296084
 30
0.0
 10
10.5592089012
 20
7.4837741782
 30
0.0
 10
10.5599618674
 20
7.48505322
 30
0.0
  0
SPLINE
  5
29D
100
AcDbEntity
  8
0
100
AcDbSpline
 62
7
  6
CONTINUOUS
 70
0
 71
3
 72
21
 73
17
 74
0
 42
0.0000001
 43
0.0000001
 44
0.0000000001
 40
0.0
 40
0.0
 40
0.0
 40
0.0
 40
0.1030760365
 40
0.1605324432
 40
0.2220290542
 40
0.2873849002
 40
0.3561148315
 40
0.4273765611
 40
0.500000005
 40
0.5726234478
 40
0.6438851737
 40
0.7126151002
 40
0.7779709438
 40
0.8394675541
 40
0.8969239622
 40
1.0
 40
1.0
 40
1.0
 40
1.0
 10
10.5432526681
 20
7.3956105009
 30
0.0
 10
10.5413626006
 20
7.3982433792
 30
0.0
 10
10.538814695
 20
7.402638858
 30
0.0
 10
10.5360532555
 20
7.4090548964
 30
0.0
 10
10.5341863329
 20
7.41454824
 30
0.0
 10
10.5326525447
 20
7.4205092849
 30
0.0
 10
10.5315064765
 20
7.4268694325
 30
0.0
 10
10.5307965437
 20
7.4335226632
 30
0.0
 10
10.5305558804
 20
7.4403318608
 30
0.0
 10
10.5307965437
 20
7.4471410584
 30
0.0
 10
10.5315064765
 20
7.4537942888
 30
0.0
 10
10.5326525447
 20
7.4601544361
 30
0.0
 10
10.5341863329
 20
7.4661154807
 30
0.0
 10
10.5360532555
 20
7.4716088242
 30
0.0
 10
10.5388146949
 20
7.4780248627
 30
0.0
 10
10.5413626006
 20
7.4824203416
 30
0.0
 10
10.5432526681
 20
7.48505322
 30
0.0
  0
SPLINE
  5
29E
100
AcDbEntity
  8
0
100
AcDbSpline
 62
7
  6
CONTINUOUS
 70
0
 71
3
 72
15
 73
11
 74
0
 42
0.0000001
 43
0.0000001
 44
0.0000000001
 40
0.0
 40
0.0
 40
0.0
 40
0.0
 40
0.106080966
 40
0.2256942426
 40
0.358522382
 40
0.4999999909
 40
0.6414776075
 40
0.774305754
 40
0.8939190314
 40
1.0
 40
1.0
 40
1.0
 40
1.0
 10
10.5306021345
 20
7.3956105009
 30
0.0
 10
10.5284176588
 20
7.3982071517
 30
0.0
 10
10.5243193472
 20
7.4042100364
 30
0.0
 10
10.5196360918
 20
7.4147396778
 30
0.0
 10
10.5165365484
 20
7.4270159388
 30
0.0
 10
10.51544662
 20
7.4403318598
 30
0.0
 10
10.5165365482
 20
7.453647781
 30
0.0
 10
10.5196360916
 20
7.4659240425
 30
0.0
 10
10.5243193472
 20
7.4764536842
 30
0.0
 10
10.5284176587
 20
7.4824565691
 30
0.0
 10
10.5306021345
 20
7.48505322
 30
0.0
  0
SPLINE
  5
29F
100
AcDbEntity
  8
0
100
AcDbSpline
 62
7
  6
CONTINUOUS
 70
0
 71
3
 72
15
 73
11
 74
0
 42
0.0000001
 43
0.0000001
 44
0.0000000001
 40
0.0
 40
0.0
 40
0.0
 40
0.0
 40
0.1090196474
 40
0.2293596908
 40
0.36095491
 40
0.4999999911
 40
0.6390450796
 40
0.7706403058
 40
0.89098035
 40
1.0
 40
1.0
 40
1.0
 40
1.0
 10
10.5221121269
 20
7.3956105009
 30
0.0
 10
10.5196551261
 20
7.3981755188
 30
0.0
 10
10.5150219566
 20
7.4041078781
 30
0.0
 10
10.5096589574
 20
7.414650751
 30
0.0
 10
10.506104387
 20
7.4269635738
 30
0.0
 10
10.5048533395
 20
7.4403318598
 30
0.0
 10
10.5061043868
 20
7.4537001459
 30
0.0
 10
10.5096589571
 20
7.4660129694
 30
0.0
 10
10.5150219565
 20
7.4765558426
 30
0.0
 10
10.5196551261
 20
7.482488202
 30
0.0
 10
10.5221121269
 20
7.48505322
 30
0.0
  0
SPLINE
  5
2A0
100
AcDbEntity
  8
0
100
AcDbSpline
 62
7
  6
CONTINUOUS
 70
0
 71
3
 72
21
 73
17
 74
0
 42
0.0000001
 43
0.0000001
 44
0.0000000001
 40
0.0
 40
0.0
 40
0.0
 40
0.0
 40
0.0548534192
 40
0.1118731603
 40
0.1712140849
 40
0.2329932451
 40
0.297161919
 40
0.3634624851
 40
0.4999999912
 40
0.6365375047
 40
0.7028380768
 40
0.7670067515
 40
0.82878591
 40
0.8881268371
 40
0.9451465802
 40
1.0
 40
1.0
 40
1.0
 40
1.0
 10
10.5178510057
 20
7.3956105009
 30
0.0
 10
10.5165217716
 20
7.3968565052
 30
0.0
 10
10.5139335724
 20
7.399532242
 30
0.0
 10
10.5103942362
 20
7.4039946892
 30
0.0
 10
10.5071930355
 20
7.4089828176
 30
0.0
 10
10.5044068574
 20
7.4144821055
 30
0.0
 10
10.5021158654
 20
7.4204550615
 30
0.0
 10
10.4998113891
 20
7.4290329545
 30
0.0
 10
10.4986258613
 20
7.4403318598
 30
0.0
 10
10.4998113889
 20
7.4516307653
 30
0.0
 10
10.5021158652
 20
7.4602086588
 30
0.0
 10
10.5044068572
 20
7.4661816149
 30
0.0
 10
10.5071930353
 20
7.4716809028
 30
0.0
 10
10.510394236
 20
7.4766690314
 30
0.0
 10
10.5139335723
 20
7.4811314787
 30
0.0
 10
10.5165217716
 20
7.4838072156
 30
0.0
 10
10.5178510057
 20
7.48505322
 30
0.0
  0
SPLINE
  5
2A1
100
AcDbEntity
  8
0
100
AcDbSpline
 62
7
  6
CONTINUOUS
 70
0
 71
3
 72
21
 73
17
 74
0
 42
0.0000001
 43
0.0000001
 44
0.0000000001
 40
0.0
 40
0.0
 40
0.0
 40
0.0
 40
0.1434722031
 40
0.2145072235
 40
0.2846688947
 40
0.4212070295
 40
0.4872396715
 40
0.5514981691
 40
0.613853635
 40
0.6742320543
 40
0.7326233577
 40
0.789091849
 40
0.8437850566
 40
0.8969385291
 40
0.9488756179
 40
1.0
 40
1.0
 40
1.0
 40
1.0
 10
10.7785271167
 20
6.2223318604
 30
0.0
 10
10.7785271167
 20
6.2089596995
 30
0.0
 10
10.7770482306
 20
6.1889241278
 30
0.0
 10
10.7721272579
 20
6.1628324146
 30
0.0
 10
10.7654026562
 20
6.1378153049
 30
0.0
 10
10.7559646332
 20
6.1140710258
 30
0.0
 10
10.7439315861
 20
6.0922783741
 30
0.0
 10
10.7339034272
 20
6.0773542963
 30
0.0
 10
10.7228841625
 20
6.0638186385
 30
0.0
 10
10.7109899891
 20
6.0517992487
 30
0.0
 10
10.6983452915
 20
6.0414127879
 30
0.0
 10
10.6850805803
 20
6.0327610716
 30
0.0
 10
10.6713319317
 20
6.0259309942
 30
0.0
 10
10.6572381186
 20
6.0209941102
 30
0.0
 10
10.6429462366
 20
6.0180054345
 30
0.0
 10
10.6333279836
 20
6.0173320421
 30
0.0
 10
10.6285629947
 20
6.0173320421
 30
0.0
  0
SPLINE
  5
2A2
100
AcDbEntity
  8
0
100
AcDbSpline
 62
7
  6
CONTINUOUS
 70
0
 71
3
 72
18
 73
14
 74
0
 42
0.0000001
 43
0.0000001
 44
0.0000000001
 40
0.0
 40
0.0
 40
0.0
 40
0.0
 40
0.140610152
 40
0.2793545108
 40
0.414500582
 40
0.5445298246
 40
0.6072998974
 40
0.6684016814
 40
0.785289373
 40
0.8412178786
 40
0.895534417
 40
0.9483903619
 40
1.0
 40
1.0
 40
1.0
 40
1.0
 10
11.31610956
 20
6.2223318604
 30
0.0
 10
11.31610956
 20
6.2342826303
 30
0.0
 10
11.3176777553
 20
6.2580559682
 30
0.0
 10
11.3246676471
 20
6.2926901132
 30
0.0
 10
11.3360375839
 20
6.3252002952
 30
0.0
 10
11.348995455
 20
6.3500082695
 30
0.0
 10
11.3611933601
 20
6.3678370277
 30
0.0
 10
11.3741015812
 20
6.3837348289
 30
0.0
 10
11.3885864232
 20
6.3975449874
 30
0.0
 10
11.4043720098
 20
6.4087031785
 30
0.0
 10
11.4164698323
 20
6.4155256451
 30
0.0
 10
11.428892308
 20
6.4208640777
 30
0.0
 10
11.4374165238
 20
6.4234313087
 30
0.0
 10
11.4416845417
 20
6.4244435765
 30
0.0
  0
SPLINE
  5
2A3
100
AcDbEntity
  8
0
100
AcDbSpline
 62
7
  6
CONTINUOUS
 70
0
 71
3
 72
9
 73
5
 74
0
 42
0.0000001
 43
0.0000001
 44
0.0000000001
 40
0.0
 40
0.0
 40
0.0
 40
0.0
 40
0.5031943586
 40
1.0
 40
1.0
 40
1.0
 40
1.0
 10
11.4416845417
 20
6.4244435765
 30
0.0
 10
11.4456995818
 20
6.4253958442
 30
0.0
 10
11.4537923371
 20
6.4268405618
 30
0.0
 10
11.4619996875
 20
6.4273318604
 30
0.0
 10
11.4660737194
 20
6.4273318604
 30
0.0
  0
SPLINE
  5
2A4
100
AcDbEntity
  8
0
100
AcDbSpline
 62
7
  6
CONTINUOUS
 70
0
 71
3
 72
21
 73
17
 74
0
 42
0.0000001
 43
0.0000001
 44
0.0000000001
 40
0.0
 40
0.0
 40
0.0
 40
0.0
 40
0.0548502969
 40
0.1118678499
 40
0.1712075673
 40
0.2329865018
 40
0.2971558743
 40
0.3634579354
 40
0.4999999905
 40
0.6365420547
 40
0.7028441217
 40
0.7670134947
 40
0.8287924276
 40
0.8881321475
 40
0.9451497024
 40
1.0
 40
1.0
 40
1.0
 40
1.0
 10
11.5767815168
 20
7.48505322
 30
0.0
 10
11.5781105094
 20
7.483807204
 30
0.0
 10
11.5806982363
 20
7.4811314397
 30
0.0
 10
11.584236893
 20
7.4766689889
 30
0.0
 10
11.5874374769
 20
7.4716808592
 30
0.0
 10
11.5902231164
 20
7.4661815733
 30
0.0
 10
11.5925136641
 20
7.4602086233
 30
0.0
 10
11.5948177003
 20
7.45163071
 30
0.0
 10
11.5960029842
 20
7.4403318611
 30
0.0
 10
11.5948177005
 20
7.4290330119
 30
0.0
 10
11.5925136643
 20
7.4204550981
 30
0.0
 10
11.5902231166
 20
7.4144821478
 30
0.0
 10
11.5874374771
 20
7.4089828619
 30
0.0
 10
11.5842368931
 20
7.4039947321
 30
0.0
 10
11.5806982364
 20
7.3995322811
 30
0.0
 10
11.5781105094
 20
7.3968565168
 30
0.0
 10
11.5767815168
 20
7.3956105009
 30
0.0
  0
SPLINE
  5
2A5
100
AcDbEntity
  8
0
100
AcDbSpline
 62
7
  6
CONTINUOUS
 70
0
 71
3
 72
15
 73
11
 74
0
 42
0.0000001
 43
0.0000001
 44
0.0000000001
 40
0.0
 40
0.0
 40
0.0
 40
0.0
 40
0.1090140161
 40
0.2293526273
 40
0.3609502059
 40
0.4999999903
 40
0.6390497841
 40
0.7706473693
 40
0.8909859814
 40
1.0
 40
1.0
 40
1.0
 40
1.0
 10
11.5725121286
 20
7.48505322
 30
0.0
 10
11.5749686206
 20
7.4824881452
 30
0.0
 10
11.5796007936
 20
7.4765556513
 30
0.0
 10
11.5849625084
 20
7.4660127966
 30
0.0
 10
11.5885162146
 20
7.4537000424
 30
0.0
 10
11.5897669553
 20
7.4403318611
 30
0.0
 10
11.5885162148
 20
7.4269636794
 30
0.0
 10
11.5849625086
 20
7.4146509247
 30
0.0
 10
11.5796007937
 20
7.4041080696
 30
0.0
 10
11.5749686207
 20
7.3981755757
 30
0.0
 10
11.5725121286
 20
7.3956105009
 30
0.0
  0
SPLINE
  5
2A6
100
AcDbEntity
  8
0
100
AcDbSpline
 62
7
  6
CONTINUOUS
 70
0
 71
3
 72
15
 73
11
 74
0
 42
0.0000001
 43
0.0000001
 44
0.0000000001
 40
0.0
 40
0.0
 40
0.0
 40
0.0
 40
0.1060752035
 40
0.2256870955
 40
0.3585176569
 40
0.4999999902
 40
0.6414823329
 40
0.7743129011
 40
0.893924794
 40
1.0
 40
1.0
 40
1.0
 40
1.0
 10
11.564013954
 20
7.48505322
 30
0.0
 10
11.5661978786
 20
7.482456503
 30
0.0
 10
11.5702951072
 20
7.4764534797
 30
0.0
 10
11.5749770063
 20
7.4659238715
 30
0.0
 10
11.5780756459
 20
7.4536476835
 30
0.0
 10
11.5791652551
 20
7.4403318611
 30
0.0
 10
11.5780756461
 20
7.4270160383
 30
0.0
 10
11.5749770066
 20
7.4147398497
 30
0.0
 10
11.5702951073
 20
7.4042102413
 30
0.0
 10
11.5661978787
 20
7.3982072179
 30
0.0
 10
11.564013954
 20
7.3956105009
 30
0.0
  0
SPLINE
  5
2A7
100
AcDbEntity
  8
0
100
AcDbSpline
 62
7
  6
CONTINUOUS
 70
0
 71
3
 72
21
 73
17
 74
0
 42
0.0000001
 43
0.0000001
 44
0.0000000001
 40
0.0
 40
0.0
 40
0.0
 40
0.0
 40
0.1030704137
 40
0.1605256559
 40
0.2220221352
 40
0.2873787773
 40
0.3561102765
 40
0.4273741373
 40
0.5000000022
 40
0.5726258669
 40
0.6438897266
 40
0.7126212234
 40
0.7779778646
 40
0.8394743441
 40
0.8969295863
 40
1.0
 40
1.0
 40
1.0
 40
1.0
 10
11.5513554192
 20
7.48505322
 30
0.0
 10
11.5532448927
 20
7.4824202673
 30
0.0
 10
11.5557919269
 20
7.4780247422
 30
0.0
 10
11.5585523838
 20
7.4716087773
 30
0.0
 10
11.5604186606
 20
7.4661154408
 30
0.0
 10
11.5619519184
 20
7.4601544046
 30
0.0
 10
11.5630975904
 20
7.4537942668
 30
0.0
 10
11.5638072776
 20
7.4471410468
 30
0.0
 10
11.5640478578
 20
7.4403318602
 30
0.0
 10
11.5638072776
 20
7.4335226736
 30
0.0
 10
11.5630975904
 20
7.4268694538
 30
0.0
 10
11.5619519183
 20
7.4205093161
 30
0.0
 10
11.5604186606
 20
7.41454828
 30
0.0
 10
11.5585523838
 20
7.4090549435
 30
0.0
 10
11.5557919269
 20
7.4026389786
 30
0.0
 10
11.5532448927
 20
7.3982434535
 30
0.0
 10
11.5513554192
 20
7.3956105009
 30
0.0
  0
SPLINE
  5
2A8
100
AcDbEntity
  8
0
100
AcDbSpline
 62
7
  6
CONTINUOUS
 70
0
 71
3
 72
23
 73
19
 74
0
 42
0.0000001
 43
0.0000001
 44
0.0000000001
 40
0.0
 40
0.0
 40
0.0
 40
0.0
 40
0.0479780312
 40
0.1003288324
 40
0.1572059715
 40
0.218638817
 40
0.2843882381
 40
0.3538887799
 40
0.4261923294
 40
0.4999999898
 40
0.5738076527
 40
0.6461112096
 40
0.7156117578
 40
0.7813611796
 40
0.8427940234
 40
0.8996711652
 40
0.9520219682
 40
1.0
 40
1.0
 40
1.0
 40
1.0
 10
11.5346384489
 20
7.48505322
 30
0.0
 10
11.5353910991
 20
7.4837741585
 30
0.0
 10
11.5368482432
 20
7.481029553
 30
0.0
 10
11.5387913398
 20
7.476567308
 30
0.0
 10
11.5405474523
 20
7.4715844174
 30
0.0
 10
11.5420748794
 20
7.4660955371
 30
0.0
 10
11.5433301519
 20
7.460138535
 30
0.0
 10
11.5442680106
 20
7.453783351
 30
0.0
 10
11.5448489942
 20
7.4471354561
 30
0.0
 10
11.545045939
 20
7.4403318613
 30
0.0
 10
11.5448489942
 20
7.4335282662
 30
0.0
 10
11.5442680107
 20
7.4268803708
 30
0.0
 10
11.543330152
 20
7.4205251864
 30
0.0
 10
11.5420748796
 20
7.4145681841
 30
0.0
 10
11.5405474523
 20
7.4090793037
 30
0.0
 10
11.5387913399
 20
7.4040964131
 30
0.0
 10
11.5368482433
 20
7.3996341679
 30
0.0
 10
11.5353910991
 20
7.3968895624
 30
0.0
 10
11.5346384489
 20
7.3956105009
 30
0.0
  0
SPLINE
  5
2A9
100
AcDbEntity
  8
0
100
AcDbSpline
 62
7
  6
CONTINUOUS
 70
0
 71
3
 72
23
 73
19
 74
0
 42
0.0000001
 43
0.0000001
 44
0.0000000001
 40
0.0
 40
0.0
 40
0.0
 40
0.0
 40
0.0464433671
 40
0.0977988872
 40
0.1541850941
 40
0.2155863461
 40
0.2817056163
 40
0.3519035425
 40
0.4251385053
 40
0.4999999897
 40
0.5748614766
 40
0.6480964469
 40
0.7182943795
 40
0.7844136505
 40
0.8458149008
 40
0.9022011104
 40
0.9535566324
 40
1.0
 40
1.0
 40
1.0
 40
1.0
 10
11.5139976458
 20
7.48505322
 30
0.0
 10
11.5145836166
 20
7.4837639991
 30
0.0
 10
11.5157147183
 20
7.4810017688
 30
0.0
 10
11.5172127857
 20
7.4765425771
 30
0.0
 10
11.5185668912
 20
7.4715631728
 30
0.0
 10
11.5197448304
 20
7.4660780811
 30
0.0
 10
11.5207129888
 20
7.4601250972
 30
0.0
 10
11.5214363765
 20
7.4537742059
 30
0.0
 10
11.521884516
 20
7.4471308239
 30
0.0
 10
11.5220364311
 20
7.4403318613
 30
0.0
 10
11.521884516
 20
7.4335328984
 30
0.0
 10
11.5214363766
 20
7.4268895159
 30
0.0
 10
11.5207129889
 20
7.4205386241
 30
0.0
 10
11.5197448305
 20
7.41458564
 30
0.0
 10
11.5185668913
 20
7.4091005484
 30
0.0
 10
11.5172127858
 20
7.4041211439
 30
0.0
 10
11.5157147184
 20
7.3996619521
 30
0.0
 10
11.5145836166
 20
7.3968997218
 30
0.0
 10
11.5139976458
 20
7.3956105009
 30
0.0
  0
SPLINE
  5
2AA
100
AcDbEntity
  8
0
100
AcDbSpline
 62
7
  6
CONTINUOUS
 70
0
 71
3
 72
21
 73
17
 74
0
 42
0.0000001
 43
0.0000001
 44
0.0000000001
 40
0.0
 40
0.0
 40
0.0
 40
0.0
 40
0.0451875316
 40
0.0957430189
 40
0.1517446
 40
0.2131327097
 40
0.2795593964
 40
0.3503240617
 40
0.4999999895
 40
0.6496759275
 40
0.7204405994
 40
0.7868672869
 40
0.8482553949
 40
0.9042569787
 40
0.9548124679
 40
1.0
 40
1.0
 40
1.0
 40
1.0
 10
11.4895992066
 20
7.48505322
 30
0.0
 10
11.4900107724
 20
7.4837546259
 30
0.0
 10
11.4908027144
 20
7.480977469
 30
0.0
 10
11.4918454329
 20
7.4765218436
 30
0.0
 10
11.4927881906
 20
7.4715459552
 30
0.0
 10
11.4936084558
 20
7.4660642898
 30
0.0
 10
11.4942828158
 20
7.4601146471
 30
0.0
 10
11.494966886
 20
7.4514922782
 30
0.0
 10
11.4953063204
 20
7.440331861
 30
0.0
 10
11.4949668861
 20
7.4291714437
 30
0.0
 10
11.4942828159
 20
7.4205490743
 30
0.0
 10
11.4936084559
 20
7.4145994314
 30
0.0
 10
11.4927881907
 20
7.409117766
 30
0.0
 10
11.491845433
 20
7.4041418774
 30
0.0
 10
11.4908027145
 20
7.3996862519
 30
0.0
 10
11.4900107724
 20
7.3969090949
 30
0.0
 10
11.4895992066
 20
7.3956105009
 30
0.0
  0
SPLINE
  5
2AB
100
AcDbEntity
  8
0
100
AcDbSpline
 62
7
  6
CONTINUOUS
 70
0
 71
3
 72
19
 73
15
 74
0
 42
0.0000001
 43
0.0000001
 44
0.0000000001
 40
0.0
 40
0.0
 40
0.0
 40
0.0
 40
0.0443190867
 40
0.0943279197
 40
0.1500701156
 40
0.2114521125
 40
0.3492319766
 40
0.4999999895
 40
0.6507680126
 40
0.7885478841
 40
0.8499298793
 40
0.9056720779
 40
0.9556809128
 40
1.0
 40
1.0
 40
1.0
 40
1.0
 10
11.4616395843
 20
7.48505322
 30
0.0
 10
11.4618704269
 20
7.4837475222
 30
0.0
 10
11.4623134445
 20
7.4809598631
 30
0.0
 10
11.462894291
 20
7.4765073056
 30
0.0
 10
11.4634196478
 20
7.4715341916
 30
0.0
 10
11.4640534794
 20
7.4639338018
 30
0.0
 10
11.4645998278
 20
7.4534760073
 30
0.0
 10
11.4648233665
 20
7.440331861
 30
0.0
 10
11.4645998279
 20
7.4271877145
 30
0.0
 10
11.4640534795
 20
7.4167299196
 30
0.0
 10
11.4634196478
 20
7.4091295295
 30
0.0
 10
11.462894291
 20
7.4041564154
 30
0.0
 10
11.4623134445
 20
7.3997038578
 30
0.0
 10
11.4618704269
 20
7.3969161986
 30
0.0
 10
11.4616395843
 20
7.3956105009
 30
0.0
  0
SPLINE
  5
2AC
100
AcDbEntity
  8
0
100
AcDbSpline
 62
7
  6
CONTINUOUS
 70
0
 71
3
 72
15
 73
11
 74
0
 42
0.0000001
 43
0.0000001
 44
0.0000000001
 40
0.0
 40
0.0
 40
0.0
 40
0.0
 40
0.0936932308
 40
0.2106997569
 40
0.3487492988
 40
0.4999999894
 40
0.6512506904
 40
0.7893002397
 40
0.9063067668
 40
1.0
 40
1.0
 40
1.0
 40
1.0
 10
11.4303439057
 20
7.48505322
 30
0.0
 10
11.4304422897
 20
7.4822611758
 30
0.0
 10
11.4306173769
 20
7.4759807313
 30
0.0
 10
11.4308077951
 20
7.4655832435
 30
0.0
 10
11.4309339802
 20
7.4534683873
 30
0.0
 10
11.4309784386
 20
7.440331861
 30
0.0
 10
11.4309339802
 20
7.4271953345
 30
0.0
 10
11.4308077951
 20
7.4150804778
 30
0.0
 10
11.4306173769
 20
7.4046829897
 30
0.0
 10
11.4304422897
 20
7.3984025451
 30
0.0
 10
11.4303439057
 20
7.3956105009
 30
0.0
  0
SPLINE
  5
2AD
100
AcDbEntity
  8
0
100
AcDbSpline
 62
7
  6
CONTINUOUS
 70
0
 71
3
 72
9
 73
5
 74
0
 42
0.0000001
 43
0.0000001
 44
0.0000000001
 40
0.0
 40
0.0
 40
0.0
 40
0.0
 40
0.4974448571
 40
1.0
 40
1.0
 40
1.0
 40
1.0
 10
11.4432981358
 20
6.4183316824
 30
0.0
 10
11.4385732873
 20
6.4183316824
 30
0.0
 10
11.4290626791
 20
6.4176411198
 30
0.0
 10
11.4197510026
 20
6.4155954906
 30
0.0
 10
11.4151703412
 20
6.4142528189
 30
0.0
  0
SPLINE
  5
2AE
100
AcDbEntity
  8
0
100
AcDbSpline
 62
9
  6
CONTINUOUS
 70
0
 71
3
 72
25
 73
21
 74
0
 42
0.0000001
 43
0.0000001
 44
0.0000000001
 40
0.0
 40
0.0
 40
0.0
 40
0.0
 40
0.0257144432
 40
0.0514905815
 40
0.0773892151
 40
0.1034688129
 40
0.1563623123
 40
0.2105985121
 40
0.2383357822
 40
0.266521161
 40
0.3243136694
 40
0.3841400904
 40
0.446052387
 40
0.5100217468
 40
0.5759465195
 40
0.643660884
 40
0.7129473286
 40
0.7835429099
 40
0.8551455638
 40
1.0
 40
1.0
 40
1.0
 40
1.0
 10
11.4620406913
 20
6.0263320389
 30
0.0
 10
11.4597725154
 20
6.0263320389
 30
0.0
 10
11.4552291321
 20
6.0264897413
 30
0.0
 10
11.4484347547
 20
6.0271994747
 30
0.0
 10
11.4416730898
 20
6.0283805333
 30
0.0
 10
11.432683877
 20
6.0305882832
 30
0.0
 10
11.4215794565
 20
6.0345395822
 30
0.0
 10
11.4109458683
 20
6.0399444337
 30
0.0
 10
11.402711533
 20
6.0451118968
 30
0.0
 10
11.3945385005
 20
6.0509353807
 30
0.0
 10
11.3847218465
 20
6.0592881297
 30
0.0
 10
11.3737966161
 20
6.0707885485
 30
0.0
 10
11.363725919
 20
6.083739614
 30
0.0
 10
11.3546049428
 20
6.0980157069
 30
0.0
 10
11.3465189208
 20
6.1134802088
 30
0.0
 10
11.339543208
 20
6.1299850083
 30
0.0
 10
11.3337435885
 20
6.1473719762
 30
0.0
 10
11.3291749236
 20
6.1654767918
 30
0.0
 10
11.3247664758
 20
6.1904249803
 30
0.0
 10
11.3234477622
 20
6.2095547862
 30
0.0
 10
11.3234477622
 20
6.2223318604
 30
0.0
  0
SPLINE
  5
2AF
100
AcDbEntity
  8
0
100
AcDbSpline
 62
9
  6
CONTINUOUS
 70
0
 71
3
 72
9
 73
5
 74
0
 42
0.0000001
 43
0.0000001
 44
0.0000000001
 40
0.0
 40
0.0
 40
0.0
 40
0.0
 40
0.2431328839
 40
1.0
 40
1.0
 40
1.0
 40
1.0
 10
10.3794326013
 20
6.3831585936
 30
0.0
 10
10.381783357
 20
6.3798981724
 30
0.0
 10
10.3910566062
 20
6.366205093
 30
0.0
 10
10.3987607769
 20
6.3514687767
 30
0.0
 10
10.4037334086
 20
6.3399866792
 30
0.0
  0
SPLINE
  5
2B0
100
AcDbEntity
  8
0
100
AcDbSpline
 62
9
  6
CONTINUOUS
 70
0
 71
3
 72
17
 73
13
 74
0
 42
0.0000001
 43
0.0000001
 44
0.0000000001
 40
0.0
 40
0.0
 40
0.0
 40
0.0
 40
0.1232129327
 40
0.1864081559
 40
0.2503853351
 40
0.379775218
 40
0.5096577889
 40
0.6382119946
 40
0.7637121465
 40
0.8248706105
 40
0.8847320466
 40
1.0
 40
1.0
 40
1.0
 40
1.0
 10
10.4037334086
 20
6.3399866792
 30
0.0
 10
10.4084841593
 20
6.3290169179
 30
0.0
 10
10.4145190487
 20
6.3118946158
 30
0.0
 10
10.4203954695
 20
6.2883130635
 30
0.0
 10
10.4249097275
 20
6.2638187819
 30
0.0
 10
10.4277689609
 20
6.232505842
 30
0.0
 10
10.4267423229
 20
6.1948058924
 30
0.0
 10
10.4213013671
 20
6.157865871
 30
0.0
 10
10.413136789
 20
6.1283001165
 30
0.0
 10
10.4045091405
 20
6.1059737396
 30
0.0
 10
10.3947987226
 20
6.08519497
 30
0.0
 10
10.3859731121
 20
6.0705766015
 30
0.0
 10
10.3794326013
 20
6.0615051272
 30
0.0
  0
SPLINE
  5
2B1
100
AcDbEntity
  8
0
100
AcDbSpline
 62
9
  6
CONTINUOUS
 70
0
 71
3
 72
15
 73
11
 74
0
 42
0.0000001
 43
0.0000001
 44
0.0000000001
 40
0.0
 40
0.0
 40
0.0
 40
0.0
 40
0.1140850148
 40
0.2294771032
 40
0.3473084287
 40
0.4686116619
 40
0.5941477235
 40
0.7244284871
 40
0.8597086119
 40
1.0
 40
1.0
 40
1.0
 40
1.0
 10
10.6169264753
 20
6.0356539245
 30
0.0
 10
10.6122196065
 20
6.0356539245
 30
0.0
 10
10.6027367472
 20
6.0363755039
 30
0.0
 10
10.5887236297
 20
6.0395980451
 30
0.0
 10
10.5750467775
 20
6.0449220304
 30
0.0
 10
10.5618693849
 20
6.0522747553
 30
0.0
 10
10.5493391768
 20
6.0615661625
 30
0.0
 10
10.5375951203
 20
6.0726839584
 30
0.0
 10
10.5267669924
 20
6.0854963762
 30
0.0
 10
10.5203489687
 20
6.0949077313
 30
0.0
 10
10.5173172778
 20
6.0998383212
 30
0.0
  0
SPLINE
  5
2B2
100
AcDbEntity
  8
0
100
AcDbSpline
 62
9
  6
CONTINUOUS
 70
0
 71
3
 72
15
 73
11
 74
0
 42
0.0000001
 43
0.0000001
 44
0.0000000001
 40
0.0
 40
0.0
 40
0.0
 40
0.0
 40
0.1402143624
 40
0.2754334757
 40
0.4056758385
 40
0.5312002733
 40
0.6525194324
 40
0.7703917984
 40
0.8858444665
 40
1.0
 40
1.0
 40
1.0
 40
1.0
 10
10.5176489109
 20
6.3453626718
 30
0.0
 10
10.5206804098
 20
6.3502550216
 30
0.0
 10
10.5270937718
 20
6.3595922703
 30
0.0
 10
10.5379018198
 20
6.3723000104
 30
0.0
 10
10.5496141857
 20
6.3833244612
 30
0.0
 10
10.5621025577
 20
6.3925360601
 30
0.0
 10
10.5752295934
 20
6.3998244399
 30
0.0
 10
10.5888494053
 20
6.4051011289
 30
0.0
 10
10.6028008658
 20
6.4082947294
 30
0.0
 10
10.6122406846
 20
6.4090097963
 30
0.0
 10
10.6169264753
 20
6.4090097963
 30
0.0
  0
SPLINE
  5
2B3
100
AcDbEntity
  8
0
100
AcDbSpline
 62
9
  6
CONTINUOUS
 70
0
 71
3
 72
37
 73
33
 74
0
 42
0.0000001
 43
0.0000001
 44
0.0000000001
 40
0.0
 40
0.0
 40
0.0
 40
0.0
 40
0.0257288487
 40
0.0517100208
 40
0.0781575803
 40
0.1052781568
 40
0.1332302904
 40
0.1621289189
 40
0.1920448377
 40
0.2230039147
 40
0.2549914118
 40
0.2879566808
 40
0.3218171238
 40
0.3564632592
 40
0.4275238973
 40
0.4636747783
 40
0.5000000001
 40
0.5363252218
 40
0.5724761027
 40
0.6435367411
 40
0.6781828767
 40
0.7120433198
 40
0.7450085891
 40
0.776996086
 40
0.8079551624
 40
0.8378710809
 40
0.8667697094
 40
0.8947218431
 40
0.9218424197
 40
0.9482899791
 40
0.9742711512
 40
1.0
 40
1.0
 40
1.0
 40
1.0
 10
10.6169264753
 20
6.4090097963
 30
0.0
 10
10.6212491013
 20
6.4090097963
 30
0.0
 10
10.6299485346
 20
6.4084021529
 30
0.0
 10
10.6428352428
 20
6.4056864729
 30
0.0
 10
10.655463269
 20
6.4011923122
 30
0.0
 10
10.6677043904
 20
6.3949708542
 30
0.0
 10
10.6794428596
 20
6.3870870574
 30
0.0
 10
10.6905674017
 20
6.3776213839
 30
0.0
 10
10.7009737852
 20
6.3666675177
 30
0.0
 10
10.7105650859
 20
6.3543323925
 30
0.0
 10
10.7192523634
 20
6.3407352512
 30
0.0
 10
10.7269539392
 20
6.3260065687
 30
0.0
 10
10.7335979178
 20
6.310285929
 30
0.0
 10
10.7410231337
 20
6.2880252066
 30
0.0
 10
10.745994489
 20
6.2646136807
 30
0.0
 10
10.7485053955
 20
6.2406158478
 30
0.0
 10
10.7491393748
 20
6.2223318604
 30
0.0
 10
10.7485053955
 20
6.204047873
 30
0.0
 10
10.745994489
 20
6.1800500401
 30
0.0
 10
10.7410231337
 20
6.156638514
 30
0.0
 10
10.7335979177
 20
6.1343777916
 30
0.0
 10
10.7269539391
 20
6.1186571518
 30
0.0
 10
10.7192523632
 20
6.1039284693
 30
0.0
 10
10.7105650858
 20
6.0903313281
 30
0.0
 10
10.7009737851
 20
6.077996203
 30
0.0
 10
10.6905674017
 20
6.0670423369
 30
0.0
 10
10.6794428597
 20
6.0575766634
 30
0.0
 10
10.6677043904
 20
6.0496928667
 30
0.0
 10
10.6554632691
 20
6.0434714086
 30
0.0
 10
10.6428352428
 20
6.0389772479
 30
0.0
 10
10.6299485346
 20
6.0362615679
 30
0.0
 10
10.6212491013
 20
6.0356539245
 30
0.0
 10
10.6169264753
 20
6.0356539245
 30
0.0
  0
SPLINE
  5
2B4
100
AcDbEntity
  8
0
100
AcDbSpline
 62
9
  6
CONTINUOUS
 70
0
 71
3
 72
41
 73
37
 74
0
 42
0.0000001
 43
0.0000001
 44
0.0000000001
 40
0.0
 40
0.0
 40
0.0
 40
0.0
 40
0.0257265432
 40
0.0517037692
 40
0.0781483127
 40
0.1052658464
 40
0.1191342519
 40
0.1332266603
 40
0.1621219601
 40
0.1920342623
 40
0.2229897122
 40
0.2549735622
 40
0.2879348698
 40
0.321791275
 40
0.3564334581
 40
0.3917300024
 40
0.427532366
 40
0.46367908
 40
0.5000000001
 40
0.5363209202
 40
0.5724676341
 40
0.6082699978
 40
0.6435665423
 40
0.6782087255
 40
0.7120651309
 40
0.7450264387
 40
0.7770102885
 40
0.8079657378
 40
0.8378780397
 40
0.8667733396
 40
0.880865748
 40
0.8947341536
 40
0.9218516874
 40
0.9482962308
 40
0.9742734568
 40
1.0
 40
1.0
 40
1.0
 40
1.0
 10
10.6325959854
 20
6.4183318604
 30
0.0
 10
10.6371345959
 20
6.4183318604
 30
0.0
 10
10.6462684008
 20
6.4176940497
 30
0.0
 10
10.6597987382
 20
6.4148424343
 30
0.0
 10
10.6730566183
 20
6.4101242184
 30
0.0
 10
10.68369091
 20
6.4047194041
 30
0.0
 10
10.6919251731
 20
6.3995518756
 30
0.0
 10
10.7000980854
 20
6.3937281509
 30
0.0
 10
10.7099147573
 20
6.3853755185
 30
0.0
 10
10.7208402437
 20
6.3738753473
 30
0.0
 10
10.7309107543
 20
6.360924095
 30
0.0
 10
10.7400315321
 20
6.3466478975
 30
0.0
 10
10.7481178642
 20
6.3311835375
 30
0.0
 10
10.7550935874
 20
6.314678842
 30
0.0
 10
10.760892967
 20
6.2972914874
 30
0.0
 10
10.765461668
 20
6.2791877314
 30
0.0
 10
10.7687564609
 20
6.2605404961
 30
0.0
 10
10.7707457287
 20
6.241527936
 30
0.0
 10
10.7714108507
 20
6.2223318603
 30
0.0
 10
10.7707457287
 20
6.2031357847
 30
0.0
 10
10.7687564609
 20
6.1841232246
 30
0.0
 10
10.7654616679
 20
6.1654759892
 30
0.0
 10
10.760892967
 20
6.1473722332
 30
0.0
 10
10.7550935873
 20
6.1299848785
 30
0.0
 10
10.748117864
 20
6.113480183
 30
0.0
 10
10.7400315319
 20
6.098015823
 30
0.0
 10
10.7309107541
 20
6.0837396256
 30
0.0
 10
10.7208402436
 20
6.0707883735
 30
0.0
 10
10.7099147573
 20
6.0592882024
 30
0.0
 10
10.7000980855
 20
6.0509355699
 30
0.0
 10
10.6919251731
 20
6.0451118452
 30
0.0
 10
10.68369091
 20
6.0399443168
 30
0.0
 10
10.6730566183
 20
6.0345395024
 30
0.0
 10
10.6597987382
 20
6.0298212865
 30
0.0
 10
10.6462684008
 20
6.0269696711
 30
0.0
 10
10.6371345959
 20
6.0263318604
 30
0.0
 10
10.6325959854
 20
6.0263318604
 30
0.0
  0
SPLINE
  5
2B5
100
AcDbEntity
  8
0
100
AcDbSpline
 62
7
  6
CONTINUOUS
 70
0
 71
3
 72
37
 73
33
 74
0
 42
0.0000001
 43
0.0000001
 44
0.0000000001
 40
0.0
 40
0.0
 40
0.0
 40
0.0
 40
0.0256682783
 40
0.0517598413
 40
0.0784564793
 40
0.1059006915
 40
0.1341994853
 40
0.1634244164
 40
0.1936099055
 40
0.2247568867
 40
0.2568350222
 40
0.2897862856
 40
0.3235293604
 40
0.3579622094
 40
0.4283704333
 40
0.4641130803
 40
0.500006621
 40
0.5359000654
 40
0.571642425
 40
0.6420495288
 40
0.6764815712
 40
0.7102236993
 40
0.7431738979
 40
0.7752508787
 40
0.8063966493
 40
0.8365809076
 40
0.8658046296
 40
0.8941022825
 40
0.9215454672
 40
0.9482412356
 40
0.9743321375
 40
1.0
 40
1.0
 40
1.0
 40
1.0
 10
10.3571854354
 20
6.4104649115
 30
0.0
 10
10.3612819204
 20
6.4098799133
 30
0.0
 10
10.3694749179
 20
6.4081621043
 30
0.0
 10
10.3814592338
 20
6.4040241092
 30
0.0
 10
10.3931155671
 20
6.398348244
 30
0.0
 10
10.4043441987
 20
6.3911874998
 30
0.0
 10
10.4150519795
 20
6.382604853
 30
0.0
 10
10.4251501284
 20
6.3726749986
 30
0.0
 10
10.434556715
 20
6.3614836839
 30
0.0
 10
10.4431940796
 20
6.349125274
 30
0.0
 10
10.4509912153
 20
6.3357038249
 30
0.0
 10
10.4578846381
 20
6.3213326979
 30
0.0
 10
10.4638170066
 20
6.3061308496
 30
0.0
 10
10.4704267964
 20
6.2847741238
 30
0.0
 10
10.4748497642
 20
6.2624616846
 30
0.0
 10
10.4770802655
 20
6.2396597392
 30
0.0
 10
10.477642432
 20
6.2223208066
 30
0.0
 10
10.4770788346
 20
6.2049819665
 30
0.0
 10
10.4748464551
 20
6.1821804487
 30
0.0
 10
10.4704216576
 20
6.1598687321
 30
0.0
 10
10.463810085
 20
6.1385130416
 30
0.0
 10
10.4578764613
 20
6.1233121695
 30
0.0
 10
10.4509818489
 20
6.1089421776
 30
0.0
 10
10.4431836008
 20
6.0955220124
 30
0.0
 10
10.4345452118
 20
6.083165023
 30
0.0
 10
10.4251376928
 20
6.0719752576
 30
0.0
 10
10.4150387143
 20
6.0620470664
 30
0.0
 10
10.4043302138
 20
6.0534661833
 30
0.0
 10
10.3931009764
 20
6.0463072943
 30
0.0
 10
10.381444161
 20
6.0406333549
 30
0.0
 10
10.3694594891
 20
6.0364973443
 30
0.0
 10
10.3612663806
 20
6.0347809056
 30
0.0
 10
10.3571698664
 20
6.0341965873
 30
0.0
  0
SPLINE
  5
2B6
100
AcDbEntity
  8
0
100
AcDbSpline
 62
9
  6
CONTINUOUS
 70
0
 71
3
 72
31
 73
27
 74
0
 42
0.0000001
 43
0.0000001
 44
0.0000000001
 40
0.0
 40
0.0
 40
0.0
 40
0.0
 40
0.0257360178
 40
0.0519977601
 40
0.0789245221
 40
0.1066236428
 40
0.1351722611
 40
0.1646166074
 40
0.1949722389
 40
0.2262264534
 40
0.2912139879
 40
0.3590775881
 40
0.4290007586
 40
0.4999959811
 40
0.57099142
 40
0.640915223
 40
0.7087798208
 40
0.7737686325
 40
0.8050235516
 40
0.8353799083
 40
0.8648249782
 40
0.8933742966
 40
0.9210740676
 40
0.9480014062
 40
0.9742636283
 40
1.0
 40
1.0
 40
1.0
 40
1.0
 10
10.3654805605
 20
6.4005953497
 30
0.0
 10
10.3691850868
 20
6.3996920296
 30
0.0
 10
10.3765658803
 20
6.3974101829
 30
0.0
 10
10.3872822965
 20
6.392671356
 30
0.0
 10
10.3976591202
 20
6.3866284442
 30
0.0
 10
10.4076143306
 20
6.3793289704
 30
0.0
 10
10.4170744453
 20
6.370832038
 30
0.0
 10
10.4259684692
 20
6.3612038001
 30
0.0
 10
10.4342301089
 20
6.3505176556
 30
0.0
 10
10.4444508787
 20
6.3347690751
 30
0.0
 10
10.4552346035
 20
6.3128670053
 30
0.0
 10
10.4646245418
 20
6.2842365585
 30
0.0
 10
10.4703715023
 20
6.2537556999
 30
0.0
 10
10.4723061645
 20
6.2223381524
 30
0.0
 10
10.4703730403
 20
6.1909204171
 30
0.0
 10
10.4646275728
 20
6.1604390011
 30
0.0
 10
10.4552390397
 20
6.131807644
 30
0.0
 10
10.4444564065
 20
6.1099045517
 30
0.0
 10
10.4342364251
 20
6.094154983
 30
0.0
 10
10.4259753151
 20
6.0834680272
 30
0.0
 10
10.4170817687
 20
6.0738389167
 30
0.0
 10
10.4076220784
 20
6.0653410542
 30
0.0
 10
10.3976672333
 20
6.0580406018
 30
0.0
 10
10.3872907139
 20
6.0519966683
 30
0.0
 10
10.3765745383
 20
6.0472567842
 30
0.0
 10
10.3691938433
 20
6.0449742034
 30
0.0
 10
10.3654893528
 20
6.0440705155
 30
0.0
  0
LINE
  5
2B7
100
AcDbEntity
  8
0
100
AcDbLine
 62
9
  6
CONTINUOUS
 10
11.5782855087
 20
6.1014275111
 11
11.578064391
 21
6.1010605857
  0
SPLINE
  5
2B8
100
AcDbEntity
  8
0
100
AcDbSpline
 62
9
  6
CONTINUOUS
 70
0
 71
3
 72
32
 73
28
 74
0
 42
0.0000001
 43
0.0000001
 44
0.0000000001
 40
0.0
 40
0.0
 40
0.0
 40
0.0
 40
0.0650248357
 40
0.0963106487
 40
0.1267704454
 40
0.1564332143
 40
0.1853498987
 40
0.2135929522
 40
0.2412561343
 40
0.2684530445
 40
0.2953138203
 40
0.3219817074
 40
0.3486071697
 40
0.3753425892
 40
0.4023359466
 40
0.4297250518
 40
0.4576334558
 40
0.4861657356
 40
0.5154068624
 40
0.5454191134
 40
0.5762441928
 40
0.6403482127
 40
0.7076995951
 40
0.7779604809
 40
0.8505836555
 40
0.9248635737
 40
1.0
 40
1.0
 40
1.0
 40
1.0
 10
11.577302042
 20
6.0998100982
 30
0.0
 10
11.5730347494
 20
6.092872793
 30
0.0
 10
11.5660147595
 20
6.0829941153
 30
0.0
 10
11.5553889558
 20
6.0711785342
 30
0.0
 10
11.5470706337
 20
6.0632916618
 30
0.0
 10
11.5383505196
 20
6.056317018
 30
0.0
 10
11.5292779143
 20
6.0502937918
 30
0.0
 10
11.5199040296
 20
6.0452586795
 30
0.0
 10
11.5102827088
 20
6.0412416624
 30
0.0
 10
11.5004694858
 20
6.0382674793
 30
0.0
 10
11.4905215862
 20
6.036355103
 30
0.0
 10
11.4804977378
 20
6.0355159069
 30
0.0
 10
11.470457328
 20
6.0357564453
 30
0.0
 10
11.4604599011
 20
6.0370736493
 30
0.0
 10
11.4505648872
 20
6.0394608981
 30
0.0
 10
11.4408298548
 20
6.0429011501
 30
0.0
 10
11.4313121384
 20
6.047375071
 30
0.0
 10
11.422065484
 20
6.0528534172
 30
0.0
 10
11.4131438216
 20
6.0593050612
 30
0.0
 10
11.4045961275
 20
6.0666907128
 30
0.0
 10
11.3936237462
 20
6.0778700326
 30
0.0
 10
11.3811417189
 20
6.0940166132
 30
0.0
 10
11.3685904433
 20
6.1160271657
 30
0.0
 10
11.3585302082
 20
6.1404345433
 30
0.0
 10
11.3511831815
 20
6.1666866746
 30
0.0
 10
11.3467086512
 20
6.1941897062
 30
0.0
 10
11.345708967
 20
6.2129206415
 30
0.0
 10
11.345708967
 20
6.2223318604
 30
0.0
  0
SPLINE
  5
2B9
100
AcDbEntity
  8
0
100
AcDbSpline
 62
9
  6
CONTINUOUS
 70
0
 71
3
 72
32
 73
28
 74
0
 42
0.0000001
 43
0.0000001
 44
0.0000000001
 40
0.0
 40
0.0
 40
0.0
 40
0.0
 40
0.0751220069
 40
0.1493830466
 40
0.221979179
 40
0.2922020139
 40
0.3595032679
 40
0.4235462562
 40
0.4543380665
 40
0.4843160857
 40
0.5135230296
 40
0.5420223573
 40
0.5699003476
 40
0.5972630274
 40
0.6242353275
 40
0.6509564366
 40
0.6775754396
 40
0.7042455934
 40
0.7311178617
 40
0.7583355656
 40
0.7860286182
 40
0.8143098929
 40
0.8432723188
 40
0.8729870498
 40
0.9035038116
 40
0.9348500034
 40
1.0
 40
1.0
 40
1.0
 40
1.0
 10
11.345708967
 20
6.2223318604
 30
0.0
 10
11.345708967
 20
6.2317682292
 30
0.0
 10
11.3467139622
 20
6.2505487253
 30
0.0
 10
11.3512121564
 20
6.2781213891
 30
0.0
 10
11.3585974518
 20
6.3044333003
 30
0.0
 10
11.3687089452
 20
6.3288861263
 30
0.0
 10
11.3813222001
 20
6.3509238446
 30
0.0
 10
11.3938640792
 20
6.3670758592
 30
0.0
 10
11.4048866028
 20
6.3782463132
 30
0.0
 10
11.4134717662
 20
6.3856186515
 30
0.0
 10
11.422431042
 20
6.392050468
 30
0.0
 10
11.4317150026
 20
6.3975023078
 30
0.0
 10
11.4412691996
 20
6.4019430093
 30
0.0
 10
11.4510393321
 20
6.4053434049
 30
0.0
 10
11.4609675699
 20
6.4076841468
 30
0.0
 10
11.4709957524
 20
6.408948588
 30
0.0
 10
11.4810639578
 20
6.4091301199
 30
0.0
 10
11.4911121339
 20
6.4082263849
 30
0.0
 10
11.5010803978
 20
6.4062439929
 30
0.0
 10
11.5109096944
 20
6.4031952494
 30
0.0
 10
11.5205422883
 20
6.3990992494
 30
0.0
 10
11.5299225067
 20
6.3939817558
 30
0.0
 10
11.5389959884
 20
6.387872991
 30
0.0
 10
11.5477115126
 20
6.3808106718
 30
0.0
 10
11.5560193129
 20
6.3728344075
 30
0.0
 10
11.5666229164
 20
6.3608971031
 30
0.0
 10
11.5736173398
 20
6.3509294034
 30
0.0
 10
11.5778641296
 20
6.3439337998
 30
0.0
  0
SPLINE
  5
2BA
100
AcDbEntity
  8
0
100
AcDbSpline
 62
9
  6
CONTINUOUS
 70
0
 71
3
 72
21
 73
17
 74
0
 42
0.0000001
 43
0.0000001
 44
0.0000000001
 40
0.0
 40
0.0
 40
0.0
 40
0.0
 40
0.1426482621
 40
0.2132900808
 40
0.2830947793
 40
0.4191189555
 40
0.4849935299
 40
0.5491883265
 40
0.6115850287
 40
0.6721152024
 40
0.7307679446
 40
0.7875939646
 40
0.8427105103
 40
0.8963045108
 40
0.9486295046
 40
1.0
 40
1.0
 40
1.0
 40
1.0
 10
11.3234477622
 20
6.2223318604
 30
0.0
 10
11.3234477622
 20
6.23403573
 30
0.0
 10
11.3245550361
 20
6.251563133
 30
0.0
 10
11.3282552733
 20
6.2745064866
 30
0.0
 10
11.3333336037
 20
6.2966270072
 30
0.0
 10
11.3404990698
 20
6.3178289691
 30
0.0
 10
11.3497340745
 20
6.3376302072
 30
0.0
 10
11.3574939772
 20
6.3514028692
 30
0.0
 10
11.3660978615
 20
6.3641395348
 30
0.0
 10
11.375478931
 20
6.375738291
 30
0.0
 10
11.3855627625
 20
6.3861054845
 30
0.0
 10
11.3962706102
 20
6.3951562957
 30
0.0
 10
11.4075181359
 20
6.4028153175
 30
0.0
 10
11.4192163193
 20
6.409018697
 30
0.0
 10
11.431268878
 20
6.4137117725
 30
0.0
 10
11.4395376336
 20
6.4158210453
 30
0.0
 10
11.4436790858
 20
6.4166039205
 30
0.0
  0
SPLINE
  5
2BB
100
AcDbEntity
  8
0
100
AcDbSpline
 62
9
  6
CONTINUOUS
 70
0
 71
3
 72
13
 73
9
 74
0
 42
0.0000001
 43
0.0000001
 44
0.0000000001
 40
0.0
 40
0.0
 40
0.0
 40
0.0
 40
0.2618279888
 40
0.3912142554
 40
0.5187360689
 40
0.6438380882
 40
0.7660356551
 40
1.0
 40
1.0
 40
1.0
 40
1.0
 10
11.6500490362
 20
6.2223318604
 30
0.0
 10
11.6500490362
 20
6.2334039311
 30
0.0
 10
11.651205643
 20
6.2499801862
 30
0.0
 10
11.6550724813
 20
6.27158639
 30
0.0
 10
11.6590783965
 20
6.2872520812
 30
0.0
 10
11.6641632606
 20
6.3022833466
 30
0.0
 10
11.67219103
 20
6.3209973419
 30
0.0
 10
11.6798314882
 20
6.3340962086
 30
0.0
 10
11.6856175592
 20
6.3421216906
 30
0.0
  0
SPLINE
  5
2BC
100
AcDbEntity
  8
0
100
AcDbSpline
 62
9
  6
CONTINUOUS
 70
0
 71
3
 72
14
 73
10
 74
0
 42
0.0000001
 43
0.0000001
 44
0.0000000001
 40
0.0
 40
0.0
 40
0.0
 40
0.0
 40
0.1312805629
 40
0.2619474447
 40
0.3913130711
 40
0.5188151006
 40
0.6438960537
 40
0.7660734973
 40
1.0
 40
1.0
 40
1.0
 40
1.0
 10
11.6674507506
 20
6.2223318604
 30
0.0
 10
11.6674507506
 20
6.2297864277
 30
0.0
 10
11.6679730953
 20
6.2446660403
 30
0.0
 10
11.6703152515
 20
6.2667801569
 30
0.0
 10
11.6741953928
 20
6.2884608981
 30
0.0
 10
11.679573132
 20
6.3094917571
 30
0.0
 10
11.6864001111
 20
6.3296727512
 30
0.0
 10
11.697178148
 20
6.3547974365
 30
0.0
 10
11.7074359137
 20
6.372383744
 30
0.0
 10
11.7152040338
 20
6.3831586536
 30
0.0
  0
SPLINE
  5
2BD
100
AcDbEntity
  8
0
100
AcDbSpline
 62
9
  6
CONTINUOUS
 70
0
 71
3
 72
13
 73
9
 74
0
 42
0.0000001
 43
0.0000001
 44
0.0000000001
 40
0.0
 40
0.0
 40
0.0
 40
0.0
 40
0.2618279888
 40
0.3912142554
 40
0.5187360689
 40
0.6438380882
 40
0.7660356551
 40
1.0
 40
1.0
 40
1.0
 40
1.0
 10
11.6500490362
 20
6.2223318604
 30
0.0
 10
11.6500490362
 20
6.2112597897
 30
0.0
 10
11.651205643
 20
6.1946835346
 30
0.0
 10
11.6550724813
 20
6.1730773308
 30
0.0
 10
11.6590783965
 20
6.1574116396
 30
0.0
 10
11.6641632606
 20
6.1423803742
 30
0.0
 10
11.67219103
 20
6.123666379
 30
0.0
 10
11.6798314882
 20
6.1105675122
 30
0.0
 10
11.6856175592
 20
6.1025420303
 30
0.0
  0
SPLINE
  5
2BE
100
AcDbEntity
  8
0
100
AcDbSpline
 62
9
  6
CONTINUOUS
 70
0
 71
3
 72
14
 73
10
 74
0
 42
0.0000001
 43
0.0000001
 44
0.0000000001
 40
0.0
 40
0.0
 40
0.0
 40
0.0
 40
0.1312805629
 40
0.2619474447
 40
0.3913130711
 40
0.5188151006
 40
0.6438960537
 40
0.7660734973
 40
1.0
 40
1.0
 40
1.0
 40
1.0
 10
11.6674507506
 20
6.2223318604
 30
0.0
 10
11.6674507506
 20
6.2148772931
 30
0.0
 10
11.6679730953
 20
6.1999976805
 30
0.0
 10
11.6703152515
 20
6.1778835639
 30
0.0
 10
11.6741953928
 20
6.1562028227
 30
0.0
 10
11.679573132
 20
6.1351719637
 30
0.0
 10
11.6864001111
 20
6.1149909696
 30
0.0
 10
11.697178148
 20
6.0898662843
 30
0.0
 10
11.7074359137
 20
6.0722799768
 30
0.0
 10
11.7152040338
 20
6.0615050672
 30
0.0
  0
SPLINE
  5
2BF
100
AcDbEntity
  8
0
100
AcDbSpline
 62
7
  6
CONTINUOUS
 70
0
 71
3
 72
21
 73
17
 74
0
 42
0.0000001
 43
0.0000001
 44
0.0000000001
 40
0.0
 40
0.0
 40
0.0
 40
0.0
 40
0.143215082
 40
0.2141068525
 40
0.2841203271
 40
0.4203962422
 40
0.4863036814
 40
0.5504645775
 40
0.6127626046
 40
0.6731371775
 40
0.7315904272
 40
0.7881912897
 40
0.8430821414
 40
0.8964792488
 40
0.9486688243
 40
1.0
 40
1.0
 40
1.0
 40
1.0
 10
11.6171821353
 20
6.2223318604
 30
0.0
 10
11.6171821353
 20
6.2338756466
 30
0.0
 10
11.6182984748
 20
6.251162112
 30
0.0
 10
11.6220294177
 20
6.2737709132
 30
0.0
 10
11.6271454468
 20
6.2955323882
 30
0.0
 10
11.634360116
 20
6.3163488449
 30
0.0
 10
11.6436543386
 20
6.335720652
 30
0.0
 10
11.6514535592
 20
6.349142571
 30
0.0
 10
11.6600927105
 20
6.3615003655
 30
0.0
 10
11.6695011885
 20
6.3726909277
 30
0.0
 10
11.6796012295
 20
6.3826196275
 30
0.0
 10
11.6903108858
 20
6.3912006717
 30
0.0
 10
11.7015412126
 20
6.3983596852
 30
0.0
 10
11.7131994816
 20
6.4040334031
 30
0.0
 10
11.7251850535
 20
6.4081681416
 30
0.0
 10
11.7333782659
 20
6.4098844145
 30
0.0
 10
11.7374743653
 20
6.410468444
 30
0.0
  0
SPLINE
  5
2C0
100
AcDbEntity
  8
0
100
AcDbSpline
 62
7
  6
CONTINUOUS
 70
0
 71
3
 72
21
 73
17
 74
0
 42
0.0000001
 43
0.0000001
 44
0.0000000001
 40
0.0
 40
0.0
 40
0.0
 40
0.0
 40
0.1431910481
 40
0.2140722652
 40
0.2840769054
 40
0.4203424384
 40
0.4862486823
 40
0.5504112691
 40
0.6127137266
 40
0.6730951485
 40
0.7315570664
 40
0.7881675584
 40
0.843067939
 40
0.8964731462
 40
0.9486679423
 40
1.0
 40
1.0
 40
1.0
 40
1.0
 10
11.6171821353
 20
6.2223318604
 30
0.0
 10
11.6171821353
 20
6.2107988959
 30
0.0
 10
11.6182963919
 20
6.1935285829
 30
0.0
 10
11.6220203534
 20
6.1709400818
 30
0.0
 10
11.6271270106
 20
6.1491965691
 30
0.0
 10
11.6343286189
 20
6.1283955017
 30
0.0
 10
11.643606211
 20
6.1090349977
 30
0.0
 10
11.6513919101
 20
6.0956186394
 30
0.0
 10
11.6600164756
 20
6.0832636026
 30
0.0
 10
11.66940952
 20
6.072072754
 30
0.0
 10
11.6794935663
 20
6.0621405522
 30
0.0
 10
11.6901869579
 20
6.0535526576
 30
0.0
 10
11.7014010255
 20
6.0463833071
 30
0.0
 10
11.7130433885
 20
6.0406957497
 30
0.0
 10
11.7250137468
 20
6.0365436658
 30
0.0
 10
11.7331978459
 20
6.0348133258
 30
0.0
 10
11.7372897214
 20
6.0342217867
 30
0.0
  0
SPLINE
  5
2C1
100
AcDbEntity
  8
0
100
AcDbSpline
 62
9
  6
CONTINUOUS
 70
0
 71
3
 72
20
 73
16
 74
0
 42
0.0000001
 43
0.0000001
 44
0.0000000001
 40
0.0
 40
0.0
 40
0.0
 40
0.0
 40
0.142024272
 40
0.281890017
 40
0.4176285043
 40
0.4834598779
 40
0.5476847888
 40
0.6101821336
 40
0.6708778409
 40
0.7297474732
 40
0.7868234582
 40
0.8421994408
 40
0.8960310871
 40
0.9485385142
 40
1.0
 40
1.0
 40
1.0
 40
1.0
 10
11.6229784037
 20
6.2223318604
 30
0.0
 10
11.6229784037
 20
6.2328690683
 30
0.0
 10
11.6242689889
 20
6.2538077447
 30
0.0
 10
11.6300337281
 20
6.2843302875
 30
0.0
 10
11.6379690628
 20
6.3084795266
 30
0.0
 10
11.6460971159
 20
6.3264629697
 30
0.0
 10
11.6529360888
 20
6.3390219987
 30
0.0
 10
11.6605277154
 20
6.3506895673
 30
0.0
 10
11.6688143486
 20
6.3613776092
 30
0.0
 10
11.6777347702
 20
6.3710031958
 30
0.0
 10
11.687222029
 20
6.3794919762
 30
0.0
 10
11.6972045451
 20
6.3867778833
 30
0.0
 10
11.7076084574
 20
6.3928018745
 30
0.0
 10
11.7183515805
 20
6.3975156981
 30
0.0
 10
11.7257490394
 20
6.3997768869
 30
0.0
 10
11.729461404
 20
6.4006691324
 30
0.0
  0
SPLINE
  5
2C2
100
AcDbEntity
  8
0
100
AcDbSpline
 62
9
  6
CONTINUOUS
 70
0
 71
3
 72
20
 73
16
 74
0
 42
0.0000001
 43
0.0000001
 44
0.0000000001
 40
0.0
 40
0.0
 40
0.0
 40
0.0
 40
0.1420032632
 40
0.2818518428
 40
0.4175802466
 40
0.4834098408
 40
0.5476353585
 40
0.6101356618
 40
0.6708364774
 40
0.7297129667
 40
0.7867970171
 40
0.8421814877
 40
0.8960211052
 40
0.9485349148
 40
1.0
 40
1.0
 40
1.0
 40
1.0
 10
11.6229784037
 20
6.2223318604
 30
0.0
 10
11.6229784037
 20
6.2118033412
 30
0.0
 10
11.6242668796
 20
6.1908817106
 30
0.0
 10
11.6300222671
 20
6.1603825807
 30
0.0
 10
11.6379448439
 20
6.136249714
 30
0.0
 10
11.6460600412
 20
6.1182760716
 30
0.0
 10
11.6528885187
 20
6.1057222346
 30
0.0
 10
11.6604687525
 20
6.0940577708
 30
0.0
 10
11.6687432736
 20
6.0833705744
 30
0.0
 10
11.6776510725
 20
6.0737434439
 30
0.0
 10
11.6871253678
 20
6.0652505809
 30
0.0
 10
11.6970948246
 20
6.0579579944
 30
0.0
 10
11.7074857921
 20
6.0519246537
 30
0.0
 10
11.7182163249
 20
6.0471987696
 30
0.0
 10
11.7256059762
 20
6.0449276254
 30
0.0
 10
11.7293146556
 20
6.0440299828
 30
0.0
  0
SPLINE
  5
2C3
100
AcDbEntity
  8
0
100
AcDbSpline
 62
7
  6
CONTINUOUS
 70
0
 71
3
 72
9
 73
5
 74
0
 42
0.0000001
 43
0.0000001
 44
0.0000000001
 40
0.0
 40
0.0
 40
0.0
 40
0.0
 40
0.5025503198
 40
1.0
 40
1.0
 40
1.0
 40
1.0
 10
11.4151971162
 20
6.0304030576
 30
0.0
 10
11.4197736194
 20
6.0290629384
 30
0.0
 10
11.4290765607
 20
6.0270212501
 30
0.0
 10
11.4385778564
 20
6.0263320384
 30
0.0
 10
11.4432981358
 20
6.0263320384
 30
0.0
  0
SPLINE
  5
2C4
100
AcDbEntity
  8
0
100
AcDbSpline
 62
7
  6
CONTINUOUS
 70
0
 71
3
 72
21
 73
17
 74
0
 42
0.0000001
 43
0.0000001
 44
0.0000000001
 40
0.0
 40
0.0
 40
0.0
 40
0.0
 40
0.0556393137
 40
0.1132116582
 40
0.1728590188
 40
0.2346970986
 40
0.2986908494
 40
0.3646142984
 40
0.4999999908
 40
0.6353856919
 40
0.7013091467
 40
0.765302898
 40
0.8271409761
 40
0.8867883392
 40
0.9443606856
 40
1.0
 40
1.0
 40
1.0
 40
1.0
 10
11.0473183384
 20
7.48505322
 30
0.0
 10
11.0459284347
 20
7.4838100523
 30
0.0
 10
11.0432216248
 20
7.4811411192
 30
0.0
 10
11.0395113989
 20
7.4766796798
 30
0.0
 10
11.0361550852
 20
7.4716919533
 30
0.0
 10
11.0332333762
 20
7.4661922497
 30
0.0
 10
11.0308305664
 20
7.4602178547
 30
0.0
 10
11.0284153993
 20
7.451645229
 30
0.0
 10
11.0271682096
 20
7.4403318611
 30
0.0
 10
11.0284153991
 20
7.4290184928
 30
0.0
 10
11.0308305662
 20
7.4204458666
 30
0.0
 10
11.033233376
 20
7.4144714714
 30
0.0
 10
11.036155085
 20
7.4089717678
 30
0.0
 10
11.0395113987
 20
7.4039840412
 30
0.0
 10
11.0432216247
 20
7.3995226016
 30
0.0
 10
11.0459284347
 20
7.3968536685
 30
0.0
 10
11.0473183384
 20
7.3956105009
 30
0.0
  0
SPLINE
  5
2C5
100
AcDbEntity
  8
0
100
AcDbSpline
 62
7
  6
CONTINUOUS
 70
0
 71
3
 72
15
 73
11
 74
0
 42
0.0000001
 43
0.0000001
 44
0.0000000001
 40
0.0
 40
0.0
 40
0.0
 40
0.0
 40
0.1104497836
 40
0.2311584306
 40
0.3621551881
 40
0.4999999911
 40
0.6378448016
 40
0.768841566
 40
0.8895502138
 40
1.0
 40
1.0
 40
1.0
 40
1.0
 10
10.9998081885
 20
7.3956105009
 30
0.0
 10
11.0023931599
 20
7.3981615175
 30
0.0
 10
11.0072766252
 20
7.4040598228
 30
0.0
 10
11.0129642791
 20
7.414606427
 30
0.0
 10
11.0167378477
 20
7.4269364882
 30
0.0
 10
11.018066831
 20
7.4403318598
 30
0.0
 10
11.0167378479
 20
7.4537272316
 30
0.0
 10
11.0129642794
 20
7.4660572934
 30
0.0
 10
11.0072766253
 20
7.4766038978
 30
0.0
 10
11.00239316
 20
7.4825022033
 30
0.0
 10
10.9998081885
 20
7.48505322
 30
0.0
  0
SPLINE
  5
2C6
100
AcDbEntity
  8
0
100
AcDbSpline
 62
7
  6
CONTINUOUS
 70
0
 71
3
 72
23
 73
19
 74
0
 42
0.0000001
 43
0.0000001
 44
0.0000000001
 40
0.0
 40
0.0
 40
0.0
 40
0.0
 40
0.0570781513
 40
0.1156630498
 40
0.1758669592
 40
0.237797128
 40
0.3014390985
 40
0.3666233089
 40
0.432989974
 40
0.4999999908
 40
0.5670100098
 40
0.6333766814
 40
0.6985608976
 40
0.7622028685
 40
0.8241330356
 40
0.8843369475
 40
0.942921848
 40
1.0
 40
1.0
 40
1.0
 40
1.0
 10
10.9998081885
 20
7.48505322
 30
0.0
 10
10.9983052403
 20
7.4838149572
 30
0.0
 10
10.9953777668
 20
7.4811581488
 30
0.0
 10
10.9913485577
 20
7.4766989679
 30
0.0
 10
10.987702537
 20
7.4717125275
 30
0.0
 10
10.9845274495
 20
7.4662123428
 30
0.0
 10
10.981915359
 20
7.4602362456
 30
0.0
 10
10.9799617874
 20
7.4538540041
 30
0.0
 10
10.9787506882
 20
7.447172587
 30
0.0
 10
10.9783399808
 20
7.4403318613
 30
0.0
 10
10.9787506881
 20
7.4334911353
 30
0.0
 10
10.9799617871
 20
7.4268097177
 30
0.0
 10
10.9819153588
 20
7.4204274757
 30
0.0
 10
10.9845274493
 20
7.4144513784
 30
0.0
 10
10.9877025368
 20
7.4089511937
 30
0.0
 10
10.9913485575
 20
7.4039647532
 30
0.0
 10
10.9953777667
 20
7.3995055721
 30
0.0
 10
10.9983052403
 20
7.3968487636
 30
0.0
 10
10.9998081885
 20
7.3956105009
 30
0.0
  0
SPLINE
  5
2C7
100
AcDbEntity
  8
0
100
AcDbSpline
 62
7
  6
CONTINUOUS
 70
0
 71
3
 72
15
 73
11
 74
0
 42
0.0000001
 43
0.0000001
 44
0.0000000001
 40
0.0
 40
0.0
 40
0.0
 40
0.0
 40
0.1075574046
 40
0.227530658
 40
0.3597388726
 40
0.499999991
 40
0.640261117
 40
0.7724693386
 40
0.8924425929
 40
1.0
 40
1.0
 40
1.0
 40
1.0
 10
10.9526805837
 20
7.3956105009
 30
0.0
 10
10.9550039107
 20
7.3981907495
 30
0.0
 10
10.9593749479
 20
7.4041581448
 30
0.0
 10
10.964402366
 20
7.4146953693
 30
0.0
 10
10.9677317607
 20
7.4269901667
 30
0.0
 10
10.9689029566
 20
7.4403318598
 30
0.0
 10
10.9677317609
 20
7.4536735531
 30
0.0
 10
10.9644023663
 20
7.4659683511
 30
0.0
 10
10.959374948
 20
7.4765055758
 30
0.0
 10
10.9550039107
 20
7.4824729713
 30
0.0
 10
10.9526805837
 20
7.48505322
 30
0.0
  0
SPLINE
  5
2C8
100
AcDbEntity
  8
0
100
AcDbSpline
 62
7
  6
CONTINUOUS
 70
0
 71
3
 72
23
 73
19
 74
0
 42
0.0000001
 43
0.0000001
 44
0.0000000001
 40
0.0
 40
0.0
 40
0.0
 40
0.0
 40
0.0583798348
 40
0.1178976226
 40
0.1786335693
 40
0.2406811772
 40
0.3040387569
 40
0.3685836007
 40
0.4340426473
 40
0.499999991
 40
0.5659573368
 40
0.6314163898
 40
0.6959612392
 40
0.7593188193
 40
0.8213664255
 40
0.8821023748
 40
0.9416201645
 40
1.0
 40
1.0
 40
1.0
 40
1.0
 10
10.9526805837
 20
7.48505322
 30
0.0
 10
10.9510763895
 20
7.4838189433
 30
0.0
 10
10.9479516573
 20
7.4811723279
 30
0.0
 10
10.9436363821
 20
7.4767155322
 30
0.0
 10
10.9397303939
 20
7.4717307145
 30
0.0
 10
10.9363276938
 20
7.4662307533
 30
0.0
 10
10.9335272748
 20
7.4602530227
 30
0.0
 10
10.9314320242
 20
7.4538669346
 30
0.0
 10
10.9301326751
 20
7.4471796552
 30
0.0
 10
10.929691961
 20
7.4403318613
 30
0.0
 10
10.930132675
 20
7.4334840672
 30
0.0
 10
10.9314320239
 20
7.4267967872
 30
0.0
 10
10.9335272746
 20
7.4204106987
 30
0.0
 10
10.9363276936
 20
7.4144329679
 30
0.0
 10
10.9397303937
 20
7.4089330066
 30
0.0
 10
10.9436363819
 20
7.4039481888
 30
0.0
 10
10.9479516572
 20
7.399491393
 30
0.0
 10
10.9510763895
 20
7.3968447775
 30
0.0
 10
10.9526805837
 20
7.3956105009
 30
0.0
  0
SPLINE
  5
2C9
100
AcDbEntity
  8
0
100
AcDbSpline
 62
7
  6
CONTINUOUS
 70
0
 71
3
 72
17
 73
13
 74
0
 42
0.0000001
 43
0.0000001
 44
0.0000000001
 40
0.0
 40
0.0
 40
0.0
 40
0.0
 40
0.1045767051
 40
0.2238139207
 40
0.28899096
 40
0.357342674
 40
0.4999999908
 40
0.6426573154
 40
0.7110090357
 40
0.7761860759
 40
0.8954232924
 40
1.0
 40
1.0
 40
1.0
 40
1.0
 10
10.9063149887
 20
7.3956105009
 30
0.0
 10
10.9083548731
 20
7.3982247495
 30
0.0
 10
10.9121688279
 20
7.4042626012
 30
0.0
 10
10.9156729997
 20
7.4127757157
 30
0.0
 10
10.9178349465
 20
7.4205006084
 30
0.0
 10
10.9195202126
 20
7.4291027667
 30
0.0
 10
10.9203714665
 20
7.4403318598
 30
0.0
 10
10.9195202127
 20
7.4515609531
 30
0.0
 10
10.9178349466
 20
7.4601631118
 30
0.0
 10
10.9156729999
 20
7.4678880048
 30
0.0
 10
10.912168828
 20
7.4764011195
 30
0.0
 10
10.9083548732
 20
7.4824389712
 30
0.0
 10
10.9063149887
 20
7.48505322
 30
0.0
  0
SPLINE
  5
2CA
100
AcDbEntity
  8
0
100
AcDbSpline
 62
7
  6
CONTINUOUS
 70
0
 71
3
 72
23
 73
19
 74
0
 42
0.0000001
 43
0.0000001
 44
0.0000000001
 40
0.0
 40
0.0
 40
0.0
 40
0.0
 40
0.0595088864
 40
0.1198432685
 40
0.1810516737
 40
0.243211075
 40
0.3063264959
 40
0.3703130587
 40
0.4349728785
 40
0.4999999911
 40
0.5650271059
 40
0.6296869318
 40
0.6936735002
 40
0.7567889215
 40
0.8189483211
 40
0.8801567289
 40
0.9404911129
 40
1.0
 40
1.0
 40
1.0
 40
1.0
 10
10.9063149887
 20
7.48505322
 30
0.0
 10
10.9046220227
 20
7.4838221397
 30
0.0
 10
10.9013246127
 20
7.4811839227
 30
0.0
 10
10.8967583947
 20
7.4767294276
 30
0.0
 10
10.8926242738
 20
7.4717463797
 30
0.0
 10
10.8890216536
 20
7.4662470233
 30
0.0
 10
10.886055588
 20
7.4602681959
 30
0.0
 10
10.8838355019
 20
7.4538788484
 30
0.0
 10
10.8824582648
 20
7.4471862469
 30
0.0
 10
10.8819910402
 20
7.4403318613
 30
0.0
 10
10.8824582647
 20
7.4334774755
 30
0.0
 10
10.8838355016
 20
7.4267848734
 30
0.0
 10
10.8860555878
 20
7.4203955255
 30
0.0
 10
10.8890216534
 20
7.4144166979
 30
0.0
 10
10.8926242736
 20
7.4089173414
 30
0.0
 10
10.8967583945
 20
7.4039342934
 30
0.0
 10
10.9013246126
 20
7.3994797982
 30
0.0
 10
10.9046220227
 20
7.3968415812
 30
0.0
 10
10.9063149887
 20
7.3956105009
 30
0.0
  0
SPLINE
  5
2CB
100
AcDbEntity
  8
0
100
AcDbSpline
 62
7
  6
CONTINUOUS
 70
0
 71
3
 72
21
 73
17
 74
0
 42
0.0000001
 43
0.0000001
 44
0.0000000001
 40
0.0
 40
0.0
 40
0.0
 40
0.0
 40
0.1016480096
 40
0.1588117078
 40
0.2202784962
 40
0.2858386865
 40
0.3549665599
 40
0.4267657514
 40
0.4999999906
 40
0.5732342317
 40
0.6450334294
 40
0.7141613093
 40
0.7797215004
 40
0.8411882872
 40
0.8983519879
 40
1.0
 40
1.0
 40
1.0
 40
1.0
 10
10.8610847328
 20
7.3956105009
 30
0.0
 10
10.8628191098
 20
7.3982629439
 30
0.0
 10
10.8651398888
 20
7.4026698865
 30
0.0
 10
10.867646612
 20
7.4090669993
 30
0.0
 10
10.8693456157
 20
7.4145585564
 30
0.0
 10
10.8707415288
 20
7.4205174562
 30
0.0
 10
10.8717845453
 20
7.4268751027
 30
0.0
 10
10.8724306449
 20
7.4335255677
 30
0.0
 10
10.8726496674
 20
7.4403318596
 30
0.0
 10
10.8724306449
 20
7.4471381517
 30
0.0
 10
10.8717845454
 20
7.4537886172
 30
0.0
 10
10.8707415289
 20
7.460146264
 30
0.0
 10
10.8693456158
 20
7.4661051641
 30
0.0
 10
10.8676466121
 20
7.4715967212
 30
0.0
 10
10.8651398889
 20
7.4779938341
 30
0.0
 10
10.8628191098
 20
7.4824007768
 30
0.0
 10
10.8610847328
 20
7.48505322
 30
0.0
  0
SPLINE
  5
2CC
100
AcDbEntity
  8
0
100
AcDbSpline
 62
7
  6
CONTINUOUS
 70
0
 71
3
 72
23
 73
19
 74
0
 42
0.0000001
 43
0.0000001
 44
0.0000000001
 40
0.0
 40
0.0
 40
0.0
 40
0.0
 40
0.060458861
 40
0.121485494
 40
0.1830992373
 40
0.2453599553
 40
0.3082751128
 40
0.3717894515
 40
0.4357681505
 40
0.4999999912
 40
0.564231834
 40
0.6282105391
 40
0.6917248833
 40
0.7546400412
 40
0.8169007574
 40
0.8785145033
 40
0.9395411383
 40
1.0
 40
1.0
 40
1.0
 40
1.0
 10
10.8610847328
 20
7.48505322
 30
0.0
 10
10.8593160971
 20
7.4838246576
 30
0.0
 10
10.8558716861
 20
7.4811932001
 30
0.0
 10
10.8510915566
 20
7.4767407801
 30
0.0
 10
10.8467629285
 20
7.4717594651
 30
0.0
 10
10.8429897387
 20
7.4662609173
 30
0.0
 10
10.8398821741
 20
7.46028142
 30
0.0
 10
10.8375552738
 20
7.4538894072
 30
0.0
 10
10.8361112818
 20
7.4471921538
 30
0.0
 10
10.8356213121
 20
7.4403318613
 30
0.0
 10
10.8361112817
 20
7.4334715686
 30
0.0
 10
10.8375552735
 20
7.4267743146
 30
0.0
 10
10.8398821739
 20
7.4203823013
 30
0.0
 10
10.8429897384
 20
7.4144028039
 30
0.0
 10
10.8467629283
 20
7.408904256
 30
0.0
 10
10.8510915564
 20
7.4039229409
 30
0.0
 10
10.855871686
 20
7.3994705208
 30
0.0
 10
10.859316097
 20
7.3968390632
 30
0.0
 10
10.8610847328
 20
7.3956105009
 30
0.0
  0
SPLINE
  5
2CD
100
AcDbEntity
  8
0
100
AcDbSpline
 62
7
  6
CONTINUOUS
 70
0
 71
3
 72
23
 73
19
 74
0
 42
0.0000001
 43
0.0000001
 44
0.0000000001
 40
0.0
 40
0.0
 40
0.0
 40
0.0
 40
0.0471856308
 40
0.0990202999
 40
0.1556413602
 40
0.2170561193
 40
0.2829961592
 40
0.3528579957
 40
0.4256449712
 40
0.4999999905
 40
0.5743550117
 40
0.6471419935
 40
0.7170038365
 40
0.7829438773
 40
0.8443586348
 40
0.9009796976
 40
0.9528143687
 40
1.0
 40
1.0
 40
1.0
 40
1.0
 10
10.8173540037
 20
7.3956105009
 30
0.0
 10
10.818024582
 20
7.3968946455
 30
0.0
 10
10.819320997
 20
7.3996482628
 30
0.0
 10
10.8210437737
 20
7.4041091009
 30
0.0
 10
10.8226008523
 20
7.4090903016
 30
0.0
 10
10.8239552427
 20
7.4145772813
 30
0.0
 10
10.8250683603
 20
7.4205322239
 30
0.0
 10
10.8259000299
 20
7.4268851756
 30
0.0
 10
10.8264152392
 20
7.4335307037
 30
0.0
 10
10.8265898888
 20
7.4403318596
 30
0.0
 10
10.8264152393
 20
7.4471330156
 30
0.0
 10
10.82590003
 20
7.4537785442
 30
0.0
 10
10.8250683604
 20
7.4601314964
 30
0.0
 10
10.8239552428
 20
7.4660864391
 30
0.0
 10
10.8226008523
 20
7.4715734188
 30
0.0
 10
10.8210437738
 20
7.4765546196
 30
0.0
 10
10.819320997
 20
7.4810154579
 30
0.0
 10
10.818024582
 20
7.4837690752
 30
0.0
 10
10.8173540037
 20
7.48505322
 30
0.0
  0
SPLINE
  5
2CE
100
AcDbEntity
  8
0
100
AcDbSpline
 62
7
  6
CONTINUOUS
 70
0
 71
3
 72
23
 73
19
 74
0
 42
0.0000001
 43
0.0000001
 44
0.0000000001
 40
0.0
 40
0.0
 40
0.0
 40
0.0
 40
0.0612271914
 40
0.1228170786
 40
0.1847638311
 40
0.2471114028
 40
0.3098670567
 40
0.3729979045
 40
0.4364199098
 40
0.4999999913
 40
0.5635800749
 40
0.6270020862
 40
0.6901329395
 40
0.7528885937
 40
0.8152361637
 40
0.8771829187
 40
0.9387728078
 40
1.0
 40
1.0
 40
1.0
 40
1.0
 10
10.8173540037
 20
7.48505322
 30
0.0
 10
10.8155233571
 20
7.4838265879
 30
0.0
 10
10.8119586014
 20
7.4812003987
 30
0.0
 10
10.8070032059
 20
7.4767497365
 30
0.0
 10
10.8025151962
 20
7.4717699761
 30
0.0
 10
10.7986021701
 20
7.4662722841
 30
0.0
 10
10.7953784863
 20
7.4602924271
 30
0.0
 10
10.7929638016
 20
7.4538983235
 30
0.0
 10
10.7914648623
 20
7.4471971904
 30
0.0
 10
10.7909561518
 20
7.4403318613
 30
0.0
 10
10.7914648622
 20
7.433466532
 30
0.0
 10
10.7929638012
 20
7.4267653983
 30
0.0
 10
10.795378486
 20
7.4203712943
 30
0.0
 10
10.7986021698
 20
7.4143914371
 30
0.0
 10
10.802515196
 20
7.408893745
 30
0.0
 10
10.8070032057
 20
7.4039139845
 30
0.0
 10
10.8119586013
 20
7.3994633222
 30
0.0
 10
10.815523357
 20
7.3968371329
 30
0.0
 10
10.8173540037
 20
7.3956105009
 30
0.0
  0
SPLINE
  5
2CF
100
AcDbEntity
  8
0
100
AcDbSpline
 62
7
  6
CONTINUOUS
 70
0
 71
3
 72
21
 73
17
 74
0
 42
0.0000001
 43
0.0000001
 44
0.0000000001
 40
0.0
 40
0.0
 40
0.0
 40
0.0
 40
0.0457770188
 40
0.0967072461
 40
0.152889107
 40
0.2142843848
 40
0.2805693244
 40
0.3510720254
 40
0.4999999904
 40
0.6489279636
 40
0.7194306713
 40
0.7857156119
 40
0.847110888
 40
0.9032927515
 40
0.9542229807
 40
1.0
 40
1.0
 40
1.0
 40
1.0
 10
10.7754749149
 20
7.3956105009
 30
0.0
 10
10.7759748345
 20
7.3969045795
 30
0.0
 10
10.776938301
 20
7.399674701
 30
0.0
 10
10.7782103974
 20
7.404132121
 30
0.0
 10
10.7793603889
 20
7.4091097312
 30
0.0
 10
10.7803608495
 20
7.4145930269
 30
0.0
 10
10.7811832898
 20
7.4205442686
 30
0.0
 10
10.7820171746
 20
7.4291647469
 30
0.0
 10
10.7824316666
 20
7.4403318598
 30
0.0
 10
10.7820171747
 20
7.4514989728
 30
0.0
 10
10.7811832899
 20
7.4601194517
 30
0.0
 10
10.7803608496
 20
7.4660706935
 30
0.0
 10
10.779360389
 20
7.4715539893
 30
0.0
 10
10.7782103975
 20
7.4765315996
 30
0.0
 10
10.7769383011
 20
7.4809890197
 30
0.0
 10
10.7759748345
 20
7.4837591413
 30
0.0
 10
10.7754749149
 20
7.48505322
 30
0.0
  0
SPLINE
  5
2D0
100
AcDbEntity
  8
0
100
AcDbSpline
 62
7
  6
CONTINUOUS
 70
0
 71
3
 72
21
 73
17
 74
0
 42
0.0000001
 43
0.0000001
 44
0.0000000001
 40
0.0
 40
0.0
 40
0.0
 40
0.0
 40
0.1237269807
 40
0.1859488492
 40
0.2483836443
 40
0.3110371534
 40
0.3738925471
 40
0.4369043471
 40
0.4999999914
 40
0.5630956378
 40
0.6261074437
 40
0.6889628428
 40
0.7516163523
 40
0.8140511456
 40
0.8762730166
 40
1.0
 40
1.0
 40
1.0
 40
1.0
 10
10.7754749149
 20
7.48505322
 30
0.0
 10
10.7717158995
 20
7.4826015062
 30
0.0
 10
10.766368879
 20
7.4783994153
 30
0.0
 10
10.7602375474
 20
7.4717783277
 30
0.0
 10
10.7562158661
 20
7.4662809306
 30
0.0
 10
10.7529026179
 20
7.4603010442
 30
0.0
 10
10.7504199575
 20
7.4539053568
 30
0.0
 10
10.7488784563
 20
7.4472012012
 30
0.0
 10
10.7483552072
 20
7.4403318613
 30
0.0
 10
10.7488784562
 20
7.4334625212
 30
0.0
 10
10.7504199571
 20
7.426758365
 30
0.0
 10
10.7529026177
 20
7.4203626772
 30
0.0
 10
10.7562158658
 20
7.4143827906
 30
0.0
 10
10.7602375472
 20
7.4088853935
 30
0.0
 10
10.7663688787
 20
7.4022643057
 30
0.0
 10
10.7717158994
 20
7.3980622147
 30
0.0
 10
10.7754749149
 20
7.3956105009
 30
0.0
  0
SPLINE
  5
2D1
100
AcDbEntity
  8
0
100
AcDbSpline
 62
7
  6
CONTINUOUS
 70
0
 71
3
 72
21
 73
17
 74
0
 42
0.0000001
 43
0.0000001
 44
0.0000000001
 40
0.0
 40
0.0
 40
0.0
 40
0.0
 40
0.044699123
 40
0.0949462566
 40
0.1508008284
 40
0.2121845342
 40
0.2787289044
 40
0.3497095071
 40
0.5000000052
 40
0.6502904985
 40
0.7212710962
 40
0.7878154637
 40
0.849199169
 40
0.9050537422
 40
0.9553008767
 40
1.0
 40
1.0
 40
1.0
 40
1.0
 10
10.7357846711
 20
7.3956105009
 30
0.0
 10
10.7361068064
 20
7.3969130189
 30
0.0
 10
10.7367257742
 20
7.3996960613
 30
0.0
 10
10.7375388346
 20
7.4041500259
 30
0.0
 10
10.7382740489
 20
7.4091243884
 30
0.0
 10
10.7389138069
 20
7.4146046607
 30
0.0
 10
10.7394398045
 20
7.4205529717
 30
0.0
 10
10.739973585
 20
7.4291768469
 30
0.0
 10
10.7402380747
 20
7.4403318607
 30
0.0
 10
10.7399735849
 20
7.4514868744
 30
0.0
 10
10.7394398045
 20
7.4601107492
 30
0.0
 10
10.7389138069
 20
7.46605906
 30
0.0
 10
10.738274049
 20
7.4715393323
 30
0.0
 10
10.7375388346
 20
7.4765136947
 30
0.0
 10
10.7367257742
 20
7.4809676595
 30
0.0
 10
10.7361068064
 20
7.4837507019
 30
0.0
 10
10.7357846711
 20
7.48505322
 30
0.0
  0
SPLINE
  5
2D2
100
AcDbEntity
  8
0
100
AcDbSpline
 62
7
  6
CONTINUOUS
 70
0
 71
3
 72
21
 73
17
 74
0
 42
0.0000001
 43
0.0000001
 44
0.0000000001
 40
0.0
 40
0.0
 40
0.0
 40
0.0
 40
0.1244317652
 40
0.1868328544
 40
0.2493169664
 40
0.3118881998
 40
0.3745403
 40
0.4372543295
 40
0.5000000019
 40
0.5627456741
 40
0.6254597027
 40
0.6881118008
 40
0.7506830335
 40
0.8131671456
 40
0.8755682349
 40
1.0
 40
1.0
 40
1.0
 40
1.0
 10
10.7357846711
 20
7.48505322
 30
0.0
 10
10.7319620952
 20
7.4826054817
 30
0.0
 10
10.7265203958
 20
7.478409827
 30
0.0
 10
10.7202691034
 20
7.4717838064
 30
0.0
 10
10.716172139
 20
7.4662870119
 30
0.0
 10
10.7127962786
 20
7.4603070754
 30
0.0
 10
10.7102661861
 20
7.4539103447
 30
0.0
 10
10.7086949239
 20
7.4472040579
 30
0.0
 10
10.7081615077
 20
7.4403318602
 30
0.0
 10
10.708694924
 20
7.4334596625
 30
0.0
 10
10.7102661862
 20
7.4267533758
 30
0.0
 10
10.7127962787
 20
7.4203566453
 30
0.0
 10
10.7161721391
 20
7.4143767089
 30
0.0
 10
10.7202691034
 20
7.4088799144
 30
0.0
 10
10.7265203958
 20
7.4022538938
 30
0.0
 10
10.7319620952
 20
7.3980582391
 30
0.0
 10
10.7357846711
 20
7.3956105009
 30
0.0
  0
SPLINE
  5
2D3
100
AcDbEntity
  8
0
100
AcDbSpline
 62
7
  6
CONTINUOUS
 70
0
 71
3
 72
17
 73
13
 74
0
 42
0.0000001
 43
0.0000001
 44
0.0000000001
 40
0.0
 40
0.0
 40
0.0
 40
0.0
 40
0.0440607503
 40
0.0939080338
 40
0.2109521097
 40
0.3489112688
 40
0.4999999902
 40
0.65108872
 40
0.7890478869
 40
0.9060919638
 40
0.9559392492
 40
1.0
 40
1.0
 40
1.0
 40
1.0
 10
10.6986028524
 20
7.3956105009
 30
0.0
 10
10.6987419237
 20
7.3969184196
 30
0.0
 10
10.6990086262
 20
7.399709222
 30
0.0
 10
10.6995008127
 20
7.4059874816
 30
0.0
 10
10.7000021537
 20
7.4150752361
 30
0.0
 10
10.7003834912
 20
7.4271927144
 30
0.0
 10
10.7005175452
 20
7.4403318598
 30
0.0
 10
10.7003834912
 20
7.4534710054
 30
0.0
 10
10.7000021537
 20
7.4655884842
 30
0.0
 10
10.6995008127
 20
7.474676239
 30
0.0
 10
10.6990086262
 20
7.4809544987
 30
0.0
 10
10.6987419237
 20
7.4837453012
 30
0.0
 10
10.6986028524
 20
7.48505322
 30
0.0
  0
SPLINE
  5
2D4
100
AcDbEntity
  8
0
100
AcDbSpline
 62
7
  6
CONTINUOUS
 70
0
 71
3
 72
21
 73
17
 74
0
 42
0.0000001
 43
0.0000001
 44
0.0000000001
 40
0.0
 40
0.0
 40
0.0
 40
0.0
 40
0.1248229805
 40
0.1873240024
 40
0.2498360069
 40
0.3123619089
 40
0.374901117
 40
0.4374493627
 40
0.4999999915
 40
0.5625506223
 40
0.6250988738
 40
0.6876380873
 40
0.7501639896
 40
0.8126759924
 40
0.8751770167
 40
1.0
 40
1.0
 40
1.0
 40
1.0
 10
10.6986028524
 20
7.48505322
 30
0.0
 10
10.694744814
 20
7.4826076459
 30
0.0
 10
10.6892503352
 20
7.4784155433
 30
0.0
 10
10.6829320622
 20
7.4717868346
 30
0.0
 10
10.6787930884
 20
7.4662903948
 30
0.0
 10
10.6753822764
 20
7.4603104524
 30
0.0
 10
10.6728256919
 20
7.4539131537
 30
0.0
 10
10.6712377949
 20
7.447205674
 30
0.0
 10
10.6706986935
 20
7.4403318613
 30
0.0
 10
10.6712377948
 20
7.4334580484
 30
0.0
 10
10.6728256916
 20
7.4267505681
 30
0.0
 10
10.6753822762
 20
7.4203532689
 30
0.0
 10
10.6787930881
 20
7.4143733264
 30
0.0
 10
10.6829320619
 20
7.4088768866
 30
0.0
 10
10.689250335
 20
7.4022481777
 30
0.0
 10
10.6947448139
 20
7.3980560749
 30
0.0
 10
10.6986028524
 20
7.3956105009
 30
0.0
  0
SPLINE
  5
2D5
100
AcDbEntity
  8
0
100
AcDbSpline
 62
7
  6
CONTINUOUS
 70
0
 71
3
 72
21
 73
17
 74
0
 42
0.0000001
 43
0.0000001
 44
0.0000000001
 40
0.0
 40
0.0
 40
0.0
 40
0.0
 40
0.1249011305
 40
0.1874221528
 40
0.2499397714
 40
0.3124566455
 40
0.3749732992
 40
0.4374883894
 40
0.4999999915
 40
0.5625115956
 40
0.6250266917
 40
0.6875433507
 40
0.7500602251
 40
0.812577842
 40
0.8750988668
 40
1.0
 40
1.0
 40
1.0
 40
1.0
 10
10.6642288417
 20
7.48505322
 30
0.0
 10
10.6603637029
 20
7.4826080747
 30
0.0
 10
10.6548586606
 20
7.4784166799
 30
0.0
 10
10.6485269728
 20
7.4717874386
 30
0.0
 10
10.6443795876
 20
7.4662910715
 30
0.0
 10
10.6409617762
 20
7.46031113
 30
0.0
 10
10.6383998849
 20
7.4539137186
 30
0.0
 10
10.6368086548
 20
7.4472059994
 30
0.0
 10
10.6362684139
 20
7.4403318613
 30
0.0
 10
10.6368086547
 20
7.4334577229
 30
0.0
 10
10.6383998846
 20
7.4267500032
 30
0.0
 10
10.640961776
 20
7.4203525914
 30
0.0
 10
10.6443795872
 20
7.4143726496
 30
0.0
 10
10.6485269726
 20
7.4088762826
 30
0.0
 10
10.6548586604
 20
7.4022470411
 30
0.0
 10
10.6603637028
 20
7.3980556461
 30
0.0
 10
10.6642288417
 20
7.3956105009
 30
0.0
  0
SPLINE
  5
2D6
100
AcDbEntity
  8
0
100
AcDbSpline
 62
7
  6
CONTINUOUS
 70
0
 71
3
 72
21
 73
17
 74
0
 42
0.0000001
 43
0.0000001
 44
0.0000000001
 40
0.0
 40
0.0
 40
0.0
 40
0.0
 40
0.1246663435
 40
0.1871273164
 40
0.2496281121
 40
0.3121721376
 40
0.3747565485
 40
0.4373712071
 40
0.4999999915
 40
0.5626287779
 40
0.6252434424
 40
0.6878278586
 40
0.7503718844
 40
0.8128726783
 40
0.8753336538
 40
1.0
 40
1.0
 40
1.0
 40
1.0
 10
10.6329394136
 20
7.48505322
 30
0.0
 10
10.62909559
 20
7.4826067829
 30
0.0
 10
10.6236222634
 20
7.4784132598
 30
0.0
 10
10.6173308429
 20
7.471785623
 30
0.0
 10
10.6132087088
 20
7.4662890391
 30
0.0
 10
10.6098119082
 20
7.4603090971
 30
0.0
 10
10.6072659455
 20
7.4539120249
 30
0.0
 10
10.6056847189
 20
7.4472050243
 30
0.0
 10
10.6051478976
 20
7.4403318613
 30
0.0
 10
10.6056847188
 20
7.4334586981
 30
0.0
 10
10.6072659452
 20
7.4267516968
 30
0.0
 10
10.6098119079
 20
7.4203546243
 30
0.0
 10
10.6132087085
 20
7.4143746821
 30
0.0
 10
10.6173308427
 20
7.4088780982
 30
0.0
 10
10.6236222632
 20
7.4022504612
 30
0.0
 10
10.6290955899
 20
7.3980569379
 30
0.0
 10
10.6329394136
 20
7.3956105009
 30
0.0
  0
SPLINE
  5
2D7
100
AcDbEntity
  8
0
100
AcDbSpline
 62
7
  6
CONTINUOUS
 70
0
 71
3
 72
21
 73
17
 74
0
 42
0.0000001
 43
0.0000001
 44
0.0000000001
 40
0.0
 40
0.0
 40
0.0
 40
0.0
 40
0.1241182655
 40
0.1864395077
 40
0.2489015411
 40
0.3115092805
 40
0.3742518201
 40
0.4370984313
 40
0.4999999914
 40
0.5629015536
 40
0.6257481707
 40
0.6884907157
 40
0.7510984554
 40
0.8135604871
 40
0.8758817317
 40
1.0
 40
1.0
 40
1.0
 40
1.0
 10
10.6049865062
 20
7.48505322
 30
0.0
 10
10.6011922537
 20
7.4826037255
 30
0.0
 10
10.5957927316
 20
7.4784052136
 30
0.0
 10
10.58959491
 20
7.4717813725
 30
0.0
 10
10.5855314951
 20
7.4662843036
 30
0.0
 10
10.5821835407
 20
7.460304383
 30
0.0
 10
10.5796745935
 20
7.4539081135
 30
0.0
 10
10.5781166018
 20
7.4472027786
 30
0.0
 10
10.5775877201
 20
7.4403318613
 30
0.0
 10
10.5781166017
 20
7.4334609438
 30
0.0
 10
10.5796745932
 20
7.4267556083
 30
0.0
 10
10.5821835405
 20
7.4203593384
 30
0.0
 10
10.5855314948
 20
7.4143794176
 30
0.0
 10
10.5895949098
 20
7.4088823487
 30
0.0
 10
10.5957927314
 20
7.4022585074
 30
0.0
 10
10.6011922536
 20
7.3980599953
 30
0.0
 10
10.6049865062
 20
7.3956105009
 30
0.0
  0
SPLINE
  5
2D8
100
AcDbEntity
  8
0
100
AcDbSpline
 62
7
  6
CONTINUOUS
 70
0
 71
3
 72
21
 73
17
 74
0
 42
0.0000001
 43
0.0000001
 44
0.0000000001
 40
0.0
 40
0.0
 40
0.0
 40
0.0
 40
0.1232563435
 40
0.18535911
 40
0.2477616218
 40
0.3104704919
 40
0.3734615826
 40
0.436671623
 40
0.4999999914
 40
0.5633283618
 40
0.6265384082
 40
0.6895295042
 40
0.7522383747
 40
0.8146408848
 40
0.8767436538
 40
1.0
 40
1.0
 40
1.0
 40
1.0
 10
10.5805951923
 20
7.48505322
 30
0.0
 10
10.5768784
 20
7.4825987956
 30
0.0
 10
10.5715943322
 20
7.4783923812
 30
0.0
 10
10.5655426209
 20
7.4717746543
 30
0.0
 10
10.5615709388
 20
7.4662768824
 30
0.0
 10
10.5582992587
 20
7.4602970578
 30
0.0
 10
10.5558480677
 20
7.4539020798
 30
0.0
 10
10.5543262979
 20
7.4471993318
 30
0.0
 10
10.553809786
 20
7.4403318613
 30
0.0
 10
10.5543262979
 20
7.4334643905
 30
0.0
 10
10.5558480674
 20
7.426761642
 30
0.0
 10
10.5582992585
 20
7.4203666636
 30
0.0
 10
10.5615709385
 20
7.4143868388
 30
0.0
 10
10.5655426207
 20
7.4088890669
 30
0.0
 10
10.5715943319
 20
7.4022713398
 30
0.0
 10
10.5768783999
 20
7.3980649253
 30
0.0
 10
10.5805951923
 20
7.3956105009
 30
0.0
  0
SPLINE
  5
2D9
100
AcDbEntity
  8
0
100
AcDbSpline
 62
7
  6
CONTINUOUS
 70
0
 71
3
 72
23
 73
19
 74
0
 42
0.0000001
 43
0.0000001
 44
0.0000000001
 40
0.0
 40
0.0
 40
0.0
 40
0.0
 40
0.0608654164
 40
0.12218972
 40
0.1839790982
 40
0.2462852239
 40
0.3091156992
 40
0.3724272852
 40
0.436112063
 40
0.4999999913
 40
0.5638879216
 40
0.6275727055
 40
0.6908842969
 40
0.7537147726
 40
0.8160208966
 40
0.8778102773
 40
0.9391345829
 40
1.0
 40
1.0
 40
1.0
 40
1.0
 10
10.5599618674
 20
7.48505322
 30
0.0
 10
10.5581605175
 20
7.4838256905
 30
0.0
 10
10.5546526049
 20
7.4811970423
 30
0.0
 10
10.5497800075
 20
7.4767455444
 30
0.0
 10
10.5453672929
 20
7.4717650354
 30
0.0
 10
10.5415203354
 20
7.4662669179
 30
0.0
 10
10.5383515274
 20
7.4602872093
 30
0.0
 10
10.5359783429
 20
7.4538940821
 30
0.0
 10
10.53450539
 20
7.447194789
 30
0.0
 10
10.5340055449
 20
7.4403318613
 30
0.0
 10
10.5345053899
 20
7.4334689334
 30
0.0
 10
10.5359783425
 20
7.4267696396
 30
0.0
 10
10.5383515272
 20
7.4203765121
 30
0.0
 10
10.5415203352
 20
7.4143968032
 30
0.0
 10
10.5453672927
 20
7.4088986857
 30
0.0
 10
10.5497800073
 20
7.4039181767
 30
0.0
 10
10.5546526048
 20
7.3994666785
 30
0.0
 10
10.5581605175
 20
7.3968380304
 30
0.0
 10
10.5599618674
 20
7.3956105009
 30
0.0
  0
SPLINE
  5
2DA
100
AcDbEntity
  8
0
100
AcDbSpline
 62
7
  6
CONTINUOUS
 70
0
 71
3
 72
23
 73
19
 74
0
 42
0.0000001
 43
0.0000001
 44
0.0000000001
 40
0.0
 40
0.0
 40
0.0
 40
0.0
 40
0.0600060245
 40
0.1207020916
 40
0.1821217288
 40
0.2443333115
 40
0.3073435157
 40
0.3710832322
 40
0.4353876128
 40
0.5000000019
 40
0.564612391
 40
0.6289167706
 40
0.692656485
 40
0.7556666884
 40
0.8178782712
 40
0.8792979084
 40
0.9399939755
 40
1.0
 40
1.0
 40
1.0
 40
1.0
 10
10.5432526681
 20
7.48505322
 30
0.0
 10
10.5415202296
 20
7.4838234761
 30
0.0
 10
10.5381461167
 20
7.4811888309
 30
0.0
 10
10.5334683104
 20
7.4767354074
 30
0.0
 10
10.5292327271
 20
7.4717532398
 30
0.0
 10
10.5255411434
 20
7.4662542728
 30
0.0
 10
10.5225012964
 20
7.4602750649
 30
0.0
 10
10.5202255347
 20
7.4538843123
 30
0.0
 10
10.5188135164
 20
7.4471892953
 30
0.0
 10
10.5183344436
 20
7.4403318602
 30
0.0
 10
10.5188135164
 20
7.4334744252
 30
0.0
 10
10.5202255347
 20
7.4267794083
 30
0.0
 10
10.5225012964
 20
7.4203886558
 30
0.0
 10
10.5255411435
 20
7.414409448
 30
0.0
 10
10.5292327271
 20
7.408910481
 30
0.0
 10
10.5334683104
 20
7.4039283134
 30
0.0
 10
10.5381461167
 20
7.3994748899
 30
0.0
 10
10.5415202296
 20
7.3968402447
 30
0.0
 10
10.5432526681
 20
7.3956105009
 30
0.0
  0
SPLINE
  5
2DB
100
AcDbEntity
  8
0
100
AcDbSpline
 62
7
  6
CONTINUOUS
 70
0
 71
3
 72
23
 73
19
 74
0
 42
0.0000001
 43
0.0000001
 44
0.0000000001
 40
0.0
 40
0.0
 40
0.0
 40
0.0
 40
0.0589659077
 40
0.118906731
 40
0.1798866581
 40
0.241991135
 40
0.3052224691
 40
0.3694779323
 40
0.4345235051
 40
0.499999991
 40
0.5654764791
 40
0.6305220582
 40
0.694777527
 40
0.7580088615
 40
0.8201133367
 40
0.8810932663
 40
0.9410340916
 40
1.0
 40
1.0
 40
1.0
 40
1.0
 10
10.5306021345
 20
7.48505322
 30
0.0
 10
10.5289519976
 20
7.4838206312
 30
0.0
 10
10.5257378671
 20
7.4811784256
 30
0.0
 10
10.5212927259
 20
7.4767227998
 30
0.0
 10
10.5172686841
 20
7.4717388603
 30
0.0
 10
10.5137625495
 20
7.4662391649
 30
0.0
 10
10.5108764555
 20
7.4602608259
 30
0.0
 10
10.508716665
 20
7.4538730351
 30
0.0
 10
10.5073770642
 20
7.4471830209
 30
0.0
 10
10.5069226533
 20
7.4403318613
 30
0.0
 10
10.5073770642
 20
7.4334807015
 30
0.0
 10
10.5087166647
 20
7.4267906867
 30
0.0
 10
10.5108764553
 20
7.4204028955
 30
0.0
 10
10.5137625493
 20
7.4144245562
 30
0.0
 10
10.5172686839
 20
7.4089248608
 30
0.0
 10
10.5212927257
 20
7.4039409212
 30
0.0
 10
10.525737867
 20
7.3994852953
 30
0.0
 10
10.5289519976
 20
7.3968430896
 30
0.0
 10
10.5306021345
 20
7.3956105009
 30
0.0
  0
SPLINE
  5
2DC
100
AcDbEntity
  8
0
100
AcDbSpline
 62
7
  6
CONTINUOUS
 70
0
 71
3
 72
23
 73
19
 74
0
 42
0.0000001
 43
0.0000001
 44
0.0000000001
 40
0.0
 40
0.0
 40
0.0
 40
0.0
 40
0.0577493273
 40
0.1168140789
 40
0.1772906152
 40
0.2392798194
 40
0.3027744817
 40
0.367629612
 40
0.4335301326
 40
0.4999999909
 40
0.5664698514
 40
0.6323703784
 40
0.6972255144
 40
0.7607201771
 40
0.8227093796
 40
0.8831859185
 40
0.942250672
 40
1.0
 40
1.0
 40
1.0
 40
1.0
 10
10.5221121269
 20
7.48505322
 30
0.0
 10
10.5205570871
 20
7.4838170548
 30
0.0
 10
10.5175280796
 20
7.4811655716
 30
0.0
 10
10.513351717
 20
7.4767075817
 30
0.0
 10
10.5095719831
 20
7.4717219202
 30
0.0
 10
10.506279853
 20
7.4662217879
 30
0.0
 10
10.5035709551
 20
7.4602448017
 30
0.0
 10
10.5015445872
 20
7.4538605671
 30
0.0
 10
10.5002881623
 20
7.4471761635
 30
0.0
 10
10.499862047
 20
7.4403318613
 30
0.0
 10
10.5002881622
 20
7.4334875589
 30
0.0
 10
10.5015445869
 20
7.4268031547
 30
0.0
 10
10.5035709549
 20
7.4204189197
 30
0.0
 10
10.5062798527
 20
7.4144419332
 30
0.0
 10
10.5095719829
 20
7.4089418009
 30
0.0
 10
10.5133517168
 20
7.4039561394
 30
0.0
 10
10.5175280795
 20
7.3994981493
 30
0.0
 10
10.5205570871
 20
7.3968466661
 30
0.0
 10
10.5221121269
 20
7.3956105009
 30
0.0
  0
SPLINE
  5
2DD
100
AcDbEntity
  8
0
100
AcDbSpline
 62
7
  6
CONTINUOUS
 70
0
 71
3
 72
23
 73
19
 74
0
 42
0.0000001
 43
0.0000001
 44
0.0000000001
 40
0.0
 40
0.0
 40
0.0
 40
0.0
 40
0.0563654803
 40
0.1144436271
 40
0.1743620491
 40
0.2362330391
 40
0.3000329182
 40
0.365565127
 40
0.4324224704
 40
0.4999999907
 40
0.5675775133
 40
0.6344348633
 40
0.6999670779
 40
0.7637669575
 40
0.8256379458
 40
0.8855563702
 40
0.943634519
 40
1.0
 40
1.0
 40
1.0
 40
1.0
 10
10.5178510057
 20
7.48505322
 30
0.0
 10
10.5164032032
 20
7.4838126257
 30
0.0
 10
10.5135833187
 20
7.4811499979
 30
0.0
 10
10.5097097915
 20
7.4766896519
 30
0.0
 10
10.5062051916
 20
7.4717025238
 30
0.0
 10
10.5031538242
 20
7.466202428
 30
0.0
 10
10.5006439854
 20
7.4602273777
 30
0.0
 10
10.4987672359
 20
7.4538472696
 30
0.0
 10
10.4976039312
 20
7.4471689405
 30
0.0
 10
10.4972094635
 20
7.4403318613
 30
0.0
 10
10.4976039312
 20
7.4334947818
 30
0.0
 10
10.4987672356
 20
7.4268164522
 30
0.0
 10
10.5006439852
 20
7.4204363436
 30
0.0
 10
10.503153824
 20
7.4144612931
 30
0.0
 10
10.5062051915
 20
7.4089611974
 30
0.0
 10
10.5097097914
 20
7.4039740691
 30
0.0
 10
10.5135833187
 20
7.399513723
 30
0.0
 10
10.5164032032
 20
7.3968510951
 30
0.0
 10
10.5178510057
 20
7.3956105009
 30
0.0
  0
SPLINE
  5
2DE
100
AcDbEntity
  8
0
100
AcDbSpline
 62
7
  6
CONTINUOUS
 70
0
 71
3
 72
11
 73
7
 74
0
 42
0.0000001
 43
0.0000001
 44
0.0000000001
 40
0.0
 40
0.0
 40
0.0
 40
0.0
 40
0.255203937
 40
0.5065615898
 40
0.7546237703
 40
1.0
 40
1.0
 40
1.0
 40
1.0
 10
11.49669378
 20
6.0317465404
 30
0.0
 10
11.4942099458
 20
6.0303546852
 30
0.0
 10
11.4891825927
 20
6.0277608475
 30
0.0
 10
11.481436388
 20
6.0244444072
 30
0.0
 10
11.4735704575
 20
6.0217430199
 30
0.0
 10
11.4682372915
 20
6.0203524705
 30
0.0
 10
11.4655635438
 20
6.0197647437
 30
0.0
  0
SPLINE
  5
2DF
100
AcDbEntity
  8
0
100
AcDbSpline
 62
7
  6
CONTINUOUS
 70
0
 71
3
 72
10
 73
6
 74
0
 42
0.0000001
 43
0.0000001
 44
0.0000000001
 40
0.0
 40
0.0
 40
0.0
 40
0.0
 40
0.5062478823
 40
0.754437504
 40
1.0
 40
1.0
 40
1.0
 40
1.0
 10
11.4961390552
 20
6.4132261643
 30
0.0
 10
11.491292993
 20
6.4159091764
 30
0.0
 10
11.4837849648
 20
6.4194272135
 30
0.0
 10
11.4734226585
 20
6.4229610837
 30
0.0
 10
11.468187764
 20
6.4243221371
 30
0.0
 10
11.4655635438
 20
6.4248989772
 30
0.0
  0
SPLINE
  5
2E0
100
AcDbEntity
  8
0
100
AcDbSpline
 62
7
  6
CONTINUOUS
 70
0
 71
3
 72
15
 73
11
 74
0
 42
0.0000001
 43
0.0000001
 44
0.0000000001
 40
0.0
 40
0.0
 40
0.0
 40
0.0
 40
0.1140027936
 40
0.2286682527
 40
0.3455364134
 40
0.4659944718
 40
0.5911246843
 40
0.7216585393
 40
0.8579514296
 40
1.0
 40
1.0
 40
1.0
 40
1.0
 10
11.4660737194
 20
6.4273318604
 30
0.0
 10
11.471696323
 20
6.4273318604
 30
0.0
 10
11.4829969856
 20
6.4263960692
 30
0.0
 10
11.4995840875
 20
6.4221763976
 30
0.0
 10
11.5155654247
 20
6.4152104945
 30
0.0
 10
11.5307236213
 20
6.405612447
 30
0.0
 10
11.5448741586
 20
6.3935291193
 30
0.0
 10
11.5578544196
 20
6.379136519
 30
0.0
 10
11.5695206849
 20
6.3626375701
 30
0.0
 10
11.5762091143
 20
6.3506168591
 30
0.0
 10
11.5793155148
 20
6.3443373878
 30
0.0
  0
SPLINE
  5
2E1
100
AcDbEntity
  8
0
100
AcDbSpline
 62
9
  6
CONTINUOUS
 70
0
 71
3
 72
19
 73
15
 74
0
 42
0.0000001
 43
0.0000001
 44
0.0000000001
 40
0.0
 40
0.0
 40
0.0
 40
0.0
 40
0.1169832845
 40
0.1780829608
 40
0.2406339719
 40
0.3690065959
 40
0.4343418351
 40
0.5
 40
0.5656581649
 40
0.6309934041
 40
0.7593660281
 40
0.8219170392
 40
0.8830167155
 40
1.0
 40
1.0
 40
1.0
 40
1.0
 10
10.4090191177
 20
6.3421216909
 30
0.0
 10
10.4148051838
 20
6.3340962118
 30
0.0
 10
10.4224455636
 20
6.320997671
 30
0.0
 10
10.4304735814
 20
6.3022827753
 30
0.0
 10
10.4373101249
 20
6.2820733039
 30
0.0
 10
10.4418863608
 20
6.2607942635
 30
0.0
 10
10.444198689
 20
6.2389678033
 30
0.0
 10
10.4447825957
 20
6.2223318604
 30
0.0
 10
10.444198689
 20
6.2056959175
 30
0.0
 10
10.4418863608
 20
6.1838694573
 30
0.0
 10
10.4373101249
 20
6.1625904169
 30
0.0
 10
10.4304735814
 20
6.1423809456
 30
0.0
 10
10.4224455636
 20
6.1236660498
 30
0.0
 10
10.4148051838
 20
6.110567509
 30
0.0
 10
10.4090191177
 20
6.10254203
 30
0.0
  0
SPLINE
  5
2E2
100
AcDbEntity
  8
0
100
AcDbSpline
 62
7
  6
CONTINUOUS
 70
0
 71
3
 72
9
 73
5
 74
0
 42
0.0000001
 43
0.0000001
 44
0.0000000001
 40
0.0
 40
0.0
 40
0.0
 40
0.0
 40
0.4970229374
 40
1.0
 40
1.0
 40
1.0
 40
1.0
 10
10.6513385409
 20
6.0263318604
 30
0.0
 10
10.6564144563
 20
6.0263318604
 30
0.0
 10
10.6666423776
 20
6.0271307306
 30
0.0
 10
10.6766235251
 20
6.0294906886
 30
0.0
 10
10.6815221254
 20
6.0310365334
 30
0.0
  0
SPLINE
  5
2E3
100
AcDbEntity
  8
0
100
AcDbSpline
 62
7
  6
CONTINUOUS
 70
0
 71
3
 72
9
 73
5
 74
0
 42
0.0000001
 43
0.0000001
 44
0.0000000001
 40
0.0
 40
0.0
 40
0.0
 40
0.0
 40
0.502977063
 40
1.0
 40
1.0
 40
1.0
 40
1.0
 10
10.6815221279
 20
6.4136271867
 30
0.0
 10
10.6766235273
 20
6.4151730317
 30
0.0
 10
10.6666423789
 20
6.4175329901
 30
0.0
 10
10.6564144567
 20
6.4183318604
 30
0.0
 10
10.6513385409
 20
6.4183318604
 30
0.0
  0
SPLINE
  5
2E4
100
AcDbEntity
  8
0
100
AcDbSpline
 62
7
  6
CONTINUOUS
 70
0
 71
3
 72
18
 73
14
 74
0
 42
0.0000001
 43
0.0000001
 44
0.0000000001
 40
0.0
 40
0.0
 40
0.0
 40
0.0
 40
0.0570462224
 40
0.1140559782
 40
0.171230211
 40
0.2287669975
 40
0.2868584714
 40
0.3456849702
 40
0.4661038151
 40
0.5912009776
 40
0.7217063779
 40
0.8579745763
 40
1.0
 40
1.0
 40
1.0
 40
1.0
 10
10.6285629947
 20
6.0173320421
 30
0.0
 10
10.6257461663
 20
6.0173320421
 30
0.0
 10
10.6201114613
 20
6.0175643468
 30
0.0
 10
10.6117126244
 20
6.018614771
 30
0.0
 10
10.6034052672
 20
6.0203614543
 30
0.0
 10
10.5952184255
 20
6.0227989103
 30
0.0
 10
10.5871787276
 20
6.0259183983
 30
0.0
 10
10.5766113551
 20
6.0310086276
 30
0.0
 10
10.5638659939
 20
6.0390846252
 30
0.0
 10
10.54971017
 20
6.0511849339
 30
0.0
 10
10.5367245895
 20
6.0655985035
 30
0.0
 10
10.5250562904
 20
6.0821204093
 30
0.0
 10
10.5183683546
 20
6.0941572842
 30
0.0
 10
10.5152625999
 20
6.1004450097
 30
0.0
  0
SPLINE
  5
2E5
100
AcDbEntity
  8
0
100
AcDbSpline
 62
7
  6
CONTINUOUS
 70
0
 71
3
 72
15
 73
11
 74
0
 42
0.0000001
 43
0.0000001
 44
0.0000000001
 40
0.0
 40
0.0
 40
0.0
 40
0.0
 40
0.1421401255
 40
0.2785080683
 40
0.4090899474
 40
0.5342347824
 40
0.654672481
 40
0.7714893602
 40
0.8860806723
 40
1.0
 40
1.0
 40
1.0
 40
1.0
 10
11.5796644966
 20
6.1010350321
 30
0.0
 10
11.5765625144
 20
6.0947067065
 30
0.0
 10
11.5698775217
 20
6.0825907146
 30
0.0
 10
11.5581992259
 20
6.0659552858
 30
0.0
 10
11.545190932
 20
6.0514394938
 30
0.0
 10
11.5309977703
 20
6.0392497602
 30
0.0
 10
11.5157841061
 20
6.0295651461
 30
0.0
 10
11.4997365954
 20
6.0225352932
 30
0.0
 10
11.4830754218
 20
6.0182763647
 30
0.0
 10
11.4717221499
 20
6.0173318604
 30
0.0
 10
11.4660737194
 20
6.0173318604
 30
0.0
  0
SPLINE
  5
2E6
100
AcDbEntity
  8
0
100
AcDbSpline
 62
7
  6
CONTINUOUS
 70
0
 71
3
 72
18
 73
14
 74
0
 42
0.0000001
 43
0.0000001
 44
0.0000000001
 40
0.0
 40
0.0
 40
0.0
 40
0.0
 40
0.1419883277
 40
0.2782261922
 40
0.408712227
 40
0.5338035886
 40
0.6542308166
 40
0.713066291
 40
0.7711695226
 40
0.8287203418
 40
0.8859102781
 40
0.9429367469
 40
1.0
 40
1.0
 40
1.0
 40
1.0
 10
10.5154052987
 20
6.344507072
 30
0.0
 10
10.5185128052
 20
6.3507749151
 30
0.0
 10
10.5252020807
 20
6.3627730037
 30
0.0
 10
10.5368653804
 20
6.3792393736
 30
0.0
 10
10.5498394568
 20
6.3936028213
 30
0.0
 10
10.563977859
 20
6.4056598438
 30
0.0
 10
10.5767038139
 20
6.4137060426
 30
0.0
 10
10.5872536076
 20
6.4187773463
 30
0.0
 10
10.5952795302
 20
6.4218852631
 30
0.0
 10
10.6034518449
 20
6.4243136171
 30
0.0
 10
10.6117440599
 20
6.4260537647
 30
0.0
 10
10.620127306
 20
6.4271002454
 30
0.0
 10
10.6257514386
 20
6.4273316787
 30
0.0
 10
10.6285629947
 20
6.4273316787
 30
0.0
  0
SPLINE
  5
2E7
100
AcDbEntity
  8
0
100
AcDbSpline
 62
7
  6
CONTINUOUS
 70
0
 71
3
 72
56
 73
52
 74
0
 42
0.0000001
 43
0.0000001
 44
0.0000000001
 40
0.0
 40
0.0
 40
0.0
 40
0.0
 40
0.0306173729
 40
0.0612432867
 40
0.0918828906
 40
0.1225458449
 40
0.1532470908
 40
0.1840111166
 40
0.1994303565
 40
0.214883282
 40
0.2303796797
 40
0.2459330689
 40
0.2615622751
 40
0.2772921372
 40
0.2931590697
 40
0.309214792
 40
0.3173386633
 40
0.3255398522
 40
0.3338302283
 40
0.3422243589
 40
0.3593296465
 40
0.3680628585
 40
0.3724639315
 40
0.376879815
 40
0.3857251618
 40
0.3945447851
 40
0.4032904566
 40
0.4119312614
 40
0.4204531612
 40
0.4288627355
 40
0.4371657332
 40
0.4453789229
 40
0.4615716798
 40
0.4775380944
 40
0.4933408899
 40
0.5090237527
 40
0.5401347406
 40
0.5710429587
 40
0.6018313053
 40
0.6325473229
 40
0.6632192765
 40
0.6938643741
 40
0.7244933858
 40
0.7551128076
 40
0.7857265103
 40
0.8163371402
 40
0.8469460696
 40
0.8775545006
 40
0.9081630755
 40
0.938772758
 40
1.0
 40
1.0
 40
1.0
 40
1.0
 10
10.6427256434
 20
8.3687023941
 30
0.0
 10
10.6369193979
 20
8.368937431
 30
0.0
 10
10.6253084958
 20
8.3694938426
 30
0.0
 10
10.6079067952
 20
8.3706494296
 30
0.0
 10
10.5905268615
 20
8.3722044662
 30
0.0
 10
10.573183352
 20
8.3742597681
 30
0.0
 10
10.5559010046
 20
8.3769456702
 30
0.0
 10
10.541592418
 20
8.3798469775
 30
0.0
 10
10.5302400462
 20
8.3826776885
 30
0.0
 10
10.5217758046
 20
8.3850941615
 30
0.0
 10
10.5133871199
 20
8.3878459225
 30
0.0
 10
10.5050984403
 20
8.3909840928
 30
0.0
 10
10.4969441779
 20
8.3945714383
 30
0.0
 10
10.4889748995
 20
8.3986893321
 30
0.0
 10
10.4812658295
 20
8.4034369952
 30
0.0
 10
10.4751757588
 20
8.4080101211
 30
0.0
 10
10.4705972876
 20
8.4121151169
 30
0.0
 10
10.4673273426
 20
8.4154570092
 30
0.0
 10
10.4642830108
 20
8.4190756391
 30
0.0
 10
10.4605802337
 20
8.4243175182
 30
0.0
 10
10.4576204449
 20
8.4301717272
 30
0.0
 10
10.4560069152
 20
8.4356953247
 30
0.0
 10
10.4553944805
 20
8.4389720328
 30
0.0
 10
10.4550087158
 20
8.442304241
 30
0.0
 10
10.4549666831
 20
8.4465101976
 30
0.0
 10
10.4556284972
 20
8.4514949526
 30
0.0
 10
10.4569433642
 20
8.4563065072
 30
0.0
 10
10.4588258258
 20
8.4608616039
 30
0.0
 10
10.4611710931
 20
8.4651210237
 30
0.0
 10
10.4638885571
 20
8.469073021
 30
0.0
 10
10.4668977663
 20
8.472730133
 30
0.0
 10
10.4711999907
 20
8.477212244
 30
0.0
 10
10.4770428001
 20
8.4822005409
 30
0.0
 10
10.4845559363
 20
8.4873618139
 30
0.0
 10
10.4923893945
 20
8.491823689
 30
0.0
 10
10.5031015294
 20
8.4969781019
 30
0.0
 10
10.5169161168
 20
8.5022170169
 30
0.0
 10
10.5338634696
 20
8.5070682388
 30
0.0
 10
10.5510068874
 20
8.5108178929
 30
0.0
 10
10.5682658937
 20
8.5137114514
 30
0.0
 10
10.5855950689
 20
8.5159312833
 30
0.0
 10
10.602966428
 20
8.517617126
 30
0.0
 10
10.6203630861
 20
8.5188772669
 30
0.0
 10
10.6377746533
 20
8.5197959121
 30
0.0
 10
10.6551947385
 20
8.5204403335
 30
0.0
 10
10.6726195948
 20
8.5208569569
 30
0.0
 10
10.6900469118
 20
8.5210800041
 30
0.0
 10
10.7074751413
 20
8.5211273112
 30
0.0
 10
10.7249032406
 20
8.5210027807
 30
0.0
 10
10.7481391732
 20
8.5205932834
 30
0.0
 10
10.7655615948
 20
8.5199783406
 30
0.0
 10
10.7771663007
 20
8.5193712005
 30
0.0
  0
SPLINE
  5
2E8
100
AcDbEntity
  8
0
100
AcDbSpline
 62
7
  6
CONTINUOUS
 70
0
 71
3
 72
47
 73
43
 74
0
 42
0.0000001
 43
0.0000001
 44
0.0000000001
 40
0.0
 40
0.0
 40
0.0
 40
0.0
 40
0.0308778047
 40
0.0619738489
 40
0.0934077689
 40
0.1253823163
 40
0.141690058
 40
0.1582772042
 40
0.1751932125
 40
0.1837873888
 40
0.1924657051
 40
0.2012075893
 40
0.2099935549
 40
0.2187898561
 40
0.2275659871
 40
0.2362915155
 40
0.2449456189
 40
0.2535164803
 40
0.261997221
 40
0.2786949945
 40
0.2950959348
 40
0.3112547566
 40
0.3272243485
 40
0.3430464967
 40
0.3587513148
 40
0.37436512
 40
0.3899049272
 40
0.4053866338
 40
0.4208202336
 40
0.4515760472
 40
0.4822281319
 40
0.5128094285
 40
0.5433424476
 40
0.5738422938
 40
0.6347768173
 40
0.6956685493
 40
0.7565409559
 40
0.817405229
 40
0.8782668205
 40
0.9086984171
 40
0.9391312406
 40
1.0
 40
1.0
 40
1.0
 40
1.0
 10
10.8884196089
 20
8.5025471695
 30
0.0
 10
10.8926416684
 20
8.5011846378
 30
0.0
 10
10.9010348597
 20
8.4981880205
 30
0.0
 10
10.9133035411
 20
8.4927056695
 30
0.0
 10
10.925108111
 20
8.4859427131
 30
0.0
 10
10.9342374604
 20
8.4789332533
 30
0.0
 10
10.9407606478
 20
8.4722532637
 30
0.0
 10
10.9451451658
 20
8.4665730689
 30
0.0
 10
10.9481383901
 20
8.4612854053
 30
0.0
 10
10.9499969176
 20
8.456732071
 30
0.0
 10
10.9510827371
 20
8.4531494072
 30
0.0
 10
10.9518154304
 20
8.4494494593
 30
0.0
 10
10.952158225
 20
8.4456757117
 30
0.0
 10
10.9521004461
 20
8.4418818108
 30
0.0
 10
10.9516394176
 20
8.4381245799
 30
0.0
 10
10.9508017024
 20
8.4344546183
 30
0.0
 10
10.9496176601
 20
8.4309132652
 30
0.0
 10
10.9481335127
 20
8.4275260278
 30
0.0
 10
10.9458200849
 20
8.4232591462
 30
0.0
 10
10.9423858686
 20
8.4183448531
 30
0.0
 10
10.9376301087
 20
8.4130844959
 30
0.0
 10
10.9324418808
 20
8.4084109765
 30
0.0
 10
10.9269436243
 20
8.4042481093
 30
0.0
 10
10.9212161212
 20
8.4005287801
 30
0.0
 10
10.915318428
 20
8.3971909348
 30
0.0
 10
10.9092886653
 20
8.3941899751
 30
0.0
 10
10.903157789
 20
8.3914813924
 30
0.0
 10
10.8969459029
 20
8.3890350184
 30
0.0
 10
10.8885892921
 20
8.3860841159
 30
0.0
 10
10.8780075864
 20
8.3829105106
 30
0.0
 10
10.8651646286
 20
8.379770279
 30
0.0
 10
10.8522327176
 20
8.3771831989
 30
0.0
 10
10.8392405307
 20
8.3750557415
 30
0.0
 10
10.8218690167
 20
8.3727334702
 30
0.0
 10
10.8000770645
 20
8.3706307479
 30
0.0
 10
10.7738736664
 20
8.3690161759
 30
0.0
 10
10.7476494183
 20
8.3680561609
 30
0.0
 10
10.7214171049
 20
8.3675856286
 30
0.0
 10
10.6995545834
 20
8.3675265958
 30
0.0
 10
10.6820656757
 20
8.3676770571
 30
0.0
 10
10.6645774921
 20
8.3679619884
 30
0.0
 10
10.6514640087
 20
8.3683486648
 30
0.0
 10
10.6427256434
 20
8.3687023941
 30
0.0
  0
SPLINE
  5
2E9
100
AcDbEntity
  8
0
100
AcDbSpline
 62
7
  6
CONTINUOUS
 70
0
 71
3
 72
11
 73
7
 74
0
 42
0.0000001
 43
0.0000001
 44
0.0000000001
 40
0.0
 40
0.0
 40
0.0
 40
0.0
 40
0.2454319908
 40
0.4935194235
 40
0.7448614111
 40
1.0
 40
1.0
 40
1.0
 40
1.0
 10
10.6290734727
 20
6.019764669
 30
0.0
 10
10.6264250001
 20
6.0203468309
 30
0.0
 10
10.6211421895
 20
6.0217221628
 30
0.0
 10
10.6133489807
 20
6.0243892745
 30
0.0
 10
10.6056727816
 20
6.0276600922
 30
0.0
 10
10.6006889541
 20
6.0302166899
 30
0.0
 10
10.5982261915
 20
6.0315882785
 30
0.0
  0
SPLINE
  5
2EA
100
AcDbEntity
  8
0
100
AcDbSpline
 62
7
  6
CONTINUOUS
 70
0
 71
3
 72
21
 73
17
 74
0
 42
0.0000001
 43
0.0000001
 44
0.0000000001
 40
0.0
 40
0.0
 40
0.0
 40
0.0
 40
0.0556393137
 40
0.1132116582
 40
0.1728590188
 40
0.2346970986
 40
0.2986908492
 40
0.3646142977
 40
0.4999999913
 40
0.6353856921
 40
0.7013091467
 40
0.765302898
 40
0.8271409761
 40
0.8867883392
 40
0.9443606856
 40
1.0
 40
1.0
 40
1.0
 40
1.0
 10
11.0473183384
 20
7.3956105009
 30
0.0
 10
11.048708242
 20
7.3968536685
 30
0.0
 10
11.051415052
 20
7.3995226016
 30
0.0
 10
11.0551252778
 20
7.403984041
 30
0.0
 10
11.0584815915
 20
7.4089717675
 30
0.0
 10
11.0614033005
 20
7.4144714711
 30
0.0
 10
11.0638061103
 20
7.4204458661
 30
0.0
 10
11.0662212774
 20
7.4290184918
 30
0.0
 10
11.0674684671
 20
7.4403318598
 30
0.0
 10
11.0662212777
 20
7.451645228
 30
0.0
 10
11.0638061105
 20
7.4602178542
 30
0.0
 10
11.0614033007
 20
7.4661922494
 30
0.0
 10
11.0584815917
 20
7.471691953
 30
0.0
 10
11.055125278
 20
7.4766796796
 30
0.0
 10
11.0514150521
 20
7.4811411192
 30
0.0
 10
11.0487082421
 20
7.4838100523
 30
0.0
 10
11.0473183384
 20
7.48505322
 30
0.0
  0
SPLINE
  5
2EB
100
AcDbEntity
  8
0
100
AcDbSpline
 62
7
  6
CONTINUOUS
 70
0
 71
3
 72
40
 73
36
 74
0
 42
0.0000001
 43
0.0000001
 44
0.0000000001
 40
0.0
 40
0.0
 40
0.0
 40
0.0
 40
0.0305307918
 40
0.0611996089
 40
0.0920500084
 40
0.1231545973
 40
0.1388363091
 40
0.1546239611
 40
0.1705358603
 40
0.1865999312
 40
0.2028382414
 40
0.2192870439
 40
0.2528373695
 40
0.2699963592
 40
0.2786512672
 40
0.2873384546
 40
0.3047398121
 40
0.3220815242
 40
0.3307010727
 40
0.3392657401
 40
0.3562143427
 40
0.3893353816
 40
0.4216434694
 40
0.4533507283
 40
0.4846312697
 40
0.5156088555
 40
0.5463689202
 40
0.5769691193
 40
0.6378308808
 40
0.6984240895
 40
0.7588611747
 40
0.8192064208
 40
0.8794976657
 40
0.9397580644
 40
1.0
 40
1.0
 40
1.0
 40
1.0
 10
11.5759196089
 20
8.5025471695
 30
0.0
 10
11.5789177973
 20
8.5015796022
 30
0.0
 10
11.5848864443
 20
8.4995083212
 30
0.0
 10
11.5936925024
 20
8.4959348916
 30
0.0
 10
11.6023181959
 20
8.4918025357
 30
0.0
 10
11.6092768983
 20
8.4878124343
 30
0.0
 10
11.614646545
 20
8.4842223755
 30
0.0
 10
11.618568698
 20
8.4812990932
 30
0.0
 10
11.6223436325
 20
8.4781252924
 30
0.0
 10
11.6259371149
 20
8.4746788359
 30
0.0
 10
11.6292965284
 20
8.470925757
 30
0.0
 10
11.6334035881
 20
8.4654561346
 30
0.0
 10
11.6367157729
 20
8.4592863242
 30
0.0
 10
11.6385266734
 20
8.4534151674
 30
0.0
 10
11.6392113883
 20
8.4499183756
 30
0.0
 10
11.6396379807
 20
8.4463558829
 30
0.0
 10
11.6396680511
 20
8.4418559624
 30
0.0
 10
11.6390175839
 20
8.4374114376
 30
0.0
 10
11.6381273075
 20
8.4339592812
 30
0.0
 10
11.6370127862
 20
8.4306154022
 30
0.0
 10
11.6345453154
 20
8.4250740202
 30
0.0
 10
11.6297696282
 20
8.4179632717
 30
0.0
 10
11.6227910583
 20
8.4107189792
 30
0.0
 10
11.6150733435
 20
8.4045887352
 30
0.0
 10
11.606886761
 20
8.3993679611
 30
0.0
 10
11.5983873495
 20
8.3948890945
 30
0.0
 10
11.5896708379
 20
8.3910256868
 30
0.0
 10
11.5778658876
 20
8.3865718421
 30
0.0
 10
11.5628103032
 20
8.3820834582
 30
0.0
 10
11.5444825714
 20
8.3779886117
 30
0.0
 10
11.5260186699
 20
8.3748847159
 30
0.0
 10
11.5074765777
 20
8.3725475989
 30
0.0
 10
11.4888886036
 20
8.3708089471
 30
0.0
 10
11.4702743713
 20
8.3695400389
 30
0.0
 10
11.4578534987
 20
8.3689415387
 30
0.0
 10
11.4516422112
 20
8.3686915433
 30
0.0
  0
SPLINE
  5
2EC
100
AcDbEntity
  8
0
100
AcDbSpline
 62
7
  6
CONTINUOUS
 70
0
 71
3
 72
58
 73
54
 74
0
 42
0.0000001
 43
0.0000001
 44
0.0000000001
 40
0.0
 40
0.0
 40
0.0
 40
0.0
 40
0.0612365745
 40
0.1224678388
 40
0.1837006118
 40
0.2143211776
 40
0.2449468835
 40
0.2755816751
 40
0.3062319598
 40
0.3369079116
 40
0.3676264011
 40
0.3984153481
 40
0.4138520357
 40
0.4293270159
 40
0.4448517424
 40
0.4604428843
 40
0.4761218205
 40
0.491919985
 40
0.5078822402
 40
0.515946465
 40
0.5240787057
 40
0.5322890248
 40
0.5405935702
 40
0.54900183
 40
0.5575284058
 40
0.5661721878
 40
0.5749228965
 40
0.5837481318
 40
0.5881750519
 40
0.5925998571
 40
0.6014111261
 40
0.6101369146
 40
0.6187518712
 40
0.6272482406
 40
0.635629467
 40
0.6439092666
 40
0.6602042524
 40
0.6682537864
 40
0.6762479752
 40
0.6841966437
 40
0.6921052545
 40
0.7078250388
 40
0.723445762
 40
0.7389933943
 40
0.7544854645
 40
0.7853484883
 40
0.8161114784
 40
0.8468142976
 40
0.8774807863
 40
0.9081253843
 40
0.9387567861
 40
0.9693805656
 40
1.0
 40
1.0
 40
1.0
 40
1.0
 10
11.4516422112
 20
8.3686915433
 30
0.0
 10
11.4398680263
 20
8.3682176491
 30
0.0
 10
11.416306145
 20
8.3676189693
 30
0.0
 10
11.3809552955
 20
8.3674735396
 30
0.0
 10
11.3514981673
 20
8.3679348248
 30
0.0
 10
11.3279430208
 20
8.3687506725
 30
0.0
 10
11.3102838364
 20
8.369638743
 30
0.0
 10
11.2926387842
 20
8.3708660146
 30
0.0
 10
11.2750180248
 20
8.3725187858
 30
0.0
 10
11.2574381404
 20
8.3747074733
 30
0.0
 10
11.2399273173
 20
8.3775735642
 30
0.0
 10
11.2254411683
 20
8.3806778874
 30
0.0
 10
11.2139608286
 20
8.3837142974
 30
0.0
 10
11.2054088453
 20
8.3863127687
 30
0.0
 10
11.1969451831
 20
8.3892793005
 30
0.0
 10
11.1885992566
 20
8.3926712333
 30
0.0
 10
11.1804146641
 20
8.3965646444
 30
0.0
 10
11.1724551056
 20
8.401051063
 30
0.0
 10
11.1661089099
 20
8.4053698327
 30
0.0
 10
11.1612815057
 20
8.4092462764
 30
0.0
 10
11.1577969653
 20
8.4123999926
 30
0.0
 10
11.1545017479
 20
8.4158167466
 30
0.0
 10
11.1514411429
 20
8.4195160836
 30
0.0
 10
11.1486824315
 20
8.4235219236
 30
0.0
 10
11.146303031
 20
8.4278413073
 30
0.0
 10
11.1444040825
 20
8.4324667172
 30
0.0
 10
11.1430863148
 20
8.4373521052
 30
0.0
 10
11.1425569226
 20
8.4415683688
 30
0.0
 10
11.1424941759
 20
8.444971921
 30
0.0
 10
11.1426789041
 20
8.4483683506
 30
0.0
 10
11.1433553835
 20
8.4525551696
 30
0.0
 10
11.1448290334
 20
8.4573814591
 30
0.0
 10
11.1468574055
 20
8.4619331618
 30
0.0
 10
11.149340925
 20
8.4661735961
 30
0.0
 10
11.1521816701
 20
8.470101823
 30
0.0
 10
11.1563254174
 20
8.4749102333
 30
0.0
 10
11.1609371674
 20
8.4792014704
 30
0.0
 10
11.1658446945
 20
8.4830303307
 30
0.0
 10
11.1696266173
 20
8.4856820584
 30
0.0
 10
11.1735036753
 20
8.4881410852
 30
0.0
 10
11.1787648461
 20
8.4911839924
 30
0.0
 10
11.1855103788
 20
8.4945956778
 30
0.0
 10
11.1938010258
 20
8.4981670008
 30
0.0
 10
11.2022249033
 20
8.5012850289
 30
0.0
 10
11.2135718653
 20
8.5049200204
 30
0.0
 10
11.2279526085
 20
8.5086332361
 30
0.0
 10
11.2453911733
 20
8.5120689933
 30
0.0
 10
11.262927864
 20
8.5147057891
 30
0.0
 10
11.2805227455
 20
8.5167135059
 30
0.0
 10
11.298152565
 20
8.5182225852
 30
0.0
 10
11.315802897
 20
8.5193355552
 30
0.0
 10
11.3334650896
 20
8.520131517
 30
0.0
 10
11.3452450447
 20
8.5204894984
 30
0.0
 10
11.3511353776
 20
8.5206329612
 30
0.0
  0
SPLINE
  5
2ED
100
AcDbEntity
  8
0
100
AcDbSpline
 62
7
  6
CONTINUOUS
 70
0
 71
3
 72
11
 73
7
 74
0
 42
0.0000001
 43
0.0000001
 44
0.0000000001
 40
0.0
 40
0.0
 40
0.0
 40
0.0
 40
0.2454227902
 40
0.4935060565
 40
0.7448506282
 40
1.0
 40
1.0
 40
1.0
 40
1.0
 10
10.6290734727
 20
6.4248990518
 30
0.0
 10
10.626420821
 20
6.4243159713
 30
0.0
 10
10.6211296846
 20
6.4229381292
 30
0.0
 10
10.6133244492
 20
6.4202653662
 30
0.0
 10
10.6056366695
 20
6.4169870282
 30
0.0
 10
10.6006456385
 20
6.4144242919
 30
0.0
 10
10.5981793877
 20
6.4130493626
 30
0.0
  0
SPLINE
  5
2EE
100
AcDbEntity
  8
0
100
AcDbSpline
 62
7
  6
CONTINUOUS
 70
0
 71
3
 72
15
 73
11
 74
0
 42
0.0000001
 43
0.0000001
 44
0.0000000001
 40
0.0
 40
0.0
 40
0.0
 40
0.0
 40
0.1104552793
 40
0.2311653615
 40
0.3621598221
 40
0.4999999904
 40
0.6378401679
 40
0.7688346351
 40
0.8895447181
 40
1.0
 40
1.0
 40
1.0
 40
1.0
 10
11.0947363575
 20
7.48505322
 30
0.0
 10
11.0921508986
 20
7.4825022555
 30
0.0
 10
11.0872664813
 20
7.4766040805
 30
0.0
 10
11.0815775851
 20
7.4660574654
 30
0.0
 10
11.077803176
 20
7.4537273388
 30
0.0
 10
11.076473893
 20
7.4403318611
 30
0.0
 10
11.0778031758
 20
7.4269363831
 30
0.0
 10
11.0815775848
 20
7.4146062558
 30
0.0
 10
11.0872664812
 20
7.4040596405
 30
0.0
 10
11.0921508985
 20
7.3981614654
 30
0.0
 10
11.0947363575
 20
7.3956105009
 30
0.0
  0
SPLINE
  5
2EF
100
AcDbEntity
  8
0
100
AcDbSpline
 62
7
  6
CONTINUOUS
 70
0
 71
3
 72
23
 73
19
 74
0
 42
0.0000001
 43
0.0000001
 44
0.0000000001
 40
0.0
 40
0.0
 40
0.0
 40
0.0
 40
0.057075459
 40
0.1156584379
 40
0.175861261
 40
0.2377911996
 40
0.3014337635
 40
0.3666192909
 40
0.4329878186
 40
0.4999999915
 40
0.567012166
 40
0.6333806991
 40
0.6985662324
 40
0.762208797
 40
0.8241387338
 40
0.8843415595
 40
0.9429245403
 40
1.0
 40
1.0
 40
1.0
 40
1.0
 10
11.0947363575
 20
7.3956105009
 30
0.0
 10
11.0962390971
 20
7.3968487722
 30
0.0
 10
11.0991661639
 20
7.3995056023
 30
0.0
 10
11.1031947839
 20
7.4039647878
 30
0.0
 10
11.1068402695
 20
7.4089512311
 30
0.0
 10
11.1100148885
 20
7.4144514157
 30
0.0
 10
11.1126265919
 20
7.4204275091
 30
0.0
 10
11.1145798724
 20
7.4268097426
 30
0.0
 10
11.1157907905
 20
7.4334911479
 30
0.0
 10
11.1162014363
 20
7.4403318596
 30
0.0
 10
11.1157907906
 20
7.4471725715
 30
0.0
 10
11.1145798727
 20
7.4538539773
 30
0.0
 10
11.1126265921
 20
7.4602362112
 30
0.0
 10
11.1100148888
 20
7.4662123047
 30
0.0
 10
11.1068402696
 20
7.4717124894
 30
0.0
 10
11.1031947841
 20
7.4766989328
 30
0.0
 10
11.099166164
 20
7.4811581185
 30
0.0
 10
11.0962390971
 20
7.4838149486
 30
0.0
 10
11.0947363575
 20
7.48505322
 30
0.0
  0
SPLINE
  5
2F0
100
AcDbEntity
  8
0
100
AcDbSpline
 62
7
  6
CONTINUOUS
 70
0
 71
3
 72
15
 73
11
 74
0
 42
0.0000001
 43
0.0000001
 44
0.0000000001
 40
0.0
 40
0.0
 40
0.0
 40
0.0
 40
0.1075631271
 40
0.2275377959
 40
0.3597436102
 40
0.4999999903
 40
0.6402563797
 40
0.7724622007
 40
0.8924368704
 40
1.0
 40
1.0
 40
1.0
 40
1.0
 10
11.1418650758
 20
7.48505322
 30
0.0
 10
11.1395412189
 20
7.4824730328
 30
0.0
 10
11.1351691416
 20
7.4765057749
 30
0.0
 10
11.1301404011
 20
7.4659685247
 30
0.0
 10
11.1268101214
 20
7.4536736561
 30
0.0
 10
11.125638612
 20
7.4403318611
 30
0.0
 10
11.1268101212
 20
7.4269900658
 30
0.0
 10
11.1301404009
 20
7.4146951966
 30
0.0
 10
11.1351691415
 20
7.4041579461
 30
0.0
 10
11.1395412189
 20
7.398190688
 30
0.0
 10
11.1418650758
 20
7.3956105009
 30
0.0
  0
SPLINE
  5
2F1
100
AcDbEntity
  8
0
100
AcDbSpline
 62
7
  6
CONTINUOUS
 70
0
 71
3
 72
23
 73
19
 74
0
 42
0.0000001
 43
0.0000001
 44
0.0000000001
 40
0.0
 40
0.0
 40
0.0
 40
0.0
 40
0.0583774684
 40
0.1178935518
 40
0.178628519
 40
0.2406759024
 40
0.3040339939
 40
0.3685800038
 40
0.4340407146
 40
0.4999999916
 40
0.5659592703
 40
0.6314199863
 40
0.695966002
 40
0.7593240942
 40
0.8213714758
 40
0.8821064455
 40
0.9416225309
 40
1.0
 40
1.0
 40
1.0
 40
1.0
 10
11.1418650758
 20
7.3956105009
 30
0.0
 10
11.143469085
 20
7.3968447844
 30
0.0
 10
11.1465934571
 20
7.3994914179
 30
0.0
 10
11.1509082095
 20
7.4039482182
 30
0.0
 10
11.1548137225
 20
7.4089330392
 30
0.0
 10
11.1582160063
 20
7.4144330013
 30
0.0
 10
11.1610160806
 20
7.4204107293
 30
0.0
 10
11.1631110717
 20
7.4267968105
 30
0.0
 10
11.164410259
 20
7.433484079
 30
0.0
 10
11.1648509181
 20
7.4403318596
 30
0.0
 10
11.1644102591
 20
7.4471796404
 30
0.0
 10
11.163111072
 20
7.4538669094
 30
0.0
 10
11.1610160808
 20
7.460252991
 30
0.0
 10
11.1582160066
 20
7.4662307191
 30
0.0
 10
11.1548137227
 20
7.4717306813
 30
0.0
 10
11.1509082097
 20
7.4767155024
 30
0.0
 10
11.1465934572
 20
7.4811723028
 30
0.0
 10
11.143469085
 20
7.4838189364
 30
0.0
 10
11.1418650758
 20
7.48505322
 30
0.0
  0
SPLINE
  5
2F2
100
AcDbEntity
  8
0
100
AcDbSpline
 62
7
  6
CONTINUOUS
 70
0
 71
3
 72
17
 73
13
 74
0
 42
0.0000001
 43
0.0000001
 44
0.0000000001
 40
0.0
 40
0.0
 40
0.0
 40
0.0
 40
0.1045824356
 40
0.2238209768
 40
0.2889972254
 40
0.3573473562
 40
0.4999999901
 40
0.6426526335
 40
0.7110027705
 40
0.7761790198
 40
0.8954175619
 40
1.0
 40
1.0
 40
1.0
 40
1.0
 10
11.1882325171
 20
7.48505322
 30
0.0
 10
11.1861920603
 20
7.4824390418
 30
0.0
 10
11.1823769815
 20
7.4764013284
 30
0.0
 10
11.1788716576
 20
7.467888105
 30
0.0
 10
11.1767090241
 20
7.4601631464
 30
0.0
 10
11.1750232389
 20
7.4515610041
 30
0.0
 10
11.174171712
 20
7.4403318611
 30
0.0
 10
11.1750232388
 20
7.4291027178
 30
0.0
 10
11.1767090239
 20
7.420500575
 30
0.0
 10
11.1788716575
 20
7.4127756161
 30
0.0
 10
11.1823769814
 20
7.4042623926
 30
0.0
 10
11.1861920603
 20
7.3982246791
 30
0.0
 10
11.1882325171
 20
7.3956105009
 30
0.0
  0
SPLINE
  5
2F3
100
AcDbEntity
  8
0
100
AcDbSpline
 62
7
  6
CONTINUOUS
 70
0
 71
3
 72
23
 73
19
 74
0
 42
0.0000001
 43
0.0000001
 44
0.0000000001
 40
0.0
 40
0.0
 40
0.0
 40
0.0
 40
0.0563683241
 40
0.1144484872
 40
0.1743680401
 40
0.2362392592
 40
0.300038505
 40
0.3655693277
 40
0.4324247227
 40
0.4999999914
 40
0.5675752618
 40
0.6344306622
 40
0.6999614909
 40
0.7637607374
 40
0.8256319548
 40
0.8855515102
 40
0.9436316752
 40
1.0
 40
1.0
 40
1.0
 40
1.0
 10
11.5767815168
 20
7.3956105009
 30
0.0
 10
11.5782295391
 20
7.3968510856
 30
0.0
 10
11.5810498527
 20
7.3995136898
 30
0.0
 10
11.5849240003
 20
7.4039740314
 30
0.0
 10
11.5884291637
 20
7.4089611571
 30
0.0
 10
11.5914810239
 20
7.4144612534
 30
0.0
 10
11.5939912699
 20
7.4204363081
 30
0.0
 10
11.5958683251
 20
7.4268164248
 30
0.0
 10
11.5970318199
 20
7.4334947661
 30
0.0
 10
11.5974263523
 20
7.4403318596
 30
0.0
 10
11.59703182
 20
7.4471689533
 30
0.0
 10
11.5958683254
 20
7.4538472951
 30
0.0
 10
11.5939912701
 20
7.4602274121
 30
0.0
 10
11.5914810242
 20
7.466202467
 30
0.0
 10
11.5884291639
 20
7.4717025634
 30
0.0
 10
11.5849240005
 20
7.4766896892
 30
0.0
 10
11.5810498528
 20
7.4811500309
 30
0.0
 10
11.5782295391
 20
7.4838126352
 30
0.0
 10
11.5767815168
 20
7.48505322
 30
0.0
  0
SPLINE
  5
2F4
100
AcDbEntity
  8
0
100
AcDbSpline
 62
7
  6
CONTINUOUS
 70
0
 71
3
 72
23
 73
19
 74
0
 42
0.0000001
 43
0.0000001
 44
0.0000000001
 40
0.0
 40
0.0
 40
0.0
 40
0.0
 40
0.0577518591
 40
0.1168184255
 40
0.1772959972
 40
0.2392854302
 40
0.3027795392
 40
0.3676334253
 40
0.4335321808
 40
0.4999999916
 40
0.566467804
 40
0.6323665648
 40
0.6972204567
 40
0.7607145664
 40
0.8227039977
 40
0.8831815718
 40
0.9422481402
 40
1.0
 40
1.0
 40
1.0
 40
1.0
 10
11.5725121286
 20
7.3956105009
 30
0.0
 10
11.5740673652
 20
7.3968466583
 30
0.0
 10
11.5770967564
 20
7.3994981217
 30
0.0
 10
11.5812736754
 20
7.403956107
 30
0.0
 10
11.5850539149
 20
7.4089417652
 30
0.0
 10
11.5883464877
 20
7.414441897
 30
0.0
 10
11.5910557519
 20
7.4204188865
 30
0.0
 10
11.5930823954
 20
7.4268031285
 30
0.0
 10
11.5943389919
 20
7.4334875436
 30
0.0
 10
11.5947651656
 20
7.4403318596
 30
0.0
 10
11.594338992
 20
7.4471761758
 30
0.0
 10
11.5930823956
 20
7.4538605913
 30
0.0
 10
11.5910557521
 20
7.4602448338
 30
0.0
 10
11.588346488
 20
7.4662218234
 30
0.0
 10
11.5850539151
 20
7.4717219553
 30
0.0
 10
11.5812736756
 20
7.4767076136
 30
0.0
 10
11.5770967565
 20
7.481165599
 30
0.0
 10
11.5740673653
 20
7.4838170625
 30
0.0
 10
11.5725121286
 20
7.48505322
 30
0.0
  0
SPLINE
  5
2F5
100
AcDbEntity
  8
0
100
AcDbSpline
 62
7
  6
CONTINUOUS
 70
0
 71
3
 72
23
 73
19
 74
0
 42
0.0000001
 43
0.0000001
 44
0.0000000001
 40
0.0
 40
0.0
 40
0.0
 40
0.0
 40
0.0589681033
 40
0.118910515
 40
0.1798913612
 40
0.241996056
 40
0.305226919
 40
0.369481296
 40
0.4345253148
 40
0.4999999917
 40
0.5654746702
 40
0.6305186942
 40
0.6947730769
 40
0.7580039406
 40
0.8201086336
 40
0.8810894824
 40
0.9410318959
 40
1.0
 40
1.0
 40
1.0
 40
1.0
 10
11.564013954
 20
7.3956105009
 30
0.0
 10
11.5656642635
 20
7.3968430834
 30
0.0
 10
11.5688787299
 20
7.3994852727
 30
0.0
 10
11.5733243591
 20
7.403940894
 30
0.0
 10
11.5773488446
 20
7.40892483
 30
0.0
 10
11.580855368
 20
7.4144245242
 30
0.0
 10
11.5837417842
 20
7.4204028654
 30
0.0
 10
11.5859018175
 20
7.4267906625
 30
0.0
 10
11.5872415698
 20
7.4334806871
 30
0.0
 10
11.5876960323
 20
7.4403318596
 30
0.0
 10
11.5872415699
 20
7.4471830322
 30
0.0
 10
11.5859018178
 20
7.4538730573
 30
0.0
 10
11.5837417844
 20
7.4602608549
 30
0.0
 10
11.5808553683
 20
7.4662391962
 30
0.0
 10
11.5773488448
 20
7.4717388904
 30
0.0
 10
11.5733243593
 20
7.4767228266
 30
0.0
 10
11.56887873
 20
7.4811784481
 30
0.0
 10
11.5656642635
 20
7.4838206374
 30
0.0
 10
11.564013954
 20
7.48505322
 30
0.0
  0
SPLINE
  5
2F6
100
AcDbEntity
  8
0
100
AcDbSpline
 62
7
  6
CONTINUOUS
 70
0
 71
3
 72
23
 73
19
 74
0
 42
0.0000001
 43
0.0000001
 44
0.0000000001
 40
0.0
 40
0.0
 40
0.0
 40
0.0
 40
0.0600078725
 40
0.1207052875
 40
0.1821257158
 40
0.2443375009
 40
0.3073473199
 40
0.3710861183
 40
0.4353891671
 40
0.5000000044
 40
0.5646108408
 40
0.6289138864
 40
0.6926526804
 40
0.7556624971
 40
0.8178742814
 40
0.8792947111
 40
0.9399921271
 40
1.0
 40
1.0
 40
1.0
 40
1.0
 10
11.5513554192
 20
7.3956105009
 30
0.0
 10
11.5530880049
 20
7.3968402398
 30
0.0
 10
11.5564624037
 20
7.399474872
 30
0.0
 10
11.5611406262
 20
7.4039282916
 30
0.0
 10
11.565376588
 20
7.408910456
 30
0.0
 10
11.5690685034
 20
7.4144094219
 30
0.0
 10
11.5721086259
 20
7.4203886314
 30
0.0
 10
11.5743845949
 20
7.4267793892
 30
0.0
 10
11.575796743
 20
7.4334744149
 30
0.0
 10
11.5762758597
 20
7.4403318608
 30
0.0
 10
11.5757967429
 20
7.4471893067
 30
0.0
 10
11.5743845948
 20
7.453884332
 30
0.0
 10
11.5721086258
 20
7.4602750896
 30
0.0
 10
11.5690685035
 20
7.4662542987
 30
0.0
 10
11.5653765881
 20
7.4717532646
 30
0.0
 10
11.5611406263
 20
7.4767354291
 30
0.0
 10
11.5564624038
 20
7.4811888488
 30
0.0
 10
11.5530880049
 20
7.483823481
 30
0.0
 10
11.5513554192
 20
7.48505322
 30
0.0
  0
SPLINE
  5
2F7
100
AcDbEntity
  8
0
100
AcDbSpline
 62
7
  6
CONTINUOUS
 70
0
 71
3
 72
23
 73
19
 74
0
 42
0.0000001
 43
0.0000001
 44
0.0000000001
 40
0.0
 40
0.0
 40
0.0
 40
0.0
 40
0.0608669102
 40
0.122192309
 40
0.183982335
 40
0.2462886298
 40
0.3091187949
 40
0.3724296348
 40
0.4361133307
 40
0.4999999919
 40
0.5638866547
 40
0.6275703556
 40
0.6908812011
 40
0.7537113667
 40
0.8160176599
 40
0.8778076883
 40
0.9391330891
 40
1.0
 40
1.0
 40
1.0
 40
1.0
 10
11.5346384489
 20
7.3956105009
 30
0.0
 10
11.5364399194
 20
7.3968380266
 30
0.0
 10
11.539948066
 20
7.3994666645
 30
0.0
 10
11.5448210043
 20
7.403918159
 30
0.0
 10
11.5492340288
 20
7.4088986649
 30
0.0
 10
11.5530812582
 20
7.4143967808
 30
0.0
 10
11.5562502921
 20
7.4203764901
 30
0.0
 10
11.5586236474
 20
7.4267696213
 30
0.0
 10
11.5600967072
 20
7.4334689221
 30
0.0
 10
11.5605965887
 20
7.4403318596
 30
0.0
 10
11.5600967073
 20
7.4471947973
 30
0.0
 10
11.5586236477
 20
7.4538940986
 30
0.0
 10
11.5562502923
 20
7.4602872302
 30
0.0
 10
11.5530812585
 20
7.4662669397
 30
0.0
 10
11.5492340291
 20
7.4717650555
 30
0.0
 10
11.5448210045
 20
7.4767455616
 30
0.0
 10
11.5399480661
 20
7.4811970562
 30
0.0
 10
11.5364399194
 20
7.4838256942
 30
0.0
 10
11.5346384489
 20
7.48505322
 30
0.0
  0
SPLINE
  5
2F8
100
AcDbEntity
  8
0
100
AcDbSpline
 62
7
  6
CONTINUOUS
 70
0
 71
3
 72
21
 73
17
 74
0
 42
0.0000001
 43
0.0000001
 44
0.0000000001
 40
0.0
 40
0.0
 40
0.0
 40
0.0
 40
0.1232583241
 40
0.1853615909
 40
0.2477642376
 40
0.3104728737
 40
0.373463393
 40
0.4366726008
 40
0.499999992
 40
0.5633273847
 40
0.6265365975
 40
0.6895271223
 40
0.752235759
 40
0.8146384039
 40
0.8767416731
 40
1.0
 40
1.0
 40
1.0
 40
1.0
 10
11.5139976458
 20
7.3956105009
 30
0.0
 10
11.5177146154
 20
7.3980649137
 30
0.0
 10
11.5229989477
 20
7.4022713098
 30
0.0
 10
11.5290509932
 20
7.408889051
 30
0.0
 10
11.5330228854
 20
7.4143868214
 30
0.0
 10
11.53629474
 20
7.4203666463
 30
0.0
 10
11.5387460631
 20
7.4267616273
 30
0.0
 10
11.5402679157
 20
7.4334643812
 30
0.0
 10
11.5407844559
 20
7.4403318596
 30
0.0
 10
11.5402679158
 20
7.4471993381
 30
0.0
 10
11.5387460634
 20
7.4539020926
 30
0.0
 10
11.5362947402
 20
7.4602970739
 30
0.0
 10
11.5330228857
 20
7.4662768991
 30
0.0
 10
11.5290509935
 20
7.4717746694
 30
0.0
 10
11.522998948
 20
7.4783924108
 30
0.0
 10
11.5177146155
 20
7.482598807
 30
0.0
 10
11.5139976458
 20
7.48505322
 30
0.0
  0
SPLINE
  5
2F9
100
AcDbEntity
  8
0
100
AcDbSpline
 62
7
  6
CONTINUOUS
 70
0
 71
3
 72
21
 73
17
 74
0
 42
0.0000001
 43
0.0000001
 44
0.0000000001
 40
0.0
 40
0.0
 40
0.0
 40
0.0
 40
0.1241196356
 40
0.1864412262
 40
0.2489033557
 40
0.3115109351
 40
0.374253079
 40
0.4370991119
 40
0.4999999921
 40
0.5629008737
 40
0.6257469115
 40
0.688489061
 40
0.7510966408
 40
0.8135587686
 40
0.8758803617
 40
1.0
 40
1.0
 40
1.0
 40
1.0
 10
11.4895992066
 20
7.3956105009
 30
0.0
 10
11.4933935827
 20
7.3980599876
 30
0.0
 10
11.4987932889
 20
7.402258487
 30
0.0
 10
11.5049913437
 20
7.4088823377
 30
0.0
 10
11.5090549051
 20
7.4143794054
 30
0.0
 10
11.5124029812
 20
7.4203593261
 30
0.0
 10
11.5149120206
 20
7.4267555976
 30
0.0
 10
11.5164700702
 20
7.4334609367
 30
0.0
 10
11.5169989717
 20
7.4403318596
 30
0.0
 10
11.5164700703
 20
7.4472027827
 30
0.0
 10
11.514912021
 20
7.4539081223
 30
0.0
 10
11.5124029814
 20
7.4603043941
 30
0.0
 10
11.5090549054
 20
7.466284315
 30
0.0
 10
11.504991344
 20
7.4717813828
 30
0.0
 10
11.4987932891
 20
7.4784052336
 30
0.0
 10
11.4933935828
 20
7.4826037332
 30
0.0
 10
11.4895992066
 20
7.48505322
 30
0.0
  0
SPLINE
  5
2FA
100
AcDbEntity
  8
0
100
AcDbSpline
 62
7
  6
CONTINUOUS
 70
0
 71
3
 72
21
 73
17
 74
0
 42
0.0000001
 43
0.0000001
 44
0.0000000001
 40
0.0
 40
0.0
 40
0.0
 40
0.0
 40
0.1246671038
 40
0.187128271
 40
0.2496291211
 40
0.3121730582
 40
0.3747572493
 40
0.4373715864
 40
0.4999999921
 40
0.5626283993
 40
0.6252427413
 40
0.6878269379
 40
0.7503708755
 40
0.8128717238
 40
0.8753328935
 40
1.0
 40
1.0
 40
1.0
 40
1.0
 10
11.4616395843
 20
7.3956105009
 30
0.0
 10
11.4654834768
 20
7.3980569337
 30
0.0
 10
11.470956906
 20
7.4022504499
 30
0.0
 10
11.4772484567
 20
7.408878092
 30
0.0
 10
11.4813706726
 20
7.4143746751
 30
0.0
 10
11.4847675411
 20
7.4203546171
 30
0.0
 10
11.4873135553
 20
7.4267516904
 30
0.0
 10
11.4888948142
 20
7.4334586934
 30
0.0
 10
11.4894316466
 20
7.4403318596
 30
0.0
 10
11.4888948143
 20
7.4472050259
 30
0.0
 10
11.4873135556
 20
7.4539120295
 30
0.0
 10
11.4847675414
 20
7.4603091031
 30
0.0
 10
11.4813706729
 20
7.4662890453
 30
0.0
 10
11.477248457
 20
7.4717856285
 30
0.0
 10
11.4709569062
 20
7.4784132707
 30
0.0
 10
11.4654834769
 20
7.4826067871
 30
0.0
 10
11.4616395843
 20
7.48505322
 30
0.0
  0
SPLINE
  5
2FB
100
AcDbEntity
  8
0
100
AcDbSpline
 62
7
  6
CONTINUOUS
 70
0
 71
3
 72
21
 73
17
 74
0
 42
0.0000001
 43
0.0000001
 44
0.0000000001
 40
0.0
 40
0.0
 40
0.0
 40
0.0
 40
0.1249012821
 40
0.1874223433
 40
0.2499399728
 40
0.3124568292
 40
0.3749734387
 40
0.4374884653
 40
0.4999999921
 40
0.5625115204
 40
0.6250265519
 40
0.6875431669
 40
0.7500600238
 40
0.8125776515
 40
0.8750987151
 40
1.0
 40
1.0
 40
1.0
 40
1.0
 10
11.4303439057
 20
7.3956105009
 30
0.0
 10
11.4342090583
 20
7.3980556453
 30
0.0
 10
11.4397141211
 20
7.4022470387
 30
0.0
 10
11.4460458349
 20
7.408876281
 30
0.0
 10
11.4501932365
 20
7.414372648
 30
0.0
 10
11.4536110614
 20
7.4203525895
 30
0.0
 10
11.456172963
 20
7.4267500011
 30
0.0
 10
11.4577641997
 20
7.4334577207
 30
0.0
 10
11.4583044427
 20
7.4403318596
 30
0.0
 10
11.4577641998
 20
7.4472059986
 30
0.0
 10
11.4561729634
 20
7.4539137188
 30
0.0
 10
11.4536110617
 20
7.4603111307
 30
0.0
 10
11.4501932368
 20
7.4662910725
 30
0.0
 10
11.4460458351
 20
7.4717874394
 30
0.0
 10
11.4397141213
 20
7.4784166819
 30
0.0
 10
11.4342090583
 20
7.4826080755
 30
0.0
 10
11.4303439057
 20
7.48505322
 30
0.0
  0
SPLINE
  5
2FC
100
AcDbEntity
  8
0
100
AcDbSpline
 62
7
  6
CONTINUOUS
 70
0
 71
3
 72
21
 73
17
 74
0
 42
0.0000001
 43
0.0000001
 44
0.0000000001
 40
0.0
 40
0.0
 40
0.0
 40
0.0
 40
0.1248225237
 40
0.1873234288
 40
0.2498354005
 40
0.3123613551
 40
0.3749006947
 40
0.4374491347
 40
0.4999999921
 40
0.562550851
 40
0.6250992959
 40
0.687638641
 40
0.750164596
 40
0.8126765661
 40
0.8751774735
 40
1.0
 40
1.0
 40
1.0
 40
1.0
 10
11.3959641592
 20
7.3956105009
 30
0.0
 10
11.3998221562
 20
7.3980560774
 30
0.0
 10
11.4053165733
 20
7.4022481842
 30
0.0
 10
11.4116347679
 20
7.4088768897
 30
0.0
 10
11.4157736925
 20
7.41437333
 30
0.0
 10
11.4191844636
 20
7.4203532723
 30
0.0
 10
11.4217410171
 20
7.4267505704
 30
0.0
 10
11.4233288947
 20
7.4334580488
 30
0.0
 10
11.4238679894
 20
7.4403318596
 30
0.0
 10
11.4233288948
 20
7.4472056706
 30
0.0
 10
11.4217410175
 20
7.4539131494
 30
0.0
 10
11.4191844639
 20
7.4603104479
 30
0.0
 10
11.4157736928
 20
7.4662903905
 30
0.0
 10
11.4116347682
 20
7.4717868307
 30
0.0
 10
11.4053165735
 20
7.4784155364
 30
0.0
 10
11.3998221563
 20
7.4826076434
 30
0.0
 10
11.3959641592
 20
7.48505322
 30
0.0
  0
SPLINE
  5
2FD
100
AcDbEntity
  8
0
100
AcDbSpline
 62
7
  6
CONTINUOUS
 70
0
 71
3
 72
17
 73
13
 74
0
 42
0.0000001
 43
0.0000001
 44
0.0000000001
 40
0.0
 40
0.0
 40
0.0
 40
0.0
 40
0.0440615166
 40
0.0939092794
 40
0.2109535744
 40
0.3489122101
 40
0.4999999894
 40
0.6510877791
 40
0.7890464222
 40
0.9060907182
 40
0.955938483
 40
1.0
 40
1.0
 40
1.0
 40
1.0
 10
11.3959641592
 20
7.48505322
 30
0.0
 10
11.3958247286
 20
7.4837453079
 30
0.0
 10
11.3955573361
 20
7.4809545147
 30
0.0
 10
11.3950638759
 20
7.474676269
 30
0.0
 10
11.3945612358
 20
7.4655885152
 30
0.0
 10
11.3941789099
 20
7.4534710217
 30
0.0
 10
11.3940445084
 20
7.440331861
 30
0.0
 10
11.3941789099
 20
7.4271927002
 30
0.0
 10
11.3945612357
 20
7.4150752061
 30
0.0
 10
11.3950638759
 20
7.405987452
 30
0.0
 10
11.3955573361
 20
7.3997092062
 30
0.0
 10
11.3958247286
 20
7.3969184129
 30
0.0
 10
11.3959641592
 20
7.3956105009
 30
0.0
  0
SPLINE
  5
2FE
100
AcDbEntity
  8
0
100
AcDbSpline
 62
7
  6
CONTINUOUS
 70
0
 71
3
 72
21
 73
17
 74
0
 42
0.0000001
 43
0.0000001
 44
0.0000000001
 40
0.0
 40
0.0
 40
0.0
 40
0.0
 40
0.1244307018
 40
0.1868315219
 40
0.2493155632
 40
0.3118869246
 40
0.3745393323
 40
0.4372538061
 40
0.5000000042
 40
0.5627462015
 40
0.6254606722
 40
0.6881130757
 40
0.7506844348
 40
0.8131684754
 40
0.8755692968
 40
1.0
 40
1.0
 40
1.0
 40
1.0
 10
11.3587771658
 20
7.3956105009
 30
0.0
 10
11.3625996453
 20
7.3980582451
 30
0.0
 10
11.3680412013
 20
7.4022539096
 30
0.0
 10
11.3742923119
 20
7.4088799232
 30
0.0
 10
11.378389162
 20
7.4143767191
 30
0.0
 10
11.3817649276
 20
7.4203566558
 30
0.0
 10
11.3842949476
 20
7.426753385
 30
0.0
 10
11.3858661645
 20
7.4334596681
 30
0.0
 10
11.386399565
 20
7.4403318608
 30
0.0
 10
11.3858661644
 20
7.4472040535
 30
0.0
 10
11.3842949474
 20
7.4539103363
 30
0.0
 10
11.3817649275
 20
7.4603070651
 30
0.0
 10
11.378389162
 20
7.4662870016
 30
0.0
 10
11.374292312
 20
7.4717837975
 30
0.0
 10
11.3680412014
 20
7.4784098111
 30
0.0
 10
11.3625996453
 20
7.4826054757
 30
0.0
 10
11.3587771658
 20
7.48505322
 30
0.0
  0
SPLINE
  5
2FF
100
AcDbEntity
  8
0
100
AcDbSpline
 62
7
  6
CONTINUOUS
 70
0
 71
3
 72
21
 73
17
 74
0
 42
0.0000001
 43
0.0000001
 44
0.0000000001
 40
0.0
 40
0.0
 40
0.0
 40
0.0
 40
0.0447008214
 40
0.094949023
 40
0.1508040999
 40
0.2121878127
 40
0.2787317684
 40
0.3497116204
 40
0.5000000023
 40
0.6502883828
 40
0.7212682324
 40
0.7878121871
 40
0.8491959001
 40
0.905050977
 40
0.9552991786
 40
1.0
 40
1.0
 40
1.0
 40
1.0
 10
11.3587771658
 20
7.48505322
 30
0.0
 10
11.3584546789
 20
7.4837507158
 30
0.0
 10
11.3578350324
 20
7.4809676941
 30
0.0
 10
11.3570210737
 20
7.4765137235
 30
0.0
 10
11.3562850475
 20
7.471539356
 30
0.0
 10
11.3556445834
 20
7.4660590791
 30
0.0
 10
11.3551180053
 20
7.4601107638
 30
0.0
 10
11.3545836363
 20
7.4514868935
 30
0.0
 10
11.3543188537
 20
7.4403318602
 30
0.0
 10
11.3545836363
 20
7.429176827
 30
0.0
 10
11.3551180053
 20
7.4205529569
 30
0.0
 10
11.3556445834
 20
7.4146046417
 30
0.0
 10
11.3562850475
 20
7.4091243649
 30
0.0
 10
11.3570210737
 20
7.4041499973
 30
0.0
 10
11.3578350324
 20
7.3996960267
 30
0.0
 10
11.3584546789
 20
7.396913005
 30
0.0
 10
11.3587771658
 20
7.3956105009
 30
0.0
  0
SPLINE
  5
300
100
AcDbEntity
  8
0
100
AcDbSpline
 62
7
  6
CONTINUOUS
 70
0
 71
3
 72
21
 73
17
 74
0
 42
0.0000001
 43
0.0000001
 44
0.0000000001
 40
0.0
 40
0.0
 40
0.0
 40
0.0
 40
0.1237253044
 40
0.185946748
 40
0.2483814272
 40
0.3110351327
 40
0.3738910093
 40
0.4369035169
 40
0.499999992
 40
0.5630964687
 40
0.6261089812
 40
0.6889648634
 40
0.7516185694
 40
0.8140532469
 40
0.8762746928
 40
1.0
 40
1.0
 40
1.0
 40
1.0
 10
11.3190823498
 20
7.3956105009
 30
0.0
 10
11.3228412145
 20
7.3980622242
 30
0.0
 10
11.3281880105
 20
7.4022643305
 30
0.0
 10
11.3343190578
 20
7.4088854062
 30
0.0
 10
11.3383405606
 20
7.4143828047
 30
0.0
 10
11.3416536604
 20
7.4203626908
 30
0.0
 10
11.3441362085
 20
7.4267583758
 30
0.0
 10
11.3456776392
 20
7.4334625264
 30
0.0
 10
11.3462008642
 20
7.4403318596
 30
0.0
 10
11.3456776393
 20
7.447201193
 30
0.0
 10
11.3441362089
 20
7.4539053441
 30
0.0
 10
11.3416536606
 20
7.4603010294
 30
0.0
 10
11.3383405609
 20
7.4662809158
 30
0.0
 10
11.334319058
 20
7.4717783143
 30
0.0
 10
11.3281880107
 20
7.4783993902
 30
0.0
 10
11.3228412146
 20
7.4826014966
 30
0.0
 10
11.3190823498
 20
7.48505322
 30
0.0
  0
SPLINE
  5
301
100
AcDbEntity
  8
0
100
AcDbSpline
 62
7
  6
CONTINUOUS
 70
0
 71
3
 72
21
 73
17
 74
0
 42
0.0000001
 43
0.0000001
 44
0.0000000001
 40
0.0
 40
0.0
 40
0.0
 40
0.0
 40
0.0457794784
 40
0.0967112751
 40
0.1528938948
 40
0.2142892066
 40
0.2805735558
 40
0.3510751612
 40
0.4999999896
 40
0.6489248282
 40
0.71942644
 40
0.78571079
 40
0.8471061002
 40
0.9032887225
 40
0.9542205211
 40
1.0
 40
1.0
 40
1.0
 40
1.0
 10
11.3190823498
 20
7.48505322
 30
0.0
 10
11.318582091
 20
7.4837591597
 30
0.0
 10
11.3176179648
 20
7.4809890673
 30
0.0
 10
11.3163449827
 20
7.4765316403
 30
0.0
 10
11.3151941912
 20
7.4715540232
 30
0.0
 10
11.314193035
 20
7.4660707208
 30
0.0
 10
11.3133700231
 20
7.4601194725
 30
0.0
 10
11.3125355605
 20
7.4514990022
 30
0.0
 10
11.3121207782
 20
7.440331861
 30
0.0
 10
11.3125355604
 20
7.4291647197
 30
0.0
 10
11.313370023
 20
7.4205442489
 30
0.0
 10
11.3141930349
 20
7.4145930004
 30
0.0
 10
11.3151941911
 20
7.4091096979
 30
0.0
 10
11.3163449827
 20
7.4041320807
 30
0.0
 10
11.3176179647
 20
7.3996746536
 30
0.0
 10
11.3185820909
 20
7.3969045612
 30
0.0
 10
11.3190823498
 20
7.3956105009
 30
0.0
  0
SPLINE
  5
302
100
AcDbEntity
  8
0
100
AcDbSpline
 62
7
  6
CONTINUOUS
 70
0
 71
3
 72
23
 73
19
 74
0
 42
0.0000001
 43
0.0000001
 44
0.0000000001
 40
0.0
 40
0.0
 40
0.0
 40
0.0
 40
0.0612258742
 40
0.1228147932
 40
0.1847609708
 40
0.2471083899
 40
0.309864315
 40
0.3729958211
 40
0.4364187859
 40
0.499999992
 40
0.5635811996
 40
0.6270041693
 40
0.690135681
 40
0.7528916067
 40
0.815239024
 40
0.8771852041
 40
0.9387741251
 40
1.0
 40
1.0
 40
1.0
 40
1.0
 10
11.2771993282
 20
7.3956105009
 30
0.0
 10
11.2790298678
 20
7.3968371361
 30
0.0
 10
11.282594416
 20
7.3994633343
 30
0.0
 10
11.287549509
 20
7.4039139995
 30
0.0
 10
11.2920372437
 20
7.4088937627
 30
0.0
 10
11.2959500286
 20
7.4143914563
 30
0.0
 10
11.2991735119
 20
7.4203713128
 30
0.0
 10
11.301588045
 20
7.4267654129
 30
0.0
 10
11.3030868892
 20
7.4334665393
 30
0.0
 10
11.3035955673
 20
7.4403318596
 30
0.0
 10
11.3030868893
 20
7.44719718
 30
0.0
 10
11.3015880453
 20
7.453898307
 30
0.0
 10
11.2991735121
 20
7.4602924074
 30
0.0
 10
11.2959500289
 20
7.4662722641
 30
0.0
 10
11.292037244
 20
7.4717699578
 30
0.0
 10
11.2875495092
 20
7.4767497211
 30
0.0
 10
11.2825944161
 20
7.4812003865
 30
0.0
 10
11.2790298679
 20
7.4838265847
 30
0.0
 10
11.2771993282
 20
7.48505322
 30
0.0
  0
SPLINE
  5
303
100
AcDbEntity
  8
0
100
AcDbSpline
 62
7
  6
CONTINUOUS
 70
0
 71
3
 72
23
 73
19
 74
0
 42
0.0000001
 43
0.0000001
 44
0.0000000001
 40
0.0
 40
0.0
 40
0.0
 40
0.0
 40
0.0471886252
 40
0.0990252359
 40
0.1556472535
 40
0.2170620737
 40
0.2830013921
 40
0.3528618685
 40
0.4256470265
 40
0.4999999897
 40
0.5743529555
 40
0.6471381209
 40
0.7169986037
 40
0.7829379229
 40
0.8443527415
 40
0.9009747617
 40
0.9528113742
 40
1.0
 40
1.0
 40
1.0
 40
1.0
 10
11.2771993282
 20
7.48505322
 30
0.0
 10
11.2765284258
 20
7.4837690951
 30
0.0
 10
11.2752313767
 20
7.4810155122
 30
0.0
 10
11.2735077344
 20
7.4765546681
 30
0.0
 10
11.271949874
 20
7.4715734606
 30
0.0
 10
11.2705948038
 20
7.4660864735
 30
0.0
 10
11.2694811278
 20
7.4601315231
 30
0.0
 10
11.2686490411
 20
7.453778563
 30
0.0
 10
11.2681335733
 20
7.4471330261
 30
0.0
 10
11.2679588363
 20
7.4403318613
 30
0.0
 10
11.2681335733
 20
7.4335306962
 30
0.0
 10
11.2686490409
 20
7.4268851588
 30
0.0
 10
11.2694811277
 20
7.4205321983
 30
0.0
 10
11.2705948037
 20
7.4145772477
 30
0.0
 10
11.2719498739
 20
7.4090902605
 30
0.0
 10
11.2735077344
 20
7.4041090529
 30
0.0
 10
11.2752313767
 20
7.3996482086
 30
0.0
 10
11.2765284258
 20
7.3968946257
 30
0.0
 10
11.2771993282
 20
7.3956105009
 30
0.0
  0
SPLINE
  5
304
100
AcDbEntity
  8
0
100
AcDbSpline
 62
7
  6
CONTINUOUS
 70
0
 71
3
 72
23
 73
19
 74
0
 42
0.0000001
 43
0.0000001
 44
0.0000000001
 40
0.0
 40
0.0
 40
0.0
 40
0.0
 40
0.0604571897
 40
0.1214826008
 40
0.1830956248
 40
0.2453561588
 40
0.3082716654
 40
0.3717868364
 40
0.4357667413
 40
0.4999999919
 40
0.564233244
 40
0.628213154
 40
0.6917283306
 40
0.7546438378
 40
0.81690437
 40
0.8785173965
 40
0.9395428096
 40
1.0
 40
1.0
 40
1.0
 40
1.0
 10
11.2334653374
 20
7.3956105009
 30
0.0
 10
11.2352338391
 20
7.3968390675
 30
0.0
 10
11.2386779898
 20
7.3994705367
 30
0.0
 10
11.2434577404
 20
7.4039229604
 30
0.0
 10
11.2477860239
 20
7.4089042786
 30
0.0
 10
11.2515589115
 20
7.4144028281
 30
0.0
 10
11.2546662252
 20
7.4203823244
 30
0.0
 10
11.256992936
 20
7.4267743326
 30
0.0
 10
11.2584368095
 20
7.4334715777
 30
0.0
 10
11.2589267387
 20
7.4403318596
 30
0.0
 10
11.2584368096
 20
7.4471921416
 30
0.0
 10
11.2569929363
 20
7.4538893872
 30
0.0
 10
11.2546662255
 20
7.4602813958
 30
0.0
 10
11.2515589117
 20
7.4662608923
 30
0.0
 10
11.2477860241
 20
7.4717594419
 30
0.0
 10
11.2434577406
 20
7.4767407602
 30
0.0
 10
11.2386779899
 20
7.4811931841
 30
0.0
 10
11.2352338391
 20
7.4838246533
 30
0.0
 10
11.2334653374
 20
7.48505322
 30
0.0
  0
SPLINE
  5
305
100
AcDbEntity
  8
0
100
AcDbSpline
 62
7
  6
CONTINUOUS
 70
0
 71
3
 72
21
 73
17
 74
0
 42
0.0000001
 43
0.0000001
 44
0.0000000001
 40
0.0
 40
0.0
 40
0.0
 40
0.0
 40
0.1016534721
 40
0.1588182803
 40
0.2202851744
 40
0.2858445797
 40
0.3549709339
 40
0.4267680767
 40
0.4999999899
 40
0.5732319056
 40
0.6450290557
 40
0.7141554162
 40
0.7797148222
 40
0.8411817147
 40
0.8983465255
 40
1.0
 40
1.0
 40
1.0
 40
1.0
 10
11.2334653374
 20
7.48505322
 30
0.0
 10
11.2317303447
 20
7.4824008543
 30
0.0
 10
11.2294086725
 20
7.4779939543
 30
0.0
 10
11.226900953
 20
7.4715967678
 30
0.0
 10
11.2252012907
 20
7.4661052036
 30
0.0
 10
11.2238048368
 20
7.4601462954
 30
0.0
 10
11.2227614162
 20
7.4537886394
 30
0.0
 10
11.2221150663
 20
7.447138164
 30
0.0
 10
11.221895959
 20
7.4403318613
 30
0.0
 10
11.2221150663
 20
7.4335255583
 30
0.0
 10
11.2227614161
 20
7.4268750824
 30
0.0
 10
11.2238048367
 20
7.420517426
 30
0.0
 10
11.2252012906
 20
7.4145585176
 30
0.0
 10
11.2269009529
 20
7.4090669533
 30
0.0
 10
11.2294086724
 20
7.4026697668
 30
0.0
 10
11.2317303446
 20
7.3982628665
 30
0.0
 10
11.2334653374
 20
7.3956105009
 30
0.0
  0
SPLINE
  5
306
100
AcDbEntity
  8
0
100
AcDbSpline
 62
7
  6
CONTINUOUS
 70
0
 71
3
 72
23
 73
19
 74
0
 42
0.0000001
 43
0.0000001
 44
0.0000000001
 40
0.0
 40
0.0
 40
0.0
 40
0.0
 40
0.0595068635
 40
0.1198397764
 40
0.1810473262
 40
0.2432065189
 40
0.3063223695
 40
0.3703099351
 40
0.4349711975
 40
0.4999999918
 40
0.5650287876
 40
0.6296900552
 40
0.6936776265
 40
0.7567934777
 40
0.8189526687
 40
0.8801602209
 40
0.9404931358
 40
1.0
 40
1.0
 40
1.0
 40
1.0
 10
11.1882325171
 20
7.3956105009
 30
0.0
 10
11.1899253231
 20
7.3968415867
 30
0.0
 10
11.1932224219
 20
7.3994798183
 30
0.0
 10
11.1977881873
 20
7.4039343177
 30
0.0
 10
11.2019218967
 20
7.408917369
 30
0.0
 10
11.2055241561
 20
7.4144167269
 30
0.0
 10
11.2084899227
 20
7.4203955526
 30
0.0
 10
11.2107097832
 20
7.4267848943
 30
0.0
 10
11.2120868794
 20
7.4334774862
 30
0.0
 10
11.2125540561
 20
7.4403318596
 30
0.0
 10
11.2120868795
 20
7.4471862332
 30
0.0
 10
11.2107097835
 20
7.4538788255
 30
0.0
 10
11.2084899229
 20
7.4602681676
 30
0.0
 10
11.2055241564
 20
7.4662469935
 30
0.0
 10
11.2019218969
 20
7.4717463514
 30
0.0
 10
11.1977881875
 20
7.4767294029
 30
0.0
 10
11.193222422
 20
7.4811839024
 30
0.0
 10
11.1899253231
 20
7.4838221341
 30
0.0
 10
11.1882325171
 20
7.48505322
 30
0.0
  0
SPLINE
  5
307
100
AcDbEntity
  8
0
100
AcDbSpline
 62
7
  6
CONTINUOUS
 70
0
 71
3
 72
16
 73
12
 74
0
 42
0.0000001
 43
0.0000001
 44
0.0000000001
 40
0.0
 40
0.0
 40
0.0
 40
0.0
 40
0.1246138674
 40
0.2492608512
 40
0.3739593705
 40
0.4987443638
 40
0.6236572858
 40
0.6861916333
 40
0.7487983064
 40
0.8742245338
 40
1.0
 40
1.0
 40
1.0
 40
1.0
 10
10.7771663007
 20
8.5193712005
 30
0.0
 10
10.7818460093
 20
8.5191263655
 30
0.0
 10
10.7912035257
 20
8.5185727405
 30
0.0
 10
10.8052264373
 20
8.5175044997
 30
0.0
 10
10.8192316105
 20
8.5161522535
 30
0.0
 10
10.83321145
 20
8.514469878
 30
0.0
 10
10.8448249023
 20
8.5127250551
 30
0.0
 10
10.8540841925
 20
8.5110828783
 30
0.0
 10
10.8633297009
 20
8.5092622025
 30
0.0
 10
10.8748335819
 20
8.5066125019
 30
0.0
 10
10.8839184059
 20
8.5039997855
 30
0.0
 10
10.8884196089
 20
8.5025471695
 30
0.0
  0
SPLINE
  5
308
100
AcDbEntity
  8
0
100
AcDbSpline
 62
7
  6
CONTINUOUS
 70
0
 71
3
 72
21
 73
17
 74
0
 42
0.0000001
 43
0.0000001
 44
0.0000000001
 40
0.0
 40
0.0
 40
0.0
 40
0.0
 40
0.1247718284
 40
0.2495405141
 40
0.3119267392
 40
0.3743157764
 40
0.4991107025
 40
0.5615287302
 40
0.6239629013
 40
0.6864228715
 40
0.7489259443
 40
0.8114931866
 40
0.8428161607
 40
0.8741755664
 40
0.937000351
 40
1.0
 40
1.0
 40
1.0
 40
1.0
 10
11.3511353776
 20
8.5206329612
 30
0.0
 10
11.3605477344
 20
8.5208622053
 30
0.0
 10
11.3793768742
 20
8.5211388419
 30
0.0
 10
11.4029155076
 20
8.5211091867
 30
0.0
 10
11.4217442858
 20
8.5208501742
 30
0.0
 10
11.4405719279
 20
8.5204255924
 30
0.0
 10
11.459395113
 20
8.5197082758
 30
0.0
 10
11.4782016424
 20
8.5186070624
 30
0.0
 10
11.4922966296
 20
8.5175415459
 30
0.0
 10
11.5063739152
 20
8.5161912648
 30
0.0
 10
11.5204259487
 20
8.5145090593
 30
0.0
 10
11.5320994913
 20
8.5127618253
 30
0.0
 10
11.5414068271
 20
8.5111161601
 30
0.0
 10
11.550700393
 20
8.5092908401
 30
0.0
 10
11.5622639293
 20
8.5066319052
 30
0.0
 10
11.5713954754
 20
8.5040071856
 30
0.0
 10
11.5759196089
 20
8.5025471695
 30
0.0
  0
ENDSEC
  0
SECTION
  2
OBJECTS
  0
DICTIONARY
  5
C
100
AcDbDictionary
280
0
281
1
  3
ACAD_GROUP
350
D
  3
ACAD_MLINESTYLE
350
17
  3
ACAD_LAYOUT
350
1A
  3
ACAD_PLOTSETTINGS
350
19
  3
ACAD_PLOTSTYLENAME
350
E
  0
DICTIONARY
  5
D
102
{ACAD_REACTORS
330
C
102
}
100
AcDbDictionary
280
0
281
1
  0
ACDBDICTIONARYWDFLT
  5
E
102
{ACAD_REACTORS
330
C
102
}
100
AcDbDictionary
281
1
  3
Normal
350
F
100
AcDbDictionaryWithDefault
340
F
  0
DICTIONARY
  5
17
102
{ACAD_REACTORS
330
C
102
}
100
AcDbDictionary
280
0
281
1
  3
Standard
350
18
  0
DICTIONARY
  5
19
102
{ACAD_REACTORS
330
C
102
}
100
AcDbDictionary
281
1
  0
DICTIONARY
  5
1A
102
{ACAD_REACTORS
330
C
102
}
100
AcDbDictionary
281
1
  3
Model
350
309
  3
Layout1
350
30A
  0
ACDBPLACEHOLDER
  5
F
102
{ACAD_REACTORS
330
E
102
}
  0
MLINESTYLE
  5
18
102
{ACAD_REACTORS
330
17
102
}
100
AcDbMlineStyle
  2
STANDARD
 70
0
  3

 62
256
 51
90.0
 52
90.0
 71
2
 49
0.5
 62
256
  6
BYLAYER
 49
-0.5
 62
256
  6
BYLAYER
  0
LAYOUT
  5
309
102
{ACAD_REACTORS
330
1A
102
}
100
AcDbPlotSettings
  1

  2
none_device
  4
ANSI_C_(22.00_x_17.00_Inches)
  6

 40
0.0
 41
0.0
 42
0.0
 43
0.0
 44
558.8
 45
431.8
 46
0.0
 47
0.0
 48
0.0
 49
0.0
140
0.0
141
0.0
142
1.0
143
1.0
 70
1024
 72
0
 73
0
 74
0
  7

 75
0
147
1.0
148
0.0
149
0.0
100
AcDbLayout
  1
Model
 70
0
 71
0
 10
0.0
 20
0.0
 11
22.0
 21
17.0
 12
0.0
 22
0.0
 32
0.0
 14
0.0
 24
0.0
 34
0.0
 15
0.0
 25
0.0
 35
0.0
146
0.0
 13
0.0
 23
0.0
 33
0.0
 16
1.0
 26
0.0
 36
0.0
 17
0.0
 27
1.0
 37
0.0
 76
0
330
205
345
0
346
0
  0
LAYOUT
  5
30A
102
{ACAD_REACTORS
330
1A
102
}
100
AcDbPlotSettings
  1

  2
none_device
  4
ANSI_C_(22.00_x_17.00_Inches)
  6

 40
0.0
 41
0.0
 42
0.0
 43
0.0
 44
558.8
 45
431.8
 46
0.0
 47
0.0
 48
0.0
 49
0.0
140
0.0
141
0.0
142
1.0
143
1.0
 70
0
 72
0
 73
0
 74
0
  7

 75
0
147
1.0
148
0.0
149
0.0
100
AcDbLayout
  1
Layout1
 70
0
 71
1
 10
0.0
 20
0.0
 11
22.0
 21
17.0
 12
0.0
 22
0.0
 32
0.0
 14
0.0
 24
0.0
 34
0.0
 15
0.0
 25
0.0
 35
0.0
146
0.0
 13
0.0
 23
0.0
 33
0.0
 16
1.0
 26
0.0
 36
0.0
 17
0.0
 27
1.0
 37
0.0
 76
0
330
206
345
0
346
0
  0
ENDSEC
  0
EOF
