999
DXF file: 4-2542bp_RIGHT.dxf
999
Pro/ENGINEER 2013150 by Parametric Technology Corporation
  0
SECTION
  2
HEADER
  9
$ACADVER
  1
AC1021
  9
$DWGCODEPAGE
  3
ANSI_1252
  9
$EXTMAX
 10
11.0
 20
8.5
 30
0.0
  9
$EXTMIN
 10
0.0
 20
0.0
 30
0.0
  9
$LIMMIN
 10
0.0
 20
0.0
  9
$LIMMAX
 10
11.0
 20
8.5
  9
$VIEWCTR
 10
5.5
 20
4.25
  9
$VIEWSIZE
 40
8.5
  9
$CLAYER
  8
0
  9
$LTSCALE
 40
0.605
  9
$CELTYPE
  6
BYLAYER
  9
$DIMSCALE
 40
1.0
  9
$DIMASZ
 40
0.1
  9
$DIMEXO
 40
0.0625
  9
$DIMDLI
 40
0.418
  9
$DIMEXE
 40
0.125
  9
$DIMCEN
 40
0.099
  9
$DIMLFAC
 40
1.0
  9
$DIMBLK
  1
_FILLED
  9
$DIMTXT
 40
0.08
  9
$DIMTOL
 70
1
  9
$DIMLIM
 70
0
  9
$DIMTFAC
 40
1.0
  9
$DIMTP
 40
0.001
  9
$DIMTM
 40
0.001
  9
$DIMGAP
 40
0.09
  9
$DIMDSEP
 70
46
  9
$PDMODE
 70
3
  9
$PDSIZE
 40
0.06
  9
$HANDSEED
  5
287
  9
$TILEMODE
 70
1
  9
$MEASUREMENT
 70
0
  9
$INSUNITS
 70
1
  0
ENDSEC
  0
SECTION
  2
CLASSES
  0
CLASS
  1
ACDBDICTIONARYWDFLT
  2
AcDbDictionaryWithDefault
  3
AutoCAD 2000
 90
0
 91
1
280
0
281
0
  0
CLASS
  1
ACDBPLACEHOLDER
  2
AcDbPlaceHolder
  3
AutoCAD 2000
 90
0
 91
1
280
0
281
0
  0
CLASS
  1
LAYOUT
  2
AcDbLayout
  3
AutoCAD 2000
 90
0
 91
0
280
0
281
0
  0
ENDSEC
  0
SECTION
  2
TABLES
  0
TABLE
  2
VPORT
  5
8
100
AcDbSymbolTable
 70
2
  0
VPORT
  5
1F4
100
AcDbSymbolTableRecord
100
AcDbViewportTableRecord
  2
*ACTIVE
 70
0
 10
0.0
 20
0.0
 11
1.0
 21
1.0
 12
5.5
 22
4.25
 13
0.0
 23
0.0
 14
1.0
 24
1.0
 15
0.0
 25
0.0
 16
0.0
 26
0.0
 36
1.0
 17
0.0
 27
0.0
 37
0.0
 40
8.5
 41
1.2941176471
 42
50.0
 43
0.0
 44
0.0
 50
0.0
 51
0.0
 71
0
 72
100
 73
1
 74
1
 75
0
 76
0
 77
0
 78
0
  0
ENDTAB
  0
TABLE
  2
LTYPE
  5
5
100
AcDbSymbolTable
 70
6
  0
LTYPE
  5
14
100
AcDbSymbolTableRecord
100
AcDbLinetypeTableRecord
  2
BYBLOCK
 70
0
  3

 72
65
 73
0
 40
0.0
  0
LTYPE
  5
15
100
AcDbSymbolTableRecord
100
AcDbLinetypeTableRecord
  2
BYLAYER
 70
0
  3

 72
65
 73
0
 40
0.0
  0
LTYPE
  5
16
100
AcDbSymbolTableRecord
100
AcDbLinetypeTableRecord
  2
CONTINUOUS
 70
64
  3
Solid line
 72
65
 73
0
 40
0.0
  0
LTYPE
  5
1F5
100
AcDbSymbolTableRecord
100
AcDbLinetypeTableRecord
  2
CENTER
 70
64
  3
____ _ ____ _ ____ _ ____ _ ____ _ ____ _ ____
 72
65
 73
4
 40
0.6
 49
0.375
 74
0
 49
-0.075
 74
0
 49
0.075
 74
0
 49
-0.075
 74
0
  0
LTYPE
  5
1F6
100
AcDbSymbolTableRecord
100
AcDbLinetypeTableRecord
  2
HIDDEN
 70
64
  3
- - - - - - - - - - - - - - - - - - - -
 72
65
 73
2
 40
0.2
 49
0.1
 74
0
 49
-0.1
 74
0
  0
LTYPE
  5
1F7
100
AcDbSymbolTableRecord
100
AcDbLinetypeTableRecord
  2
PHANTOM
 70
64
  3
_____ _ _ _____ _ _ _____ _ _ _____
 72
65
 73
6
 40
0.8
 49
0.45
 74
0
 49
-0.05
 74
0
 49
0.1
 74
0
 49
-0.05
 74
0
 49
0.1
 74
0
 49
-0.05
 74
0
  0
LTYPE
  5
1F8
100
AcDbSymbolTableRecord
100
AcDbLinetypeTableRecord
  2
DOT
 70
64
  3
. . . . . . . . . . . . . . . . . . . .
 72
65
 73
2
 40
0.2
 49
0.1
 74
0
 49
-0.1
 74
0
  0
LTYPE
  5
1F9
100
AcDbSymbolTableRecord
100
AcDbLinetypeTableRecord
  2
DASHED
 70
64
  3
- - - - - - - - - - - - - - - - - - - -
 72
65
 73
2
 40
0.2
 49
0.1
 74
0
 49
-0.1
 74
0
  0
ENDTAB
  0
TABLE
  2
LAYER
  5
2
100
AcDbSymbolTable
 70
36
  0
LAYER
  5
10
100
AcDbSymbolTableRecord
100
AcDbLayerTableRecord
  2
0
 70
0
 62
7
  6
CONTINUOUS
370
-3
390
F
  0
LAYER
  5
1FA
100
AcDbSymbolTableRecord
100
AcDbLayerTableRecord
  2
DEFAULT_1
 70
0
 62
7
  6
CENTER
370
-3
390
F
  0
LAYER
  5
1FB
100
AcDbSymbolTableRecord
100
AcDbLayerTableRecord
  2
DEFAULT_2
 70
0
 62
8
  6
HIDDEN
370
-3
390
F
  0
LAYER
  5
1FC
100
AcDbSymbolTableRecord
100
AcDbLayerTableRecord
  2
DEFAULT_3
 70
0
 62
7
  6
PHANTOM
370
-3
390
F
  0
LAYER
  5
1FD
100
AcDbSymbolTableRecord
100
AcDbLayerTableRecord
  2
ALL_ASSEMBLY_MEMBERS
 70
0
 62
7
  6
CONTINUOUS
370
-3
390
F
  0
LAYER
  5
1FE
100
AcDbSymbolTableRecord
100
AcDbLayerTableRecord
  2
ALL_FEATURES
 70
0
 62
7
  6
CONTINUOUS
370
-3
390
F
  0
LAYER
  5
1FF
100
AcDbSymbolTableRecord
100
AcDbLayerTableRecord
  2
AXES_FEATURES
 70
0
 62
7
  6
CONTINUOUS
370
-3
390
F
  0
LAYER
  5
200
100
AcDbSymbolTableRecord
100
AcDbLayerTableRecord
  2
CHAMFER_FEATURES
 70
0
 62
7
  6
CONTINUOUS
370
-3
390
F
  0
LAYER
  5
201
100
AcDbSymbolTableRecord
100
AcDbLayerTableRecord
  2
COSMETIC_SKETCHES
 70
0
 62
7
  6
CONTINUOUS
370
-3
390
F
  0
LAYER
  5
202
100
AcDbSymbolTableRecord
100
AcDbLayerTableRecord
  2
CUT_FEATURES
 70
0
 62
7
  6
CONTINUOUS
370
-3
390
F
  0
LAYER
  5
203
100
AcDbSymbolTableRecord
100
AcDbLayerTableRecord
  2
DATUM_CURVES
 70
0
 62
7
  6
CONTINUOUS
370
-3
390
F
  0
LAYER
  5
204
100
AcDbSymbolTableRecord
100
AcDbLayerTableRecord
  2
DATUM_PLANES
 70
0
 62
7
  6
CONTINUOUS
370
-3
390
F
  0
LAYER
  5
205
100
AcDbSymbolTableRecord
100
AcDbLayerTableRecord
  2
DATUM_POINTS
 70
0
 62
7
  6
CONTINUOUS
370
-3
390
F
  0
LAYER
  5
206
100
AcDbSymbolTableRecord
100
AcDbLayerTableRecord
  2
DEFAULT_COORDINATE_SYSTEM
 70
0
 62
7
  6
CONTINUOUS
370
-3
390
F
  0
LAYER
  5
207
100
AcDbSymbolTableRecord
100
AcDbLayerTableRecord
  2
DEFAULT_DATUM_AXES
 70
0
 62
7
  6
CONTINUOUS
370
-3
390
F
  0
LAYER
  5
208
100
AcDbSymbolTableRecord
100
AcDbLayerTableRecord
  2
DEFAULT_DATUM_CURVES
 70
0
 62
7
  6
CONTINUOUS
370
-3
390
F
  0
LAYER
  5
209
100
AcDbSymbolTableRecord
100
AcDbLayerTableRecord
  2
DEFAULT_DATUM_PLANES
 70
0
 62
7
  6
CONTINUOUS
370
-3
390
F
  0
LAYER
  5
20A
100
AcDbSymbolTableRecord
100
AcDbLayerTableRecord
  2
DEFAULT_SURFACES
 70
0
 62
7
  6
CONTINUOUS
370
-3
390
F
  0
LAYER
  5
20B
100
AcDbSymbolTableRecord
100
AcDbLayerTableRecord
  2
DIMENSIONS
 70
0
 62
7
  6
CONTINUOUS
370
-3
390
F
  0
LAYER
  5
20C
100
AcDbSymbolTableRecord
100
AcDbLayerTableRecord
  2
HOLE_FEATURES
 70
0
 62
7
  6
CONTINUOUS
370
-3
390
F
  0
LAYER
  5
20D
100
AcDbSymbolTableRecord
100
AcDbLayerTableRecord
  2
NONE
 70
0
 62
7
  6
CONTINUOUS
370
-3
390
F
  0
LAYER
  5
20E
100
AcDbSymbolTableRecord
100
AcDbLayerTableRecord
  2
PART_REFERENCE_DIMENSIONS
 70
0
 62
7
  6
CONTINUOUS
370
-3
390
F
  0
LAYER
  5
20F
100
AcDbSymbolTableRecord
100
AcDbLayerTableRecord
  2
PLATED_AREA
 70
0
 62
7
  6
CONTINUOUS
370
-3
390
F
  0
LAYER
  5
210
100
AcDbSymbolTableRecord
100
AcDbLayerTableRecord
  2
PLATED_SURFACE_AREA
 70
0
 62
7
  6
CONTINUOUS
370
-3
390
F
  0
LAYER
  5
211
100
AcDbSymbolTableRecord
100
AcDbLayerTableRecord
  2
POINTS
 70
0
 62
7
  6
CONTINUOUS
370
-3
390
F
  0
LAYER
  5
212
100
AcDbSymbolTableRecord
100
AcDbLayerTableRecord
  2
PROTRUSION
 70
0
 62
7
  6
CONTINUOUS
370
-3
390
F
  0
LAYER
  5
213
100
AcDbSymbolTableRecord
100
AcDbLayerTableRecord
  2
PROTRUSION_FEATURES
 70
0
 62
7
  6
CONTINUOUS
370
-3
390
F
  0
LAYER
  5
214
100
AcDbSymbolTableRecord
100
AcDbLayerTableRecord
  2
QUILT
 70
0
 62
7
  6
CONTINUOUS
370
-3
390
F
  0
LAYER
  5
215
100
AcDbSymbolTableRecord
100
AcDbLayerTableRecord
  2
QUILTS
 70
0
 62
7
  6
CONTINUOUS
370
-3
390
F
  0
LAYER
  5
216
100
AcDbSymbolTableRecord
100
AcDbLayerTableRecord
  2
REFERENCE_DIMENSIONS
 70
0
 62
7
  6
CONTINUOUS
370
-3
390
F
  0
LAYER
  5
217
100
AcDbSymbolTableRecord
100
AcDbLayerTableRecord
  2
ROUND_FEATURES
 70
0
 62
7
  6
CONTINUOUS
370
-3
390
F
  0
LAYER
  5
218
100
AcDbSymbolTableRecord
100
AcDbLayerTableRecord
  2
SHELL_FEATURES
 70
0
 62
7
  6
CONTINUOUS
370
-3
390
F
  0
LAYER
  5
219
100
AcDbSymbolTableRecord
100
AcDbLayerTableRecord
  2
SURFACE_FEATURES
 70
0
 62
7
  6
CONTINUOUS
370
-3
390
F
  0
LAYER
  5
21A
100
AcDbSymbolTableRecord
100
AcDbLayerTableRecord
  2
WETTED_SURFACES
 70
0
 62
7
  6
CONTINUOUS
370
-3
390
F
  0
LAYER
  5
21B
100
AcDbSymbolTableRecord
100
AcDbLayerTableRecord
  2
XSEC_DATUMS
 70
0
 62
7
  6
CONTINUOUS
370
-3
390
F
  0
ENDTAB
  0
TABLE
  2
STYLE
  5
3
100
AcDbSymbolTable
 70
1
  0
STYLE
  5
11
100
AcDbSymbolTableRecord
100
AcDbTextStyleTableRecord
  2
STANDARD
 70
0
 40
0.0
 41
0.8
 50
0.0
 71
0
 42
0.2
  3
txt
  4

  0
STYLE
  5
21C
100
AcDbSymbolTableRecord
100
AcDbTextStyleTableRecord
  2
TEXTSTYLE_1
 70
0
 40
0.0
 41
0.8
 50
0.0
 71
0
 42
0.2
  3
gdt
  4

  0
ENDTAB
  0
TABLE
  2
VIEW
  5
6
100
AcDbSymbolTable
 70
0
  0
ENDTAB
  0
TABLE
  2
UCS
  5
7
100
AcDbSymbolTable
 70
0
  0
ENDTAB
  0
TABLE
  2
APPID
  5
9
100
AcDbSymbolTable
 70
1
  0
APPID
  5
21D
100
AcDbSymbolTableRecord
100
AcDbRegAppTableRecord
  2
ACAD
 70
0
  0
ENDTAB
  0
TABLE
  2
BLOCK_RECORD
  5
1
100
AcDbSymbolTable
 70
0
  0
BLOCK_RECORD
  5
21E
100
AcDbSymbolTableRecord
100
AcDbBlockTableRecord
  2
*Model_Space
  0
BLOCK_RECORD
  5
21F
100
AcDbSymbolTableRecord
100
AcDbBlockTableRecord
  2
*Paper_Space
  0
ENDTAB
  0
TABLE
  2
DIMSTYLE
  5
A
100
AcDbSymbolTable
 70
1
100
AcDbDimStyleTable
 71
0
  0
DIMSTYLE
105
220
100
AcDbSymbolTableRecord
100
AcDbDimStyleTableRecord
  2
STANDARD
 70
0
  3

  4

 40
1.0
 41
0.1
 42
0.0625
 43
0.38
 44
0.125
 45
0.0
 46
0.0
 47
0.001
 48
0.001
140
0.08
141
0.09
142
0.0
143
25.4
144
1.0
145
0.0
146
1.0
147
0.09
 71
1.0
 72
0.0
 73
1
 74
1
 75
0
 76
0
 77
0
 78
4
170
0
171
2
172
0
173
0
174
0
175
0
176
0
177
0
178
0
270
2
271
3
272
3
273
2
274
2
275
0
280
0
281
0
282
0
283
1
284
4
285
0
286
0
287
3
288
0
340
11
278
46
  0
ENDTAB
  0
ENDSEC
  0
SECTION
  2
BLOCKS
  0
BLOCK
  5
20
100
AcDbEntity
  8
0
100
AcDbBlockBegin
  2
*Model_Space
 70
0
 10
0.0
 20
0.0
 30
0.0
  3
*Model_Space
  1

  0
ENDBLK
  5
21
100
AcDbEntity
  8
0
100
AcDbBlockEnd
  0
BLOCK
  5
1C
100
AcDbEntity
  8
0
100
AcDbBlockBegin
  2
*Paper_Space
 70
0
 10
0.0
 20
0.0
 30
0.0
  3
*Paper_Space
  1

  0
ENDBLK
  5
1D
100
AcDbEntity
  8
0
100
AcDbBlockEnd
  0
ENDSEC
  0
SECTION
  2
ENTITIES
  0
LINE
  5
221
100
AcDbEntity
  8
0
100
AcDbLine
 62
7
  6
CONTINUOUS
 10
0.0
 20
0.0
 11
0.0
 21
8.5
  0
LINE
  5
222
100
AcDbEntity
  8
0
100
AcDbLine
 62
7
  6
CONTINUOUS
 10
0.0
 20
0.0
 11
11.0
 21
0.0
  0
LINE
  5
223
100
AcDbEntity
  8
0
100
AcDbLine
 62
7
  6
CONTINUOUS
 10
0.0
 20
8.5
 11
11.0
 21
8.5
  0
LINE
  5
224
100
AcDbEntity
  8
0
100
AcDbLine
 62
7
  6
CONTINUOUS
 10
11.0
 20
0.0
 11
11.0
 21
8.5
  0
LINE
  5
225
100
AcDbEntity
  8
ALL_ASSEMBLY_MEMBERS
100
AcDbLine
 62
7
  6
CONTINUOUS
 10
2.0783704249
 20
2.4494923055
 11
2.0783704249
 21
2.2432423055
  0
LINE
  5
226
100
AcDbEntity
  8
ALL_ASSEMBLY_MEMBERS
100
AcDbLine
 62
9
  6
CONTINUOUS
 10
2.1226204249
 20
2.2207423055
 11
2.1226204249
 21
2.4719923055
  0
LINE
  5
227
100
AcDbEntity
  8
ALL_ASSEMBLY_MEMBERS
100
AcDbLine
 62
7
  6
CONTINUOUS
 10
2.2189954249
 20
2.2207423055
 11
2.2189954249
 21
2.0369923055
  0
LINE
  5
228
100
AcDbEntity
  8
ALL_ASSEMBLY_MEMBERS
100
AcDbLine
 62
7
  6
CONTINUOUS
 10
5.2246204249
 20
1.6469923055
 11
5.4533704249
 21
1.6469923055
  0
LINE
  5
229
100
AcDbEntity
  8
ALL_ASSEMBLY_MEMBERS
100
AcDbLine
 62
9
  6
CONTINUOUS
 10
5.2021204249
 20
1.6694923055
 11
5.4533704249
 21
1.6694923055
  0
LINE
  5
22A
100
AcDbEntity
  8
ALL_ASSEMBLY_MEMBERS
100
AcDbLine
 62
7
  6
CONTINUOUS
 10
2.6839954249
 20
2.0332423055
 11
2.2227454249
 21
2.0332423055
  0
LINE
  5
22B
100
AcDbEntity
  8
ALL_ASSEMBLY_MEMBERS
100
AcDbLine
 62
9
  6
CONTINUOUS
 10
2.2189954249
 20
2.0369923055
 11
2.6877454249
 21
2.0369923055
  0
LINE
  5
22C
100
AcDbEntity
  8
ALL_ASSEMBLY_MEMBERS
100
AcDbLine
 62
7
  6
CONTINUOUS
 10
2.6877454249
 20
2.2207423055
 11
2.6877454249
 21
2.0369923055
  0
LINE
  5
22D
100
AcDbEntity
  8
ALL_ASSEMBLY_MEMBERS
100
AcDbLine
 62
9
  6
CONTINUOUS
 10
5.2246204249
 20
2.1907423055
 11
5.2021204249
 21
2.1907423055
  0
LINE
  5
22E
100
AcDbEntity
  8
ALL_ASSEMBLY_MEMBERS
100
AcDbLine
 62
7
  6
CONTINUOUS
 10
2.1008704249
 20
2.2207423055
 11
5.1721204249
 21
2.2207423055
  0
LINE
  5
22F
100
AcDbEntity
  8
ALL_ASSEMBLY_MEMBERS
100
AcDbLine
 62
9
  6
CONTINUOUS
 10
2.0783704249
 20
2.2432423055
 11
5.1721204249
 21
2.2432423055
  0
LINE
  5
230
100
AcDbEntity
  8
ALL_ASSEMBLY_MEMBERS
100
AcDbLine
 62
9
  6
CONTINUOUS
 10
5.4533704249
 20
2.4494923055
 11
2.0783704249
 21
2.4494923055
  0
LINE
  5
231
100
AcDbEntity
  8
ALL_ASSEMBLY_MEMBERS
100
AcDbLine
 62
7
  6
CONTINUOUS
 10
5.4533704249
 20
2.4719923055
 11
2.1008704249
 21
2.4719923055
  0
LINE
  5
232
100
AcDbEntity
  8
ALL_ASSEMBLY_MEMBERS
100
AcDbLine
 62
9
  6
CONTINUOUS
 10
4.2285166367
 20
5.1825960938
 11
4.217910035
 21
5.171989492
  0
LINE
  5
233
100
AcDbEntity
  8
ALL_ASSEMBLY_MEMBERS
100
AcDbLine
 62
9
  6
CONTINUOUS
 10
4.4959373185
 20
4.9151754119
 11
4.4853307168
 21
4.9045688102
  0
LINE
  5
234
100
AcDbEntity
  8
ALL_ASSEMBLY_MEMBERS
100
AcDbLine
 62
9
  6
CONTINUOUS
 10
4.5019721963
 20
4.910467092
 11
4.4952454249
 21
4.8973071124
  0
LINE
  5
235
100
AcDbEntity
  8
ALL_ASSEMBLY_MEMBERS
100
AcDbLine
 62
7
  6
CONTINUOUS
 10
4.1412454249
 20
4.1144923055
 11
4.1412454249
 21
5.2796173055
  0
LINE
  5
236
100
AcDbEntity
  8
ALL_ASSEMBLY_MEMBERS
100
AcDbLine
 62
9
  6
CONTINUOUS
 10
4.1562454249
 20
4.0994923055
 11
4.1562454249
 21
5.2946173055
  0
LINE
  5
237
100
AcDbEntity
  8
ALL_ASSEMBLY_MEMBERS
100
AcDbLine
 62
7
  6
CONTINUOUS
 10
5.3483704249
 20
3.7311094315
 11
5.4533704249
 21
3.7311094315
  0
LINE
  5
238
100
AcDbEntity
  8
ALL_ASSEMBLY_MEMBERS
100
AcDbLine
 62
9
  6
CONTINUOUS
 10
5.3371204249
 20
3.7423594315
 11
5.4533704249
 21
3.7423594315
  0
LINE
  5
239
100
AcDbEntity
  8
ALL_ASSEMBLY_MEMBERS
100
AcDbLine
 62
9
  6
CONTINUOUS
 10
4.2350957007
 20
5.2113577565
 11
4.2350957644
 21
5.2254847752
  0
LINE
  5
23A
100
AcDbEntity
  8
ALL_ASSEMBLY_MEMBERS
100
AcDbLine
 62
9
  6
CONTINUOUS
 10
4.4952454249
 20
4.0994923055
 11
4.4952454249
 21
4.8973071124
  0
LINE
  5
23B
100
AcDbEntity
  8
ALL_ASSEMBLY_MEMBERS
100
AcDbLine
 62
9
  6
CONTINUOUS
 10
4.4952454249
 20
5.2946173055
 11
4.4952454253
 21
5.2113577565
  0
LINE
  5
23C
100
AcDbEntity
  8
ALL_ASSEMBLY_MEMBERS
100
AcDbLine
 62
7
  6
CONTINUOUS
 10
4.5102454249
 20
5.2796173055
 11
4.5102454249
 21
5.2332982317
  0
LINE
  5
23D
100
AcDbEntity
  8
ALL_ASSEMBLY_MEMBERS
100
AcDbLine
 62
7
  6
CONTINUOUS
 10
4.5102454249
 20
4.8856863792
 11
4.5102454249
 21
4.1144923055
  0
LINE
  5
23E
100
AcDbEntity
  8
ALL_ASSEMBLY_MEMBERS
100
AcDbLine
 62
9
  6
CONTINUOUS
 10
4.5252454249
 20
5.2207423055
 11
4.5252454249
 21
5.218506238
  0
LINE
  5
23F
100
AcDbEntity
  8
ALL_ASSEMBLY_MEMBERS
100
AcDbLine
 62
9
  6
CONTINUOUS
 10
4.5252454249
 20
4.900478373
 11
4.5252454249
 21
4.8982423055
  0
LINE
  5
240
100
AcDbEntity
  8
ALL_ASSEMBLY_MEMBERS
100
AcDbLine
 62
7
  6
CONTINUOUS
 10
4.7459329249
 20
4.0787344315
 11
4.6574329249
 21
4.0787344315
  0
LINE
  5
241
100
AcDbEntity
  8
ALL_ASSEMBLY_MEMBERS
100
AcDbLine
 62
7
  6
CONTINUOUS
 10
4.4952454249
 20
4.0994923055
 11
4.1562454249
 21
4.0994923055
  0
LINE
  5
242
100
AcDbEntity
  8
ALL_ASSEMBLY_MEMBERS
100
AcDbLine
 62
9
  6
CONTINUOUS
 10
4.1412454249
 20
4.1144923055
 11
4.5102454249
 21
4.1144923055
  0
LINE
  5
243
100
AcDbEntity
  8
ALL_ASSEMBLY_MEMBERS
100
AcDbLine
 62
7
  6
CONTINUOUS
 10
4.6574329249
 20
4.0787344315
 11
4.6574329249
 21
4.4162344315
  0
LINE
  5
244
100
AcDbEntity
  8
ALL_ASSEMBLY_MEMBERS
100
AcDbLine
 62
7
  6
CONTINUOUS
 10
4.7459329249
 20
4.0787344315
 11
4.7459329249
 21
4.4162344315
  0
LINE
  5
245
100
AcDbEntity
  8
ALL_ASSEMBLY_MEMBERS
100
AcDbLine
 62
7
  6
CONTINUOUS
 10
4.7459329249
 20
4.1584219315
 11
4.8513079249
 21
4.1584219315
  0
LINE
  5
246
100
AcDbEntity
  8
ALL_ASSEMBLY_MEMBERS
100
AcDbLine
 62
7
  6
CONTINUOUS
 10
5.3371204249
 20
4.1589844315
 11
5.0838079249
 21
4.1589844315
  0
LINE
  5
247
100
AcDbEntity
  8
ALL_ASSEMBLY_MEMBERS
100
AcDbLine
 62
7
  6
CONTINUOUS
 10
5.0793079249
 20
4.1811094315
 11
4.8513079249
 21
4.1811094315
  0
LINE
  5
248
100
AcDbEntity
  8
ALL_ASSEMBLY_MEMBERS
100
AcDbLine
 62
7
  6
CONTINUOUS
 10
5.0793079249
 20
4.3138594315
 11
4.8513079249
 21
4.3138594315
  0
LINE
  5
249
100
AcDbEntity
  8
ALL_ASSEMBLY_MEMBERS
100
AcDbLine
 62
7
  6
CONTINUOUS
 10
4.8513079249
 20
4.3365469315
 11
4.8513079249
 21
4.1584219315
  0
LINE
  5
24A
100
AcDbEntity
  8
ALL_ASSEMBLY_MEMBERS
100
AcDbLine
 62
7
  6
CONTINUOUS
 10
5.3371204249
 20
4.3359844315
 11
5.0838079249
 21
4.3359844315
  0
LINE
  5
24B
100
AcDbEntity
  8
ALL_ASSEMBLY_MEMBERS
100
AcDbLine
 62
7
  6
CONTINUOUS
 10
4.7459329249
 20
4.3365469315
 11
4.8513079249
 21
4.3365469315
  0
LINE
  5
24C
100
AcDbEntity
  8
ALL_ASSEMBLY_MEMBERS
100
AcDbLine
 62
7
  6
CONTINUOUS
 10
4.7459329249
 20
4.4162344315
 11
4.6574329249
 21
4.4162344315
  0
LINE
  5
24D
100
AcDbEntity
  8
ALL_ASSEMBLY_MEMBERS
100
AcDbLine
 62
7
  6
CONTINUOUS
 10
5.0793079249
 20
4.1634844617
 11
5.0793079249
 21
4.3314844229
  0
LINE
  5
24E
100
AcDbEntity
  8
ALL_ASSEMBLY_MEMBERS
100
AcDbLine
 62
9
  6
CONTINUOUS
 10
5.0838079249
 20
4.1589844315
 11
5.0838079249
 21
4.3359844315
  0
LINE
  5
24F
100
AcDbEntity
  8
ALL_ASSEMBLY_MEMBERS
100
AcDbLine
 62
9
  6
CONTINUOUS
 10
5.1721204249
 20
2.2432423055
 11
5.1721204249
 21
2.2207423055
  0
LINE
  5
250
100
AcDbEntity
  8
ALL_ASSEMBLY_MEMBERS
100
AcDbLine
 62
7
  6
CONTINUOUS
 10
5.1814954249
 20
4.8982423055
 11
5.1814954249
 21
5.2207423055
  0
LINE
  5
251
100
AcDbEntity
  8
ALL_ASSEMBLY_MEMBERS
100
AcDbLine
 62
7
  6
CONTINUOUS
 10
5.1964954249
 20
4.8982423055
 11
5.1964954249
 21
5.2207423055
  0
LINE
  5
252
100
AcDbEntity
  8
ALL_ASSEMBLY_MEMBERS
100
AcDbLine
 62
7
  6
CONTINUOUS
 10
5.2021204249
 20
2.1907423055
 11
5.2021204249
 21
1.6694923055
  0
LINE
  5
253
100
AcDbEntity
  8
ALL_ASSEMBLY_MEMBERS
100
AcDbLine
 62
9
  6
CONTINUOUS
 10
5.2246204249
 20
2.1907423055
 11
5.2246204249
 21
1.6469923055
  0
LINE
  5
254
100
AcDbEntity
  8
ALL_ASSEMBLY_MEMBERS
100
AcDbLine
 62
7
  6
CONTINUOUS
 10
5.3371204249
 20
3.7423594315
 11
5.3371204249
 21
5.7823594315
  0
LINE
  5
255
100
AcDbEntity
  8
ALL_ASSEMBLY_MEMBERS
100
AcDbLine
 62
7
  6
CONTINUOUS
 10
5.3371204249
 20
4.8982423055
 11
5.1964954249
 21
4.8982423055
  0
LINE
  5
256
100
AcDbEntity
  8
ALL_ASSEMBLY_MEMBERS
100
AcDbLine
 62
7
  6
CONTINUOUS
 10
5.1814954249
 20
4.8982423055
 11
4.5252454249
 21
4.8982423055
  0
LINE
  5
257
100
AcDbEntity
  8
ALL_ASSEMBLY_MEMBERS
100
AcDbLine
 62
9
  6
CONTINUOUS
 10
4.4853307168
 20
4.9045688102
 11
4.217910035
 21
5.171989492
  0
LINE
  5
258
100
AcDbEntity
  8
ALL_ASSEMBLY_MEMBERS
100
AcDbLine
 62
7
  6
CONTINUOUS
 10
4.4959373143
 20
4.9151754161
 11
4.2285166329
 21
5.1825960976
  0
LINE
  5
259
100
AcDbEntity
  8
ALL_ASSEMBLY_MEMBERS
100
AcDbLine
 62
9
  6
CONTINUOUS
 10
5.3483704249
 20
3.7311094315
 11
5.3483704249
 21
5.7936094315
  0
LINE
  5
25A
100
AcDbEntity
  8
ALL_ASSEMBLY_MEMBERS
100
AcDbLine
 62
7
  6
CONTINUOUS
 10
5.4533704249
 20
1.6469923055
 11
5.4533704249
 21
2.4719923055
  0
LINE
  5
25B
100
AcDbEntity
  8
ALL_ASSEMBLY_MEMBERS
100
AcDbLine
 62
7
  6
CONTINUOUS
 10
5.4533704249
 20
3.7311094315
 11
5.4533704249
 21
5.7936094315
  0
LINE
  5
25C
100
AcDbEntity
  8
ALL_ASSEMBLY_MEMBERS
100
AcDbLine
 62
7
  6
CONTINUOUS
 10
5.1964954249
 20
4.9319923055
 11
5.1814954249
 21
4.9319923055
  0
LINE
  5
25D
100
AcDbEntity
  8
ALL_ASSEMBLY_MEMBERS
100
AcDbLine
 62
7
  6
CONTINUOUS
 10
5.1964954249
 20
5.1869923055
 11
5.1814954249
 21
5.1869923055
  0
LINE
  5
25E
100
AcDbEntity
  8
ALL_ASSEMBLY_MEMBERS
100
AcDbLine
 62
9
  6
CONTINUOUS
 10
4.4952454253
 20
5.2113577565
 11
4.2350957007
 21
5.2113577565
  0
LINE
  5
25F
100
AcDbEntity
  8
ALL_ASSEMBLY_MEMBERS
100
AcDbLine
 62
7
  6
CONTINUOUS
 10
5.3371204249
 20
5.2207423055
 11
5.1964954249
 21
5.2207423055
  0
LINE
  5
260
100
AcDbEntity
  8
ALL_ASSEMBLY_MEMBERS
100
AcDbLine
 62
7
  6
CONTINUOUS
 10
5.1814954249
 20
5.2207423055
 11
4.5252454249
 21
5.2207423055
  0
LINE
  5
261
100
AcDbEntity
  8
ALL_ASSEMBLY_MEMBERS
100
AcDbLine
 62
9
  6
CONTINUOUS
 10
4.4952454249
 20
5.2254847752
 11
4.2350823538
 21
5.2254847752
  0
LINE
  5
262
100
AcDbEntity
  8
ALL_ASSEMBLY_MEMBERS
100
AcDbLine
 62
9
  6
CONTINUOUS
 10
4.5102454249
 20
5.2796173055
 11
4.1412454249
 21
5.2796173055
  0
LINE
  5
263
100
AcDbEntity
  8
ALL_ASSEMBLY_MEMBERS
100
AcDbLine
 62
7
  6
CONTINUOUS
 10
4.4952454249
 20
5.2946173055
 11
4.1562454249
 21
5.2946173055
  0
LINE
  5
264
100
AcDbEntity
  8
ALL_ASSEMBLY_MEMBERS
100
AcDbLine
 62
9
  6
CONTINUOUS
 10
5.3371204249
 20
5.7823594315
 11
5.4533704249
 21
5.7823594315
  0
LINE
  5
265
100
AcDbEntity
  8
ALL_ASSEMBLY_MEMBERS
100
AcDbLine
 62
7
  6
CONTINUOUS
 10
5.3483704249
 20
5.7936094315
 11
5.4533704249
 21
5.7936094315
  0
ARC
  5
266
100
AcDbEntity
  8
ALL_ASSEMBLY_MEMBERS
100
AcDbCircle
 62
9
  6
CONTINUOUS
 10
5.1721204249
 20
2.1907423055
 40
0.0524999009
100
AcDbArc
 50
0.0
 51
90.0
  0
ARC
  5
267
100
AcDbEntity
  8
ALL_ASSEMBLY_MEMBERS
100
AcDbCircle
 62
7
  6
CONTINUOUS
 10
5.1721204249
 20
2.1907423055
 40
0.03
100
AcDbArc
 50
0.0
 51
90.0
  0
ARC
  5
268
100
AcDbEntity
  8
ALL_ASSEMBLY_MEMBERS
100
AcDbCircle
 62
7
  6
CONTINUOUS
 10
2.1008704249
 20
2.2432423055
 40
0.0225
100
AcDbArc
 50
180.0
 51
270.0
  0
ARC
  5
269
100
AcDbEntity
  8
ALL_ASSEMBLY_MEMBERS
100
AcDbCircle
 62
7
  6
CONTINUOUS
 10
5.2246204249
 20
1.6694923055
 40
0.0225
100
AcDbArc
 50
180.0
 51
270.0
  0
ARC
  5
26A
100
AcDbEntity
  8
ALL_ASSEMBLY_MEMBERS
100
AcDbCircle
 62
7
  6
CONTINUOUS
 10
2.1008704249
 20
2.4494923055
 40
0.0225
100
AcDbArc
 50
90.0
 51
180.0
  0
ARC
  5
26B
100
AcDbEntity
  8
ALL_ASSEMBLY_MEMBERS
100
AcDbCircle
 62
7
  6
CONTINUOUS
 10
4.1562454249
 20
4.1144923055
 40
0.015
100
AcDbArc
 50
180.0
 51
270.0
  0
ARC
  5
26C
100
AcDbEntity
  8
ALL_ASSEMBLY_MEMBERS
100
AcDbCircle
 62
7
  6
CONTINUOUS
 10
4.1562454249
 20
5.2796173055
 40
0.015
100
AcDbArc
 50
90.0
 51
180.0
  0
ARC
  5
26D
100
AcDbEntity
  8
ALL_ASSEMBLY_MEMBERS
100
AcDbCircle
 62
7
  6
CONTINUOUS
 10
4.4952454249
 20
5.2796173055
 40
0.015
100
AcDbArc
 50
0.0
 51
90.0
  0
ARC
  5
26E
100
AcDbEntity
  8
ALL_ASSEMBLY_MEMBERS
100
AcDbCircle
 62
7
  6
CONTINUOUS
 10
4.4952454249
 20
4.1144923055
 40
0.015
100
AcDbArc
 50
270.0
 51
360.0
  0
ARC
  5
26F
100
AcDbEntity
  8
ALL_ASSEMBLY_MEMBERS
100
AcDbCircle
 62
7
  6
CONTINUOUS
 10
4.5252454249
 20
4.8832423055
 40
0.015
100
AcDbArc
 50
90.0
 51
168.0
  0
ARC
  5
270
100
AcDbEntity
  8
ALL_ASSEMBLY_MEMBERS
100
AcDbCircle
 62
7
  6
CONTINUOUS
 10
4.5252454249
 20
5.2357423055
 40
0.015
100
AcDbArc
 50
192.0
 51
270.0
  0
ARC
  5
271
100
AcDbEntity
  8
ALL_ASSEMBLY_MEMBERS
100
AcDbCircle
 62
7
  6
CONTINUOUS
 10
5.3483704249
 20
5.7823594315
 40
0.01125
100
AcDbArc
 50
90.0
 51
180.0
  0
ARC
  5
272
100
AcDbEntity
  8
ALL_ASSEMBLY_MEMBERS
100
AcDbCircle
 62
7
  6
CONTINUOUS
 10
5.3483704249
 20
3.7423594315
 40
0.01125
100
AcDbArc
 50
180.0
 51
270.0
  0
ARC
  5
273
100
AcDbEntity
  8
ALL_ASSEMBLY_MEMBERS
100
AcDbCircle
 62
7
  6
CONTINUOUS
 10
5.0838079249
 20
4.1634844315
 40
0.0045
100
AcDbArc
 50
179.9996138285
 51
270.0
  0
ARC
  5
274
100
AcDbEntity
  8
ALL_ASSEMBLY_MEMBERS
100
AcDbCircle
 62
7
  6
CONTINUOUS
 10
5.0838079249
 20
4.3314844315
 40
0.0045
100
AcDbArc
 50
90.0
 51
180.0001106987
  0
ARC
  5
275
100
AcDbEntity
  8
ALL_ASSEMBLY_MEMBERS
100
AcDbCircle
 62
7
  6
CONTINUOUS
 10
2.6839954249
 20
2.0369923055
 40
0.00375
100
AcDbArc
 50
269.999999752
 51
360.0
  0
ARC
  5
276
100
AcDbEntity
  8
ALL_ASSEMBLY_MEMBERS
100
AcDbCircle
 62
7
  6
CONTINUOUS
 10
2.2227454249
 20
2.0369923055
 40
0.00375
100
AcDbArc
 50
180.0
 51
270.000000248
  0
SPLINE
  5
277
100
AcDbEntity
  8
ALL_ASSEMBLY_MEMBERS
100
AcDbSpline
 62
9
  6
CONTINUOUS
 70
0
 71
3
 72
22
 73
18
 74
0
 42
0.0000001
 43
0.0000001
 44
0.0000000001
 40
0.0
 40
0.0
 40
0.0
 40
0.0
 40
0.1248974572
 40
0.187446101
 40
0.2499776284
 40
0.312510185
 40
0.3750351904
 40
0.4375452859
 40
0.5000431446
 40
0.5625293193
 40
0.6250062761
 40
0.6874796864
 40
0.7499568671
 40
0.8124465389
 40
0.8749400817
 40
0.9374838378
 40
1.0
 40
1.0
 40
1.0
 40
1.0
 10
4.217910035
 20
5.171989492
 30
0.0
 10
4.2157687054
 20
5.1741307882
 30
0.0
 10
4.2128900954
 20
5.1777143954
 30
0.0
 10
4.2099846929
 20
5.1830462511
 30
0.0
 10
4.2083170635
 20
5.1872925899
 30
0.0
 10
4.2072203218
 20
5.1917207417
 30
0.0
 10
4.2067466094
 20
5.1962592945
 30
0.0
 10
4.2069370872
 20
5.2008191406
 30
0.0
 10
4.2078185268
 20
5.2052976533
 30
0.0
 10
4.2093967937
 20
5.2095810934
 30
0.0
 10
4.2116514689
 20
5.2135508592
 30
0.0
 10
4.2145338157
 20
5.2170917446
 30
0.0
 10
4.2179678173
 20
5.2201012284
 30
0.0
 10
4.2218547063
 20
5.2224972927
 30
0.0
 10
4.2260822584
 20
5.2242252149
 30
0.0
 10
4.2305292634
 20
5.2252577496
 30
0.0
 10
4.2335665819
 20
5.2254845238
 30
0.0
 10
4.2350823538
 20
5.2254847752
 30
0.0
  0
SPLINE
  5
278
100
AcDbEntity
  8
ALL_ASSEMBLY_MEMBERS
100
AcDbSpline
 62
9
  6
CONTINUOUS
 70
0
 71
3
 72
15
 73
11
 74
0
 42
0.0000001
 43
0.0000001
 44
0.0000000001
 40
0.0
 40
0.0
 40
0.0
 40
0.0
 40
0.1240424767
 40
0.2484423247
 40
0.3729398638
 40
0.4977635296
 40
0.6229267836
 40
0.7483937723
 40
0.8742471154
 40
1.0
 40
1.0
 40
1.0
 40
1.0
 10
4.5102454249
 20
4.8856863792
 30
0.0
 10
4.5102454249
 20
4.886652294
 30
0.0
 10
4.5104404478
 20
4.8885921813
 30
0.0
 10
4.5112982382
 20
4.8913857094
 30
0.0
 10
4.5126950429
 20
4.8939609383
 30
0.0
 10
4.5145741837
 20
4.8962152996
 30
0.0
 10
4.5168608061
 20
4.8980668152
 30
0.0
 10
4.519471313
 20
4.899442244
 30
0.0
 10
4.5223018702
 20
4.9002865261
 30
0.0
 10
4.5242661913
 20
4.900478373
 30
0.0
 10
4.5252454249
 20
4.900478373
 30
0.0
  0
SPLINE
  5
279
100
AcDbEntity
  8
ALL_ASSEMBLY_MEMBERS
100
AcDbSpline
 62
9
  6
CONTINUOUS
 70
0
 71
3
 72
15
 73
11
 74
0
 42
0.0000001
 43
0.0000001
 44
0.0000000001
 40
0.0
 40
0.0
 40
0.0
 40
0.0
 40
0.1752000247
 40
0.3378865261
 40
0.4865861018
 40
0.6205086282
 40
0.7388879532
 40
0.8410963244
 40
0.9274388069
 40
1.0
 40
1.0
 40
1.0
 40
1.0
 10
4.5035297958
 20
4.8918070853
 30
0.0
 10
4.5040359475
 20
4.8915900988
 30
0.0
 10
4.5049949839
 20
4.8911302529
 30
0.0
 10
4.5063164727
 20
4.8903571066
 30
0.0
 10
4.5074644923
 20
4.8895533451
 30
0.0
 10
4.5084289665
 20
4.8887387706
 30
0.0
 10
4.509202269
 20
4.8879332021
 30
0.0
 10
4.5097770466
 20
4.8871536764
 30
0.0
 10
4.5101439644
 20
4.8864139672
 30
0.0
 10
4.5102454407
 20
4.8859144591
 30
0.0
 10
4.5102454249
 20
4.8856863792
 30
0.0
  0
SPLINE
  5
27A
100
AcDbEntity
  8
ALL_ASSEMBLY_MEMBERS
100
AcDbSpline
 62
9
  6
CONTINUOUS
 70
0
 71
3
 72
19
 73
15
 74
0
 42
0.0000001
 43
0.0000001
 44
0.0000000001
 40
0.0
 40
0.0
 40
0.0
 40
0.0
 40
0.1964086722
 40
0.3769716525
 40
0.538744722
 40
0.6792662514
 40
0.740861487
 40
0.7963324754
 40
0.8454673308
 40
0.8881581429
 40
0.9244396926
 40
0.954561601
 40
0.979241421
 40
1.0
 40
1.0
 40
1.0
 40
1.0
 10
4.5120155826
 20
4.9060348566
 30
0.0
 10
4.51296165
 20
4.9058464343
 30
0.0
 10
4.5147705117
 20
4.9054485556
 30
0.0
 10
4.5173286269
 20
4.9047686655
 30
0.0
 10
4.5195892539
 20
4.9040487803
 30
0.0
 10
4.521259925
 20
4.9034097267
 30
0.0
 10
4.5224132717
 20
4.9028889534
 30
0.0
 10
4.5231414738
 20
4.9025193566
 30
0.0
 10
4.5237676551
 20
4.9021561125
 30
0.0
 10
4.5242883219
 20
4.9018016106
 30
0.0
 10
4.5247009842
 20
4.9014580865
 30
0.0
 10
4.5250035895
 20
4.9011258663
 30
0.0
 10
4.5251952079
 20
4.9008039865
 30
0.0
 10
4.5252454475
 20
4.9005803274
 30
0.0
 10
4.5252454249
 20
4.900478373
 30
0.0
  0
SPLINE
  5
27B
100
AcDbEntity
  8
ALL_ASSEMBLY_MEMBERS
100
AcDbSpline
 62
9
  6
CONTINUOUS
 70
0
 71
3
 72
19
 73
15
 74
0
 42
0.0000001
 43
0.0000001
 44
0.0000000001
 40
0.0
 40
0.0
 40
0.0
 40
0.0
 40
0.0622666244
 40
0.1005683499
 40
0.1440339296
 40
0.1926627348
 40
0.2463084404
 40
0.3677248186
 40
0.5065335915
 40
0.6605344541
 40
0.7423762507
 40
0.8268225957
 40
0.9130813622
 40
1.0
 40
1.0
 40
1.0
 40
1.0
 10
4.5102454249
 20
5.2332982317
 30
0.0
 10
4.5102454313
 20
5.2329260431
 30
0.0
 10
4.5100509634
 20
5.2323290266
 30
0.0
 10
4.5096086759
 20
5.2315927672
 30
0.0
 10
4.5091266557
 20
5.2309767417
 30
0.0
 10
4.5085237839
 20
5.230346778
 30
0.0
 10
4.5075209683
 20
5.2294603069
 30
0.0
 10
4.5059783323
 20
5.2283812276
 30
0.0
 10
4.503779677
 20
5.2272293935
 30
0.0
 10
4.5016721032
 20
5.2264512366
 30
0.0
 10
4.499817975
 20
5.2259693881
 30
0.0
 10
4.4983321842
 20
5.2256947459
 30
0.0
 10
4.4968004876
 20
5.2255244287
 30
0.0
 10
4.4957649669
 20
5.225484695
 30
0.0
 10
4.4952454249
 20
5.2254847752
 30
0.0
  0
SPLINE
  5
27C
100
AcDbEntity
  8
ALL_ASSEMBLY_MEMBERS
100
AcDbSpline
 62
9
  6
CONTINUOUS
 70
0
 71
3
 72
15
 73
11
 74
0
 42
0.0000001
 43
0.0000001
 44
0.0000000001
 40
0.0
 40
0.0
 40
0.0
 40
0.0
 40
0.1240424802
 40
0.2484423319
 40
0.3729398724
 40
0.4977635378
 40
0.6229267907
 40
0.7483937771
 40
0.8742471171
 40
1.0
 40
1.0
 40
1.0
 40
1.0
 10
4.5102454249
 20
5.2332982317
 30
0.0
 10
4.5102454249
 20
5.2323323169
 30
0.0
 10
4.5104404478
 20
5.2303924296
 30
0.0
 10
4.5112982382
 20
5.2275989014
 30
0.0
 10
4.512695043
 20
5.2250236724
 30
0.0
 10
4.5145741838
 20
5.2227693111
 30
0.0
 10
4.5168608062
 20
5.2209177956
 30
0.0
 10
4.5194713131
 20
5.2195423669
 30
0.0
 10
4.5223018703
 20
5.2186980848
 30
0.0
 10
4.5242661913
 20
5.218506238
 30
0.0
 10
4.5252454249
 20
5.218506238
 30
0.0
  0
SPLINE
  5
27D
100
AcDbEntity
  8
ALL_ASSEMBLY_MEMBERS
100
AcDbSpline
 62
9
  6
CONTINUOUS
 70
0
 71
3
 72
23
 73
19
 74
0
 42
0.0000001
 43
0.0000001
 44
0.0000000001
 40
0.0
 40
0.0
 40
0.0
 40
0.0
 40
0.0077983447
 40
0.016694162
 40
0.0271421109
 40
0.0394040659
 40
0.0536080516
 40
0.0698025038
 40
0.1081571269
 40
0.1542428429
 40
0.2075720383
 40
0.2675690397
 40
0.3336057562
 40
0.4050353304
 40
0.4811894175
 40
0.644981705
 40
0.8198154033
 40
1.0
 40
1.0
 40
1.0
 40
1.0
 10
4.5252454249
 20
5.218506238
 30
0.0
 10
4.5252454279
 20
5.2184240833
 30
0.0
 10
4.5252138043
 20
5.2182476664
 30
0.0
 10
4.5250876177
 20
5.2179884699
 30
0.0
 10
4.5248856482
 20
5.2177218431
 30
0.0
 10
4.5246089727
 20
5.2174472892
 30
0.0
 10
4.5242587554
 20
5.2171647004
 30
0.0
 10
4.523660814
 20
5.2167549653
 30
0.0
 10
4.5227319091
 20
5.2162397277
 30
0.0
 10
4.5214105631
 20
5.2156371745
 30
0.0
 10
4.5198428225
 20
5.2150326601
 30
0.0
 10
4.5180484831
 20
5.2144384784
 30
0.0
 10
4.5160477399
 20
5.2138668824
 30
0.0
 10
4.5138617335
 20
5.2133300337
 30
0.0
 10
4.5106503904
 20
5.2126582766
 30
0.0
 10
4.5063300718
 20
5.2119811119
 30
0.0
 10
4.500884815
 20
5.2114740577
 30
0.0
 10
4.4971436497
 20
5.2113575543
 30
0.0
 10
4.4952454249
 20
5.2113577565
 30
0.0
  0
LINE
  5
27E
100
AcDbEntity
  8
ALL_ASSEMBLY_MEMBERS
100
AcDbLine
 62
9
  6
CONTINUOUS
 10
4.5120155826
 20
4.9060348566
 11
4.235095747
 21
5.2113577565
  0
SPLINE
  5
27F
100
AcDbEntity
  8
ALL_ASSEMBLY_MEMBERS
100
AcDbSpline
 62
9
  6
CONTINUOUS
 70
0
 71
3
 72
11
 73
7
 74
0
 42
0.0000001
 43
0.0000001
 44
0.0000000001
 40
0.0
 40
0.0
 40
0.0
 40
0.0
 40
0.280578339
 40
0.5425225156
 40
0.7826939237
 40
1.0
 40
1.0
 40
1.0
 40
1.0
 10
4.5019721864
 20
4.9104670726
 30
0.0
 10
4.5028614729
 20
4.9099487841
 30
0.0
 10
4.5046278993
 20
4.9090263487
 30
0.0
 10
4.5072524731
 20
4.9078594557
 30
0.0
 10
4.5097069861
 20
4.906888274
 30
0.0
 10
4.51128075
 20
4.9063053158
 30
0.0
 10
4.5120285083
 20
4.9060289827
 30
0.0
  0
SPLINE
  5
280
100
AcDbEntity
  8
ALL_ASSEMBLY_MEMBERS
100
AcDbSpline
 62
9
  6
CONTINUOUS
 70
0
 71
3
 72
15
 73
11
 74
0
 42
0.0000001
 43
0.0000001
 44
0.0000000001
 40
0.0
 40
0.0
 40
0.0
 40
0.0
 40
0.0946917153
 40
0.2004654657
 40
0.3164755975
 40
0.4417240699
 40
0.5748633309
 40
0.7141536434
 40
0.8570320459
 40
1.0
 40
1.0
 40
1.0
 40
1.0
 10
4.5120285083
 20
4.9060289827
 30
0.0
 10
4.5115337765
 20
4.9058102869
 30
0.0
 10
4.5105382814
 20
4.9052269127
 30
0.0
 10
4.5091551387
 20
4.9040516637
 30
0.0
 10
4.5078533344
 20
4.9025476706
 30
0.0
 10
4.5066694421
 20
4.9007603861
 30
0.0
 10
4.5056366249
 20
4.8987325477
 30
0.0
 10
4.5047509155
 20
4.8965292384
 30
0.0
 10
4.5040073125
 20
4.8942150904
 30
0.0
 10
4.5036552164
 20
4.8926165134
 30
0.0
 10
4.5035299951
 20
4.8918094855
 30
0.0
  0
SPLINE
  5
281
100
AcDbEntity
  8
ALL_ASSEMBLY_MEMBERS
100
AcDbSpline
 62
9
  6
CONTINUOUS
 70
0
 71
3
 72
12
 73
8
 74
0
 42
0.0000001
 43
0.0000001
 44
0.0000000001
 40
0.0
 40
0.0
 40
0.0
 40
0.0
 40
0.2332525184
 40
0.4820607175
 40
0.6100857883
 40
0.7395042505
 40
1.0
 40
1.0
 40
1.0
 40
1.0
 10
4.5035297958
 20
4.8918070853
 30
0.0
 10
4.5028170342
 20
4.8921191452
 30
0.0
 10
4.5013575365
 20
4.8927968021
 30
0.0
 10
4.4995861724
 20
4.8938058511
 30
0.0
 10
4.4981883659
 20
4.8947550315
 30
0.0
 10
4.496817726
 20
4.8958081108
 30
0.0
 10
4.4958549154
 20
4.8966877489
 30
0.0
 10
4.4952454249
 20
4.8973071124
 30
0.0
  0
SPLINE
  5
282
100
AcDbEntity
  8
ALL_ASSEMBLY_MEMBERS
100
AcDbSpline
 62
9
  6
CONTINUOUS
 70
0
 71
3
 72
9
 73
5
 74
0
 42
0.0000001
 43
0.0000001
 44
0.0000000001
 40
0.0
 40
0.0
 40
0.0
 40
0.0
 40
0.2513199691
 40
1.0
 40
1.0
 40
1.0
 40
1.0
 10
4.5019721963
 20
4.910467092
 30
0.0
 10
4.5014169389
 20
4.9107899139
 30
0.0
 10
4.4992563577
 20
4.9121579256
 30
0.0
 10
4.4972902756
 20
4.9138224841
 30
0.0
 10
4.4959373462
 20
4.9151754395
 30
0.0
  0
SPLINE
  5
283
100
AcDbEntity
  8
ALL_ASSEMBLY_MEMBERS
100
AcDbSpline
 62
9
  6
CONTINUOUS
 70
0
 71
3
 72
9
 73
5
 74
0
 42
0.0000001
 43
0.0000001
 44
0.0000000001
 40
0.0
 40
0.0
 40
0.0
 40
0.0
 40
0.4999948241
 40
1.0
 40
1.0
 40
1.0
 40
1.0
 10
4.4952454249
 20
4.8973071124
 30
0.0
 10
4.4934159218
 20
4.898241958
 30
0.0
 10
4.4899078639
 20
4.9004205639
 30
0.0
 10
4.4867834407
 20
4.9031159557
 30
0.0
 10
4.4853307168
 20
4.9045688102
 30
0.0
  0
SPLINE
  5
284
100
AcDbEntity
  8
ALL_ASSEMBLY_MEMBERS
100
AcDbSpline
 62
9
  6
CONTINUOUS
 70
0
 71
3
 72
20
 73
16
 74
0
 42
0.0000001
 43
0.0000001
 44
0.0000000001
 40
0.0
 40
0.0
 40
0.0
 40
0.0
 40
0.2425083536
 40
0.304134522
 40
0.3661282437
 40
0.428543236
 40
0.4914001627
 40
0.5546872697
 40
0.6183531187
 40
0.6822832249
 40
0.7463070566
 40
0.810233387
 40
0.8738791839
 40
0.9371748891
 40
1.0
 40
1.0
 40
1.0
 40
1.0
 10
4.2285165955
 20
5.1825960526
 30
0.0
 10
4.2262470276
 20
5.1848656593
 30
0.0
 10
4.2237500918
 20
5.1881654197
 30
0.0
 10
4.221897431
 20
5.1926504435
 30
0.0
 10
4.2212311876
 20
5.1950280377
 30
0.0
 10
4.220886748
 20
5.1974909145
 30
0.0
 10
4.2209202407
 20
5.1999972535
 30
0.0
 10
4.2213844916
 20
5.2024801773
 30
0.0
 10
4.222316639
 20
5.2048463394
 30
0.0
 10
4.223720077
 20
5.2069816441
 30
0.0
 10
4.2255499241
 20
5.208771309
 30
0.0
 10
4.2277149284
 20
5.2101275215
 30
0.0
 10
4.2300993072
 20
5.2110109913
 30
0.0
 10
4.2325892173
 20
5.211428356
 30
0.0
 10
4.2342667055
 20
5.2114227948
 30
0.0
 10
4.2350956369
 20
5.2113573369
 30
0.0
  0
ENDSEC
  0
SECTION
  2
OBJECTS
  0
DICTIONARY
  5
C
100
AcDbDictionary
280
0
281
1
  3
ACAD_GROUP
350
D
  3
ACAD_MLINESTYLE
350
17
  3
ACAD_LAYOUT
350
1A
  3
ACAD_PLOTSETTINGS
350
19
  3
ACAD_PLOTSTYLENAME
350
E
  0
DICTIONARY
  5
D
102
{ACAD_REACTORS
330
C
102
}
100
AcDbDictionary
280
0
281
1
  0
ACDBDICTIONARYWDFLT
  5
E
102
{ACAD_REACTORS
330
C
102
}
100
AcDbDictionary
281
1
  3
Normal
350
F
100
AcDbDictionaryWithDefault
340
F
  0
DICTIONARY
  5
17
102
{ACAD_REACTORS
330
C
102
}
100
AcDbDictionary
280
0
281
1
  3
Standard
350
18
  0
DICTIONARY
  5
19
102
{ACAD_REACTORS
330
C
102
}
100
AcDbDictionary
281
1
  0
DICTIONARY
  5
1A
102
{ACAD_REACTORS
330
C
102
}
100
AcDbDictionary
281
1
  3
Model
350
285
  3
Layout1
350
286
  0
ACDBPLACEHOLDER
  5
F
102
{ACAD_REACTORS
330
E
102
}
  0
MLINESTYLE
  5
18
102
{ACAD_REACTORS
330
17
102
}
100
AcDbMlineStyle
  2
STANDARD
 70
0
  3

 62
256
 51
90.0
 52
90.0
 71
2
 49
0.5
 62
256
  6
BYLAYER
 49
-0.5
 62
256
  6
BYLAYER
  0
LAYOUT
  5
285
102
{ACAD_REACTORS
330
1A
102
}
100
AcDbPlotSettings
  1

  2
none_device
  4
ANSI_A_(11.00_x_8.50_Inches)
  6

 40
0.0
 41
0.0
 42
0.0
 43
0.0
 44
279.4
 45
215.9
 46
0.0
 47
0.0
 48
0.0
 49
0.0
140
0.0
141
0.0
142
1.0
143
1.0
 70
1024
 72
0
 73
0
 74
0
  7

 75
0
147
1.0
148
0.0
149
0.0
100
AcDbLayout
  1
Model
 70
0
 71
0
 10
0.0
 20
0.0
 11
11.0
 21
8.5
 12
0.0
 22
0.0
 32
0.0
 14
0.0
 24
0.0
 34
0.0
 15
0.0
 25
0.0
 35
0.0
146
0.0
 13
0.0
 23
0.0
 33
0.0
 16
1.0
 26
0.0
 36
0.0
 17
0.0
 27
1.0
 37
0.0
 76
0
330
21E
345
0
346
0
  0
LAYOUT
  5
286
102
{ACAD_REACTORS
330
1A
102
}
100
AcDbPlotSettings
  1

  2
none_device
  4
ANSI_A_(11.00_x_8.50_Inches)
  6

 40
0.0
 41
0.0
 42
0.0
 43
0.0
 44
279.4
 45
215.9
 46
0.0
 47
0.0
 48
0.0
 49
0.0
140
0.0
141
0.0
142
1.0
143
1.0
 70
0
 72
0
 73
0
 74
0
  7

 75
0
147
1.0
148
0.0
149
0.0
100
AcDbLayout
  1
Layout1
 70
0
 71
1
 10
0.0
 20
0.0
 11
11.0
 21
8.5
 12
0.0
 22
0.0
 32
0.0
 14
0.0
 24
0.0
 34
0.0
 15
0.0
 25
0.0
 35
0.0
146
0.0
 13
0.0
 23
0.0
 33
0.0
 16
1.0
 26
0.0
 36
0.0
 17
0.0
 27
1.0
 37
0.0
 76
0
330
21F
345
0
346
0
  0
ENDSEC
  0
EOF
