999
DXF file: 4-2542bp_TOP.dxf
999
Pro/ENGINEER 2013150 by Parametric Technology Corporation
  0
SECTION
  2
HEADER
  9
$ACADVER
  1
AC1021
  9
$DWGCODEPAGE
  3
ANSI_1252
  9
$EXTMAX
 10
11.0
 20
8.5
 30
0.0
  9
$EXTMIN
 10
0.0
 20
0.0
 30
0.0
  9
$LIMMIN
 10
0.0
 20
0.0
  9
$LIMMAX
 10
11.0
 20
8.5
  9
$VIEWCTR
 10
5.5
 20
4.25
  9
$VIEWSIZE
 40
8.5
  9
$CLAYER
  8
0
  9
$LTSCALE
 40
0.605
  9
$CELTYPE
  6
BYLAYER
  9
$DIMSCALE
 40
1.0
  9
$DIMASZ
 40
0.1
  9
$DIMEXO
 40
0.0625
  9
$DIMDLI
 40
0.418
  9
$DIMEXE
 40
0.125
  9
$DIMCEN
 40
0.099
  9
$DIMLFAC
 40
1.0
  9
$DIMBLK
  1
_FILLED
  9
$DIMTXT
 40
0.08
  9
$DIMTOL
 70
1
  9
$DIMLIM
 70
0
  9
$DIMTFAC
 40
1.0
  9
$DIMTP
 40
0.001
  9
$DIMTM
 40
0.001
  9
$DIMGAP
 40
0.09
  9
$DIMDSEP
 70
46
  9
$PDMODE
 70
3
  9
$PDSIZE
 40
0.06
  9
$HANDSEED
  5
26C
  9
$TILEMODE
 70
1
  9
$MEASUREMENT
 70
0
  9
$INSUNITS
 70
1
  0
ENDSEC
  0
SECTION
  2
CLASSES
  0
CLASS
  1
ACDBDICTIONARYWDFLT
  2
AcDbDictionaryWithDefault
  3
AutoCAD 2000
 90
0
 91
1
280
0
281
0
  0
CLASS
  1
ACDBPLACEHOLDER
  2
AcDbPlaceHolder
  3
AutoCAD 2000
 90
0
 91
1
280
0
281
0
  0
CLASS
  1
LAYOUT
  2
AcDbLayout
  3
AutoCAD 2000
 90
0
 91
0
280
0
281
0
  0
ENDSEC
  0
SECTION
  2
TABLES
  0
TABLE
  2
VPORT
  5
8
100
AcDbSymbolTable
 70
2
  0
VPORT
  5
1F4
100
AcDbSymbolTableRecord
100
AcDbViewportTableRecord
  2
*ACTIVE
 70
0
 10
0.0
 20
0.0
 11
1.0
 21
1.0
 12
5.5
 22
4.25
 13
0.0
 23
0.0
 14
1.0
 24
1.0
 15
0.0
 25
0.0
 16
0.0
 26
0.0
 36
1.0
 17
0.0
 27
0.0
 37
0.0
 40
8.5
 41
1.2941176471
 42
50.0
 43
0.0
 44
0.0
 50
0.0
 51
0.0
 71
0
 72
100
 73
1
 74
1
 75
0
 76
0
 77
0
 78
0
  0
ENDTAB
  0
TABLE
  2
LTYPE
  5
5
100
AcDbSymbolTable
 70
6
  0
LTYPE
  5
14
100
AcDbSymbolTableRecord
100
AcDbLinetypeTableRecord
  2
BYBLOCK
 70
0
  3

 72
65
 73
0
 40
0.0
  0
LTYPE
  5
15
100
AcDbSymbolTableRecord
100
AcDbLinetypeTableRecord
  2
BYLAYER
 70
0
  3

 72
65
 73
0
 40
0.0
  0
LTYPE
  5
16
100
AcDbSymbolTableRecord
100
AcDbLinetypeTableRecord
  2
CONTINUOUS
 70
64
  3
Solid line
 72
65
 73
0
 40
0.0
  0
LTYPE
  5
1F5
100
AcDbSymbolTableRecord
100
AcDbLinetypeTableRecord
  2
CENTER
 70
64
  3
____ _ ____ _ ____ _ ____ _ ____ _ ____ _ ____
 72
65
 73
4
 40
0.6
 49
0.375
 74
0
 49
-0.075
 74
0
 49
0.075
 74
0
 49
-0.075
 74
0
  0
LTYPE
  5
1F6
100
AcDbSymbolTableRecord
100
AcDbLinetypeTableRecord
  2
HIDDEN
 70
64
  3
- - - - - - - - - - - - - - - - - - - -
 72
65
 73
2
 40
0.2
 49
0.1
 74
0
 49
-0.1
 74
0
  0
LTYPE
  5
1F7
100
AcDbSymbolTableRecord
100
AcDbLinetypeTableRecord
  2
PHANTOM
 70
64
  3
_____ _ _ _____ _ _ _____ _ _ _____
 72
65
 73
6
 40
0.8
 49
0.45
 74
0
 49
-0.05
 74
0
 49
0.1
 74
0
 49
-0.05
 74
0
 49
0.1
 74
0
 49
-0.05
 74
0
  0
LTYPE
  5
1F8
100
AcDbSymbolTableRecord
100
AcDbLinetypeTableRecord
  2
DOT
 70
64
  3
. . . . . . . . . . . . . . . . . . . .
 72
65
 73
2
 40
0.2
 49
0.1
 74
0
 49
-0.1
 74
0
  0
LTYPE
  5
1F9
100
AcDbSymbolTableRecord
100
AcDbLinetypeTableRecord
  2
DASHED
 70
64
  3
- - - - - - - - - - - - - - - - - - - -
 72
65
 73
2
 40
0.2
 49
0.1
 74
0
 49
-0.1
 74
0
  0
ENDTAB
  0
TABLE
  2
LAYER
  5
2
100
AcDbSymbolTable
 70
36
  0
LAYER
  5
10
100
AcDbSymbolTableRecord
100
AcDbLayerTableRecord
  2
0
 70
0
 62
7
  6
CONTINUOUS
370
-3
390
F
  0
LAYER
  5
1FA
100
AcDbSymbolTableRecord
100
AcDbLayerTableRecord
  2
DEFAULT_1
 70
0
 62
7
  6
CENTER
370
-3
390
F
  0
LAYER
  5
1FB
100
AcDbSymbolTableRecord
100
AcDbLayerTableRecord
  2
DEFAULT_2
 70
0
 62
8
  6
HIDDEN
370
-3
390
F
  0
LAYER
  5
1FC
100
AcDbSymbolTableRecord
100
AcDbLayerTableRecord
  2
DEFAULT_3
 70
0
 62
7
  6
PHANTOM
370
-3
390
F
  0
LAYER
  5
1FD
100
AcDbSymbolTableRecord
100
AcDbLayerTableRecord
  2
ALL_ASSEMBLY_MEMBERS
 70
0
 62
7
  6
CONTINUOUS
370
-3
390
F
  0
LAYER
  5
1FE
100
AcDbSymbolTableRecord
100
AcDbLayerTableRecord
  2
ALL_FEATURES
 70
0
 62
7
  6
CONTINUOUS
370
-3
390
F
  0
LAYER
  5
1FF
100
AcDbSymbolTableRecord
100
AcDbLayerTableRecord
  2
AXES_FEATURES
 70
0
 62
7
  6
CONTINUOUS
370
-3
390
F
  0
LAYER
  5
200
100
AcDbSymbolTableRecord
100
AcDbLayerTableRecord
  2
CHAMFER_FEATURES
 70
0
 62
7
  6
CONTINUOUS
370
-3
390
F
  0
LAYER
  5
201
100
AcDbSymbolTableRecord
100
AcDbLayerTableRecord
  2
COSMETIC_SKETCHES
 70
0
 62
7
  6
CONTINUOUS
370
-3
390
F
  0
LAYER
  5
202
100
AcDbSymbolTableRecord
100
AcDbLayerTableRecord
  2
CUT_FEATURES
 70
0
 62
7
  6
CONTINUOUS
370
-3
390
F
  0
LAYER
  5
203
100
AcDbSymbolTableRecord
100
AcDbLayerTableRecord
  2
DATUM_CURVES
 70
0
 62
7
  6
CONTINUOUS
370
-3
390
F
  0
LAYER
  5
204
100
AcDbSymbolTableRecord
100
AcDbLayerTableRecord
  2
DATUM_PLANES
 70
0
 62
7
  6
CONTINUOUS
370
-3
390
F
  0
LAYER
  5
205
100
AcDbSymbolTableRecord
100
AcDbLayerTableRecord
  2
DATUM_POINTS
 70
0
 62
7
  6
CONTINUOUS
370
-3
390
F
  0
LAYER
  5
206
100
AcDbSymbolTableRecord
100
AcDbLayerTableRecord
  2
DEFAULT_COORDINATE_SYSTEM
 70
0
 62
7
  6
CONTINUOUS
370
-3
390
F
  0
LAYER
  5
207
100
AcDbSymbolTableRecord
100
AcDbLayerTableRecord
  2
DEFAULT_DATUM_AXES
 70
0
 62
7
  6
CONTINUOUS
370
-3
390
F
  0
LAYER
  5
208
100
AcDbSymbolTableRecord
100
AcDbLayerTableRecord
  2
DEFAULT_DATUM_CURVES
 70
0
 62
7
  6
CONTINUOUS
370
-3
390
F
  0
LAYER
  5
209
100
AcDbSymbolTableRecord
100
AcDbLayerTableRecord
  2
DEFAULT_DATUM_PLANES
 70
0
 62
7
  6
CONTINUOUS
370
-3
390
F
  0
LAYER
  5
20A
100
AcDbSymbolTableRecord
100
AcDbLayerTableRecord
  2
DEFAULT_SURFACES
 70
0
 62
7
  6
CONTINUOUS
370
-3
390
F
  0
LAYER
  5
20B
100
AcDbSymbolTableRecord
100
AcDbLayerTableRecord
  2
DIMENSIONS
 70
0
 62
7
  6
CONTINUOUS
370
-3
390
F
  0
LAYER
  5
20C
100
AcDbSymbolTableRecord
100
AcDbLayerTableRecord
  2
HOLE_FEATURES
 70
0
 62
7
  6
CONTINUOUS
370
-3
390
F
  0
LAYER
  5
20D
100
AcDbSymbolTableRecord
100
AcDbLayerTableRecord
  2
NONE
 70
0
 62
7
  6
CONTINUOUS
370
-3
390
F
  0
LAYER
  5
20E
100
AcDbSymbolTableRecord
100
AcDbLayerTableRecord
  2
PART_REFERENCE_DIMENSIONS
 70
0
 62
7
  6
CONTINUOUS
370
-3
390
F
  0
LAYER
  5
20F
100
AcDbSymbolTableRecord
100
AcDbLayerTableRecord
  2
PLATED_AREA
 70
0
 62
7
  6
CONTINUOUS
370
-3
390
F
  0
LAYER
  5
210
100
AcDbSymbolTableRecord
100
AcDbLayerTableRecord
  2
PLATED_SURFACE_AREA
 70
0
 62
7
  6
CONTINUOUS
370
-3
390
F
  0
LAYER
  5
211
100
AcDbSymbolTableRecord
100
AcDbLayerTableRecord
  2
POINTS
 70
0
 62
7
  6
CONTINUOUS
370
-3
390
F
  0
LAYER
  5
212
100
AcDbSymbolTableRecord
100
AcDbLayerTableRecord
  2
PROTRUSION
 70
0
 62
7
  6
CONTINUOUS
370
-3
390
F
  0
LAYER
  5
213
100
AcDbSymbolTableRecord
100
AcDbLayerTableRecord
  2
PROTRUSION_FEATURES
 70
0
 62
7
  6
CONTINUOUS
370
-3
390
F
  0
LAYER
  5
214
100
AcDbSymbolTableRecord
100
AcDbLayerTableRecord
  2
QUILT
 70
0
 62
7
  6
CONTINUOUS
370
-3
390
F
  0
LAYER
  5
215
100
AcDbSymbolTableRecord
100
AcDbLayerTableRecord
  2
QUILTS
 70
0
 62
7
  6
CONTINUOUS
370
-3
390
F
  0
LAYER
  5
216
100
AcDbSymbolTableRecord
100
AcDbLayerTableRecord
  2
REFERENCE_DIMENSIONS
 70
0
 62
7
  6
CONTINUOUS
370
-3
390
F
  0
LAYER
  5
217
100
AcDbSymbolTableRecord
100
AcDbLayerTableRecord
  2
ROUND_FEATURES
 70
0
 62
7
  6
CONTINUOUS
370
-3
390
F
  0
LAYER
  5
218
100
AcDbSymbolTableRecord
100
AcDbLayerTableRecord
  2
SHELL_FEATURES
 70
0
 62
7
  6
CONTINUOUS
370
-3
390
F
  0
LAYER
  5
219
100
AcDbSymbolTableRecord
100
AcDbLayerTableRecord
  2
SURFACE_FEATURES
 70
0
 62
7
  6
CONTINUOUS
370
-3
390
F
  0
LAYER
  5
21A
100
AcDbSymbolTableRecord
100
AcDbLayerTableRecord
  2
WETTED_SURFACES
 70
0
 62
7
  6
CONTINUOUS
370
-3
390
F
  0
LAYER
  5
21B
100
AcDbSymbolTableRecord
100
AcDbLayerTableRecord
  2
XSEC_DATUMS
 70
0
 62
7
  6
CONTINUOUS
370
-3
390
F
  0
ENDTAB
  0
TABLE
  2
STYLE
  5
3
100
AcDbSymbolTable
 70
1
  0
STYLE
  5
11
100
AcDbSymbolTableRecord
100
AcDbTextStyleTableRecord
  2
STANDARD
 70
0
 40
0.0
 41
0.8
 50
0.0
 71
0
 42
0.2
  3
txt
  4

  0
STYLE
  5
21C
100
AcDbSymbolTableRecord
100
AcDbTextStyleTableRecord
  2
TEXTSTYLE_1
 70
0
 40
0.0
 41
0.8
 50
0.0
 71
0
 42
0.2
  3
gdt
  4

  0
ENDTAB
  0
TABLE
  2
VIEW
  5
6
100
AcDbSymbolTable
 70
0
  0
ENDTAB
  0
TABLE
  2
UCS
  5
7
100
AcDbSymbolTable
 70
0
  0
ENDTAB
  0
TABLE
  2
APPID
  5
9
100
AcDbSymbolTable
 70
1
  0
APPID
  5
21D
100
AcDbSymbolTableRecord
100
AcDbRegAppTableRecord
  2
ACAD
 70
0
  0
ENDTAB
  0
TABLE
  2
BLOCK_RECORD
  5
1
100
AcDbSymbolTable
 70
0
  0
BLOCK_RECORD
  5
21E
100
AcDbSymbolTableRecord
100
AcDbBlockTableRecord
  2
*Model_Space
  0
BLOCK_RECORD
  5
21F
100
AcDbSymbolTableRecord
100
AcDbBlockTableRecord
  2
*Paper_Space
  0
ENDTAB
  0
TABLE
  2
DIMSTYLE
  5
A
100
AcDbSymbolTable
 70
1
100
AcDbDimStyleTable
 71
0
  0
DIMSTYLE
105
220
100
AcDbSymbolTableRecord
100
AcDbDimStyleTableRecord
  2
STANDARD
 70
0
  3

  4

 40
1.0
 41
0.1
 42
0.0625
 43
0.38
 44
0.125
 45
0.0
 46
0.0
 47
0.001
 48
0.001
140
0.08
141
0.09
142
0.0
143
25.4
144
1.0
145
0.0
146
1.0
147
0.09
 71
1.0
 72
0.0
 73
1
 74
1
 75
0
 76
0
 77
0
 78
4
170
0
171
2
172
0
173
0
174
0
175
0
176
0
177
0
178
0
270
2
271
3
272
3
273
2
274
2
275
0
280
0
281
0
282
0
283
1
284
4
285
0
286
0
287
3
288
0
340
11
278
46
  0
ENDTAB
  0
ENDSEC
  0
SECTION
  2
BLOCKS
  0
BLOCK
  5
20
100
AcDbEntity
  8
0
100
AcDbBlockBegin
  2
*Model_Space
 70
0
 10
0.0
 20
0.0
 30
0.0
  3
*Model_Space
  1

  0
ENDBLK
  5
21
100
AcDbEntity
  8
0
100
AcDbBlockEnd
  0
BLOCK
  5
1C
100
AcDbEntity
  8
0
100
AcDbBlockBegin
  2
*Paper_Space
 70
0
 10
0.0
 20
0.0
 30
0.0
  3
*Paper_Space
  1

  0
ENDBLK
  5
1D
100
AcDbEntity
  8
0
100
AcDbBlockEnd
  0
ENDSEC
  0
SECTION
  2
ENTITIES
  0
LINE
  5
221
100
AcDbEntity
  8
0
100
AcDbLine
 62
7
  6
CONTINUOUS
 10
0.0
 20
0.0
 11
0.0
 21
8.5
  0
LINE
  5
222
100
AcDbEntity
  8
0
100
AcDbLine
 62
7
  6
CONTINUOUS
 10
0.0
 20
0.0
 11
11.0
 21
0.0
  0
LINE
  5
223
100
AcDbEntity
  8
0
100
AcDbLine
 62
7
  6
CONTINUOUS
 10
0.0
 20
8.5
 11
11.0
 21
8.5
  0
LINE
  5
224
100
AcDbEntity
  8
0
100
AcDbLine
 62
7
  6
CONTINUOUS
 10
11.0
 20
0.0
 11
11.0
 21
8.5
  0
LINE
  5
225
100
AcDbEntity
  8
ALL_ASSEMBLY_MEMBERS
100
AcDbLine
 62
7
  6
CONTINUOUS
 10
4.5714641749
 20
1.6517071185
 11
3.7224641749
 21
1.6517071185
  0
LINE
  5
226
100
AcDbEntity
  8
ALL_ASSEMBLY_MEMBERS
100
AcDbLine
 62
9
  6
CONTINUOUS
 10
4.5714641749
 20
1.6742071185
 11
3.7224641749
 21
1.6742071185
  0
LINE
  5
227
100
AcDbEntity
  8
ALL_ASSEMBLY_MEMBERS
100
AcDbLine
 62
9
  6
CONTINUOUS
 10
4.6157141749
 20
1.6959571185
 11
4.5932141749
 21
1.6959571185
  0
LINE
  5
228
100
AcDbEntity
  8
ALL_ASSEMBLY_MEMBERS
100
AcDbLine
 62
9
  6
CONTINUOUS
 10
3.6782141749
 20
1.6959571185
 11
3.7007141749
 21
1.6959571185
  0
LINE
  5
229
100
AcDbEntity
  8
ALL_ASSEMBLY_MEMBERS
100
AcDbLine
 62
7
  6
CONTINUOUS
 10
2.6938391749
 20
4.9217071185
 11
2.6938391749
 21
5.0267071185
  0
LINE
  5
22A
100
AcDbEntity
  8
ALL_ASSEMBLY_MEMBERS
100
AcDbLine
 62
9
  6
CONTINUOUS
 10
2.7050891749
 20
4.9104571185
 11
2.7050891749
 21
5.0267071185
  0
LINE
  5
22B
100
AcDbEntity
  8
ALL_ASSEMBLY_MEMBERS
100
AcDbLine
 62
7
  6
CONTINUOUS
 10
3.6782141749
 20
1.6959571185
 11
3.6782141749
 21
4.9104571185
  0
LINE
  5
22C
100
AcDbEntity
  8
ALL_ASSEMBLY_MEMBERS
100
AcDbLine
 62
9
  6
CONTINUOUS
 10
3.7007141749
 20
1.6959571185
 11
3.7007141749
 21
4.9104571185
  0
LINE
  5
22D
100
AcDbEntity
  8
ALL_ASSEMBLY_MEMBERS
100
AcDbLine
 62
9
  6
CONTINUOUS
 10
3.7224641749
 20
1.6517071185
 11
3.7224641749
 21
1.6742071185
  0
LWPOLYLINE
  5
22E
100
AcDbEntity
  8
ALL_ASSEMBLY_MEMBERS
100
AcDbPolyline
 62
7
  6
CONTINUOUS
 90
24
 70
0
 10
3.985714168
 20
3.946156282
 10
3.9858693195
 20
3.9390877712
 10
3.9865974537
 20
3.9293067952
 10
3.9879098356
 20
3.9196487259
 10
3.9897937972
 20
3.910127649
 10
3.9921877142
 20
3.9009364832
 10
3.9950282756
 20
3.8921581681
 10
3.998293112
 20
3.8837323436
 10
4.001960115
 20
3.8756329502
 10
4.0059956779
 20
3.8678774377
 10
4.0103741142
 20
3.8604678345
 10
4.0151028699
 20
3.8533578305
 10
4.0201624378
 20
3.8465557195
 10
4.0255332244
 20
3.840074286
 10
4.031240977
 20
3.8338769807
 10
4.0372746646
 20
3.8279764497
 10
4.043621613
 20
3.8223881008
 10
4.0503234899
 20
3.8170878782
 10
4.0573764795
 20
3.812097255
 10
4.0647718219
 20
3.8074404513
 10
4.0725586682
 20
3.8031127941
 10
4.0807542269
 20
3.799140541
 10
4.0893263114
 20
3.7955740681
 10
4.0927592437
 20
3.7943045132
  0
LINE
  5
22F
100
AcDbEntity
  8
ALL_ASSEMBLY_MEMBERS
100
AcDbLine
 62
7
  6
CONTINUOUS
 10
3.9782141749
 20
4.3192696185
 11
3.9782141749
 21
4.2307696185
  0
LINE
  5
230
100
AcDbEntity
  8
ALL_ASSEMBLY_MEMBERS
100
AcDbLine
 62
7
  6
CONTINUOUS
 10
3.9857141749
 20
4.9104571185
 11
3.9857141749
 21
4.7698321185
  0
LINE
  5
231
100
AcDbEntity
  8
ALL_ASSEMBLY_MEMBERS
100
AcDbLine
 62
7
  6
CONTINUOUS
 10
3.9857141752
 20
3.9461530314
 11
3.9857141749
 21
4.7548321185
  0
LINE
  5
232
100
AcDbEntity
  8
ALL_ASSEMBLY_MEMBERS
100
AcDbLine
 62
7
  6
CONTINUOUS
 10
4.0194641749
 20
4.7698321185
 11
4.0194641749
 21
4.7548321185
  0
LINE
  5
233
100
AcDbEntity
  8
ALL_ASSEMBLY_MEMBERS
100
AcDbLine
 62
9
  6
CONTINUOUS
 10
4.0927567281
 20
3.8084322765
 11
4.0927567281
 21
4.0685821185
  0
LINE
  5
234
100
AcDbEntity
  8
ALL_ASSEMBLY_MEMBERS
100
AcDbLine
 62
7
  6
CONTINUOUS
 10
4.1027141749
 20
3.7295821185
 11
4.1027141749
 21
4.0685821185
  0
LINE
  5
235
100
AcDbEntity
  8
ALL_ASSEMBLY_MEMBERS
100
AcDbLine
 62
9
  6
CONTINUOUS
 10
4.1177141749
 20
3.7145821185
 11
4.1177141749
 21
4.0835821185
  0
LWPOLYLINE
  5
236
100
AcDbEntity
  8
ALL_ASSEMBLY_MEMBERS
100
AcDbPolyline
 62
7
  6
CONTINUOUS
 90
23
 70
0
 10
4.2048075136
 20
3.7956528878
 10
4.2133783018
 20
3.7992325283
 10
4.2215702081
 20
3.8032173099
 10
4.229352352
 20
3.8075567318
 10
4.2367413754
 20
3.8122240088
 10
4.2437868364
 20
3.8172242508
 10
4.2504807685
 20
3.8225337093
 10
4.2568191753
 20
3.8281303269
 10
4.2628438345
 20
3.8340382453
 10
4.2685422561
 20
3.8402429042
 10
4.2739035498
 20
3.8467314103
 10
4.2789538268
 20
3.8535403901
 10
4.2836732573
 20
3.8606575421
 10
4.2880421149
 20
3.8680749211
 10
4.2920680455
 20
3.8758388742
 10
4.2957255444
 20
3.8839474963
 10
4.2989800864
 20
3.8923834554
 10
4.3018091098
 20
3.9011718462
 10
4.3041908394
 20
3.9103744093
 10
4.3060614206
 20
3.9199063915
 10
4.3073582509
 20
3.9295690163
 10
4.3080699738
 20
3.9393447938
 10
4.3082141815
 20
3.9461889561
  0
LINE
  5
237
100
AcDbEntity
  8
ALL_ASSEMBLY_MEMBERS
100
AcDbLine
 62
7
  6
CONTINUOUS
 10
4.2011713819
 20
3.7943054637
 11
4.2011694293
 21
3.7943047689
  0
LINE
  5
238
100
AcDbEntity
  8
ALL_ASSEMBLY_MEMBERS
100
AcDbLine
 62
7
  6
CONTINUOUS
 10
4.1762141749
 20
3.7145821185
 11
4.1177141749
 21
3.7145821185
  0
LINE
  5
239
100
AcDbEntity
  8
ALL_ASSEMBLY_MEMBERS
100
AcDbLine
 62
9
  6
CONTINUOUS
 10
4.1027141749
 20
3.7295821185
 11
4.1912141749
 21
3.7295821185
  0
LINE
  5
23A
100
AcDbEntity
  8
ALL_ASSEMBLY_MEMBERS
100
AcDbLine
 62
9
  6
CONTINUOUS
 10
4.1762141749
 20
3.7145821185
 11
4.1762141749
 21
4.0835821185
  0
LINE
  5
23B
100
AcDbEntity
  8
ALL_ASSEMBLY_MEMBERS
100
AcDbLine
 62
7
  6
CONTINUOUS
 10
4.1912141749
 20
4.0685821185
 11
4.1912141749
 21
3.7295821185
  0
LINE
  5
23C
100
AcDbEntity
  8
ALL_ASSEMBLY_MEMBERS
100
AcDbLine
 62
9
  6
CONTINUOUS
 10
4.2011716217
 20
4.0685821188
 11
4.2011716217
 21
3.8084323942
  0
LINE
  5
23D
100
AcDbEntity
  8
ALL_ASSEMBLY_MEMBERS
100
AcDbLine
 62
7
  6
CONTINUOUS
 10
4.2744641749
 20
4.7698321185
 11
4.2744641749
 21
4.7548321185
  0
LINE
  5
23E
100
AcDbEntity
  8
ALL_ASSEMBLY_MEMBERS
100
AcDbLine
 62
7
  6
CONTINUOUS
 10
4.3082141749
 20
4.9104571185
 11
4.3082141749
 21
4.7698321185
  0
LINE
  5
23F
100
AcDbEntity
  8
ALL_ASSEMBLY_MEMBERS
100
AcDbLine
 62
7
  6
CONTINUOUS
 10
4.3082141749
 20
4.7548321185
 11
4.3082141749
 21
3.9461617059
  0
LINE
  5
240
100
AcDbEntity
  8
ALL_ASSEMBLY_MEMBERS
100
AcDbLine
 62
7
  6
CONTINUOUS
 10
4.3157141749
 20
4.3192696185
 11
4.3157141749
 21
4.2307696185
  0
LWPOLYLINE
  5
241
100
AcDbEntity
  8
ALL_ASSEMBLY_MEMBERS
100
AcDbPolyline
 62
7
  6
CONTINUOUS
 90
15
 70
0
 10
4.1912143122
 20
3.7801786369
 10
4.1912606902
 20
3.7813572784
 10
4.1914090305
 20
3.7825877156
 10
4.1916693137
 20
3.7838451163
 10
4.192052781
 20
3.7851234424
 10
4.1925668654
 20
3.7864033662
 10
4.1932098897
 20
3.7876542654
 10
4.1939830243
 20
3.7888616982
 10
4.1948857275
 20
3.7900103719
 10
4.1959027834
 20
3.7910723074
 10
4.197026358
 20
3.7920353212
 10
4.1982473946
 20
3.7928879804
 10
4.1995398237
 20
3.793611807
 10
4.2008844473
 20
3.7941997285
 10
4.2048075136
 20
3.7956528878
  0
LINE
  5
242
100
AcDbEntity
  8
ALL_ASSEMBLY_MEMBERS
100
AcDbLine
 62
9
  6
CONTINUOUS
 10
4.2011716217
 20
3.8084323942
 11
4.1912141749
 21
3.808432458
  0
LINE
  5
243
100
AcDbEntity
  8
ALL_ASSEMBLY_MEMBERS
100
AcDbLine
 62
7
  6
CONTINUOUS
 10
4.0927589062
 20
3.7943046375
 11
4.0927571629
 21
3.7943052581
  0
LWPOLYLINE
  5
244
100
AcDbEntity
  8
ALL_ASSEMBLY_MEMBERS
100
AcDbPolyline
 62
7
  6
CONTINUOUS
 90
14
 70
0
 10
4.0927573433
 20
3.7943051937
 10
4.0941317172
 20
3.793736239
 10
4.0953943009
 20
3.7930631005
 10
4.0966106109
 20
3.7922553722
 10
4.0977468523
 20
3.7913294179
 10
4.0987911619
 20
3.7902927541
 10
4.0997322737
 20
3.7891542053
 10
4.1005474796
 20
3.7879440968
 10
4.1012334181
 20
3.7866768456
 10
4.1017883448
 20
3.7853666029
 10
4.1022058942
 20
3.7840500607
 10
4.1024921415
 20
3.7827496579
 10
4.1026583976
 20
3.7814706314
 10
4.1027140944
 20
3.7802238392
  0
LINE
  5
245
100
AcDbEntity
  8
ALL_ASSEMBLY_MEMBERS
100
AcDbLine
 62
9
  6
CONTINUOUS
 10
4.0927567281
 20
4.0685821185
 11
4.2011716217
 21
4.0685821188
  0
LINE
  5
246
100
AcDbEntity
  8
ALL_ASSEMBLY_MEMBERS
100
AcDbLine
 62
9
  6
CONTINUOUS
 10
4.5714641749
 20
1.6517071185
 11
4.5714641749
 21
1.6742071185
  0
LINE
  5
247
100
AcDbEntity
  8
ALL_ASSEMBLY_MEMBERS
100
AcDbLine
 62
9
  6
CONTINUOUS
 10
4.5932141749
 20
4.9104571185
 11
4.5932141749
 21
1.6959571185
  0
LINE
  5
248
100
AcDbEntity
  8
ALL_ASSEMBLY_MEMBERS
100
AcDbLine
 62
7
  6
CONTINUOUS
 10
4.6157141749
 20
4.9104571185
 11
4.6157141749
 21
1.6959571185
  0
LINE
  5
249
100
AcDbEntity
  8
ALL_ASSEMBLY_MEMBERS
100
AcDbLine
 62
7
  6
CONTINUOUS
 10
4.1177141749
 20
4.0835821185
 11
4.1762141749
 21
4.0835821185
  0
LINE
  5
24A
100
AcDbEntity
  8
ALL_ASSEMBLY_MEMBERS
100
AcDbLine
 62
9
  6
CONTINUOUS
 10
4.1202035366
 20
4.0985821185
 11
4.1737248132
 21
4.0985821185
  0
LINE
  5
24B
100
AcDbEntity
  8
ALL_ASSEMBLY_MEMBERS
100
AcDbLine
 62
7
  6
CONTINUOUS
 10
4.3157141749
 20
4.2307696185
 11
4.3082141749
 21
4.2307696185
  0
LINE
  5
24C
100
AcDbEntity
  8
ALL_ASSEMBLY_MEMBERS
100
AcDbLine
 62
7
  6
CONTINUOUS
 10
3.9857141749
 20
4.2307696185
 11
3.9782141749
 21
4.2307696185
  0
LINE
  5
24D
100
AcDbEntity
  8
ALL_ASSEMBLY_MEMBERS
100
AcDbLine
 62
7
  6
CONTINUOUS
 10
4.3157141749
 20
4.3192696185
 11
4.3082141749
 21
4.3192696185
  0
LINE
  5
24E
100
AcDbEntity
  8
ALL_ASSEMBLY_MEMBERS
100
AcDbLine
 62
7
  6
CONTINUOUS
 10
3.9857141749
 20
4.3192696185
 11
3.9782141749
 21
4.3192696185
  0
LINE
  5
24F
100
AcDbEntity
  8
ALL_ASSEMBLY_MEMBERS
100
AcDbLine
 62
7
  6
CONTINUOUS
 10
4.3082141749
 20
4.7548321185
 11
3.9857141749
 21
4.7548321185
  0
LINE
  5
250
100
AcDbEntity
  8
ALL_ASSEMBLY_MEMBERS
100
AcDbLine
 62
7
  6
CONTINUOUS
 10
4.3082141749
 20
4.7698321185
 11
3.9857141749
 21
4.7698321185
  0
LINE
  5
251
100
AcDbEntity
  8
ALL_ASSEMBLY_MEMBERS
100
AcDbLine
 62
7
  6
CONTINUOUS
 10
5.5888391749
 20
4.9104571185
 11
2.7050891749
 21
4.9104571185
  0
LINE
  5
252
100
AcDbEntity
  8
ALL_ASSEMBLY_MEMBERS
100
AcDbLine
 62
9
  6
CONTINUOUS
 10
5.6000891749
 20
4.9217071185
 11
2.6938391749
 21
4.9217071185
  0
LINE
  5
253
100
AcDbEntity
  8
ALL_ASSEMBLY_MEMBERS
100
AcDbLine
 62
7
  6
CONTINUOUS
 10
2.6938391749
 20
5.0267071185
 11
5.6000891749
 21
5.0267071185
  0
LINE
  5
254
100
AcDbEntity
  8
ALL_ASSEMBLY_MEMBERS
100
AcDbLine
 62
9
  6
CONTINUOUS
 10
5.5888391749
 20
4.9104571185
 11
5.5888391749
 21
5.0267071185
  0
LINE
  5
255
100
AcDbEntity
  8
ALL_ASSEMBLY_MEMBERS
100
AcDbLine
 62
7
  6
CONTINUOUS
 10
5.6000891749
 20
4.9217071185
 11
5.6000891749
 21
5.0267071185
  0
ARC
  5
256
100
AcDbEntity
  8
ALL_ASSEMBLY_MEMBERS
100
AcDbCircle
 62
9
  6
CONTINUOUS
 10
4.1756729206
 20
3.9461740015
 40
0.1325416501
100
AcDbArc
 50
358.9239851536
 51
359.9964573242
  0
ARC
  5
257
100
AcDbEntity
  8
ALL_ASSEMBLY_MEMBERS
100
AcDbCircle
 62
7
  6
CONTINUOUS
 10
3.7224641749
 20
1.6959571185
 40
0.04425
100
AcDbArc
 50
180.0
 51
270.0
  0
ARC
  5
258
100
AcDbEntity
  8
ALL_ASSEMBLY_MEMBERS
100
AcDbCircle
 62
7
  6
CONTINUOUS
 10
4.5714641749
 20
1.6959571185
 40
0.04425
100
AcDbArc
 50
270.0
 51
360.0
  0
ARC
  5
259
100
AcDbEntity
  8
ALL_ASSEMBLY_MEMBERS
100
AcDbCircle
 62
9
  6
CONTINUOUS
 10
4.5714641749
 20
1.6959571185
 40
0.0217499281
100
AcDbArc
 50
270.0
 51
360.0
  0
ARC
  5
25A
100
AcDbEntity
  8
ALL_ASSEMBLY_MEMBERS
100
AcDbCircle
 62
9
  6
CONTINUOUS
 10
3.7224641749
 20
1.6959571185
 40
0.0217499281
100
AcDbArc
 50
180.0
 51
270.0
  0
ARC
  5
25B
100
AcDbEntity
  8
ALL_ASSEMBLY_MEMBERS
100
AcDbCircle
 62
7
  6
CONTINUOUS
 10
4.1762141749
 20
3.7295821185
 40
0.015
100
AcDbArc
 50
270.0
 51
360.0
  0
ARC
  5
25C
100
AcDbEntity
  8
ALL_ASSEMBLY_MEMBERS
100
AcDbCircle
 62
7
  6
CONTINUOUS
 10
4.1177141749
 20
3.7295821185
 40
0.015
100
AcDbArc
 50
180.0
 51
270.0
  0
ARC
  5
25D
100
AcDbEntity
  8
ALL_ASSEMBLY_MEMBERS
100
AcDbCircle
 62
7
  6
CONTINUOUS
 10
4.1177141749
 20
4.0685821185
 40
0.015
100
AcDbArc
 50
90.0
 51
180.0
  0
ARC
  5
25E
100
AcDbEntity
  8
ALL_ASSEMBLY_MEMBERS
100
AcDbCircle
 62
7
  6
CONTINUOUS
 10
4.1762141749
 20
4.0685821185
 40
0.015
100
AcDbArc
 50
0.0
 51
90.0
  0
ARC
  5
25F
100
AcDbEntity
  8
ALL_ASSEMBLY_MEMBERS
100
AcDbCircle
 62
7
  6
CONTINUOUS
 10
5.5888391749
 20
4.9217071185
 40
0.01125
100
AcDbArc
 50
270.0
 51
360.0
  0
ARC
  5
260
100
AcDbEntity
  8
ALL_ASSEMBLY_MEMBERS
100
AcDbCircle
 62
7
  6
CONTINUOUS
 10
2.7050891749
 20
4.9217071185
 40
0.01125
100
AcDbArc
 50
180.0
 51
270.0
  0
LINE
  5
261
100
AcDbEntity
  8
ALL_ASSEMBLY_MEMBERS
100
AcDbLine
 62
9
  6
CONTINUOUS
 10
4.1027141749
 20
3.8084506753
 11
4.0927567281
 21
3.8084322765
  0
SPLINE
  5
262
100
AcDbEntity
  8
ALL_ASSEMBLY_MEMBERS
100
AcDbSpline
 62
9
  6
CONTINUOUS
 70
0
 71
3
 72
22
 73
18
 74
0
 42
0.0000001
 43
0.0000001
 44
0.0000000001
 40
0.0
 40
0.0
 40
0.0
 40
0.0
 40
0.1932545081
 40
0.3824717721
 40
0.558438776
 40
0.6381477586
 40
0.7105877082
 40
0.7746564033
 40
0.8296166504
 40
0.8751220214
 40
0.9113828537
 40
0.9263144414
 40
0.9393613468
 40
0.9609268509
 40
0.9704477758
 40
0.9798173821
 40
1.0
 40
1.0
 40
1.0
 40
1.0
 10
4.0927576205
 20
3.8084321967
 30
0.0
 10
4.0929662867
 20
3.8074901477
 30
0.0
 10
4.0933409973
 20
3.8056169962
 30
0.0
 10
4.0937734097
 20
3.8028617801
 30
0.0
 10
4.0940137457
 20
3.800652285
 30
0.0
 10
4.0941139304
 20
3.7990168511
 30
0.0
 10
4.0941402303
 20
3.7979373271
 30
0.0
 10
4.0941197571
 20
3.7969811931
 30
0.0
 10
4.0940535968
 20
3.7961616453
 30
0.0
 10
4.0939430381
 20
3.7954871905
 30
0.0
 10
4.0938091419
 20
3.7950211051
 30
0.0
 10
4.0936746153
 20
3.7947289626
 30
0.0
 10
4.0935444452
 20
3.7945186453
 30
0.0
 10
4.0933844117
 20
3.7943570003
 30
0.0
 10
4.0931979395
 20
3.7942740235
 30
0.0
 10
4.0930037798
 20
3.7942411688
 30
0.0
 10
4.0928538388
 20
3.7942709615
 30
0.0
 10
4.0927588842
 20
3.7943046927
 30
0.0
  0
SPLINE
  5
263
100
AcDbEntity
  8
ALL_ASSEMBLY_MEMBERS
100
AcDbSpline
 62
9
  6
CONTINUOUS
 70
0
 71
3
 72
22
 73
18
 74
0
 42
0.0000001
 43
0.0000001
 44
0.0000000001
 40
0.0
 40
0.0
 40
0.0
 40
0.0
 40
0.0201814686
 40
0.0295505669
 40
0.0390711175
 40
0.0606365186
 40
0.0736834762
 40
0.0886150902
 40
0.124875856
 40
0.1703805862
 40
0.225340138
 40
0.2894079469
 40
0.3618471253
 40
0.4415559865
 40
0.6175244871
 40
0.8067441399
 40
1.0
 40
1.0
 40
1.0
 40
1.0
 10
4.201169453
 20
3.7943048081
 30
0.0
 10
4.2010745029
 20
3.7942710822
 30
0.0
 10
4.2009245683
 20
3.7942413003
 30
0.0
 10
4.2007304218
 20
3.7942741668
 30
0.0
 10
4.2005439612
 20
3.7943571563
 30
0.0
 10
4.2003839433
 20
3.7945188111
 30
0.0
 10
4.2002537802
 20
3.794729131
 30
0.0
 10
4.2001192583
 20
3.7950212745
 30
0.0
 10
4.1999853611
 20
3.7954873534
 30
0.0
 10
4.1998747896
 20
3.7961617964
 30
0.0
 10
4.1998086119
 20
3.7969813287
 30
0.0
 10
4.1997881117
 20
3.7979374466
 30
0.0
 10
4.1998143721
 20
3.799016959
 30
0.0
 10
4.1999145368
 20
3.8006523916
 30
0.0
 10
4.2001549062
 20
3.8028618949
 30
0.0
 10
4.2005874433
 20
3.8056171106
 30
0.0
 10
4.2009622541
 20
3.8074902483
 30
0.0
 10
4.2011707853
 20
3.8084323305
 30
0.0
  0
SPLINE
  5
264
100
AcDbEntity
  8
ALL_ASSEMBLY_MEMBERS
100
AcDbSpline
 62
9
  6
CONTINUOUS
 70
0
 71
3
 72
17
 73
13
 74
0
 42
0.0000001
 43
0.0000001
 44
0.0000000001
 40
0.0
 40
0.0
 40
0.0
 40
0.0
 40
0.1095327068
 40
0.2206221352
 40
0.2772341746
 40
0.3347711494
 40
0.3934245631
 40
0.453376393
 40
0.5778608957
 40
0.7097918305
 40
0.8503571164
 40
1.0
 40
1.0
 40
1.0
 40
1.0
 10
4.3081911984
 20
3.9436850153
 30
0.0
 10
4.3080651015
 20
3.9369711682
 30
0.0
 10
4.3067809604
 20
3.923446478
 30
0.0
 10
4.3026079537
 20
3.9069005529
 30
0.0
 10
4.2977372809
 20
3.8939675737
 30
0.0
 10
4.2932557843
 20
3.8843566839
 30
0.0
 10
4.2879568004
 20
3.8749352484
 30
0.0
 10
4.2796741753
 20
3.8625312618
 30
0.0
 10
4.2670502141
 20
3.847696901
 30
0.0
 10
4.2485281849
 20
3.8317593967
 30
0.0
 10
4.2264229248
 20
3.8181020176
 30
0.0
 10
4.2098995378
 20
3.8112584548
 30
0.0
 10
4.2011716217
 20
3.8084324405
 30
0.0
  0
SPLINE
  5
265
100
AcDbEntity
  8
ALL_ASSEMBLY_MEMBERS
100
AcDbSpline
 62
9
  6
CONTINUOUS
 70
0
 71
3
 72
22
 73
18
 74
0
 42
0.0000001
 43
0.0000001
 44
0.0000000001
 40
0.0
 40
0.0
 40
0.0
 40
0.0
 40
0.007915059
 40
0.0164830062
 40
0.0262003256
 40
0.0374008461
 40
0.0649787685
 40
0.1001340026
 40
0.1430204273
 40
0.1934861424
 40
0.2512602645
 40
0.3158883658
 40
0.3867838189
 40
0.4633367715
 40
0.6306772067
 40
0.8120056756
 40
1.0
 40
1.0
 40
1.0
 40
1.0
 10
4.1762141749
 20
4.0835821185
 30
0.0
 10
4.176173135
 20
4.0835821185
 30
0.0
 10
4.1760872474
 20
4.083595544
 30
0.0
 10
4.1759628225
 20
4.0836532994
 30
0.0
 10
4.1758406398
 20
4.0837467268
 30
0.0
 10
4.1756681873
 20
4.0839308557
 30
0.0
 10
4.1754626165
 20
4.0842577265
 30
0.0
 10
4.1752379762
 20
4.0847579404
 30
0.0
 10
4.1750215274
 20
4.0853889297
 30
0.0
 10
4.1748153824
 20
4.0861452827
 30
0.0
 10
4.1746220368
 20
4.0870208052
 30
0.0
 10
4.1744433293
 20
4.0880071913
 30
0.0
 10
4.174280907
 20
4.0890949106
 30
0.0
 10
4.174082875
 20
4.0907152006
 30
0.0
 10
4.17389262
 20
4.0929124986
 30
0.0
 10
4.1737557616
 20
4.0956922445
 30
0.0
 10
4.1737248134
 20
4.0976073593
 30
0.0
 10
4.1737248132
 20
4.0985821185
 30
0.0
  0
SPLINE
  5
266
100
AcDbEntity
  8
ALL_ASSEMBLY_MEMBERS
100
AcDbSpline
 62
9
  6
CONTINUOUS
 70
0
 71
3
 72
19
 73
15
 74
0
 42
0.0000001
 43
0.0000001
 44
0.0000000001
 40
0.0
 40
0.0
 40
0.0
 40
0.0
 40
0.1244582667
 40
0.1865588116
 40
0.2485541913
 40
0.3105074337
 40
0.372469989
 40
0.4344943392
 40
0.4966438591
 40
0.6213243952
 40
0.7468232924
 40
0.8099586716
 40
0.8732972387
 40
1.0
 40
1.0
 40
1.0
 40
1.0
 10
4.1737248132
 20
4.0985821185
 30
0.0
 10
4.1755956666
 20
4.0985821297
 30
0.0
 10
4.1784129154
 20
4.0982644983
 30
0.0
 10
4.1820100139
 20
4.0972361197
 30
0.0
 10
4.1846055289
 20
4.0961788879
 30
0.0
 10
4.1870712315
 20
4.0948528487
 30
0.0
 10
4.1893864245
 20
4.0932781413
 30
0.0
 10
4.1915317772
 20
4.091474399
 30
0.0
 10
4.194146829
 20
4.0887923758
 30
0.0
 10
4.1969201894
 20
4.0849665687
 30
0.0
 10
4.1989452251
 20
4.0806842514
 30
0.0
 10
4.200093381
 20
4.0770700604
 30
0.0
 10
4.2009200723
 20
4.0733515506
 30
0.0
 10
4.2011717857
 20
4.070486711
 30
0.0
 10
4.2011716217
 20
4.0685821185
 30
0.0
  0
SPLINE
  5
267
100
AcDbEntity
  8
ALL_ASSEMBLY_MEMBERS
100
AcDbSpline
 62
9
  6
CONTINUOUS
 70
0
 71
3
 72
18
 73
14
 74
0
 42
0.0000001
 43
0.0000001
 44
0.0000000001
 40
0.0
 40
0.0
 40
0.0
 40
0.0
 40
0.1498464492
 40
0.2904600122
 40
0.4223215687
 40
0.5466749755
 40
0.6065572344
 40
0.6651445815
 40
0.7226257863
 40
0.7791983142
 40
0.8350469167
 40
0.8903555317
 40
1.0
 40
1.0
 40
1.0
 40
1.0
 10
4.0927567281
 20
3.8084323483
 30
0.0
 10
4.0838990397
 20
3.8113004753
 30
0.0
 10
4.0671436995
 20
3.8182632825
 30
0.0
 10
4.0447778606
 20
3.8321933293
 30
0.0
 10
4.0261069
 20
3.8484524906
 30
0.0
 10
4.0134458107
 20
3.863580754
 30
0.0
 10
4.0051864191
 20
3.8762218036
 30
0.0
 10
3.9999278194
 20
3.8858193487
 30
0.0
 10
3.9955098617
 20
3.8956057289
 30
0.0
 10
3.9919191839
 20
3.905543831
 30
0.0
 10
3.9891393618
 20
3.9155994704
 30
0.0
 10
3.9865101137
 20
3.9290735895
 30
0.0
 10
3.985714604
 20
3.9393453541
 30
0.0
 10
3.9857137816
 20
3.946157936
 30
0.0
  0
SPLINE
  5
268
100
AcDbEntity
  8
ALL_ASSEMBLY_MEMBERS
100
AcDbSpline
 62
9
  6
CONTINUOUS
 70
0
 71
3
 72
22
 73
18
 74
0
 42
0.0000001
 43
0.0000001
 44
0.0000000001
 40
0.0
 40
0.0
 40
0.0
 40
0.0
 40
0.0079150667
 40
0.0164830205
 40
0.0262003453
 40
0.0374008699
 40
0.0649787977
 40
0.1001340345
 40
0.1430204602
 40
0.1934861749
 40
0.2512602956
 40
0.3158883947
 40
0.3867838449
 40
0.4633367941
 40
0.6306772219
 40
0.8120056831
 40
1.0
 40
1.0
 40
1.0
 40
1.0
 10
4.1177141749
 20
4.0835821185
 30
0.0
 10
4.1177552149
 20
4.0835821185
 30
0.0
 10
4.1178411025
 20
4.083595544
 30
0.0
 10
4.1179655276
 20
4.0836532994
 30
0.0
 10
4.1180877104
 20
4.0837467268
 30
0.0
 10
4.1182601631
 20
4.0839308557
 30
0.0
 10
4.1184657341
 20
4.0842577265
 30
0.0
 10
4.1186903745
 20
4.0847579403
 30
0.0
 10
4.1189068234
 20
4.0853889297
 30
0.0
 10
4.1191129684
 20
4.0861452827
 30
0.0
 10
4.1193063141
 20
4.0870208052
 30
0.0
 10
4.1194850216
 20
4.0880071913
 30
0.0
 10
4.1196474439
 20
4.0890949106
 30
0.0
 10
4.1198454758
 20
4.0907152006
 30
0.0
 10
4.1200357306
 20
4.0929124986
 30
0.0
 10
4.1201725887
 20
4.0956922445
 30
0.0
 10
4.1202035366
 20
4.0976073593
 30
0.0
 10
4.1202035366
 20
4.0985821185
 30
0.0
  0
SPLINE
  5
269
100
AcDbEntity
  8
ALL_ASSEMBLY_MEMBERS
100
AcDbSpline
 62
9
  6
CONTINUOUS
 70
0
 71
3
 72
18
 73
14
 74
0
 42
0.0000001
 43
0.0000001
 44
0.0000000001
 40
0.0
 40
0.0
 40
0.0
 40
0.0
 40
0.1267065398
 40
0.1900292041
 40
0.2531529464
 40
0.3786546802
 40
0.503348745
 40
0.5655086952
 40
0.6275484127
 40
0.7513382188
 40
0.8133588174
 40
0.8754881419
 40
1.0
 40
1.0
 40
1.0
 40
1.0
 10
4.0927567281
 20
4.0685821185
 30
0.0
 10
4.0927564839
 20
4.0704864495
 30
0.0
 10
4.0930077656
 20
4.0733506794
 30
0.0
 10
4.0938344567
 20
4.0770681749
 30
0.0
 10
4.0949820662
 20
4.080681469
 30
0.0
 10
4.0970065203
 20
4.0849632983
 30
0.0
 10
4.0997787604
 20
4.0887891874
 30
0.0
 10
4.102393823
 20
4.0914717464
 30
0.0
 10
4.1052496737
 20
4.0938740364
 30
0.0
 10
4.1084590205
 20
4.0958273001
 30
0.0
 10
4.1119160157
 20
4.0972351324
 30
0.0
 10
4.1155142628
 20
4.0982644782
 30
0.0
 10
4.1183321905
 20
4.0985821911
 30
0.0
 10
4.1202035366
 20
4.0985821185
 30
0.0
  0
ENDSEC
  0
SECTION
  2
OBJECTS
  0
DICTIONARY
  5
C
100
AcDbDictionary
280
0
281
1
  3
ACAD_GROUP
350
D
  3
ACAD_MLINESTYLE
350
17
  3
ACAD_LAYOUT
350
1A
  3
ACAD_PLOTSETTINGS
350
19
  3
ACAD_PLOTSTYLENAME
350
E
  0
DICTIONARY
  5
D
102
{ACAD_REACTORS
330
C
102
}
100
AcDbDictionary
280
0
281
1
  0
ACDBDICTIONARYWDFLT
  5
E
102
{ACAD_REACTORS
330
C
102
}
100
AcDbDictionary
281
1
  3
Normal
350
F
100
AcDbDictionaryWithDefault
340
F
  0
DICTIONARY
  5
17
102
{ACAD_REACTORS
330
C
102
}
100
AcDbDictionary
280
0
281
1
  3
Standard
350
18
  0
DICTIONARY
  5
19
102
{ACAD_REACTORS
330
C
102
}
100
AcDbDictionary
281
1
  0
DICTIONARY
  5
1A
102
{ACAD_REACTORS
330
C
102
}
100
AcDbDictionary
281
1
  3
Model
350
26A
  3
Layout1
350
26B
  0
ACDBPLACEHOLDER
  5
F
102
{ACAD_REACTORS
330
E
102
}
  0
MLINESTYLE
  5
18
102
{ACAD_REACTORS
330
17
102
}
100
AcDbMlineStyle
  2
STANDARD
 70
0
  3

 62
256
 51
90.0
 52
90.0
 71
2
 49
0.5
 62
256
  6
BYLAYER
 49
-0.5
 62
256
  6
BYLAYER
  0
LAYOUT
  5
26A
102
{ACAD_REACTORS
330
1A
102
}
100
AcDbPlotSettings
  1

  2
none_device
  4
ANSI_A_(11.00_x_8.50_Inches)
  6

 40
0.0
 41
0.0
 42
0.0
 43
0.0
 44
279.4
 45
215.9
 46
0.0
 47
0.0
 48
0.0
 49
0.0
140
0.0
141
0.0
142
1.0
143
1.0
 70
1024
 72
0
 73
0
 74
0
  7

 75
0
147
1.0
148
0.0
149
0.0
100
AcDbLayout
  1
Model
 70
0
 71
0
 10
0.0
 20
0.0
 11
11.0
 21
8.5
 12
0.0
 22
0.0
 32
0.0
 14
0.0
 24
0.0
 34
0.0
 15
0.0
 25
0.0
 35
0.0
146
0.0
 13
0.0
 23
0.0
 33
0.0
 16
1.0
 26
0.0
 36
0.0
 17
0.0
 27
1.0
 37
0.0
 76
0
330
21E
345
0
346
0
  0
LAYOUT
  5
26B
102
{ACAD_REACTORS
330
1A
102
}
100
AcDbPlotSettings
  1

  2
none_device
  4
ANSI_A_(11.00_x_8.50_Inches)
  6

 40
0.0
 41
0.0
 42
0.0
 43
0.0
 44
279.4
 45
215.9
 46
0.0
 47
0.0
 48
0.0
 49
0.0
140
0.0
141
0.0
142
1.0
143
1.0
 70
0
 72
0
 73
0
 74
0
  7

 75
0
147
1.0
148
0.0
149
0.0
100
AcDbLayout
  1
Layout1
 70
0
 71
1
 10
0.0
 20
0.0
 11
11.0
 21
8.5
 12
0.0
 22
0.0
 32
0.0
 14
0.0
 24
0.0
 34
0.0
 15
0.0
 25
0.0
 35
0.0
146
0.0
 13
0.0
 23
0.0
 33
0.0
 16
1.0
 26
0.0
 36
0.0
 17
0.0
 27
1.0
 37
0.0
 76
0
330
21F
345
0
346
0
  0
ENDSEC
  0
EOF
