999
DXF file: E:\BT Custom\CADOUTPUT\_RIGHT.dxf
999
Pro/ENGINEER 2018400 by Parametric Technology Corporation
  0
SECTION
  2
HEADER
  9
$ACADVER
  1
AC1018
  9
$DWGCODEPAGE
  3
ANSI_1252
  9
$EXTMAX
 10
22.0
 20
17.0
 30
0.0
  9
$EXTMIN
 10
0.0
 20
0.0
 30
0.0
  9
$LIMMIN
 10
0.0
 20
0.0
  9
$LIMMAX
 10
22.0
 20
17.0
  9
$VIEWCTR
 10
11.0
 20
8.5
  9
$VIEWSIZE
 40
17.0
  9
$CLAYER
  8
0
  9
$LTSCALE
 40
1.21
  9
$CELTYPE
  6
BYLAYER
  9
$DIMSCALE
 40
1.0
  9
$DIMASZ
 40
0.1
  9
$DIMEXO
 40
0.0625
  9
$DIMDLI
 40
0.836
  9
$DIMEXE
 40
0.125
  9
$DIMCEN
 40
0.198
  9
$DIMLFAC
 40
1.0
  9
$DIMBLK
  1
_FILLED
  9
$DIMALT
 70
1
  9
$DIMALTD
 70
2
  9
$DIMALTTD
 70
2
  9
$DIMALTF
 40
25.4
  9
$DIMTXT
 40
0.08
  9
$DIMTOL
 70
1
  9
$DIMLIM
 70
0
  9
$DIMTFAC
 40
1.0
  9
$DIMTP
 40
0.001
  9
$DIMTM
 40
0.001
  9
$DIMGAP
 40
0.09
  9
$DIMDSEP
 70
46
  9
$AUNITS
 70
0
  9
$PDMODE
 70
3
  9
$PDSIZE
 40
0.06
  9
$HANDSEED
  5
2D9
  9
$TILEMODE
 70
1
  9
$MEASUREMENT
 70
0
  9
$INSUNITS
 70
1
  0
ENDSEC
  0
SECTION
  2
CLASSES
  0
CLASS
  1
ACDBDICTIONARYWDFLT
  2
AcDbDictionaryWithDefault
  3
AutoCAD 2000
 90
0
 91
1
280
0
281
0
  0
CLASS
  1
ACDBPLACEHOLDER
  2
AcDbPlaceHolder
  3
AutoCAD 2000
 90
0
 91
1
280
0
281
0
  0
CLASS
  1
LAYOUT
  2
AcDbLayout
  3
AutoCAD 2000
 90
0
 91
0
280
0
281
0
  0
ENDSEC
  0
SECTION
  2
TABLES
  0
TABLE
  2
VPORT
  5
8
100
AcDbSymbolTable
 70
2
  0
VPORT
  5
1F4
100
AcDbSymbolTableRecord
100
AcDbViewportTableRecord
  2
*ACTIVE
 70
0
 10
0.0
 20
0.0
 11
1.0
 21
1.0
 12
11.0
 22
8.5
 13
0.0
 23
0.0
 14
1.0
 24
1.0
 15
0.0
 25
0.0
 16
0.0
 26
0.0
 36
1.0
 17
0.0
 27
0.0
 37
0.0
 40
17.0
 41
1.2941176471
 42
50.0
 43
0.0
 44
0.0
 50
0.0
 51
0.0
 71
0
 72
100
 73
1
 74
1
 75
0
 76
0
 77
0
 78
0
  0
ENDTAB
  0
TABLE
  2
LTYPE
  5
5
100
AcDbSymbolTable
 70
6
  0
LTYPE
  5
14
100
AcDbSymbolTableRecord
100
AcDbLinetypeTableRecord
  2
BYBLOCK
 70
0
  3

 72
65
 73
0
 40
0.0
  0
LTYPE
  5
15
100
AcDbSymbolTableRecord
100
AcDbLinetypeTableRecord
  2
BYLAYER
 70
0
  3

 72
65
 73
0
 40
0.0
  0
LTYPE
  5
16
100
AcDbSymbolTableRecord
100
AcDbLinetypeTableRecord
  2
CONTINUOUS
 70
64
  3
Solid line
 72
65
 73
0
 40
0.0
  0
LTYPE
  5
1F5
100
AcDbSymbolTableRecord
100
AcDbLinetypeTableRecord
  2
CENTER
 70
64
  3
____ _ ____ _ ____ _ ____ _ ____ _ ____ _ ____
 72
65
 73
4
 40
0.6
 49
0.375
 74
0
 49
-0.075
 74
0
 49
0.075
 74
0
 49
-0.075
 74
0
  0
LTYPE
  5
1F6
100
AcDbSymbolTableRecord
100
AcDbLinetypeTableRecord
  2
HIDDEN
 70
64
  3
- - - - - - - - - - - - - - - - - - - -
 72
65
 73
2
 40
0.2
 49
0.1
 74
0
 49
-0.1
 74
0
  0
LTYPE
  5
1F7
100
AcDbSymbolTableRecord
100
AcDbLinetypeTableRecord
  2
PHANTOM
 70
64
  3
_____ _ _ _____ _ _ _____ _ _ _____
 72
65
 73
6
 40
0.8
 49
0.45
 74
0
 49
-0.05
 74
0
 49
0.1
 74
0
 49
-0.05
 74
0
 49
0.1
 74
0
 49
-0.05
 74
0
  0
LTYPE
  5
1F8
100
AcDbSymbolTableRecord
100
AcDbLinetypeTableRecord
  2
DOT
 70
64
  3
. . . . . . . . . . . . . . . . . . . .
 72
65
 73
2
 40
0.2
 49
0.1
 74
0
 49
-0.1
 74
0
  0
LTYPE
  5
1F9
100
AcDbSymbolTableRecord
100
AcDbLinetypeTableRecord
  2
DASHED
 70
64
  3
- - - - - - - - - - - - - - - - - - - -
 72
65
 73
2
 40
0.2
 49
0.1
 74
0
 49
-0.1
 74
0
  0
ENDTAB
  0
TABLE
  2
LAYER
  5
2
100
AcDbSymbolTable
 70
36
  0
LAYER
  5
10
100
AcDbSymbolTableRecord
100
AcDbLayerTableRecord
  2
0
 70
0
 62
7
  6
CONTINUOUS
370
-3
390
F
  0
LAYER
  5
1FA
100
AcDbSymbolTableRecord
100
AcDbLayerTableRecord
  2
DEFAULT_1
 70
0
 62
7
  6
CENTER
370
-3
390
F
  0
LAYER
  5
1FB
100
AcDbSymbolTableRecord
100
AcDbLayerTableRecord
  2
DEFAULT_2
 70
0
 62
8
  6
HIDDEN
370
-3
390
F
  0
LAYER
  5
1FC
100
AcDbSymbolTableRecord
100
AcDbLayerTableRecord
  2
DEFAULT_3
 70
0
 62
7
  6
PHANTOM
370
-3
390
F
  0
LAYER
  5
1FD
100
AcDbSymbolTableRecord
100
AcDbLayerTableRecord
  2
ALL_FEATURES
 70
0
 62
7
  6
CONTINUOUS
370
-3
390
F
  0
LAYER
  5
1FE
100
AcDbSymbolTableRecord
100
AcDbLayerTableRecord
  2
AXES_FEATURES
 70
0
 62
7
  6
CONTINUOUS
370
-3
390
F
  0
LAYER
  5
1FF
100
AcDbSymbolTableRecord
100
AcDbLayerTableRecord
  2
DEFAULT_COORDINATE_SYSTEM
 70
0
 62
7
  6
CONTINUOUS
370
-3
390
F
  0
LAYER
  5
200
100
AcDbSymbolTableRecord
100
AcDbLayerTableRecord
  2
DEFAULT_DATUM_AXES
 70
0
 62
7
  6
CONTINUOUS
370
-3
390
F
  0
LAYER
  5
201
100
AcDbSymbolTableRecord
100
AcDbLayerTableRecord
  2
DEFAULT_DATUM_PLANES
 70
0
 62
7
  6
CONTINUOUS
370
-3
390
F
  0
LAYER
  5
202
100
AcDbSymbolTableRecord
100
AcDbLayerTableRecord
  2
DIMENSIONS
 70
0
 62
7
  6
CONTINUOUS
370
-3
390
F
  0
ENDTAB
  0
TABLE
  2
STYLE
  5
3
100
AcDbSymbolTable
 70
1
  0
STYLE
  5
11
100
AcDbSymbolTableRecord
100
AcDbTextStyleTableRecord
  2
STANDARD
 70
0
 40
0.0
 41
0.8
 50
0.0
 71
0
 42
0.2
  3
txt
  4

  0
STYLE
  5
203
100
AcDbSymbolTableRecord
100
AcDbTextStyleTableRecord
  2
TEXTSTYLE_1
 70
0
 40
0.0
 41
0.8
 50
0.0
 71
0
 42
0.2
  3
gdt
  4

  0
ENDTAB
  0
TABLE
  2
VIEW
  5
6
100
AcDbSymbolTable
 70
0
  0
ENDTAB
  0
TABLE
  2
UCS
  5
7
100
AcDbSymbolTable
 70
0
  0
ENDTAB
  0
TABLE
  2
APPID
  5
9
100
AcDbSymbolTable
 70
1
  0
APPID
  5
204
100
AcDbSymbolTableRecord
100
AcDbRegAppTableRecord
  2
ACAD
 70
0
  0
ENDTAB
  0
TABLE
  2
BLOCK_RECORD
  5
1
100
AcDbSymbolTable
 70
0
  0
BLOCK_RECORD
  5
205
100
AcDbSymbolTableRecord
100
AcDbBlockTableRecord
  2
*Model_Space
  0
BLOCK_RECORD
  5
206
100
AcDbSymbolTableRecord
100
AcDbBlockTableRecord
  2
*Paper_Space
  0
BLOCK_RECORD
  5
207
100
AcDbSymbolTableRecord
100
AcDbBlockTableRecord
  2
_FILLED
  0
ENDTAB
  0
TABLE
  2
DIMSTYLE
  5
A
100
AcDbSymbolTable
 70
1
100
AcDbDimStyleTable
 71
0
  0
DIMSTYLE
105
208
100
AcDbSymbolTableRecord
100
AcDbDimStyleTableRecord
  2
STANDARD
 70
0
  3

  4

 40
1.0
 41
0.1
 42
0.0625
 43
0.38
 44
0.125
 45
0.0
 46
0.0
 47
0.001
 48
0.001
140
0.08
141
0.09
142
0.0
143
25.4
144
1.0
145
0.0
146
1.0
147
0.09
 71
1.0
 72
0.0
 73
1
 74
1
 75
0
 76
0
 77
0
 78
4
 79
1
170
1
171
2
172
0
173
0
174
0
175
0
176
0
177
0
178
0
270
2
179
3
271
3
272
3
273
2
274
2
275
0
280
0
281
0
282
0
283
1
284
4
285
0
286
0
287
3
288
0
340
11
278
46
341
207
342
207
343
207
344
207
  0
ENDTAB
  0
ENDSEC
  0
SECTION
  2
BLOCKS
  0
BLOCK
  5
20
100
AcDbEntity
  8
0
100
AcDbBlockBegin
  2
*Model_Space
 70
0
 10
0.0
 20
0.0
 30
0.0
  3
*Model_Space
  1

  0
ENDBLK
  5
21
100
AcDbEntity
  8
0
100
AcDbBlockEnd
  0
BLOCK
  5
1C
100
AcDbEntity
  8
0
100
AcDbBlockBegin
  2
*Paper_Space
 70
0
 10
0.0
 20
0.0
 30
0.0
  3
*Paper_Space
  1

  0
ENDBLK
  5
1D
100
AcDbEntity
  8
0
100
AcDbBlockEnd
  0
BLOCK
  5
209
100
AcDbEntity
  8
0
100
AcDbBlockBegin
  2
_FILLED
 70
64
 10
0.0
 20
0.0
  3
_FILLED
  1

  0
SOLID
  5
20A
100
AcDbEntity
  8
0
  6
BYBLOCK
 62
0
100
AcDbTrace
 10
0.0
 20
0.0
 11
-1.0
 21
0.2
 12
-1.0
 22
-0.2
 13
-1.0
 23
-0.2
  0
ENDBLK
  5
20B
100
AcDbEntity
  8
0
  6
BYBLOCK
 62
0
100
AcDbBlockEnd
  0
ENDSEC
  0
SECTION
  2
ENTITIES
  0
LINE
  5
20C
100
AcDbEntity
  8
0
100
AcDbLine
 62
7
  6
CONTINUOUS
 10
8.9969519563
 20
6.119845791
 11
8.7677288626
 21
6.2563848182
  0
LINE
  5
20D
100
AcDbEntity
  8
0
100
AcDbLine
 62
9
  6
CONTINUOUS
 10
9.0258684662
 20
6.1188612686
 11
8.7951372852
 21
6.2562986031
  0
LWPOLYLINE
  5
20E
100
AcDbEntity
  8
0
100
AcDbPolyline
 62
7
  6
CONTINUOUS
 90
3
 70
0
 10
8.759964616
 20
6.2647788273
 10
8.7633274046
 20
6.2599149944
 10
8.76768117
 20
6.2564132265
  0
LINE
  5
20F
100
AcDbEntity
  8
0
100
AcDbLine
 62
7
  6
CONTINUOUS
 10
9.2460859906
 20
6.1088830625
 11
9.0065064389
 21
6.1170400436
  0
LINE
  5
210
100
AcDbEntity
  8
0
100
AcDbLine
 62
9
  6
CONTINUOUS
 10
9.2268926714
 20
6.112016984
 11
9.0258684662
 21
6.1188612686
  0
LINE
  5
211
100
AcDbEntity
  8
0
100
AcDbLine
 62
7
  6
CONTINUOUS
 10
12.3820507888
 20
6.4109005456
 11
12.6620507888
 21
6.4109005456
  0
LINE
  5
212
100
AcDbEntity
  8
0
100
AcDbLine
 62
9
  6
CONTINUOUS
 10
12.3520507888
 20
6.4409005456
 11
12.6620507888
 21
6.4409005456
  0
LINE
  5
213
100
AcDbEntity
  8
0
100
AcDbLine
 62
7
  6
CONTINUOUS
 10
8.75813025
 20
6.2706776265
 11
8.759964616
 21
6.2647788273
  0
LINE
  5
214
100
AcDbEntity
  8
0
100
AcDbLine
 62
7
  6
CONTINUOUS
 10
8.7581842571
 20
6.2768594191
 11
8.75813025
 21
6.2706776265
  0
LWPOLYLINE
  5
215
100
AcDbEntity
  8
0
100
AcDbPolyline
 62
7
  6
CONTINUOUS
 90
3
 70
0
 10
8.75818425
 20
6.2768594235
 10
8.758081475
 20
6.2710299534
 10
8.758131824
 20
6.2708577887
  0
LINE
  5
216
100
AcDbEntity
  8
0
100
AcDbLine
 62
9
  6
CONTINUOUS
 10
9.0798257215
 20
9.6689155927
 11
9.0798257217
 21
9.6858755588
  0
LINE
  5
217
100
AcDbEntity
  8
0
100
AcDbLine
 62
9
  6
CONTINUOUS
 10
8.795756231
 20
6.2740145234
 11
8.7951372852
 21
6.2562986031
  0
LWPOLYLINE
  5
218
100
AcDbEntity
  8
0
100
AcDbPolyline
 62
7
  6
CONTINUOUS
 90
3
 70
0
 10
8.9859507824
 20
8.5624004522
 10
8.9434475875
 20
7.9457943035
 10
8.8966219642
 20
7.3677846201
  0
LINE
  5
219
100
AcDbEntity
  8
0
100
AcDbLine
 62
7
  6
CONTINUOUS
 10
8.8972743402
 20
7.3749006914
 11
8.8966220715
 21
7.3677850307
  0
LWPOLYLINE
  5
21A
100
AcDbEntity
  8
0
100
AcDbPolyline
 62
7
  6
CONTINUOUS
 90
4
 70
0
 10
8.8972743268
 20
7.3749005456
 10
8.8551839815
 20
6.9731083841
 10
8.8084188866
 20
6.6064855124
 10
8.7581842574
 20
6.2768594191
  0
LINE
  5
21B
100
AcDbEntity
  8
0
100
AcDbLine
 62
9
  6
CONTINUOUS
 10
9.2352991003
 20
9.7800005456
 11
9.2352991003
 21
9.7769605117
  0
LINE
  5
21C
100
AcDbEntity
  8
0
100
AcDbLine
 62
9
  6
CONTINUOUS
 10
9.0257841121
 20
6.1163836953
 11
9.0258684662
 21
6.1188612686
  0
LINE
  5
21D
100
AcDbEntity
  8
0
100
AcDbLine
 62
9
  6
CONTINUOUS
 10
9.2268083173
 20
6.1095394107
 11
9.2268926714
 21
6.112016984
  0
LINE
  5
21E
100
AcDbEntity
  8
0
100
AcDbLine
 62
7
  6
CONTINUOUS
 10
9.203956802
 20
9.7772571491
 11
9.0582043653
 21
9.6918672648
  0
LINE
  5
21F
100
AcDbEntity
  8
0
100
AcDbLine
 62
9
  6
CONTINUOUS
 10
9.2352991003
 20
9.7769605117
 11
9.0798257215
 21
9.6858755588
  0
LINE
  5
220
100
AcDbEntity
  8
0
100
AcDbLine
 62
9
  6
CONTINUOUS
 10
9.0680443907
 20
9.6678724095
 11
9.0649424546
 21
9.6859445767
  0
LINE
  5
221
100
AcDbEntity
  8
0
100
AcDbLine
 62
7
  6
CONTINUOUS
 10
9.4993185604
 20
6.7608923136
 11
9.4746746501
 21
7.3749006947
  0
LINE
  5
222
100
AcDbEntity
  8
0
100
AcDbLine
 62
7
  6
CONTINUOUS
 10
9.506225398
 20
6.2523556754
 11
9.4993185604
 21
6.7608923136
  0
LWPOLYLINE
  5
223
100
AcDbEntity
  8
0
100
AcDbPolyline
 62
7
  6
CONTINUOUS
 90
3
 70
0
 10
9.4746746556
 20
7.3749005456
 10
9.471937541
 20
7.8104175458
 10
9.4800479717
 20
8.2063612525
  0
LINE
  5
224
100
AcDbEntity
  8
0
100
AcDbLine
 62
9
  6
CONTINUOUS
 10
9.3707092067
 20
9.7800005456
 11
9.3707092066
 21
9.7769605117
  0
LINE
  5
225
100
AcDbEntity
  8
0
100
AcDbLine
 62
9
  6
CONTINUOUS
 10
9.5410177844
 20
9.6689156058
 11
9.5410177879
 21
9.6858755555
  0
LINE
  5
226
100
AcDbEntity
  8
0
100
AcDbLine
 62
7
  6
CONTINUOUS
 10
9.5062252034
 20
6.2523491205
 11
9.5062202955
 21
6.2520988411
  0
LINE
  5
227
100
AcDbEntity
  8
0
100
AcDbLine
 62
7
  6
CONTINUOUS
 10
9.4800479717
 20
8.2063612525
 11
9.4989507888
 21
8.5624005456
  0
LINE
  5
228
100
AcDbEntity
  8
0
100
AcDbLine
 62
9
  6
CONTINUOUS
 10
9.4788242393
 20
8.5624006519
 11
9.4790844166
 21
8.5647095513
  0
LINE
  5
229
100
AcDbEntity
  8
0
100
AcDbLine
 62
7
  6
CONTINUOUS
 10
12.3520507888
 20
8.0112389394
 11
12.3220507888
 21
8.0112389394
  0
LINE
  5
22A
100
AcDbEntity
  8
0
100
AcDbLine
 62
9
  6
CONTINUOUS
 10
12.3520507888
 20
8.0312289328
 11
12.3220507827
 21
8.0312289328
  0
LINE
  5
22B
100
AcDbEntity
  8
0
100
AcDbLine
 62
7
  6
CONTINUOUS
 10
9.8214507888
 20
8.8859005456
 11
9.8214507888
 21
9.4359005455
  0
LINE
  5
22C
100
AcDbEntity
  8
0
100
AcDbLine
 62
7
  6
CONTINUOUS
 10
9.8524507888
 20
8.8809003815
 11
9.8524507888
 21
9.440900599
  0
LINE
  5
22D
100
AcDbEntity
  8
0
100
AcDbLine
 62
9
  6
CONTINUOUS
 10
9.4788242393
 20
8.5624006519
 11
9.006002775
 21
8.5624005456
  0
LINE
  5
22E
100
AcDbEntity
  8
0
100
AcDbLine
 62
9
  6
CONTINUOUS
 10
9.4788242273
 20
8.5624005456
 11
9.4986989845
 21
8.560165859
  0
LWPOLYLINE
  5
22F
100
AcDbEntity
  8
0
100
AcDbPolyline
 62
7
  6
CONTINUOUS
 90
4
 70
0
 10
11.9889557665
 20
10.095463097
 10
11.7194159608
 20
9.9450136265
 10
11.4483323381
 20
9.8147280526
 10
11.1830516431
 20
9.707138117
  0
LINE
  5
230
100
AcDbEntity
  8
0
100
AcDbLine
 62
7
  6
CONTINUOUS
 10
11.1831251019
 20
8.6146352351
 11
11.2319671687
 21
8.5962870892
  0
LINE
  5
231
100
AcDbEntity
  8
0
100
AcDbLine
 62
7
  6
CONTINUOUS
 10
12.0873522067
 20
10.1556716876
 11
12.0815277531
 21
10.1515200285
  0
LWPOLYLINE
  5
232
100
AcDbEntity
  8
0
100
AcDbPolyline
 62
7
  6
CONTINUOUS
 90
4
 70
0
 10
12.3214939993
 20
10.3104940137
 10
12.2451073235
 20
10.2581849414
 10
12.1630858268
 20
10.2039644731
 10
12.08735085
 20
10.1556738074
  0
LINE
  5
233
100
AcDbEntity
  8
0
100
AcDbLine
 62
7
  6
CONTINUOUS
 10
9.8524507888
 20
8.9079005456
 11
9.8214507888
 21
8.9079005456
  0
LWPOLYLINE
  5
234
100
AcDbEntity
  8
0
100
AcDbPolyline
 62
7
  6
CONTINUOUS
 90
4
 70
0
 10
12.0815277531
 20
10.1515200285
 10
12.0716650153
 20
10.1414307233
 10
12.0644403195
 20
10.129337971
 10
12.0617649667
 20
10.122166047
  0
LINE
  5
235
100
AcDbEntity
  8
0
100
AcDbLine
 62
9
  6
CONTINUOUS
 10
9.3707092067
 20
9.7769605117
 11
9.5392852003
 21
9.6945946585
  0
LINE
  5
236
100
AcDbEntity
  8
0
100
AcDbLine
 62
7
  6
CONTINUOUS
 10
9.4011825465
 20
9.7779702965
 11
9.546019762
 21
9.7072031573
  0
LINE
  5
237
100
AcDbEntity
  8
0
100
AcDbLine
 62
7
  6
CONTINUOUS
 10
9.8524507888
 20
9.4139005456
 11
9.8214507888
 21
9.4139005456
  0
LINE
  5
238
100
AcDbEntity
  8
0
100
AcDbLine
 62
9
  6
CONTINUOUS
 10
9.5410177848
 20
9.6689156058
 11
9.0798257215
 21
9.6689155927
  0
LINE
  5
239
100
AcDbEntity
  8
0
100
AcDbLine
 62
9
  6
CONTINUOUS
 10
9.5410177977
 20
9.6858755555
 11
9.0798257215
 21
9.6858755588
  0
LINE
  5
23A
100
AcDbEntity
  8
0
100
AcDbLine
 62
9
  6
CONTINUOUS
 10
9.0680443907
 20
9.6678724095
 11
9.0480604875
 21
9.6686746644
  0
LINE
  5
23B
100
AcDbEntity
  8
0
100
AcDbLine
 62
9
  6
CONTINUOUS
 10
9.5605960547
 20
9.673001132
 11
9.541017781
 21
9.6689156223
  0
LINE
  5
23C
100
AcDbEntity
  8
0
100
AcDbLine
 62
9
  6
CONTINUOUS
 10
9.2352991003
 20
9.7769605117
 11
9.3707092067
 21
9.7769605117
  0
LINE
  5
23D
100
AcDbEntity
  8
0
100
AcDbLine
 62
7
  6
CONTINUOUS
 10
9.2140666801
 20
9.7800005456
 11
9.3924025664
 21
9.7800005456
  0
LINE
  5
23E
100
AcDbEntity
  8
0
100
AcDbLine
 62
7
  6
CONTINUOUS
 10
8.7581849719
 20
6.276863739
 11
8.7582442458
 21
6.2769043759
  0
LWPOLYLINE
  5
23F
100
AcDbEntity
  8
0
100
AcDbPolyline
 62
7
  6
CONTINUOUS
 90
5
 70
0
 10
12.0412538842
 20
10.1079900968
 10
12.0306772405
 20
10.1080898667
 10
12.0138658186
 20
10.1056542885
 10
11.9978115044
 20
10.1001032094
 10
11.9889575397
 20
10.0954601138
  0
LINE
  5
240
100
AcDbEntity
  8
0
100
AcDbLine
 62
9
  6
CONTINUOUS
 10
12.087237099
 20
8.1680445166
 11
12.0873520368
 21
8.1661262522
  0
LINE
  5
241
100
AcDbEntity
  8
0
100
AcDbLine
 62
9
  6
CONTINUOUS
 10
11.9890726393
 20
10.0934491056
 11
11.9889582329
 21
10.0954644309
  0
LINE
  5
242
100
AcDbEntity
  8
0
100
AcDbLine
 62
9
  6
CONTINUOUS
 10
11.9890725793
 20
8.245420295
 11
11.9890733636
 21
10.0763806409
  0
LINE
  5
243
100
AcDbEntity
  8
0
100
AcDbLine
 62
9
  6
CONTINUOUS
 10
12.0872367665
 20
10.1369076744
 11
12.0872376085
 21
8.1848930485
  0
LINE
  5
244
100
AcDbEntity
  8
0
100
AcDbLine
 62
9
  6
CONTINUOUS
 10
11.9889566693
 20
8.2263370845
 11
11.9890728876
 21
8.2283516337
  0
LINE
  5
245
100
AcDbEntity
  8
0
100
AcDbLine
 62
9
  6
CONTINUOUS
 10
12.0873491001
 20
10.1556727112
 11
12.0872376783
 21
10.1537567822
  0
LWPOLYLINE
  5
246
100
AcDbEntity
  8
0
100
AcDbPolyline
 62
7
  6
CONTINUOUS
 90
16
 70
0
 10
9.4981984839
 20
6.2342530773
 10
9.4997617527
 20
6.2355639782
 10
9.5011621129
 20
6.2370031327
 10
9.5023880853
 20
6.238543325
 10
9.5034381857
 20
6.2401646015
 10
9.5043024586
 20
6.2418262459
 10
9.5049788789
 20
6.2434806995
 10
9.5054784092
 20
6.245087662
 10
9.505822581
 20
6.2466268318
 10
9.506025194
 20
6.2480033903
 10
9.5061057763
 20
6.2488938891
 10
9.506133605
 20
6.2493622553
 10
9.5061488367
 20
6.2497016516
 10
9.5061605705
 20
6.2500172466
 10
9.5061712573
 20
6.2503432631
 10
9.5062202626
 20
6.2520977461
  0
LINE
  5
247
100
AcDbEntity
  8
0
100
AcDbLine
 62
9
  6
CONTINUOUS
 10
12.3520507888
 20
10.290572138
 11
12.3220507902
 21
10.290572138
  0
LINE
  5
248
100
AcDbEntity
  8
0
100
AcDbLine
 62
7
  6
CONTINUOUS
 10
12.3520507888
 20
10.3105621313
 11
12.3220507896
 21
10.3105621313
  0
LINE
  5
249
100
AcDbEntity
  8
0
100
AcDbLine
 62
7
  6
CONTINUOUS
 10
12.3220507902
 20
10.290572138
 11
12.3220507827
 21
8.0312289328
  0
LINE
  5
24A
100
AcDbEntity
  8
0
100
AcDbLine
 62
7
  6
CONTINUOUS
 10
12.3520507888
 20
6.4409005456
 11
12.3520507888
 21
11.8809005456
  0
LINE
  5
24B
100
AcDbEntity
  8
0
100
AcDbLine
 62
9
  6
CONTINUOUS
 10
12.3820507888
 20
6.4109005456
 11
12.3820507888
 21
11.9109005456
  0
LWPOLYLINE
  5
24C
100
AcDbEntity
  8
0
100
AcDbPolyline
 62
7
  6
CONTINUOUS
 90
3
 70
0
 10
9.4951884033
 20
6.2323743938
 10
9.4964895554
 20
6.2330959954
 10
9.4981984839
 20
6.2342530773
  0
LINE
  5
24D
100
AcDbEntity
  8
0
100
AcDbLine
 62
7
  6
CONTINUOUS
 10
12.6620507888
 20
6.4109005456
 11
12.6620507888
 21
11.9109005456
  0
LINE
  5
24E
100
AcDbEntity
  8
0
100
AcDbLine
 62
9
  6
CONTINUOUS
 10
9.2268926714
 20
6.112016984
 11
9.4653614484
 21
6.2328974093
  0
LINE
  5
24F
100
AcDbEntity
  8
0
100
AcDbLine
 62
7
  6
CONTINUOUS
 10
9.2558091813
 20
6.1110324617
 11
9.4951884085
 21
6.2323743965
  0
LINE
  5
250
100
AcDbEntity
  8
0
100
AcDbLine
 62
9
  6
CONTINUOUS
 10
12.3520507888
 20
11.8809005456
 11
12.6620507888
 21
11.8809005456
  0
LINE
  5
251
100
AcDbEntity
  8
0
100
AcDbLine
 62
7
  6
CONTINUOUS
 10
12.3820507888
 20
11.9109005456
 11
12.6620507888
 21
11.9109005456
  0
ARC
  5
252
100
AcDbEntity
  8
0
100
AcDbCircle
 62
9
  6
CONTINUOUS
 10
-25.6348932681
 20
11.061003949
 40
34.7308896752
100
AcDbArc
 50
355.8744734308
 51
357.7011248829
  0
ARC
  5
253
100
AcDbEntity
  8
0
100
AcDbCircle
 62
7
  6
CONTINUOUS
 10
-25.6346382504
 20
11.0609896524
 40
34.7106342898
100
AcDbArc
 50
355.8745134777
 51
357.7011315963
  0
ARC
  5
254
100
AcDbEntity
  8
0
100
AcDbCircle
 62
7
  6
CONTINUOUS
 10
-13.4286683849
 20
9.3758216849
 40
22.4154277981
100
AcDbArc
 50
354.8786550279
 51
355.0487175875
  0
ARC
  5
255
100
AcDbEntity
  8
0
100
AcDbCircle
 62
9
  6
CONTINUOUS
 10
1.5850674698
 20
6.5242666191
 40
7.885678741
100
AcDbArc
 50
357.8824870383
 51
358.0237102983
  0
ARC
  5
256
100
AcDbEntity
  8
0
100
AcDbCircle
 62
7
  6
CONTINUOUS
 10
9.0351852063
 20
3.2955024886
 40
5.7479299063
100
AcDbArc
 50
55.1284685705
 51
57.9267654663
  0
ARC
  5
257
100
AcDbEntity
  8
0
100
AcDbCircle
 62
9
  6
CONTINUOUS
 10
9.2082409079
 20
3.6340560372
 40
5.3850477719
100
AcDbArc
 50
54.6789701344
 51
57.6813209932
  0
ARC
  5
258
100
AcDbEntity
  8
0
100
AcDbCircle
 62
9
  6
CONTINUOUS
 10
9.2254791954
 20
3.6283439524
 40
5.3664270712
100
AcDbArc
 50
54.7636222726
 51
57.7732948816
  0
ARC
  5
259
100
AcDbEntity
  8
0
100
AcDbCircle
 62
7
  6
CONTINUOUS
 10
9.3645816692
 20
3.8404969536
 40
5.1110597655
100
AcDbArc
 50
59.1144370877
 51
63.5762647601
  0
ARC
  5
25A
100
AcDbEntity
  8
0
100
AcDbCircle
 62
7
  6
CONTINUOUS
 10
9.4714872834
 20
4.0490828792
 40
4.8766925455
100
AcDbArc
 50
63.6105114802
 51
63.9228002447
  0
ARC
  5
25B
100
AcDbEntity
  8
0
100
AcDbCircle
 62
7
  6
CONTINUOUS
 10
9.5589100633
 20
4.2339414953
 40
4.6722234017
100
AcDbArc
 50
63.8892348534
 51
67.8623047809
  0
ARC
  5
25C
100
AcDbEntity
  8
0
100
AcDbCircle
 62
7
  6
CONTINUOUS
 10
9.625887633
 20
4.3966039459
 40
4.4963129315
100
AcDbArc
 50
67.871777079
 51
69.0717092969
  0
ARC
  5
25D
100
AcDbEntity
  8
0
100
AcDbCircle
 62
7
  6
CONTINUOUS
 10
12.035460538
 20
8.3057514615
 40
0.0902362604
100
AcDbArc
 50
239.0646911651
 51
273.721127597
  0
ARC
  5
25E
100
AcDbEntity
  8
0
100
AcDbCircle
 62
7
  6
CONTINUOUS
 10
12.0351171676
 20
8.3035977369
 40
0.09
100
AcDbArc
 50
239.1431809943
 51
273.9098030093
  0
ARC
  5
25F
100
AcDbEntity
  8
0
100
AcDbCircle
 62
7
  6
CONTINUOUS
 10
12.1192039996
 20
8.2169735969
 40
0.06
100
AcDbArc
 50
196.7979840265
 51
237.9360111637
  0
ARC
  5
260
100
AcDbEntity
  8
0
100
AcDbCircle
 62
9
  6
CONTINUOUS
 10
12.1191660343
 20
8.2187132113
 40
0.0598890761
100
AcDbArc
 50
196.6407005458
 51
237.7828712406
  0
ARC
  5
261
100
AcDbEntity
  8
0
100
AcDbCircle
 62
9
  6
CONTINUOUS
 10
12.093841922
 20
8.2220543229
 40
0.0353308619
100
AcDbArc
 50
212.2356326437
 51
214.8417016739
  0
ARC
  5
262
100
AcDbEntity
  8
0
100
AcDbCircle
 62
7
  6
CONTINUOUS
 10
12.3820507888
 20
6.4409005456
 40
0.03
100
AcDbArc
 50
180.0
 51
270.0
  0
ARC
  5
263
100
AcDbEntity
  8
0
100
AcDbCircle
 62
7
  6
CONTINUOUS
 10
12.0426238465
 20
8.1956419169
 40
0.0201051436
100
AcDbArc
 50
54.6628382587
 51
93.7270147889
  0
ARC
  5
264
100
AcDbEntity
  8
0
100
AcDbCircle
 62
7
  6
CONTINUOUS
 10
9.0071869859
 20
6.1370284616
 40
0.02
100
AcDbArc
 50
239.2194346999
 51
268.05
  0
ARC
  5
265
100
AcDbEntity
  8
0
100
AcDbCircle
 62
7
  6
CONTINUOUS
 10
9.2467665376
 20
6.1288714806
 40
0.02
100
AcDbArc
 50
268.05
 51
296.8805653001
  0
ARC
  5
266
100
AcDbEntity
  8
0
100
AcDbCircle
 62
7
  6
CONTINUOUS
 10
12.0426176263
 20
8.1938537479
 40
0.02
100
AcDbArc
 50
16.7979840247
 51
93.9098030093
  0
ARC
  5
267
100
AcDbEntity
  8
0
100
AcDbCircle
 62
7
  6
CONTINUOUS
 10
8.7779638863
 20
6.2735674682
 40
0.0199999793
100
AcDbArc
 50
170.395536464
 51
239.2194187731
  0
ARC
  5
268
100
AcDbEntity
  8
0
100
AcDbCircle
 62
7
  6
CONTINUOUS
 10
12.0428305187
 20
8.195871113
 40
0.0197910712
100
AcDbArc
 50
16.7140195788
 51
54.6409679331
  0
ARC
  5
269
100
AcDbEntity
  8
0
100
AcDbCircle
 62
7
  6
CONTINUOUS
 10
12.3076851976
 20
8.0312449179
 40
0.014365594
100
AcDbArc
 50
346.3447506414
 51
359.9362449491
  0
ARC
  5
26A
100
AcDbEntity
  8
0
100
AcDbCircle
 62
9
  6
CONTINUOUS
 10
9.2081468322
 20
14.6878976179
 40
5.3852268583
100
AcDbArc
 50
302.3186473953
 51
305.320908619
  0
ARC
  5
26B
100
AcDbEntity
  8
0
100
AcDbCircle
 62
7
  6
CONTINUOUS
 10
9.2254645625
 20
14.6934750766
 40
5.3664501822
100
AcDbArc
 50
302.2267415659
 51
305.2363969237
  0
ARC
  5
26C
100
AcDbEntity
  8
0
100
AcDbCircle
 62
7
  6
CONTINUOUS
 10
10.0303879148
 20
9.770133458
 40
0.4797398316
100
AcDbArc
 50
189.3162842694
 51
189.4577838245
  0
ARC
  5
26D
100
AcDbEntity
  8
0
100
AcDbCircle
 62
7
  6
CONTINUOUS
 10
10.0278418142
 20
9.769709356
 40
0.4771586515
100
AcDbArc
 50
189.4577886704
 51
189.5942876745
  0
ARC
  5
26E
100
AcDbEntity
  8
0
100
AcDbCircle
 62
7
  6
CONTINUOUS
 10
10.0238323891
 20
9.7690295864
 40
0.4730920102
100
AcDbArc
 50
189.5940443926
 51
189.9020514858
  0
ARC
  5
26F
100
AcDbEntity
  8
0
100
AcDbCircle
 62
9
  6
CONTINUOUS
 10
10.0001169861
 20
9.7816361364
 40
0.4689799076
100
AcDbArc
 50
190.6959673786
 51
191.7820333179
  0
ARC
  5
270
100
AcDbEntity
  8
0
100
AcDbCircle
 62
7
  6
CONTINUOUS
 10
10.019351936
 20
9.7682735604
 40
0.4685483346
100
AcDbArc
 50
189.3103151942
 51
190.6916064102
  0
ARC
  5
271
100
AcDbEntity
  8
0
100
AcDbCircle
 62
7
  6
CONTINUOUS
 10
9.9986299044
 20
9.7643808934
 40
0.4474638603
100
AcDbArc
 50
190.694079771
 51
191.7836671001
  0
ARC
  5
272
100
AcDbEntity
  8
0
100
AcDbCircle
 62
9
  6
CONTINUOUS
 10
12.0354608181
 20
10.01604833
 40
0.0902364233
100
AcDbArc
 50
86.2790698407
 51
120.9352894572
  0
ARC
  5
273
100
AcDbEntity
  8
0
100
AcDbCircle
 62
7
  6
CONTINUOUS
 10
12.1191657706
 20
10.1030893477
 40
0.0598889124
100
AcDbArc
 50
122.2170871879
 51
163.3603827941
  0
ARC
  5
274
100
AcDbEntity
  8
0
100
AcDbCircle
 62
9
  6
CONTINUOUS
 10
12.0938490168
 20
10.0997465437
 40
0.0353377039
100
AcDbArc
 50
145.1633840403
 51
147.7686018882
  0
ARC
  5
275
100
AcDbEntity
  8
0
100
AcDbCircle
 62
7
  6
CONTINUOUS
 10
12.3820507888
 20
11.8809005456
 40
0.03
100
AcDbArc
 50
90.0
 51
180.0
  0
ARC
  5
276
100
AcDbEntity
  8
0
100
AcDbCircle
 62
7
  6
CONTINUOUS
 10
12.0426237908
 20
10.1261590839
 40
0.0201052522
100
AcDbArc
 50
266.2732765209
 51
305.3304864863
  0
ARC
  5
277
100
AcDbEntity
  8
0
100
AcDbCircle
 62
7
  6
CONTINUOUS
 10
12.0426176245
 20
10.1279470152
 40
0.0200000034
100
AcDbArc
 50
266.0908259318
 51
343.2000766381
  0
ARC
  5
278
100
AcDbEntity
  8
0
100
AcDbCircle
 62
7
  6
CONTINUOUS
 10
9.3924025664
 20
9.7600005456
 40
0.02
100
AcDbArc
 50
63.959968866
 51
89.9999999999
  0
ARC
  5
279
100
AcDbEntity
  8
0
100
AcDbCircle
 62
7
  6
CONTINUOUS
 10
9.2140666801
 20
9.7600005456
 40
0.02
100
AcDbArc
 50
90.0
 51
120.3641445256
  0
ARC
  5
27A
100
AcDbEntity
  8
0
100
AcDbCircle
 62
7
  6
CONTINUOUS
 10
9.0683142434
 20
9.6746106613
 40
0.02
100
AcDbArc
 50
120.3641447508
 51
177.7122155187
  0
ARC
  5
27B
100
AcDbEntity
  8
0
100
AcDbCircle
 62
7
  6
CONTINUOUS
 10
9.5372397819
 20
9.6892334063
 40
0.02
100
AcDbArc
 50
9.3163491667
 51
63.9599687386
  0
ARC
  5
27C
100
AcDbEntity
  8
0
100
AcDbCircle
 62
7
  6
CONTINUOUS
 10
12.0428302608
 20
10.125929895
 40
0.0197913288
100
AcDbArc
 50
305.3524586859
 51
343.286979932
  0
ARC
  5
27D
100
AcDbEntity
  8
0
100
AcDbCircle
 62
7
  6
CONTINUOUS
 10
12.3077776269
 20
10.2905680594
 40
0.014273164
100
AcDbArc
 50
0.0163724022
 51
13.6956901226
  0
SPLINE
  5
27E
100
AcDbEntity
  8
0
100
AcDbSpline
 62
7
  6
CONTINUOUS
 70
0
 71
3
 72
15
 73
11
 74
0
 42
0.0000001
 43
0.0000001
 44
0.0000000001
 40
0.0
 40
0.0
 40
0.0
 40
0.0
 40
0.1233448863
 40
0.247022215
 40
0.3710093379
 40
0.4955636263
 40
0.6207485718
 40
0.7465821094
 40
0.8731298331
 40
1.0
 40
1.0
 40
1.0
 40
1.0
 10
9.5062202511
 20
6.2520978054
 30
0.0
 10
9.506192457
 20
6.2510480078
 30
0.0
 10
9.5059587408
 20
6.2489461062
 30
0.0
 10
9.5050870323
 20
6.2458952965
 30
0.0
 10
9.5037140545
 20
6.2430224617
 30
0.0
 10
9.5018777012
 20
6.2404063007
 30
0.0
 10
9.499628933
 20
6.2381131018
 30
0.0
 10
9.497024434
 20
6.236204547
 30
0.0
 10
9.4941355569
 20
6.2347329579
 30
0.0
 10
9.4920722858
 20
6.2340662913
 30
0.0
 10
9.4910213204
 20
6.233816771
 30
0.0
  0
SPLINE
  5
27F
100
AcDbEntity
  8
0
100
AcDbSpline
 62
7
  6
CONTINUOUS
 70
0
 71
3
 72
14
 73
10
 74
0
 42
0.0000001
 43
0.0000001
 44
0.0000000001
 40
0.0
 40
0.0
 40
0.0
 40
0.0
 40
0.2499161026
 40
0.3749068038
 40
0.4999110424
 40
0.6249221746
 40
0.7499526667
 40
0.8749873526
 40
1.0
 40
1.0
 40
1.0
 40
1.0
 10
9.4746734679
 20
7.3749007411
 30
0.0
 10
9.4709838406
 20
7.4736811497
 30
0.0
 10
9.4663029489
 20
7.621905332
 30
0.0
 10
9.463672777
 20
7.8196235582
 30
0.0
 10
9.463993781
 20
7.9679565963
 30
0.0
 10
9.4671039119
 20
8.1162761201
 30
0.0
 10
9.4735054846
 20
8.2645060929
 30
0.0
 10
9.4836429751
 20
8.4125302152
 30
0.0
 10
9.4931695762
 20
8.5109888704
 30
0.0
 10
9.4986944445
 20
8.560125481
 30
0.0
  0
SPLINE
  5
280
100
AcDbEntity
  8
0
100
AcDbSpline
 62
7
  6
CONTINUOUS
 70
0
 71
3
 72
10
 73
6
 74
0
 42
0.0000001
 43
0.0000001
 44
0.0000000001
 40
0.0
 40
0.0
 40
0.0
 40
0.0
 40
0.2495156333
 40
0.4996198808
 40
1.0
 40
1.0
 40
1.0
 40
1.0
 10
8.9031150105
 20
7.4411760448
 30
0.0
 10
8.9111885127
 20
7.5343363154
 30
0.0
 10
8.926244079
 20
7.7209733029
 30
0.0
 10
8.9535021727
 20
8.0947458312
 30
0.0
 10
8.9724518676
 20
8.3753626321
 30
0.0
 10
8.9859507888
 20
8.5624005456
 30
0.0
  0
LINE
  5
281
100
AcDbEntity
  8
0
100
AcDbLine
 62
7
  6
CONTINUOUS
 10
12.0617643856
 20
10.1221528331
 11
12.0617855478
 21
10.1202383408
  0
SPLINE
  5
282
100
AcDbEntity
  8
0
100
AcDbSpline
 62
7
  6
CONTINUOUS
 70
0
 71
3
 72
16
 73
12
 74
0
 42
0.0000001
 43
0.0000001
 44
0.0000000001
 40
0.0
 40
0.0
 40
0.0
 40
0.0
 40
0.1214800178
 40
0.2441904274
 40
0.3680456375
 40
0.4303737528
 40
0.4929481347
 40
0.6187528587
 40
0.7453106802
 40
0.8724613667
 40
1.0
 40
1.0
 40
1.0
 40
1.0
 10
11.1830428419
 20
9.7071350679
 30
0.0
 10
11.1312336817
 20
9.6882096697
 30
0.0
 10
11.0263714106
 20
9.652103465
 30
0.0
 10
10.8664096846
 20
9.6036256383
 30
0.0
 10
10.7307113381
 20
9.5680297957
 30
0.0
 10
10.6206780825
 20
9.5425113983
 30
0.0
 10
10.5093079101
 20
9.518932391
 30
0.0
 10
10.3685782925
 20
9.4933589961
 30
0.0
 10
10.1979377253
 20
9.4690860308
 30
0.0
 10
10.0257178076
 20
9.4512273554
 30
0.0
 10
9.9102950318
 20
9.44362757
 30
0.0
 10
9.8524507938
 20
9.4409005458
 30
0.0
  0
SPLINE
  5
283
100
AcDbEntity
  8
0
100
AcDbSpline
 62
7
  6
CONTINUOUS
 70
0
 71
3
 72
16
 73
12
 74
0
 42
0.0000001
 43
0.0000001
 44
0.0000000001
 40
0.0
 40
0.0
 40
0.0
 40
0.0
 40
0.1214801009
 40
0.2441902737
 40
0.3680455853
 40
0.430373868
 40
0.4929484587
 40
0.6187534318
 40
0.7453110219
 40
0.8724614708
 40
1.0
 40
1.0
 40
1.0
 40
1.0
 10
11.1829750481
 20
8.614690414
 30
0.0
 10
11.1311683083
 20
8.6336140373
 30
0.0
 10
11.0263111199
 20
8.6697167517
 30
0.0
 10
10.8663572204
 20
8.7181897955
 30
0.0
 10
10.7306656648
 20
8.7537822917
 30
0.0
 10
10.6206377821
 20
8.7792983462
 30
0.0
 10
10.5092730185
 20
8.8028751727
 30
0.0
 10
10.3685505702
 20
8.8284462077
 30
0.0
 10
10.1979190403
 20
8.8527171735
 30
0.0
 10
10.0257084315
 20
8.8705742236
 30
0.0
 10
9.9102919235
 20
8.8781734729
 30
0.0
 10
9.8524508042
 20
8.8809005449
 30
0.0
  0
LINE
  5
284
100
AcDbEntity
  8
0
100
AcDbLine
 62
7
  6
CONTINUOUS
 10
11.9882165515
 20
8.2267791983
 11
11.9889566693
 21
8.2263370845
  0
LINE
  5
285
100
AcDbEntity
  8
0
100
AcDbLine
 62
7
  6
CONTINUOUS
 10
12.3216449902
 20
10.3102735224
 11
12.3220507892
 21
10.3105621327
  0
LINE
  5
286
100
AcDbEntity
  8
0
100
AcDbLine
 62
7
  6
CONTINUOUS
 10
12.3220507888
 20
8.0112389394
 11
12.3216447391
 21
8.0115275518
  0
LINE
  5
287
100
AcDbEntity
  8
0
100
AcDbLine
 62
7
  6
CONTINUOUS
 10
9.4986944481
 20
8.5601254741
 11
9.4989512015
 21
8.5624042005
  0
SPLINE
  5
288
100
AcDbEntity
  8
0
100
AcDbSpline
 62
7
  6
CONTINUOUS
 70
0
 71
3
 72
13
 73
9
 74
0
 42
0.0000001
 43
0.0000001
 44
0.0000000001
 40
0.0
 40
0.0
 40
0.0
 40
0.0
 40
0.2495218181
 40
0.3744596095
 40
0.4994669779
 40
0.6245291831
 40
0.7496432884
 40
1.0
 40
1.0
 40
1.0
 40
1.0
 10
9.5062251988
 20
6.2523491178
 30
0.0
 10
9.5074730307
 20
6.3452188523
 30
0.0
 10
9.5067280086
 20
6.4846294488
 30
0.0
 10
9.5023063548
 20
6.6704905814
 30
0.0
 10
9.4977207926
 20
6.8100041439
 30
0.0
 10
9.4922785888
 20
6.9495509316
 30
0.0
 10
9.4844077649
 20
7.1356951327
 30
0.0
 10
9.4784166319
 20
7.2753270227
 30
0.0
 10
9.4749152143
 20
7.3684501045
 30
0.0
  0
LINE
  5
289
100
AcDbEntity
  8
0
100
AcDbLine
 62
7
  6
CONTINUOUS
 10
8.9860566377
 20
8.5638676564
 11
8.985950782
 21
8.5624004522
  0
LINE
  5
28A
100
AcDbEntity
  8
0
100
AcDbLine
 62
7
  6
CONTINUOUS
 10
9.0480604879
 20
9.6686746643
 11
9.0483301849
 21
9.6754090365
  0
SPLINE
  5
28B
100
AcDbEntity
  8
0
100
AcDbSpline
 62
7
  6
CONTINUOUS
 70
0
 71
3
 72
9
 73
5
 74
0
 42
0.0000001
 43
0.0000001
 44
0.0000000001
 40
0.0
 40
0.0
 40
0.0
 40
0.0
 40
0.4259270535
 40
1.0
 40
1.0
 40
1.0
 40
1.0
 10
9.8214507893
 20
9.4359005455
 30
0.0
 10
9.7597386395
 20
9.4440058822
 30
0.0
 10
9.6395267484
 20
9.4885929386
 30
0.0
 10
9.5772522918
 20
9.5931836641
 30
0.0
 10
9.5605960572
 20
9.6730011641
 30
0.0
  0
SPLINE
  5
28C
100
AcDbEntity
  8
0
100
AcDbSpline
 62
7
  6
CONTINUOUS
 70
0
 71
3
 72
8
 73
4
 74
0
 42
0.0000001
 43
0.0000001
 44
0.0000000001
 40
0.0
 40
0.0
 40
0.0
 40
0.0
 40
1.0
 40
1.0
 40
1.0
 40
1.0
 10
9.5605960572
 20
9.6730011641
 30
0.0
 10
9.5645028784
 20
9.654279484
 30
0.0
 10
9.5694601771
 20
9.6366457449
 30
0.0
 10
9.5754679536
 20
9.6200999469
 30
0.0
  0
SPLINE
  5
28D
100
AcDbEntity
  8
0
100
AcDbSpline
 62
7
  6
CONTINUOUS
 70
0
 71
3
 72
8
 73
4
 74
0
 42
0.0000001
 43
0.0000001
 44
0.0000000001
 40
0.0
 40
0.0
 40
0.0
 40
0.0
 40
1.0
 40
1.0
 40
1.0
 40
1.0
 10
9.7653476339
 20
9.4470499268
 30
0.0
 10
9.7829687879
 20
9.442215056
 30
0.0
 10
9.8016698397
 20
9.4384985956
 30
0.0
 10
9.8214507892
 20
9.4359005455
 30
0.0
  0
SPLINE
  5
28E
100
AcDbEntity
  8
0
100
AcDbSpline
 62
7
  6
CONTINUOUS
 70
0
 71
3
 72
8
 73
4
 74
0
 42
0.0000001
 43
0.0000001
 44
0.0000000001
 40
0.0
 40
0.0
 40
0.0
 40
0.0
 40
1.0
 40
1.0
 40
1.0
 40
1.0
 10
9.5103880594
 20
8.6284737408
 30
0.0
 10
9.5055480878
 20
8.6077092408
 30
0.0
 10
9.5017363291
 20
8.5856904016
 30
0.0
 10
9.4989527833
 20
8.5624172232
 30
0.0
  0
SPLINE
  5
28F
100
AcDbEntity
  8
0
100
AcDbSpline
 62
7
  6
CONTINUOUS
 70
0
 71
3
 72
9
 73
5
 74
0
 42
0.0000001
 43
0.0000001
 44
0.0000000001
 40
0.0
 40
0.0
 40
0.0
 40
0.0
 40
0.617060397
 40
1.0
 40
1.0
 40
1.0
 40
1.0
 10
9.4989512248
 20
8.5624041916
 30
0.0
 10
9.5143402486
 20
8.6910918864
 30
0.0
 10
9.5902243783
 20
8.8374927144
 30
0.0
 10
9.7486691121
 20
8.8831760671
 30
0.0
 10
9.8214507888
 20
8.8859005456
 30
0.0
  0
LINE
  5
290
100
AcDbEntity
  8
0
100
AcDbLine
 62
7
  6
CONTINUOUS
 10
12.0617854597
 20
8.2015629238
 11
12.0617642196
 21
8.1996337102
  0
SPLINE
  5
291
100
AcDbEntity
  8
0
100
AcDbSpline
 62
7
  6
CONTINUOUS
 70
0
 71
3
 72
11
 73
7
 74
0
 42
0.0000001
 43
0.0000001
 44
0.0000000001
 40
0.0
 40
0.0
 40
0.0
 40
0.0
 40
0.2442094695
 40
0.4922318317
 40
0.7441452326
 40
1.0
 40
1.0
 40
1.0
 40
1.0
 10
11.9890728876
 20
8.2283516337
 30
0.0
 10
11.9265596213
 20
8.265793211
 30
0.0
 10
11.7989111052
 20
8.3385539422
 30
0.0
 10
11.601168794
 20
8.4397202331
 30
0.0
 10
11.3956837142
 20
8.5328400868
 30
0.0
 10
11.2546839311
 20
8.5884970674
 30
0.0
 10
11.1829750481
 20
8.614690414
 30
0.0
  0
SPLINE
  5
292
100
AcDbEntity
  8
0
100
AcDbSpline
 62
7
  6
CONTINUOUS
 70
0
 71
3
 72
11
 73
7
 74
0
 42
0.0000001
 43
0.0000001
 44
0.0000000001
 40
0.0
 40
0.0
 40
0.0
 40
0.0
 40
0.2442097812
 40
0.4922329913
 40
0.7441465382
 40
1.0
 40
1.0
 40
1.0
 40
1.0
 10
11.9890726393
 20
10.0934491056
 30
0.0
 10
11.9265644525
 20
10.0560103308
 30
0.0
 10
11.7989260755
 20
9.9832550968
 30
0.0
 10
11.6011998455
 20
9.8820959796
 30
0.0
 10
11.3957324319
 20
9.7889815984
 30
0.0
 10
11.2547451648
 20
9.7333272511
 30
0.0
 10
11.1830428419
 20
9.7071350679
 30
0.0
  0
LINE
  5
293
100
AcDbEntity
  8
0
100
AcDbLine
 62
9
  6
CONTINUOUS
 10
8.7951372852
 20
6.2562986031
 11
9.4653614484
 21
6.2328974093
  0
SPLINE
  5
294
100
AcDbEntity
  8
0
100
AcDbSpline
 62
9
  6
CONTINUOUS
 70
0
 71
3
 72
14
 73
10
 74
0
 42
0.0000001
 43
0.0000001
 44
0.0000000001
 40
0.0
 40
0.0
 40
0.0
 40
0.0
 40
0.3307627866
 40
0.4872499135
 40
0.631191437
 40
0.7580996833
 40
0.8639285159
 40
0.9454288969
 40
1.0
 40
1.0
 40
1.0
 40
1.0
 10
9.4863299112
 20
6.2545814625
 30
0.0
 10
9.4868997086
 20
6.252304049
 30
0.0
 10
9.4877225976
 20
6.2489450011
 30
0.0
 10
9.4887536015
 20
6.2445853143
 30
0.0
 10
9.4894336672
 20
6.2416294489
 30
0.0
 10
9.4900136929
 20
6.2390196318
 30
0.0
 10
9.490476861
 20
6.2368377766
 30
0.0
 10
9.4908070204
 20
6.2351530637
 30
0.0
 10
9.4909718894
 20
6.2342009259
 30
0.0
 10
9.4910213204
 20
6.233816771
 30
0.0
  0
SPLINE
  5
295
100
AcDbEntity
  8
0
100
AcDbSpline
 62
9
  6
CONTINUOUS
 70
0
 71
3
 72
9
 73
5
 74
0
 42
0.0000001
 43
0.0000001
 44
0.0000000001
 40
0.0
 40
0.0
 40
0.0
 40
0.0
 40
0.499700896
 40
1.0
 40
1.0
 40
1.0
 40
1.0
 10
8.8966219652
 20
7.3677851926
 30
0.0
 10
8.8799110652
 20
7.1858766331
 30
0.0
 10
8.8419600631
 20
6.8222251887
 30
0.0
 10
8.7896905148
 20
6.4602543708
 30
0.0
 10
8.7588063053
 20
6.2799876568
 30
0.0
  0
SPLINE
  5
296
100
AcDbEntity
  8
0
100
AcDbSpline
 62
9
  6
CONTINUOUS
 70
0
 71
3
 72
25
 73
21
 74
0
 42
0.0000001
 43
0.0000001
 44
0.0000000001
 40
0.0
 40
0.0
 40
0.0
 40
0.0
 40
0.1249438671
 40
0.1874497839
 40
0.2499443111
 40
0.3124491093
 40
0.3437055082
 40
0.3749659683
 40
0.4374635094
 40
0.4999607192
 40
0.5312202019
 40
0.5624811231
 40
0.5937422634
 40
0.6250017918
 40
0.6874987877
 40
0.7499958989
 40
0.8124933412
 40
0.8749980694
 40
0.9375078434
 40
1.0
 40
1.0
 40
1.0
 40
1.0
 10
9.4790844166
 20
8.5647095513
 30
0.0
 10
9.481733837
 20
8.5868818808
 30
0.0
 10
9.4872433752
 20
8.6200117595
 30
0.0
 10
9.4985105003
 20
8.6632645662
 30
0.0
 10
9.5091872141
 20
8.6950612506
 30
0.0
 10
9.5201459514
 20
8.7207865236
 30
0.0
 10
9.5302609948
 20
8.7407181641
 30
0.0
 10
9.5413090697
 20
8.7601463176
 30
0.0
 10
9.5569135099
 20
8.7833699046
 30
0.0
 10
9.5749679239
 20
8.8047585683
 30
0.0
 10
9.5908067898
 20
8.8205331041
 30
0.0
 10
9.6033661594
 20
8.8316469407
 30
0.0
 10
9.6165551522
 20
8.8420058304
 30
0.0
 10
9.6349183523
 20
8.8547532433
 30
0.0
 10
9.6592133161
 20
8.8686565158
 30
0.0
 10
9.6900097137
 20
8.8820171272
 30
0.0
 10
9.7219891065
 20
8.8922015029
 30
0.0
 10
9.7547532215
 20
8.8994356324
 30
0.0
 10
9.7879799586
 20
8.9040219602
 30
0.0
 10
9.8102893976
 20
8.9055115773
 30
0.0
 10
9.8214507888
 20
8.9059140375
 30
0.0
  0
SPLINE
  5
297
100
AcDbEntity
  8
0
100
AcDbSpline
 62
9
  6
CONTINUOUS
 70
0
 71
3
 72
22
 73
18
 74
0
 42
0.0000001
 43
0.0000001
 44
0.0000000001
 40
0.0
 40
0.0
 40
0.0
 40
0.0
 40
0.1249489241
 40
0.1874655806
 40
0.2499708836
 40
0.3124739734
 40
0.3749821118
 40
0.40624186
 40
0.437504488
 40
0.5000106042
 40
0.5625156042
 40
0.6250226011
 40
0.6875288856
 40
0.7500343836
 40
0.8125371392
 40
0.8750550216
 40
1.0
 40
1.0
 40
1.0
 40
1.0
 10
9.8214507888
 20
9.4157357375
 30
0.0
 10
9.8046177771
 20
9.4178569155
 30
0.0
 10
9.7794831457
 20
9.422318153
 30
0.0
 10
9.7467492603
 20
9.431368401
 30
0.0
 10
9.7227132506
 20
9.4398443957
 30
0.0
 10
9.6993945639
 20
9.450133556
 30
0.0
 10
9.6807308112
 20
9.4602889016
 30
0.0
 10
9.6663850059
 20
9.4693773489
 30
0.0
 10
9.652469654
 20
9.47911119
 30
0.0
 10
9.6359369302
 20
9.4924671636
 30
0.0
 10
9.6177193174
 20
9.5103098583
 30
0.0
 10
9.6012639718
 20
9.5297895148
 30
0.0
 10
9.5866856096
 20
9.5507075464
 30
0.0
 10
9.5739925619
 20
9.5728146717
 30
0.0
 10
9.5631606681
 20
9.595889433
 30
0.0
 10
9.5510751529
 20
9.6276314035
 30
0.0
 10
9.5444834329
 20
9.6523077528
 30
0.0
 10
9.5410177848
 20
9.6689156058
 30
0.0
  0
SPLINE
  5
298
100
AcDbEntity
  8
0
100
AcDbSpline
 62
9
  6
CONTINUOUS
 70
0
 71
3
 72
9
 73
5
 74
0
 42
0.0000001
 43
0.0000001
 44
0.0000000001
 40
0.0
 40
0.0
 40
0.0
 40
0.0
 40
0.2501019094
 40
1.0
 40
1.0
 40
1.0
 40
1.0
 10
9.0798257215
 20
9.6689155927
 30
0.0
 10
9.0788390094
 20
9.6689155922
 30
0.0
 10
9.0748939823
 20
9.6688209329
 30
0.0
 10
9.0709602784
 20
9.6683728968
 30
0.0
 10
9.0680443907
 20
9.6678724095
 30
0.0
  0
SPLINE
  5
299
100
AcDbEntity
  8
0
100
AcDbSpline
 62
9
  6
CONTINUOUS
 70
0
 71
3
 72
20
 73
16
 74
0
 42
0.0000001
 43
0.0000001
 44
0.0000000001
 40
0.0
 40
0.0
 40
0.0
 40
0.0
 40
0.1935278689
 40
0.3798209083
 40
0.5512664677
 40
0.7016415897
 40
0.8254051386
 40
0.8757805679
 40
0.9178999624
 40
0.9513920078
 40
0.964816716
 40
0.9760210184
 40
0.985025863
 40
0.9918912884
 40
1.0
 40
1.0
 40
1.0
 40
1.0
 10
12.0413168843
 20
10.0862114224
 30
0.0
 10
12.0413997442
 20
10.0874977663
 30
0.0
 10
12.0415466071
 20
10.0900234121
 30
0.0
 10
12.0417127565
 20
10.0936915098
 30
0.0
 10
12.0418169294
 20
10.0970744088
 30
0.0
 10
12.04185538
 20
10.100042146
 30
0.0
 10
12.0418332375
 20
10.1022039107
 30
0.0
 10
12.0417746398
 20
10.1036432292
 30
0.0
 10
12.0417177044
 20
10.104480626
 30
0.0
 10
12.0416549312
 20
10.1050704284
 30
0.0
 10
12.0415929751
 20
10.1054530502
 30
0.0
 10
12.0415471081
 20
10.1056715817
 30
0.0
 10
12.0414965262
 20
10.1058473285
 30
0.0
 10
12.0414395714
 20
10.1059896596
 30
0.0
 10
12.0413704622
 20
10.1060880808
 30
0.0
 10
12.0413168555
 20
10.1060946588
 30
0.0
  0
SPLINE
  5
29A
100
AcDbEntity
  8
0
100
AcDbSpline
 62
9
  6
CONTINUOUS
 70
0
 71
3
 72
20
 73
16
 74
0
 42
0.0000001
 43
0.0000001
 44
0.0000000001
 40
0.0
 40
0.0
 40
0.0
 40
0.0
 40
0.0081084485
 40
0.0149738492
 40
0.0239787016
 40
0.0351830277
 40
0.0486077645
 40
0.0820998847
 40
0.1242193951
 40
0.1745949362
 40
0.2983586594
 40
0.4487339151
 40
0.6201794812
 40
0.8064723671
 40
1.0
 40
1.0
 40
1.0
 40
1.0
 10
12.0413169058
 20
8.2157055416
 30
0.0
 10
12.0413705108
 20
8.2157121208
 30
0.0
 10
12.0414396127
 20
8.2158105463
 30
0.0
 10
12.0414965621
 20
8.2159528772
 30
0.0
 10
12.0415471392
 20
8.2161286263
 30
0.0
 10
12.0415930017
 20
8.2163471598
 30
0.0
 10
12.0416549511
 20
8.2167297849
 30
0.0
 10
12.0417177164
 20
8.2173195917
 30
0.0
 10
12.0417746425
 20
8.2181569941
 30
0.0
 10
12.0418332275
 20
8.2195963207
 30
0.0
 10
12.0418553563
 20
8.2217580958
 30
0.0
 10
12.0418168921
 20
8.2247258452
 30
0.0
 10
12.041712708
 20
8.2281087554
 30
0.0
 10
12.0415465512
 20
8.231776863
 30
0.0
 10
12.0413996861
 20
8.2343025148
 30
0.0
 10
12.0413168257
 20
8.2355888616
 30
0.0
  0
SPLINE
  5
29B
100
AcDbEntity
  8
0
100
AcDbSpline
 62
9
  6
CONTINUOUS
 70
0
 71
3
 72
16
 73
12
 74
0
 42
0.0000001
 43
0.0000001
 44
0.0000000001
 40
0.0
 40
0.0
 40
0.0
 40
0.0
 40
0.1246568546
 40
0.2494988402
 40
0.3744453107
 40
0.499478828
 40
0.6245656134
 40
0.7496919904
 40
0.8122658443
 40
0.8748502726
 40
1.0
 40
1.0
 40
1.0
 40
1.0
 10
9.4863299112
 20
6.2545814623
 30
0.0
 10
9.4878333985
 20
6.3505428823
 30
0.0
 10
9.4871055772
 20
6.5426722226
 30
0.0
 10
9.4785587477
 20
6.830843746
 30
0.0
 10
9.4662457311
 20
7.1191576958
 30
0.0
 10
9.4538581279
 20
7.4076561894
 30
0.0
 10
9.445035624
 20
7.6964371109
 30
0.0
 10
9.4436649051
 20
7.9372913846
 30
0.0
 10
9.4479499759
 20
8.1299525583
 30
0.0
 10
9.456423918
 20
8.3224857203
 30
0.0
 10
9.4681190267
 20
8.4666443408
 30
0.0
 10
9.4788224795
 20
8.5624006519
 30
0.0
  0
LINE
  5
29C
100
AcDbEntity
  8
0
100
AcDbLine
 62
9
  6
CONTINUOUS
 10
9.0060057327
 20
8.5624006265
 11
9.0058938194
 21
8.5607632678
  0
SPLINE
  5
29D
100
AcDbEntity
  8
0
100
AcDbSpline
 62
9
  6
CONTINUOUS
 70
0
 71
3
 72
10
 73
6
 74
0
 42
0.0000001
 43
0.0000001
 44
0.0000000001
 40
0.0
 40
0.0
 40
0.0
 40
0.0
 40
0.2603170207
 40
0.5171139993
 40
1.0
 40
1.0
 40
1.0
 40
1.0
 10
12.041316912
 20
10.0862114253
 30
0.0
 10
12.0366717793
 20
10.0864463379
 30
0.0
 10
12.0274037781
 20
10.0863562069
 30
0.0
 10
12.0096618215
 20
10.0840538735
 30
0.0
 10
11.9968925291
 20
10.0800240474
 30
0.0
 10
11.9890723937
 20
10.0763795153
 30
0.0
  0
SPLINE
  5
29E
100
AcDbEntity
  8
0
100
AcDbSpline
 62
9
  6
CONTINUOUS
 70
0
 71
3
 72
11
 73
7
 74
0
 42
0.0000001
 43
0.0000001
 44
0.0000000001
 40
0.0
 40
0.0
 40
0.0
 40
0.0
 40
0.2600787651
 40
0.5166447857
 40
0.7644694084
 40
1.0
 40
1.0
 40
1.0
 40
1.0
 10
12.0413168251
 20
8.2355888616
 30
0.0
 10
12.0366718182
 20
8.235353589
 30
0.0
 10
12.027406928
 20
8.2354427158
 30
0.0
 10
12.013818441
 20
8.2372088384
 30
0.0
 10
12.0009670446
 20
8.2404887868
 30
0.0
 10
11.9928909251
 20
8.2436414331
 30
0.0
 10
11.9890730556
 20
8.2454203528
 30
0.0
  0
SPLINE
  5
29F
100
AcDbEntity
  8
0
100
AcDbSpline
 62
9
  6
CONTINUOUS
 70
0
 71
3
 72
16
 73
12
 74
0
 42
0.0000001
 43
0.0000001
 44
0.0000000001
 40
0.0
 40
0.0
 40
0.0
 40
0.0
 40
0.1251120353
 40
0.2501723752
 40
0.3751388046
 40
0.5000421808
 40
0.5624883618
 40
0.624939449
 40
0.7498778262
 40
0.8749065991
 40
1.0
 40
1.0
 40
1.0
 40
1.0
 10
9.0058925675
 20
8.5607633534
 30
0.0
 10
8.9996132007
 20
8.4652020997
 30
0.0
 10
8.9871503304
 20
8.2741130083
 30
0.0
 10
8.9677065248
 20
7.9876201432
 30
0.0
 10
8.9464812843
 20
7.7014121249
 30
0.0
 10
8.9265365333
 20
7.4631769122
 30
0.0
 10
8.9087705965
 20
7.2727919487
 30
0.0
 10
8.8896245245
 20
7.0825141689
 30
0.0
 10
8.8627502628
 20
6.8448729997
 30
0.0
 10
8.8247060035
 20
6.5602923301
 30
0.0
 10
8.7947992143
 20
6.3711599762
 30
0.0
 10
8.7785422255
 20
6.2767970483
 30
0.0
  0
SPLINE
  5
2A0
100
AcDbEntity
  8
0
100
AcDbSpline
 62
9
  6
CONTINUOUS
 70
0
 71
3
 72
14
 73
10
 74
0
 42
0.0000001
 43
0.0000001
 44
0.0000000001
 40
0.0
 40
0.0
 40
0.0
 40
0.0
 40
0.1201341091
 40
0.2411238926
 40
0.3632916377
 40
0.4871855821
 40
0.6130027712
 40
0.7407242654
 40
1.0
 40
1.0
 40
1.0
 40
1.0
 10
9.0480604875
 20
9.6686746644
 30
0.0
 10
9.0481025296
 20
9.6697219189
 30
0.0
 10
9.048387781
 20
9.6718209904
 30
0.0
 10
9.049396789
 20
9.6748440274
 30
0.0
 10
9.0509616894
 20
9.6776588327
 30
0.0
 10
9.0530317337
 20
9.6801786721
 30
0.0
 10
9.0555442262
 20
9.6823337505
 30
0.0
 10
9.0593944725
 20
9.6846418623
 30
0.0
 10
9.0627013154
 20
9.685637897
 30
0.0
 10
9.0649424546
 20
9.6859445767
 30
0.0
  0
SPLINE
  5
2A1
100
AcDbEntity
  8
0
100
AcDbSpline
 62
7
  6
CONTINUOUS
 70
0
 71
3
 72
10
 73
6
 74
0
 42
0.0000001
 43
0.0000001
 44
0.0000000001
 40
0.0
 40
0.0
 40
0.0
 40
0.0
 40
0.4314913147
 40
0.6963722542
 40
1.0
 40
1.0
 40
1.0
 40
1.0
 10
12.3216449902
 20
10.3102735224
 30
0.0
 10
12.3213736826
 20
10.3100812615
 30
0.0
 10
12.321029147
 20
10.309642178
 30
0.0
 10
12.3207046259
 20
10.3089444771
 30
0.0
 10
12.3205702728
 20
10.308525582
 30
0.0
 10
12.3205094206
 20
10.308299646
 30
0.0
  0
SPLINE
  5
2A2
100
AcDbEntity
  8
0
100
AcDbSpline
 62
7
  6
CONTINUOUS
 70
0
 71
3
 72
13
 73
9
 74
0
 42
0.0000001
 43
0.0000001
 44
0.0000000001
 40
0.0
 40
0.0
 40
0.0
 40
0.0
 40
0.0830573538
 40
0.180368772
 40
0.2913812923
 40
0.4150303215
 40
0.6935864729
 40
1.0
 40
1.0
 40
1.0
 40
1.0
 10
12.3205094206
 20
10.308299646
 30
0.0
 10
12.3204049574
 20
10.3079117878
 30
0.0
 10
12.320244466
 20
10.3070516125
 30
0.0
 10
12.3201271924
 20
10.3056458885
 30
0.0
 10
12.320118175
 20
10.3040390508
 30
0.0
 10
12.3202577306
 20
10.3015597947
 30
0.0
 10
12.3207144003
 20
10.2981584502
 30
0.0
 10
12.3212959269
 20
10.2953876229
 30
0.0
 10
12.321644961
 20
10.293947446
 30
0.0
  0
SPLINE
  5
2A3
100
AcDbEntity
  8
0
100
AcDbSpline
 62
9
  6
CONTINUOUS
 70
0
 71
3
 72
9
 73
5
 74
0
 42
0.0000001
 43
0.0000001
 44
0.0000000001
 40
0.0
 40
0.0
 40
0.0
 40
0.0
 40
0.2502400351
 40
1.0
 40
1.0
 40
1.0
 40
1.0
 10
8.7785422255
 20
6.2767970483
 30
0.0
 10
8.7799433023
 20
6.2763993155
 30
0.0
 10
8.7855827662
 20
6.2749611959
 30
0.0
 10
8.7913949089
 20
6.2741592201
 30
0.0
 10
8.795756231
 20
6.2740145234
 30
0.0
  0
SPLINE
  5
2A4
100
AcDbEntity
  8
0
100
AcDbSpline
 62
9
  6
CONTINUOUS
 70
0
 71
3
 72
11
 73
7
 74
0
 42
0.0000001
 43
0.0000001
 44
0.0000000001
 40
0.0
 40
0.0
 40
0.0
 40
0.0
 40
0.2500002404
 40
0.5000003269
 40
0.7500002155
 40
1.0
 40
1.0
 40
1.0
 40
1.0
 10
8.795756231
 20
6.2740145234
 30
0.0
 10
8.8516130868
 20
6.2721613649
 30
0.0
 10
8.9633280698
 20
6.2684944189
 30
0.0
 10
9.1309025905
 20
6.2630588077
 30
0.0
 10
9.2984787216
 20
6.2576763125
 30
0.0
 10
9.4101975525
 20
6.2541329847
 30
0.0
 10
9.4660556802
 20
6.2523217089
 30
0.0
  0
SPLINE
  5
2A5
100
AcDbEntity
  8
0
100
AcDbSpline
 62
9
  6
CONTINUOUS
 70
0
 71
3
 72
9
 73
5
 74
0
 42
0.0000001
 43
0.0000001
 44
0.0000000001
 40
0.0
 40
0.0
 40
0.0
 40
0.0
 40
0.5103019916
 40
1.0
 40
1.0
 40
1.0
 40
1.0
 10
12.0617853687
 20
10.1145506176
 30
0.0
 10
12.0615285361
 20
10.1154932571
 30
0.0
 10
12.0612477333
 20
10.1174128427
 30
0.0
 10
12.0615187283
 20
10.1193395073
 30
0.0
 10
12.0617853368
 20
10.1202383553
 30
0.0
  0
SPLINE
  5
2A6
100
AcDbEntity
  8
0
100
AcDbSpline
 62
9
  6
CONTINUOUS
 70
0
 71
3
 72
15
 73
11
 74
0
 42
0.0000001
 43
0.0000001
 44
0.0000000001
 40
0.0
 40
0.0
 40
0.0
 40
0.0
 40
0.1671998598
 40
0.3255629399
 40
0.4718107753
 40
0.604100405
 40
0.7215582176
 40
0.8247285109
 40
0.9159874467
 40
1.0
 40
1.0
 40
1.0
 40
1.0
 10
12.0872372087
 20
10.1369090713
 30
0.0
 10
12.0868255369
 20
10.1378260081
 30
0.0
 10
12.0860940765
 20
10.1396440688
 30
0.0
 10
12.0852640682
 20
10.1423602433
 30
0.0
 10
12.0847508726
 20
10.1449412132
 30
0.0
 10
12.0845641262
 20
10.147321241
 30
0.0
 10
12.0847118501
 20
10.1494470936
 30
0.0
 10
12.085194606
 20
10.1512743568
 30
0.0
 10
12.086021349
 20
10.152754057
 30
0.0
 10
12.0868117106
 20
10.1534853139
 30
0.0
 10
12.0872371567
 20
10.1537574473
 30
0.0
  0
SPLINE
  5
2A7
100
AcDbEntity
  8
0
100
AcDbSpline
 62
9
  6
CONTINUOUS
 70
0
 71
3
 72
15
 73
11
 74
0
 42
0.0000001
 43
0.0000001
 44
0.0000000001
 40
0.0
 40
0.0
 40
0.0
 40
0.0
 40
0.168441985
 40
0.3280669216
 40
0.4753617108
 40
0.6082836094
 40
0.7257729574
 40
0.8282345851
 40
0.9180135049
 40
1.0
 40
1.0
 40
1.0
 40
1.0
 10
11.9890734116
 20
10.0763805313
 30
0.0
 10
11.9886617395
 20
10.0773192552
 30
0.0
 10
11.9879303041
 20
10.0791795445
 30
0.0
 10
11.9870999957
 20
10.0819545143
 30
0.0
 10
11.9865862346
 20
10.0845863802
 30
0.0
 10
11.9863987739
 20
10.0870060042
 30
0.0
 10
11.9865455726
 20
10.0891576739
 30
0.0
 10
11.9870268413
 20
10.0909957202
 30
0.0
 10
11.9878528657
 20
10.0924710809
 30
0.0
 10
11.9886470585
 20
10.0931883455
 30
0.0
 10
11.9890728352
 20
10.0934484037
 30
0.0
  0
SPLINE
  5
2A8
100
AcDbEntity
  8
0
100
AcDbSpline
 62
9
  6
CONTINUOUS
 70
0
 71
3
 72
9
 73
5
 74
0
 42
0.0000001
 43
0.0000001
 44
0.0000000001
 40
0.0
 40
0.0
 40
0.0
 40
0.0
 40
0.2503002715
 40
1.0
 40
1.0
 40
1.0
 40
1.0
 10
9.4660556802
 20
6.2523217089
 30
0.0
 10
9.467759951
 20
6.2522664548
 30
0.0
 10
9.4745764171
 20
6.2523128708
 30
0.0
 10
9.4813739553
 20
6.253347289
 30
0.0
 10
9.4863299112
 20
6.2545814623
 30
0.0
  0
LINE
  5
2A9
100
AcDbEntity
  8
0
100
AcDbLine
 62
9
  6
CONTINUOUS
 10
8.7582442458
 20
6.2769043759
 11
8.7588063053
 21
6.2799876568
  0
SPLINE
  5
2AA
100
AcDbEntity
  8
0
100
AcDbSpline
 62
7
  6
CONTINUOUS
 70
0
 71
3
 72
16
 73
12
 74
0
 42
0.0000001
 43
0.0000001
 44
0.0000000001
 40
0.0
 40
0.0
 40
0.0
 40
0.0
 40
0.1789605947
 40
0.3495900334
 40
0.5069402884
 40
0.6471490235
 40
0.7671207831
 40
0.8652245694
 40
0.9060341948
 40
0.9417010982
 40
1.0
 40
1.0
 40
1.0
 40
1.0
 10
12.3216447309
 20
8.0278534992
 30
0.0
 10
12.3214083842
 20
8.0268783309
 30
0.0
 10
12.3209871929
 20
8.0249632717
 30
0.0
 10
12.320506099
 20
8.0221607346
 30
0.0
 10
12.3202062481
 20
8.0195513599
 30
0.0
 10
12.3200942495
 20
8.0172105165
 30
0.0
 10
12.320176784
 20
8.0152006318
 30
0.0
 10
12.3204106668
 20
8.0137614276
 30
0.0
 10
12.3207157116
 20
8.012828044
 30
0.0
 10
12.3210381675
 20
8.0121456014
 30
0.0
 10
12.3213780427
 20
8.0117165443
 30
0.0
 10
12.3216447391
 20
8.0115275518
 30
0.0
  0
SPLINE
  5
2AB
100
AcDbEntity
  8
0
100
AcDbSpline
 62
9
  6
CONTINUOUS
 70
0
 71
3
 72
9
 73
5
 74
0
 42
0.0000001
 43
0.0000001
 44
0.0000000001
 40
0.0
 40
0.0
 40
0.0
 40
0.0
 40
0.4951798654
 40
1.0
 40
1.0
 40
1.0
 40
1.0
 10
12.0617855382
 20
8.2015631371
 30
0.0
 10
12.0616081603
 20
8.2021611105
 30
0.0
 10
12.0613683736
 20
8.2034069069
 30
0.0
 10
12.0613719232
 20
8.2046747281
 30
0.0
 10
12.0614303637
 20
8.2053079065
 30
0.0
  0
LINE
  5
2AC
100
AcDbEntity
  8
0
100
AcDbLine
 62
9
  6
CONTINUOUS
 10
12.0614303637
 20
8.2053079065
 11
12.0617854418
 21
8.2072507774
  0
SPLINE
  5
2AD
100
AcDbEntity
  8
0
100
AcDbSpline
 62
9
  6
CONTINUOUS
 70
0
 71
3
 72
15
 73
11
 74
0
 42
0.0000001
 43
0.0000001
 44
0.0000000001
 40
0.0
 40
0.0
 40
0.0
 40
0.0
 40
0.084013039
 40
0.175272299
 40
0.2784427865
 40
0.3959006122
 40
0.5281900807
 40
0.6744377162
 40
0.8328005779
 40
1.0
 40
1.0
 40
1.0
 40
1.0
 10
12.0872371983
 20
8.1680444583
 30
0.0
 10
12.0868117435
 20
8.1683165944
 30
0.0
 10
12.0860213635
 20
8.1690478563
 30
0.0
 10
12.085194594
 20
8.1705275709
 30
0.0
 10
12.0847118115
 20
8.1723548527
 30
0.0
 10
12.084564061
 20
8.1744807284
 30
0.0
 10
12.0847507838
 20
8.1768607837
 30
0.0
 10
12.0852639604
 20
8.1794417848
 30
0.0
 10
12.0860939539
 20
8.1821579928
 30
0.0
 10
12.0868254068
 20
8.1839760766
 30
0.0
 10
12.0872370755
 20
8.1848930245
 30
0.0
  0
SPLINE
  5
2AE
100
AcDbEntity
  8
0
100
AcDbSpline
 62
9
  6
CONTINUOUS
 70
0
 71
3
 72
15
 73
11
 74
0
 42
0.0000001
 43
0.0000001
 44
0.0000000001
 40
0.0
 40
0.0
 40
0.0
 40
0.0
 40
0.0819909252
 40
0.1717733158
 40
0.2742370822
 40
0.3917270093
 40
0.5246479579
 40
0.6719405513
 40
0.8315622542
 40
1.0
 40
1.0
 40
1.0
 40
1.0
 10
11.9890728621
 20
8.2283513785
 30
0.0
 10
11.9886470343
 20
8.2286114678
 30
0.0
 10
11.9878527418
 20
8.2293287942
 30
0.0
 10
11.9870265718
 20
8.2308042692
 30
0.0
 10
11.9865451668
 20
8.2326424477
 30
0.0
 10
11.9863982447
 20
8.2347942624
 30
0.0
 10
11.9865856009
 20
8.2372140395
 30
0.0
 10
11.9870992797
 20
8.2398460622
 30
0.0
 10
11.9879295298
 20
8.2426211874
 30
0.0
 10
11.9886609412
 20
8.2444815789
 30
0.0
 10
11.9890726044
 20
8.2454203521
 30
0.0
  0
SPLINE
  5
2AF
100
AcDbEntity
  8
0
100
AcDbSpline
 62
9
  6
CONTINUOUS
 70
0
 71
3
 72
14
 73
10
 74
0
 42
0.0000001
 43
0.0000001
 44
0.0000000001
 40
0.0
 40
0.0
 40
0.0
 40
0.0
 40
0.115457312
 40
0.2324913688
 40
0.3520120278
 40
0.4749466072
 40
0.6016141509
 40
0.7318853704
 40
1.0
 40
1.0
 40
1.0
 40
1.0
 10
9.5589376072
 20
9.6813472254
 30
0.0
 10
9.5587532856
 20
9.6823229378
 30
0.0
 10
9.5581720113
 20
9.6842540458
 30
0.0
 10
9.5567134935
 20
9.6869298097
 30
0.0
 10
9.5547090293
 20
9.6893101604
 30
0.0
 10
9.5522283914
 20
9.6913192653
 30
0.0
 10
9.5493504274
 20
9.6929016624
 30
0.0
 10
9.5450708387
 20
9.6943891821
 30
0.0
 10
9.5415878322
 20
9.6947168467
 30
0.0
 10
9.5392852003
 20
9.6945946585
 30
0.0
  0
SPLINE
  5
2B0
100
AcDbEntity
  8
0
100
AcDbSpline
 62
9
  6
CONTINUOUS
 70
0
 71
3
 72
14
 73
10
 74
0
 42
0.0000001
 43
0.0000001
 44
0.0000000001
 40
0.0
 40
0.0
 40
0.0
 40
0.0
 40
0.1155065545
 40
0.2325653552
 40
0.352084288
 40
0.4749861058
 40
0.6016011321
 40
0.7318246627
 40
1.0
 40
1.0
 40
1.0
 40
1.0
 10
9.5605960547
 20
9.673001132
 30
0.0
 10
9.5603957338
 20
9.6739610835
 30
0.0
 10
9.5597878299
 20
9.6758570864
 30
0.0
 10
9.5583062644
 20
9.6784755237
 30
0.0
 10
9.5562954524
 20
9.6807972711
 30
0.0
 10
9.5538235615
 20
9.682749986
 30
0.0
 10
9.5509673569
 20
9.6842810348
 30
0.0
 10
9.5467299081
 20
9.6857101873
 30
0.0
 10
9.5432906477
 20
9.6860087883
 30
0.0
 10
9.5410177882
 20
9.6858755584
 30
0.0
  0
SPLINE
  5
2B1
100
AcDbEntity
  8
0
100
AcDbSpline
 62
9
  6
CONTINUOUS
 70
0
 71
3
 72
9
 73
5
 74
0
 42
0.0000001
 43
0.0000001
 44
0.0000000001
 40
0.0
 40
0.0
 40
0.0
 40
0.0
 40
0.5235495439
 40
1.0
 40
1.0
 40
1.0
 40
1.0
 10
9.3707092067
 20
9.7769605117
 30
0.0
 10
9.3738276205
 20
9.777294397
 30
0.0
 10
9.3797888399
 20
9.777886597
 30
0.0
 10
9.385763804
 20
9.7783345564
 30
0.0
 10
9.388614004
 20
9.7784836696
 30
0.0
  0
SPLINE
  5
2B2
100
AcDbEntity
  8
0
100
AcDbSpline
 62
9
  6
CONTINUOUS
 70
0
 71
3
 72
14
 73
10
 74
0
 42
0.0000001
 43
0.0000001
 44
0.0000000001
 40
0.0
 40
0.0
 40
0.0
 40
0.0
 40
0.3728324536
 40
0.5311261792
 40
0.6681104778
 40
0.783163833
 40
0.8760051491
 40
0.9476757975
 40
1.0
 40
1.0
 40
1.0
 40
1.0
 10
9.388614004
 20
9.7784836696
 30
0.0
 10
9.3901830395
 20
9.7785657564
 30
0.0
 10
9.3924201863
 20
9.7786553327
 30
0.0
 10
9.3952359246
 20
9.7786722745
 30
0.0
 10
9.3969650205
 20
9.7786321365
 30
0.0
 10
9.3984160444
 20
9.778543622
 30
0.0
 10
9.3995875649
 20
9.7784084149
 30
0.0
 10
9.4004845899
 20
9.7782316031
 30
0.0
 10
9.4009844264
 20
9.7780670961
 30
0.0
 10
9.4011825465
 20
9.7779702965
 30
0.0
  0
SPLINE
  5
2B3
100
AcDbEntity
  8
0
100
AcDbSpline
 62
9
  6
CONTINUOUS
 70
0
 71
3
 72
19
 73
15
 74
0
 42
0.0000001
 43
0.0000001
 44
0.0000000001
 40
0.0
 40
0.0
 40
0.0
 40
0.0
 40
0.0328855583
 40
0.0638942566
 40
0.0956289405
 40
0.1303230128
 40
0.1695321758
 40
0.2142051284
 40
0.2648843307
 40
0.3218387459
 40
0.4548049685
 40
0.6128922894
 40
0.7950734583
 40
1.0
 40
1.0
 40
1.0
 40
1.0
 10
9.546019762
 20
9.7072031573
 30
0.0
 10
9.5458667154
 20
9.7072779031
 30
0.0
 10
9.5455496841
 20
9.7073887933
 30
0.0
 10
9.545047197
 20
9.7074072928
 30
0.0
 10
9.5445536535
 20
9.7072732291
 30
0.0
 10
9.5440751104
 20
9.7069987275
 30
0.0
 10
9.5436099758
 20
9.7065932717
 30
0.0
 10
9.5431563413
 20
9.7060617484
 30
0.0
 10
9.5427131089
 20
9.7054077264
 30
0.0
 10
9.5421043422
 20
9.7043190909
 30
0.0
 10
9.5413902565
 20
9.7026595869
 30
0.0
 10
9.5406168283
 20
9.7003320294
 30
0.0
 10
9.5398978901
 20
9.6975997524
 30
0.0
 10
9.539484067
 20
9.6956372354
 30
0.0
 10
9.5392852003
 20
9.6945946585
 30
0.0
  0
SPLINE
  5
2B4
100
AcDbEntity
  8
0
100
AcDbSpline
 62
9
  6
CONTINUOUS
 70
0
 71
3
 72
14
 73
10
 74
0
 42
0.0000001
 43
0.0000001
 44
0.0000000001
 40
0.0
 40
0.0
 40
0.0
 40
0.0
 40
0.0550901957
 40
0.1278926289
 40
0.2204949094
 40
0.3343327715
 40
0.4697420819
 40
0.626724789
 40
1.0
 40
1.0
 40
1.0
 40
1.0
 10
9.203956802
 20
9.7772571491
 30
0.0
 10
9.2041701131
 20
9.777382116
 30
0.0
 10
9.2047029867
 20
9.7776061962
 30
0.0
 10
9.2056600019
 20
9.7778621002
 30
0.0
 10
9.206896472
 20
9.7780745517
 30
0.0
 10
9.2084225459
 20
9.7782369887
 30
0.0
 10
9.2102427753
 20
9.7783464123
 30
0.0
 10
9.2132295834
 20
9.7784179436
 30
0.0
 10
9.2156098924
 20
9.7783726837
 30
0.0
 10
9.2172839812
 20
9.7783144883
 30
0.0
  0
SPLINE
  5
2B5
100
AcDbEntity
  8
0
100
AcDbSpline
 62
9
  6
CONTINUOUS
 70
0
 71
3
 72
10
 73
6
 74
0
 42
0.0000001
 43
0.0000001
 44
0.0000000001
 40
0.0
 40
0.0
 40
0.0
 40
0.0
 40
0.2281532586
 40
0.4745882169
 40
1.0
 40
1.0
 40
1.0
 40
1.0
 10
9.2172839812
 20
9.7783144883
 30
0.0
 10
9.2186573044
 20
9.7782667483
 30
0.0
 10
9.2215126696
 20
9.7781280672
 30
0.0
 10
9.2275217505
 20
9.7777162418
 30
0.0
 10
9.2321513103
 20
9.7772855001
 30
0.0
 10
9.2352991003
 20
9.7769605117
 30
0.0
  0
SPLINE
  5
2B6
100
AcDbEntity
  8
0
100
AcDbSpline
 62
9
  6
CONTINUOUS
 70
0
 71
3
 72
15
 73
11
 74
0
 42
0.0000001
 43
0.0000001
 44
0.0000000001
 40
0.0
 40
0.0
 40
0.0
 40
0.0
 40
0.1915898222
 40
0.3614849727
 40
0.5095112797
 40
0.6360913033
 40
0.7427960579
 40
0.8334748526
 40
0.9155366863
 40
1.0
 40
1.0
 40
1.0
 40
1.0
 10
9.0649424549
 20
9.6859445768
 30
0.0
 10
9.0646663764
 20
9.686512244
 30
0.0
 10
9.0641196306
 20
9.6875711663
 30
0.0
 10
9.0632543565
 20
9.6890113948
 30
0.0
 10
9.0623954031
 20
9.6902003984
 30
0.0
 10
9.0615441122
 20
9.6911296939
 30
0.0
 10
9.0606967073
 20
9.6917899592
 30
0.0
 10
9.0598401862
 20
9.6921650515
 30
0.0
 10
9.0589720661
 20
9.6922104506
 30
0.0
 10
9.0584444893
 20
9.6920079183
 30
0.0
 10
9.0582043653
 20
9.6918672648
 30
0.0
  0
SPLINE
  5
2B7
100
AcDbEntity
  8
0
100
AcDbSpline
 62
9
  6
CONTINUOUS
 70
0
 71
3
 72
9
 73
5
 74
0
 42
0.0000001
 43
0.0000001
 44
0.0000000001
 40
0.0
 40
0.0
 40
0.0
 40
0.0
 40
0.2504627695
 40
1.0
 40
1.0
 40
1.0
 40
1.0
 10
9.0798257215
 20
9.6858755588
 30
0.0
 10
9.078588628
 20
9.6860034338
 30
0.0
 10
9.0736367387
 20
9.6863868729
 30
0.0
 10
9.0686494189
 20
9.6862772712
 30
0.0
 10
9.0649424549
 20
9.6859445768
 30
0.0
  0
SPLINE
  5
2B8
100
AcDbEntity
  8
0
100
AcDbSpline
 62
9
  6
CONTINUOUS
 70
0
 71
3
 72
9
 73
5
 74
0
 42
0.0000001
 43
0.0000001
 44
0.0000000001
 40
0.0
 40
0.0
 40
0.0
 40
0.0
 40
0.5258066998
 40
1.0
 40
1.0
 40
1.0
 40
1.0
 10
9.0258684662
 20
6.1188612686
 30
0.0
 10
9.0229830562
 20
6.1186916934
 30
0.0
 10
9.0174920539
 20
6.1184252023
 30
0.0
 10
9.0119940919
 20
6.1183241554
 30
0.0
 10
9.0093875141
 20
6.1183457192
 30
0.0
  0
SPLINE
  5
2B9
100
AcDbEntity
  8
0
100
AcDbSpline
 62
9
  6
CONTINUOUS
 70
0
 71
3
 72
14
 73
10
 74
0
 42
0.0000001
 43
0.0000001
 44
0.0000000001
 40
0.0
 40
0.0
 40
0.0
 40
0.0
 40
0.3727430522
 40
0.5290703931
 40
0.6638542234
 40
0.7773414088
 40
0.8700842364
 40
0.943615497
 40
1.0
 40
1.0
 40
1.0
 40
1.0
 10
9.0093875141
 20
6.1183457192
 30
0.0
 10
9.0078212264
 20
6.1183586768
 30
0.0
 10
9.0055975213
 20
6.1184121497
 30
0.0
 10
9.0028137003
 20
6.1185984758
 30
0.0
 10
9.001121944
 20
6.1187724098
 30
0.0
 10
8.9997039246
 20
6.1189830308
 30
0.0
 10
8.998552747
 20
6.1192273644
 30
0.0
 10
8.9976565695
 20
6.1194999445
 30
0.0
 10
8.9971555193
 20
6.1197245382
 30
0.0
 10
8.9969519563
 20
6.119845791
 30
0.0
  0
SPLINE
  5
2BA
100
AcDbEntity
  8
0
100
AcDbSpline
 62
9
  6
CONTINUOUS
 70
0
 71
3
 72
9
 73
5
 74
0
 42
0.0000001
 43
0.0000001
 44
0.0000000001
 40
0.0
 40
0.0
 40
0.0
 40
0.0
 40
0.4994326061
 40
1.0
 40
1.0
 40
1.0
 40
1.0
 10
8.7732567139
 20
6.2581518862
 30
0.0
 10
8.7768324371
 20
6.2573499506
 30
0.0
 10
8.7841048527
 20
6.2562081367
 30
0.0
 10
8.791470678
 20
6.2560841679
 30
0.0
 10
8.7951372852
 20
6.2562986031
 30
0.0
  0
SPLINE
  5
2BB
100
AcDbEntity
  8
0
100
AcDbSpline
 62
9
  6
CONTINUOUS
 70
0
 71
3
 72
13
 73
9
 74
0
 42
0.0000001
 43
0.0000001
 44
0.0000000001
 40
0.0
 40
0.0
 40
0.0
 40
0.0
 40
0.1016925819
 40
0.202039543
 40
0.4173812891
 40
0.5411185802
 40
0.678624515
 40
1.0
 40
1.0
 40
1.0
 40
1.0
 10
8.7677288626
 20
6.2563848182
 30
0.0
 10
8.7679098275
 20
6.2562770261
 30
0.0
 10
8.7682946782
 20
6.256101596
 30
0.0
 10
8.7691514528
 20
6.2559382448
 30
0.0
 10
8.7700771597
 20
6.2560931161
 30
0.0
 10
8.7709862866
 20
6.2564795553
 30
0.0
 10
8.7720305989
 20
6.2570906991
 30
0.0
 10
8.7727685286
 20
6.2576993544
 30
0.0
 10
8.7732567139
 20
6.2581518862
 30
0.0
  0
SPLINE
  5
2BC
100
AcDbEntity
  8
0
100
AcDbSpline
 62
9
  6
CONTINUOUS
 70
0
 71
3
 72
14
 73
10
 74
0
 42
0.0000001
 43
0.0000001
 44
0.0000000001
 40
0.0
 40
0.0
 40
0.0
 40
0.0
 40
0.0563842327
 40
0.1299149358
 40
0.2226570032
 40
0.3361433873
 40
0.4709268489
 40
0.6272547598
 40
1.0
 40
1.0
 40
1.0
 40
1.0
 10
9.2558091813
 20
6.1110324617
 30
0.0
 10
9.2555978356
 20
6.1109253315
 30
0.0
 10
9.2550826529
 20
6.1107353314
 30
0.0
 10
9.2541699815
 20
6.1105243334
 30
0.0
 10
9.253004814
 20
6.1103588654
 30
0.0
 10
9.251575705
 20
6.1102451861
 30
0.0
 10
9.2498759728
 20
6.1101867284
 30
0.0
 10
9.2470858077
 20
6.110190183
 30
0.0
 10
9.2448635177
 20
6.1102880811
 30
0.0
 10
9.2432999065
 20
6.1103816925
 30
0.0
  0
SPLINE
  5
2BD
100
AcDbEntity
  8
0
100
AcDbSpline
 62
9
  6
CONTINUOUS
 70
0
 71
3
 72
9
 73
5
 74
0
 42
0.0000001
 43
0.0000001
 44
0.0000000001
 40
0.0
 40
0.0
 40
0.0
 40
0.0
 40
0.4741945976
 40
1.0
 40
1.0
 40
1.0
 40
1.0
 10
9.2432999065
 20
6.1103816925
 30
0.0
 10
9.2406979681
 20
6.1105374672
 30
0.0
 10
9.2352197744
 20
6.1110122375
 30
0.0
 10
9.2297597747
 20
6.1116515648
 30
0.0
 10
9.2268926714
 20
6.112016984
 30
0.0
  0
SPLINE
  5
2BE
100
AcDbEntity
  8
0
100
AcDbSpline
 62
9
  6
CONTINUOUS
 70
0
 71
3
 72
11
 73
7
 74
0
 42
0.0000001
 43
0.0000001
 44
0.0000000001
 40
0.0
 40
0.0
 40
0.0
 40
0.0
 40
0.3057498259
 40
0.5643127362
 40
0.7882631557
 40
1.0
 40
1.0
 40
1.0
 40
1.0
 10
9.4910213176
 20
6.2338167702
 30
0.0
 10
9.4913193567
 20
6.2334965422
 30
0.0
 10
9.4919080168
 20
6.2329381779
 30
0.0
 10
9.4928692002
 20
6.2323292822
 30
0.0
 10
9.4938412097
 20
6.2320490795
 30
0.0
 10
9.4944799035
 20
6.2321161734
 30
0.0
 10
9.4947696115
 20
6.2322047618
 30
0.0
  0
LINE
  5
2BF
100
AcDbEntity
  8
0
100
AcDbLine
 62
9
  6
CONTINUOUS
 10
9.4947696115
 20
6.2322047618
 11
9.4951884032
 21
6.2323743938
  0
SPLINE
  5
2C0
100
AcDbEntity
  8
0
100
AcDbSpline
 62
9
  6
CONTINUOUS
 70
0
 71
3
 72
9
 73
5
 74
0
 42
0.0000001
 43
0.0000001
 44
0.0000000001
 40
0.0
 40
0.0
 40
0.0
 40
0.0
 40
0.2754359336
 40
1.0
 40
1.0
 40
1.0
 40
1.0
 10
12.0872371261
 20
10.136909033
 30
0.0
 10
12.0852407297
 20
10.136069846
 30
0.0
 10
12.0781476678
 20
10.1326898061
 30
0.0
 10
12.0716411449
 20
10.1279187295
 30
0.0
 10
12.0678288505
 20
10.1236854651
 30
0.0
  0
LINE
  5
2C1
100
AcDbEntity
  8
0
100
AcDbLine
 62
9
  6
CONTINUOUS
 10
12.0678288505
 20
10.1236854651
 11
12.0648443837
 21
10.1199327908
  0
LINE
  5
2C2
100
AcDbEntity
  8
0
100
AcDbLine
 62
9
  6
CONTINUOUS
 10
12.063956817
 20
10.1185935515
 11
12.061785656
 21
10.1145520083
  0
SPLINE
  5
2C3
100
AcDbEntity
  8
0
100
AcDbSpline
 62
9
  6
CONTINUOUS
 70
0
 71
3
 72
11
 73
7
 74
0
 42
0.0000001
 43
0.0000001
 44
0.0000000001
 40
0.0
 40
0.0
 40
0.0
 40
0.0
 40
0.2807902265
 40
0.5403967676
 40
0.7792716877
 40
1.0
 40
1.0
 40
1.0
 40
1.0
 10
12.0872369006
 20
8.1848930226
 30
0.0
 10
12.0847828173
 20
8.1859255861
 30
0.0
 10
12.0801683261
 20
8.1881874591
 30
0.0
 10
12.0739802437
 20
8.192264491
 30
0.0
 10
12.0688458854
 20
8.1967875891
 30
0.0
 10
12.0660402843
 20
8.2001515551
 30
0.0
 10
12.0648446962
 20
8.2018694102
 30
0.0
  0
LINE
  5
2C4
100
AcDbEntity
  8
0
100
AcDbLine
 62
9
  6
CONTINUOUS
 10
12.0639569025
 20
8.2032087555
 11
12.0617849614
 21
8.2072515352
  0
SPLINE
  5
2C5
100
AcDbEntity
  8
0
100
AcDbSpline
 62
9
  6
CONTINUOUS
 70
0
 71
3
 72
9
 73
5
 74
0
 42
0.0000001
 43
0.0000001
 44
0.0000000001
 40
0.0
 40
0.0
 40
0.0
 40
0.0
 40
0.501270116
 40
1.0
 40
1.0
 40
1.0
 40
1.0
 10
9.4653614484
 20
6.2328974093
 30
0.0
 10
9.4696305132
 20
6.2323495113
 30
0.0
 10
9.4782537046
 20
6.2319827726
 30
0.0
 10
9.4868191958
 20
6.2329921499
 30
0.0
 10
9.4910213176
 20
6.2338167702
 30
0.0
  0
LINE
  5
2C6
100
AcDbEntity
  8
0
100
AcDbLine
 62
9
  6
CONTINUOUS
 10
9.4989507888
 20
8.5624005456
 11
9.4907626409
 21
8.5633607666
  0
LINE
  5
2C7
100
AcDbEntity
  8
0
100
AcDbLine
 62
9
  6
CONTINUOUS
 10
9.4907626409
 20
8.5633607666
 11
9.4790844166
 21
8.5647095513
  0
LINE
  5
2C8
100
AcDbEntity
  8
0
100
AcDbLine
 62
9
  6
CONTINUOUS
 10
12.0412539065
 20
8.2138072004
 11
12.0413169052
 21
8.2157053128
  0
SPLINE
  5
2C9
100
AcDbEntity
  8
0
100
AcDbSpline
 62
9
  6
CONTINUOUS
 70
0
 71
3
 72
22
 73
18
 74
0
 42
0.0000001
 43
0.0000001
 44
0.0000000001
 40
0.0
 40
0.0
 40
0.0
 40
0.0
 40
0.1921798765
 40
0.3773043909
 40
0.5477768592
 40
0.6974072628
 40
0.7626782223
 40
0.8207268914
 40
0.8710252775
 40
0.913204392
 40
0.9469524602
 40
0.9606139762
 40
0.9721574432
 40
0.9816455014
 40
0.9892084058
 40
0.9951264375
 40
1.0
 40
1.0
 40
1.0
 40
1.0
 10
9.4863299112
 20
6.2545814625
 30
0.0
 10
9.4876256571
 20
6.2545635503
 30
0.0
 10
9.4901693094
 20
6.2545041822
 30
0.0
 10
9.4938598531
 20
6.2543462155
 30
0.0
 10
9.4972597243
 20
6.2541253663
 30
0.0
 10
9.4998479288
 20
6.2538878592
 30
0.0
 10
9.5016752815
 20
6.2536671501
 30
0.0
 10
9.5028340953
 20
6.2534998733
 30
0.0
 10
9.5038341596
 20
6.2533250202
 30
0.0
 10
9.5046661637
 20
6.2531446077
 30
0.0
 10
9.505248926
 20
6.2529826641
 30
0.0
 10
9.5056225558
 20
6.252846259
 30
0.0
 10
9.5058364549
 20
6.2527509519
 30
0.0
 10
9.5060045797
 20
6.2526556198
 30
0.0
 10
9.5061272382
 20
6.2525598275
 30
0.0
 10
9.5062058996
 20
6.2524618555
 30
0.0
 10
9.5062257919
 20
6.2523885335
 30
0.0
 10
9.5062253962
 20
6.2523556735
 30
0.0
  0
LINE
  5
2CA
100
AcDbEntity
  8
0
100
AcDbLine
 62
9
  6
CONTINUOUS
 10
9.005908129
 20
8.5609885834
 11
8.9941765006
 21
8.5617969557
  0
LINE
  5
2CB
100
AcDbEntity
  8
0
100
AcDbLine
 62
9
  6
CONTINUOUS
 10
8.9941765006
 20
8.5617969557
 11
8.985950788
 21
8.5624005457
  0
LINE
  5
2CC
100
AcDbEntity
  8
0
100
AcDbLine
 62
9
  6
CONTINUOUS
 10
8.7588062632
 20
6.2799876213
 11
8.7785422298
 21
6.2767970728
  0
LINE
  5
2CD
100
AcDbEntity
  8
0
100
AcDbLine
 62
9
  6
CONTINUOUS
 10
9.0060069169
 20
8.5624005456
 11
8.9860587361
 21
8.5638967493
  0
LINE
  5
2CE
100
AcDbEntity
  8
0
100
AcDbLine
 62
9
  6
CONTINUOUS
 10
12.0413169447
 20
10.1060955762
 11
12.0412545658
 21
10.1079804691
  0
LINE
  5
2CF
100
AcDbEntity
  8
0
100
AcDbLine
 62
9
  6
CONTINUOUS
 10
12.0617853953
 20
10.1145507919
 11
12.061785485
 21
8.2072504949
  0
SPLINE
  5
2D0
100
AcDbEntity
  8
0
100
AcDbSpline
 62
9
  6
CONTINUOUS
 70
0
 71
3
 72
18
 73
14
 74
0
 42
0.0000001
 43
0.0000001
 44
0.0000000001
 40
0.0
 40
0.0
 40
0.0
 40
0.0
 40
0.1206349692
 40
0.2416395305
 40
0.3631871426
 40
0.4855921422
 40
0.60936492
 40
0.735440844
 40
0.7999429644
 40
0.8657143047
 40
0.8990549213
 40
0.9326830028
 40
1.0
 40
1.0
 40
1.0
 40
1.0
 10
12.0617853953
 20
10.1145507919
 30
0.0
 10
12.0615584223
 20
10.1130349377
 30
0.0
 10
12.0610069417
 20
10.1100120019
 30
0.0
 10
12.0598617201
 20
10.1055375395
 30
0.0
 10
12.0583524599
 20
10.1011468924
 30
0.0
 10
12.0564080511
 20
10.0968878593
 30
0.0
 10
12.0539170259
 20
10.0928511508
 30
0.0
 10
12.0512385615
 20
10.089839363
 30
0.0
 10
12.048623718
 20
10.0878777757
 30
0.0
 10
12.0467559327
 20
10.0869322024
 30
0.0
 10
12.0451452552
 20
10.0864194314
 30
0.0
 10
12.0434655015
 20
10.0861038426
 30
0.0
 10
12.0421650567
 20
10.0861022758
 30
0.0
 10
12.0413167921
 20
10.0862118318
 30
0.0
  0
SPLINE
  5
2D1
100
AcDbEntity
  8
0
100
AcDbSpline
 62
9
  6
CONTINUOUS
 70
0
 71
3
 72
15
 73
11
 74
0
 42
0.0000001
 43
0.0000001
 44
0.0000000001
 40
0.0
 40
0.0
 40
0.0
 40
0.0
 40
0.1225039266
 40
0.2455608009
 40
0.3691546312
 40
0.49362228
 40
0.6190320091
 40
0.7453378572
 40
0.8725250194
 40
1.0
 40
1.0
 40
1.0
 40
1.0
 10
8.7588062632
 20
6.2799876213
 30
0.0
 10
8.7586093674
 20
6.2788339793
 30
0.0
 10
8.7584372329
 20
6.2764775065
 30
0.0
 10
8.7588506053
 20
6.2729548216
 30
0.0
 10
8.7599264958
 20
6.2695541482
 30
0.0
 10
8.7616261707
 20
6.266394018
 30
0.0
 10
8.7638883697
 20
6.2635760509
 30
0.0
 10
8.7666416107
 20
6.2611954017
 30
0.0
 10
8.7697904538
 20
6.259334276
 30
0.0
 10
8.772082918
 20
6.2584764297
 30
0.0
 10
8.7732566921
 20
6.258151891
 30
0.0
  0
LINE
  5
2D2
100
AcDbEntity
  8
0
100
AcDbLine
 62
9
  6
CONTINUOUS
 10
8.7785422298
 20
6.2767970728
 11
8.7732566921
 21
6.258151891
  0
SPLINE
  5
2D3
100
AcDbEntity
  8
0
100
AcDbSpline
 62
9
  6
CONTINUOUS
 70
0
 71
3
 72
23
 73
19
 74
0
 42
0.0000001
 43
0.0000001
 44
0.0000000001
 40
0.0
 40
0.0
 40
0.0
 40
0.0
 40
0.1177362813
 40
0.17744142
 40
0.2377089067
 40
0.2985462843
 40
0.3599560185
 40
0.4219313889
 40
0.484459413
 40
0.5475121524
 40
0.6110571334
 40
0.6430033874
 40
0.6750583967
 40
0.7394653127
 40
0.8042234311
 40
0.8692757858
 40
0.9345615868
 40
1.0
 40
1.0
 40
1.0
 40
1.0
 10
11.9890725793
 20
8.245420295
 30
0.0
 10
11.9131136376
 20
8.2910851755
 30
0.0
 10
11.7968006915
 20
8.3569309773
 30
0.0
 10
11.6375579445
 20
8.4385859267
 30
0.0
 10
11.5147047179
 20
8.4972225073
 30
0.0
 10
11.389012796
 20
8.5527522689
 30
0.0
 10
11.2605132151
 20
8.6049574376
 30
0.0
 10
11.12926098
 20
8.6535927992
 30
0.0
 10
10.9953581965
 20
8.6984330782
 30
0.0
 10
10.8589609464
 20
8.7393161199
 30
0.0
 10
10.7435699413
 20
8.7698811583
 30
0.0
 10
10.6501798386
 20
8.7921874595
 30
0.0
 10
10.5558013126
 20
8.813092042
 30
0.0
 10
10.4366750736
 20
8.8364051642
 30
0.0
 10
10.2923217345
 20
8.8597404379
 30
0.0
 10
10.1466239627
 20
8.8784156918
 30
0.0
 10
9.9998886147
 20
8.8923945975
 30
0.0
 10
9.901657064
 20
8.8985717097
 30
0.0
 10
9.8524508051
 20
8.9008776504
 30
0.0
  0
SPLINE
  5
2D4
100
AcDbEntity
  8
0
100
AcDbSpline
 62
9
  6
CONTINUOUS
 70
0
 71
3
 72
23
 73
19
 74
0
 42
0.0000001
 43
0.0000001
 44
0.0000000001
 40
0.0
 40
0.0
 40
0.0
 40
0.0
 40
0.1177362186
 40
0.1774412951
 40
0.237708731
 40
0.2985461677
 40
0.3599559937
 40
0.4219314072
 40
0.4844594545
 40
0.5475122112
 40
0.6110571941
 40
0.643003443
 40
0.6750584447
 40
0.7394653162
 40
0.8042233598
 40
0.869275719
 40
0.9345615762
 40
1.0
 40
1.0
 40
1.0
 40
1.0
 10
11.9890733636
 20
10.0763806409
 30
0.0
 10
11.9131146922
 20
10.0307153285
 30
0.0
 10
11.796801839
 20
9.9648693695
 30
0.0
 10
11.6375585267
 20
9.8832156309
 30
0.0
 10
11.5147048394
 20
9.8245799939
 30
0.0
 10
11.3890131664
 20
9.7690493996
 30
0.0
 10
11.2605144382
 20
9.716841592
 30
0.0
 10
11.129262326
 20
9.6682052828
 30
0.0
 10
10.9953587113
 20
9.6233670382
 30
0.0
 10
10.8589607838
 20
9.5824859811
 30
0.0
 10
10.7435696739
 20
9.5519211757
 30
0.0
 10
10.6501797349
 20
9.5296140599
 30
0.0
 10
10.555801561
 20
9.5087079208
 30
0.0
 10
10.4366758126
 20
9.4853924296
 30
0.0
 10
10.2923222869
 20
9.4620581504
 30
0.0
 10
10.1466240698
 20
9.4433860843
 30
0.0
 10
9.999888708
 20
9.4294065097
 30
0.0
 10
9.9016570964
 20
9.4232285676
 30
0.0
 10
9.8524507937
 20
9.4209229403
 30
0.0
  0
LINE
  5
2D5
100
AcDbEntity
  8
0
100
AcDbLine
 62
9
  6
CONTINUOUS
 10
12.0413168848
 20
8.2355888434
 11
12.0413167921
 21
10.0862118318
  0
SPLINE
  5
2D6
100
AcDbEntity
  8
0
100
AcDbSpline
 62
9
  6
CONTINUOUS
 70
0
 71
3
 72
18
 73
14
 74
0
 42
0.0000001
 43
0.0000001
 44
0.0000000001
 40
0.0
 40
0.0
 40
0.0
 40
0.0
 40
0.1206304696
 40
0.2416342683
 40
0.3631833248
 40
0.4855890313
 40
0.6093627129
 40
0.7354394193
 40
0.7999420781
 40
0.8657144301
 40
0.8990552582
 40
0.9326828425
 40
1.0
 40
1.0
 40
1.0
 40
1.0
 10
12.061785485
 20
8.2072504949
 30
0.0
 10
12.0615584941
 20
8.208766269
 30
0.0
 10
12.0610068794
 20
8.2117890733
 30
0.0
 10
12.0598616268
 20
8.2162634107
 30
0.0
 10
12.0583524456
 20
8.2206540423
 30
0.0
 10
12.0564080136
 20
8.2249130435
 30
0.0
 10
12.0539170155
 20
8.228949732
 30
0.0
 10
12.0512385631
 20
8.2319615014
 30
0.0
 10
12.0486237358
 20
8.2339230872
 30
0.0
 10
12.0467559692
 20
8.2348686878
 30
0.0
 10
12.0451453062
 20
8.2353814669
 30
0.0
 10
12.0434655584
 20
8.235696995
 30
0.0
 10
12.0421651383
 20
8.235698417
 30
0.0
 10
12.0413168848
 20
8.2355888434
 30
0.0
  0
ENDSEC
  0
SECTION
  2
OBJECTS
  0
DICTIONARY
  5
C
100
AcDbDictionary
280
0
281
1
  3
ACAD_GROUP
350
D
  3
ACAD_MLINESTYLE
350
17
  3
ACAD_LAYOUT
350
1A
  3
ACAD_PLOTSETTINGS
350
19
  3
ACAD_PLOTSTYLENAME
350
E
  0
DICTIONARY
  5
D
102
{ACAD_REACTORS
330
C
102
}
100
AcDbDictionary
280
0
281
1
  0
ACDBDICTIONARYWDFLT
  5
E
102
{ACAD_REACTORS
330
C
102
}
100
AcDbDictionary
281
1
  3
Normal
350
F
100
AcDbDictionaryWithDefault
340
F
  0
DICTIONARY
  5
17
102
{ACAD_REACTORS
330
C
102
}
100
AcDbDictionary
280
0
281
1
  3
Standard
350
18
  0
DICTIONARY
  5
19
102
{ACAD_REACTORS
330
C
102
}
100
AcDbDictionary
281
1
  0
DICTIONARY
  5
1A
102
{ACAD_REACTORS
330
C
102
}
100
AcDbDictionary
281
1
  3
Model
350
2D7
  3
Layout1
350
2D8
  0
ACDBPLACEHOLDER
  5
F
102
{ACAD_REACTORS
330
E
102
}
  0
MLINESTYLE
  5
18
102
{ACAD_REACTORS
330
17
102
}
100
AcDbMlineStyle
  2
STANDARD
 70
0
  3

 62
256
 51
90.0
 52
90.0
 71
2
 49
0.5
 62
256
  6
BYLAYER
 49
-0.5
 62
256
  6
BYLAYER
  0
LAYOUT
  5
2D7
102
{ACAD_REACTORS
330
1A
102
}
100
AcDbPlotSettings
  1

  2
none_device
  4
ANSI_C_(22.00_x_17.00_Inches)
  6

 40
0.0
 41
0.0
 42
0.0
 43
0.0
 44
558.8
 45
431.8
 46
0.0
 47
0.0
 48
0.0
 49
0.0
140
0.0
141
0.0
142
1.0
143
1.0
 70
1024
 72
0
 73
0
 74
0
  7

 75
0
147
1.0
148
0.0
149
0.0
100
AcDbLayout
  1
Model
 70
0
 71
0
 10
0.0
 20
0.0
 11
22.0
 21
17.0
 12
0.0
 22
0.0
 32
0.0
 14
0.0
 24
0.0
 34
0.0
 15
0.0
 25
0.0
 35
0.0
146
0.0
 13
0.0
 23
0.0
 33
0.0
 16
1.0
 26
0.0
 36
0.0
 17
0.0
 27
1.0
 37
0.0
 76
0
330
205
345
0
346
0
  0
LAYOUT
  5
2D8
102
{ACAD_REACTORS
330
1A
102
}
100
AcDbPlotSettings
  1

  2
none_device
  4
ANSI_C_(22.00_x_17.00_Inches)
  6

 40
0.0
 41
0.0
 42
0.0
 43
0.0
 44
558.8
 45
431.8
 46
0.0
 47
0.0
 48
0.0
 49
0.0
140
0.0
141
0.0
142
1.0
143
1.0
 70
0
 72
0
 73
0
 74
0
  7

 75
0
147
1.0
148
0.0
149
0.0
100
AcDbLayout
  1
Layout1
 70
0
 71
1
 10
0.0
 20
0.0
 11
22.0
 21
17.0
 12
0.0
 22
0.0
 32
0.0
 14
0.0
 24
0.0
 34
0.0
 15
0.0
 25
0.0
 35
0.0
146
0.0
 13
0.0
 23
0.0
 33
0.0
 16
1.0
 26
0.0
 36
0.0
 17
0.0
 27
1.0
 37
0.0
 76
0
330
206
345
0
346
0
  0
ENDSEC
  0
EOF
