999
DXF file: E:\BT Custom\CADOUTPUT\_FRONT.dxf
999
Pro/ENGINEER 2018400 by Parametric Technology Corporation
  0
SECTION
  2
HEADER
  9
$ACADVER
  1
AC1018
  9
$DWGCODEPAGE
  3
ANSI_1252
  9
$EXTMAX
 10
22.0
 20
17.0
 30
0.0
  9
$EXTMIN
 10
0.0
 20
0.0
 30
0.0
  9
$LIMMIN
 10
0.0
 20
0.0
  9
$LIMMAX
 10
22.0
 20
17.0
  9
$VIEWCTR
 10
11.0
 20
8.5
  9
$VIEWSIZE
 40
17.0
  9
$CLAYER
  8
0
  9
$LTSCALE
 40
1.21
  9
$CELTYPE
  6
BYLAYER
  9
$DIMSCALE
 40
1.0
  9
$DIMASZ
 40
0.1
  9
$DIMEXO
 40
0.0625
  9
$DIMDLI
 40
0.836
  9
$DIMEXE
 40
0.125
  9
$DIMCEN
 40
0.198
  9
$DIMLFAC
 40
1.0
  9
$DIMBLK
  1
_FILLED
  9
$DIMALT
 70
1
  9
$DIMALTD
 70
2
  9
$DIMALTTD
 70
2
  9
$DIMALTF
 40
25.4
  9
$DIMTXT
 40
0.08
  9
$DIMTOL
 70
1
  9
$DIMLIM
 70
0
  9
$DIMTFAC
 40
1.0
  9
$DIMTP
 40
0.001
  9
$DIMTM
 40
0.001
  9
$DIMGAP
 40
0.09
  9
$DIMDSEP
 70
46
  9
$AUNITS
 70
0
  9
$PDMODE
 70
3
  9
$PDSIZE
 40
0.06
  9
$HANDSEED
  5
2D3
  9
$TILEMODE
 70
1
  9
$MEASUREMENT
 70
0
  9
$INSUNITS
 70
1
  0
ENDSEC
  0
SECTION
  2
CLASSES
  0
CLASS
  1
ACDBDICTIONARYWDFLT
  2
AcDbDictionaryWithDefault
  3
AutoCAD 2000
 90
0
 91
1
280
0
281
0
  0
CLASS
  1
ACDBPLACEHOLDER
  2
AcDbPlaceHolder
  3
AutoCAD 2000
 90
0
 91
1
280
0
281
0
  0
CLASS
  1
LAYOUT
  2
AcDbLayout
  3
AutoCAD 2000
 90
0
 91
0
280
0
281
0
  0
ENDSEC
  0
SECTION
  2
TABLES
  0
TABLE
  2
VPORT
  5
8
100
AcDbSymbolTable
 70
2
  0
VPORT
  5
1F4
100
AcDbSymbolTableRecord
100
AcDbViewportTableRecord
  2
*ACTIVE
 70
0
 10
0.0
 20
0.0
 11
1.0
 21
1.0
 12
11.0
 22
8.5
 13
0.0
 23
0.0
 14
1.0
 24
1.0
 15
0.0
 25
0.0
 16
0.0
 26
0.0
 36
1.0
 17
0.0
 27
0.0
 37
0.0
 40
17.0
 41
1.2941176471
 42
50.0
 43
0.0
 44
0.0
 50
0.0
 51
0.0
 71
0
 72
100
 73
1
 74
1
 75
0
 76
0
 77
0
 78
0
  0
ENDTAB
  0
TABLE
  2
LTYPE
  5
5
100
AcDbSymbolTable
 70
6
  0
LTYPE
  5
14
100
AcDbSymbolTableRecord
100
AcDbLinetypeTableRecord
  2
BYBLOCK
 70
0
  3

 72
65
 73
0
 40
0.0
  0
LTYPE
  5
15
100
AcDbSymbolTableRecord
100
AcDbLinetypeTableRecord
  2
BYLAYER
 70
0
  3

 72
65
 73
0
 40
0.0
  0
LTYPE
  5
16
100
AcDbSymbolTableRecord
100
AcDbLinetypeTableRecord
  2
CONTINUOUS
 70
64
  3
Solid line
 72
65
 73
0
 40
0.0
  0
LTYPE
  5
1F5
100
AcDbSymbolTableRecord
100
AcDbLinetypeTableRecord
  2
CENTER
 70
64
  3
____ _ ____ _ ____ _ ____ _ ____ _ ____ _ ____
 72
65
 73
4
 40
0.6
 49
0.375
 74
0
 49
-0.075
 74
0
 49
0.075
 74
0
 49
-0.075
 74
0
  0
LTYPE
  5
1F6
100
AcDbSymbolTableRecord
100
AcDbLinetypeTableRecord
  2
HIDDEN
 70
64
  3
- - - - - - - - - - - - - - - - - - - -
 72
65
 73
2
 40
0.2
 49
0.1
 74
0
 49
-0.1
 74
0
  0
LTYPE
  5
1F7
100
AcDbSymbolTableRecord
100
AcDbLinetypeTableRecord
  2
PHANTOM
 70
64
  3
_____ _ _ _____ _ _ _____ _ _ _____
 72
65
 73
6
 40
0.8
 49
0.45
 74
0
 49
-0.05
 74
0
 49
0.1
 74
0
 49
-0.05
 74
0
 49
0.1
 74
0
 49
-0.05
 74
0
  0
LTYPE
  5
1F8
100
AcDbSymbolTableRecord
100
AcDbLinetypeTableRecord
  2
DOT
 70
64
  3
. . . . . . . . . . . . . . . . . . . .
 72
65
 73
2
 40
0.2
 49
0.1
 74
0
 49
-0.1
 74
0
  0
LTYPE
  5
1F9
100
AcDbSymbolTableRecord
100
AcDbLinetypeTableRecord
  2
DASHED
 70
64
  3
- - - - - - - - - - - - - - - - - - - -
 72
65
 73
2
 40
0.2
 49
0.1
 74
0
 49
-0.1
 74
0
  0
ENDTAB
  0
TABLE
  2
LAYER
  5
2
100
AcDbSymbolTable
 70
36
  0
LAYER
  5
10
100
AcDbSymbolTableRecord
100
AcDbLayerTableRecord
  2
0
 70
0
 62
7
  6
CONTINUOUS
370
-3
390
F
  0
LAYER
  5
1FA
100
AcDbSymbolTableRecord
100
AcDbLayerTableRecord
  2
DEFAULT_1
 70
0
 62
7
  6
CENTER
370
-3
390
F
  0
LAYER
  5
1FB
100
AcDbSymbolTableRecord
100
AcDbLayerTableRecord
  2
DEFAULT_2
 70
0
 62
8
  6
HIDDEN
370
-3
390
F
  0
LAYER
  5
1FC
100
AcDbSymbolTableRecord
100
AcDbLayerTableRecord
  2
DEFAULT_3
 70
0
 62
7
  6
PHANTOM
370
-3
390
F
  0
LAYER
  5
1FD
100
AcDbSymbolTableRecord
100
AcDbLayerTableRecord
  2
ALL_FEATURES
 70
0
 62
7
  6
CONTINUOUS
370
-3
390
F
  0
LAYER
  5
1FE
100
AcDbSymbolTableRecord
100
AcDbLayerTableRecord
  2
AXES_FEATURES
 70
0
 62
7
  6
CONTINUOUS
370
-3
390
F
  0
LAYER
  5
1FF
100
AcDbSymbolTableRecord
100
AcDbLayerTableRecord
  2
DEFAULT_COORDINATE_SYSTEM
 70
0
 62
7
  6
CONTINUOUS
370
-3
390
F
  0
LAYER
  5
200
100
AcDbSymbolTableRecord
100
AcDbLayerTableRecord
  2
DEFAULT_DATUM_AXES
 70
0
 62
7
  6
CONTINUOUS
370
-3
390
F
  0
LAYER
  5
201
100
AcDbSymbolTableRecord
100
AcDbLayerTableRecord
  2
DEFAULT_DATUM_PLANES
 70
0
 62
7
  6
CONTINUOUS
370
-3
390
F
  0
LAYER
  5
202
100
AcDbSymbolTableRecord
100
AcDbLayerTableRecord
  2
DIMENSIONS
 70
0
 62
7
  6
CONTINUOUS
370
-3
390
F
  0
ENDTAB
  0
TABLE
  2
STYLE
  5
3
100
AcDbSymbolTable
 70
1
  0
STYLE
  5
11
100
AcDbSymbolTableRecord
100
AcDbTextStyleTableRecord
  2
STANDARD
 70
0
 40
0.0
 41
0.8
 50
0.0
 71
0
 42
0.2
  3
txt
  4

  0
STYLE
  5
203
100
AcDbSymbolTableRecord
100
AcDbTextStyleTableRecord
  2
TEXTSTYLE_1
 70
0
 40
0.0
 41
0.8
 50
0.0
 71
0
 42
0.2
  3
gdt
  4

  0
ENDTAB
  0
TABLE
  2
VIEW
  5
6
100
AcDbSymbolTable
 70
0
  0
ENDTAB
  0
TABLE
  2
UCS
  5
7
100
AcDbSymbolTable
 70
0
  0
ENDTAB
  0
TABLE
  2
APPID
  5
9
100
AcDbSymbolTable
 70
1
  0
APPID
  5
204
100
AcDbSymbolTableRecord
100
AcDbRegAppTableRecord
  2
ACAD
 70
0
  0
ENDTAB
  0
TABLE
  2
BLOCK_RECORD
  5
1
100
AcDbSymbolTable
 70
0
  0
BLOCK_RECORD
  5
205
100
AcDbSymbolTableRecord
100
AcDbBlockTableRecord
  2
*Model_Space
  0
BLOCK_RECORD
  5
206
100
AcDbSymbolTableRecord
100
AcDbBlockTableRecord
  2
*Paper_Space
  0
BLOCK_RECORD
  5
207
100
AcDbSymbolTableRecord
100
AcDbBlockTableRecord
  2
_FILLED
  0
ENDTAB
  0
TABLE
  2
DIMSTYLE
  5
A
100
AcDbSymbolTable
 70
1
100
AcDbDimStyleTable
 71
0
  0
DIMSTYLE
105
208
100
AcDbSymbolTableRecord
100
AcDbDimStyleTableRecord
  2
STANDARD
 70
0
  3

  4

 40
1.0
 41
0.1
 42
0.0625
 43
0.38
 44
0.125
 45
0.0
 46
0.0
 47
0.001
 48
0.001
140
0.08
141
0.09
142
0.0
143
25.4
144
1.0
145
0.0
146
1.0
147
0.09
 71
1.0
 72
0.0
 73
1
 74
1
 75
0
 76
0
 77
0
 78
4
 79
1
170
1
171
2
172
0
173
0
174
0
175
0
176
0
177
0
178
0
270
2
179
3
271
3
272
3
273
2
274
2
275
0
280
0
281
0
282
0
283
1
284
4
285
0
286
0
287
3
288
0
340
11
278
46
341
207
342
207
343
207
344
207
  0
ENDTAB
  0
ENDSEC
  0
SECTION
  2
BLOCKS
  0
BLOCK
  5
20
100
AcDbEntity
  8
0
100
AcDbBlockBegin
  2
*Model_Space
 70
0
 10
0.0
 20
0.0
 30
0.0
  3
*Model_Space
  1

  0
ENDBLK
  5
21
100
AcDbEntity
  8
0
100
AcDbBlockEnd
  0
BLOCK
  5
1C
100
AcDbEntity
  8
0
100
AcDbBlockBegin
  2
*Paper_Space
 70
0
 10
0.0
 20
0.0
 30
0.0
  3
*Paper_Space
  1

  0
ENDBLK
  5
1D
100
AcDbEntity
  8
0
100
AcDbBlockEnd
  0
BLOCK
  5
209
100
AcDbEntity
  8
0
100
AcDbBlockBegin
  2
_FILLED
 70
64
 10
0.0
 20
0.0
  3
_FILLED
  1

  0
SOLID
  5
20A
100
AcDbEntity
  8
0
  6
BYBLOCK
 62
0
100
AcDbTrace
 10
0.0
 20
0.0
 11
-1.0
 21
0.2
 12
-1.0
 22
-0.2
 13
-1.0
 23
-0.2
  0
ENDBLK
  5
20B
100
AcDbEntity
  8
0
  6
BYBLOCK
 62
0
100
AcDbBlockEnd
  0
ENDSEC
  0
SECTION
  2
ENTITIES
  0
LINE
  5
20C
100
AcDbEntity
  8
0
100
AcDbLine
 62
7
  6
CONTINUOUS
 10
9.336826201
 20
9.3423151714
 11
9.336826201
 21
9.1834569037
  0
LINE
  5
20D
100
AcDbEntity
  8
0
100
AcDbLine
 62
7
  6
CONTINUOUS
 10
9.4041096656
 20
9.1834569037
 11
9.4041096656
 21
9.2550710769
  0
LINE
  5
20E
100
AcDbEntity
  8
0
100
AcDbLine
 62
7
  6
CONTINUOUS
 10
9.4041096656
 20
9.2728663525
 11
9.4041096656
 21
9.3423151714
  0
LINE
  5
20F
100
AcDbEntity
  8
0
100
AcDbLine
 62
7
  6
CONTINUOUS
 10
9.4961175396
 20
9.3423151714
 11
9.4961175396
 21
9.2728663525
  0
LINE
  5
210
100
AcDbEntity
  8
0
100
AcDbLine
 62
7
  6
CONTINUOUS
 10
9.4961175396
 20
9.2550710769
 11
9.4961175396
 21
9.1834569037
  0
LINE
  5
211
100
AcDbEntity
  8
0
100
AcDbLine
 62
7
  6
CONTINUOUS
 10
9.5634010042
 20
9.1834569037
 11
9.5634010042
 21
9.3423151714
  0
LINE
  5
212
100
AcDbEntity
  8
0
100
AcDbLine
 62
7
  6
CONTINUOUS
 10
10.9472592719
 20
7.7790474549
 11
10.9589915553
 21
7.7790474549
  0
LINE
  5
213
100
AcDbEntity
  8
0
100
AcDbLine
 62
7
  6
CONTINUOUS
 10
11.1227710829
 20
7.7790474549
 11
11.1345033664
 21
7.7790474549
  0
LINE
  5
214
100
AcDbEntity
  8
0
100
AcDbLine
 62
7
  6
CONTINUOUS
 10
11.1345033664
 20
7.7912128092
 11
11.1227710829
 21
7.7912128092
  0
LINE
  5
215
100
AcDbEntity
  8
0
100
AcDbLine
 62
7
  6
CONTINUOUS
 10
10.9589915553
 20
7.7912128092
 11
10.9472592719
 21
7.7912128092
  0
LINE
  5
216
100
AcDbEntity
  8
0
100
AcDbLine
 62
7
  6
CONTINUOUS
 10
10.9611569097
 20
7.8589293447
 11
10.9752907679
 21
7.8589293447
  0
LINE
  5
217
100
AcDbEntity
  8
0
100
AcDbLine
 62
7
  6
CONTINUOUS
 10
11.1366293506
 20
7.8589293447
 11
11.1507632089
 21
7.8589293447
  0
LINE
  5
218
100
AcDbEntity
  8
0
100
AcDbLine
 62
7
  6
CONTINUOUS
 10
10.9143852561
 20
7.8715671399
 11
10.8780073034
 21
7.8723545415
  0
LINE
  5
219
100
AcDbEntity
  8
0
100
AcDbLine
 62
7
  6
CONTINUOUS
 10
11.0898970672
 20
7.8715671399
 11
11.0535191144
 21
7.8723545415
  0
LINE
  5
21A
100
AcDbEntity
  8
0
100
AcDbLine
 62
9
  6
CONTINUOUS
 10
9.8573211669
 20
9.9022020351
 11
10.3025941243
 21
10.3474749925
  0
LINE
  5
21B
100
AcDbEntity
  8
0
100
AcDbLine
 62
7
  6
CONTINUOUS
 10
9.9013476925
 20
9.8615067287
 11
10.3432894307
 21
10.303448467
  0
LINE
  5
21C
100
AcDbEntity
  8
0
100
AcDbLine
 62
9
  6
CONTINUOUS
 10
9.8573211669
 20
8.6325712837
 11
10.3025941243
 21
8.1872983264
  0
LINE
  5
21D
100
AcDbEntity
  8
0
100
AcDbLine
 62
7
  6
CONTINUOUS
 10
9.9013476925
 20
8.6732665901
 11
10.3432894307
 21
8.2313248519
  0
LINE
  5
21E
100
AcDbEntity
  8
0
100
AcDbLine
 62
7
  6
CONTINUOUS
 10
10.4601495572
 20
9.4663762484
 11
10.3657900258
 21
9.1142216829
  0
LINE
  5
21F
100
AcDbEntity
  8
0
100
AcDbLine
 62
7
  6
CONTINUOUS
 10
10.7842445235
 20
8.6957671852
 11
11.136399089
 21
8.7901267166
  0
LINE
  5
220
100
AcDbEntity
  8
0
100
AcDbLine
 62
7
  6
CONTINUOUS
 10
10.3657900258
 20
9.1142216829
 11
10.4327077573
 21
9.0473039514
  0
LINE
  5
221
100
AcDbEntity
  8
0
100
AcDbLine
 62
7
  6
CONTINUOUS
 10
10.717326792
 20
8.7626849167
 11
10.7842445235
 21
8.6957671852
  0
LINE
  5
222
100
AcDbEntity
  8
0
100
AcDbLine
 62
7
  6
CONTINUOUS
 10
10.9003695081
 20
7.8404254077
 11
10.9003695081
 21
7.7302285573
  0
LINE
  5
223
100
AcDbEntity
  8
0
100
AcDbLine
 62
7
  6
CONTINUOUS
 10
10.9472592719
 20
7.7302679273
 11
10.9472592719
 21
7.7790474549
  0
LINE
  5
224
100
AcDbEntity
  8
0
100
AcDbLine
 62
7
  6
CONTINUOUS
 10
10.9472592719
 20
7.7912128092
 11
10.9472592719
 21
7.8441261951
  0
LINE
  5
225
100
AcDbEntity
  8
0
100
AcDbLine
 62
7
  6
CONTINUOUS
 10
11.5509750058
 20
10.2840030305
 11
11.1262217004
 21
9.7314059876
  0
LINE
  5
226
100
AcDbEntity
  8
0
100
AcDbLine
 62
7
  6
CONTINUOUS
 10
9.9207931289
 20
8.6538211536
 11
10.4733888501
 21
9.0785734431
  0
LINE
  5
227
100
AcDbEntity
  8
0
100
AcDbLine
 62
7
  6
CONTINUOUS
 10
9.4041096656
 20
9.2550710769
 11
9.4961175396
 21
9.2550710769
  0
LINE
  5
228
100
AcDbEntity
  8
0
100
AcDbLine
 62
7
  6
CONTINUOUS
 10
9.4961175396
 20
9.2728663525
 11
9.4041096656
 21
9.2728663525
  0
LINE
  5
229
100
AcDbEntity
  8
0
100
AcDbLine
 62
7
  6
CONTINUOUS
 10
9.9207931289
 20
9.8809521652
 11
10.4733755041
 21
9.4562101342
  0
LINE
  5
22A
100
AcDbEntity
  8
0
100
AcDbLine
 62
9
  6
CONTINUOUS
 10
10.5830245814
 20
9.621771578
 11
10.7081898516
 21
9.4966063078
  0
LINE
  5
22B
100
AcDbEntity
  8
0
100
AcDbLine
 62
9
  6
CONTINUOUS
 10
11.1666291484
 20
9.0381670111
 11
11.2917944186
 21
8.9130017408
  0
LINE
  5
22C
100
AcDbEntity
  8
0
100
AcDbLine
 62
7
  6
CONTINUOUS
 10
11.5509750058
 20
8.2507702884
 11
11.1262317858
 21
8.8033542104
  0
LINE
  5
22D
100
AcDbEntity
  8
0
100
AcDbLine
 62
7
  6
CONTINUOUS
 10
11.0758813191
 20
7.8404254077
 11
11.0758813191
 21
7.7302285573
  0
LINE
  5
22E
100
AcDbEntity
  8
0
100
AcDbLine
 62
7
  6
CONTINUOUS
 10
11.1227710829
 20
7.7302679273
 11
11.1227710829
 21
7.7790474549
  0
LINE
  5
22F
100
AcDbEntity
  8
0
100
AcDbLine
 62
7
  6
CONTINUOUS
 10
11.1227710829
 20
7.7912128092
 11
11.1227710829
 21
7.8441261951
  0
LINE
  5
230
100
AcDbEntity
  8
0
100
AcDbLine
 62
7
  6
CONTINUOUS
 10
10.3238439942
 20
8.2507702884
 11
10.7485972996
 21
8.8033673313
  0
LINE
  5
231
100
AcDbEntity
  8
0
100
AcDbLine
 62
7
  6
CONTINUOUS
 10
11.9540258711
 20
9.8809521652
 11
11.4014301499
 21
9.4561998758
  0
LINE
  5
232
100
AcDbEntity
  8
0
100
AcDbLine
 62
7
  6
CONTINUOUS
 10
11.9540258711
 20
8.6538211536
 11
11.4014434959
 21
9.0785631847
  0
LINE
  5
233
100
AcDbEntity
  8
0
100
AcDbLine
 62
7
  6
CONTINUOUS
 10
10.3238439942
 20
10.2840030305
 11
10.7485872143
 21
9.7314191085
  0
LINE
  5
234
100
AcDbEntity
  8
0
100
AcDbLine
 62
7
  6
CONTINUOUS
 10
11.4146694428
 20
9.0683970705
 11
11.5090289742
 21
9.4205516359
  0
LINE
  5
235
100
AcDbEntity
  8
0
100
AcDbLine
 62
7
  6
CONTINUOUS
 10
11.0905744765
 20
9.8390061337
 11
10.738419911
 21
9.7446466022
  0
LINE
  5
236
100
AcDbEntity
  8
0
100
AcDbLine
 62
7
  6
CONTINUOUS
 10
11.5090289742
 20
9.4205516359
 11
11.4421112427
 21
9.4874693675
  0
LINE
  5
237
100
AcDbEntity
  8
0
100
AcDbLine
 62
7
  6
CONTINUOUS
 10
11.1574922081
 20
9.7720884021
 11
11.0905744765
 21
9.8390061337
  0
LINE
  5
238
100
AcDbEntity
  8
0
100
AcDbLine
 62
7
  6
CONTINUOUS
 10
11.5315295693
 20
8.2313248519
 11
11.9734713076
 21
8.6732665901
  0
LINE
  5
239
100
AcDbEntity
  8
0
100
AcDbLine
 62
9
  6
CONTINUOUS
 10
11.5722248757
 20
8.1872983264
 11
12.0174978331
 21
8.6325712837
  0
LINE
  5
23A
100
AcDbEntity
  8
0
100
AcDbLine
 62
7
  6
CONTINUOUS
 10
11.5315295693
 20
10.303448467
 11
11.9734713076
 21
9.8615067287
  0
LINE
  5
23B
100
AcDbEntity
  8
0
100
AcDbLine
 62
9
  6
CONTINUOUS
 10
11.5722248757
 20
10.3474749925
 11
12.0174978331
 21
9.9022020351
  0
ARC
  5
23C
100
AcDbEntity
  8
0
100
AcDbCircle
 62
7
  6
CONTINUOUS
 10
8.9681171144
 20
7.2980942738
 40
4.01
100
AcDbArc
 50
40.4966382723
 51
49.5033617277
  0
ARC
  5
23D
100
AcDbEntity
  8
0
100
AcDbCircle
 62
7
  6
CONTINUOUS
 10
9.880134489
 20
8.6520533867
 40
0.03
100
AcDbArc
 50
45.0
 51
220.4966382723
  0
ARC
  5
23E
100
AcDbEntity
  8
0
100
AcDbCircle
 62
7
  6
CONTINUOUS
 10
10.3220762273
 20
8.2101116484
 40
0.03
100
AcDbArc
 50
229.5033617277
 51
45.0
  0
ARC
  5
23F
100
AcDbEntity
  8
0
100
AcDbCircle
 62
7
  6
CONTINUOUS
 10
8.9681171144
 20
11.236679045
 40
4.01
100
AcDbArc
 50
310.4966382723
 51
319.5033617277
  0
ARC
  5
240
100
AcDbEntity
  8
0
100
AcDbCircle
 62
7
  6
CONTINUOUS
 10
10.3220762273
 20
10.3246616704
 40
0.03
100
AcDbArc
 50
315.0
 51
130.4966382723
  0
ARC
  5
241
100
AcDbEntity
  8
0
100
AcDbCircle
 62
7
  6
CONTINUOUS
 10
9.880134489
 20
9.8827199322
 40
0.03
100
AcDbArc
 50
139.5033617277
 51
315.0
  0
ARC
  5
242
100
AcDbEntity
  8
0
100
AcDbCircle
 62
7
  6
CONTINUOUS
 10
12.9067018856
 20
7.2980942738
 40
4.01
100
AcDbArc
 50
130.4966382723
 51
139.5033617277
  0
ARC
  5
243
100
AcDbEntity
  8
0
100
AcDbCircle
 62
7
  6
CONTINUOUS
 10
11.5527427728
 20
8.2101116484
 40
0.03
100
AcDbArc
 50
135.0
 51
310.4966382723
  0
ARC
  5
244
100
AcDbEntity
  8
0
100
AcDbCircle
 62
7
  6
CONTINUOUS
 10
11.994684511
 20
8.6520533867
 40
0.03
100
AcDbArc
 50
319.5033617277
 51
135.0
  0
CIRCLE
  5
245
100
AcDbEntity
  8
0
100
AcDbCircle
 62
7
  6
CONTINUOUS
 10
10.9376923427
 20
9.2676695021
 40
3.75
  0
CIRCLE
  5
246
100
AcDbEntity
  8
0
100
AcDbCircle
 62
9
  6
CONTINUOUS
 10
10.9376923427
 20
9.2676695021
 40
3.6779700629
  0
CIRCLE
  5
247
100
AcDbEntity
  8
0
100
AcDbCircle
 62
9
  6
CONTINUOUS
 10
10.9376923427
 20
9.2676695021
 40
3.3101977857
  0
CIRCLE
  5
248
100
AcDbEntity
  8
0
100
AcDbCircle
 62
9
  6
CONTINUOUS
 10
10.9376923427
 20
9.2676695021
 40
3.233
  0
CIRCLE
  5
249
100
AcDbEntity
  8
0
100
AcDbCircle
 62
9
  6
CONTINUOUS
 10
10.9376923427
 20
9.2676695021
 40
1.7569831374
  0
CIRCLE
  5
24A
100
AcDbEntity
  8
0
100
AcDbCircle
 62
9
  6
CONTINUOUS
 10
10.9376923427
 20
9.2676695021
 40
1.7369899909
  0
CIRCLE
  5
24B
100
AcDbEntity
  8
0
100
AcDbCircle
 62
7
  6
CONTINUOUS
 10
10.9376923427
 20
9.2676695021
 40
1.7342267598
  0
ARC
  5
24C
100
AcDbEntity
  8
0
100
AcDbCircle
 62
7
  6
CONTINUOUS
 10
10.9374095
 20
9.2673866594
 40
1.1355877937
100
AcDbArc
 50
239.1837473214
 51
300.8152863006
  0
ARC
  5
24D
100
AcDbEntity
  8
0
100
AcDbCircle
 62
7
  6
CONTINUOUS
 10
10.9374095
 20
9.2673866594
 40
1.1355877937
100
AcDbArc
 50
149.1847136994
 51
210.8162526786
  0
ARC
  5
24E
100
AcDbEntity
  8
0
100
AcDbCircle
 62
7
  6
CONTINUOUS
 10
10.9374095
 20
9.2673866594
 40
1.1355877937
100
AcDbArc
 50
59.1837473214
 51
120.8152863006
  0
ARC
  5
24F
100
AcDbEntity
  8
0
100
AcDbCircle
 62
7
  6
CONTINUOUS
 10
10.9374095
 20
9.2673866594
 40
1.1355877937
100
AcDbArc
 50
329.1847136994
 51
30.8162526786
  0
ARC
  5
250
100
AcDbEntity
  8
0
100
AcDbCircle
 62
9
  6
CONTINUOUS
 10
10.9374095
 20
9.2673866594
 40
1.1018951051
100
AcDbArc
 50
239.3911346921
 51
300.6088057007
  0
ARC
  5
251
100
AcDbEntity
  8
0
100
AcDbCircle
 62
9
  6
CONTINUOUS
 10
10.9374095
 20
9.2673866594
 40
1.1018951051
100
AcDbArc
 50
149.3911942993
 51
210.6088653079
  0
ARC
  5
252
100
AcDbEntity
  8
0
100
AcDbCircle
 62
9
  6
CONTINUOUS
 10
10.9374095
 20
9.2673866594
 40
1.1018951051
100
AcDbArc
 50
329.3911942993
 51
30.6088653079
  0
ARC
  5
253
100
AcDbEntity
  8
0
100
AcDbCircle
 62
9
  6
CONTINUOUS
 10
10.9374095
 20
9.2673866594
 40
1.1018951051
100
AcDbArc
 50
59.3911346921
 51
120.6088057007
  0
ARC
  5
254
100
AcDbEntity
  8
0
100
AcDbCircle
 62
9
  6
CONTINUOUS
 10
10.9374095
 20
9.2673866594
 40
1.0686940646
100
AcDbArc
 50
239.6079914675
 51
300.3920085325
  0
ARC
  5
255
100
AcDbEntity
  8
0
100
AcDbCircle
 62
9
  6
CONTINUOUS
 10
10.9374095
 20
9.2673866594
 40
1.0686940646
100
AcDbArc
 50
149.6079914675
 51
210.3920085325
  0
ARC
  5
256
100
AcDbEntity
  8
0
100
AcDbCircle
 62
9
  6
CONTINUOUS
 10
10.9374095
 20
9.2673866594
 40
1.0686940646
100
AcDbArc
 50
329.6079914675
 51
30.3920085325
  0
ARC
  5
257
100
AcDbEntity
  8
0
100
AcDbCircle
 62
9
  6
CONTINUOUS
 10
10.9374095
 20
9.2673866594
 40
1.0686940646
100
AcDbArc
 50
59.6079914675
 51
120.3920085325
  0
ARC
  5
258
100
AcDbEntity
  8
0
100
AcDbCircle
 62
9
  6
CONTINUOUS
 10
10.9374095
 20
9.2673866594
 40
0.9981262705
100
AcDbArc
 50
240.1171675817
 51
299.8835587569
  0
ARC
  5
259
100
AcDbEntity
  8
0
100
AcDbCircle
 62
9
  6
CONTINUOUS
 10
10.9374095
 20
9.2673866594
 40
0.9981262705
100
AcDbArc
 50
150.1164412431
 51
209.8828324184
  0
ARC
  5
25A
100
AcDbEntity
  8
0
100
AcDbCircle
 62
9
  6
CONTINUOUS
 10
10.9374095
 20
9.2673866594
 40
0.9981262705
100
AcDbArc
 50
330.1164412431
 51
29.8828324184
  0
ARC
  5
25B
100
AcDbEntity
  8
0
100
AcDbCircle
 62
9
  6
CONTINUOUS
 10
10.9374095
 20
9.2673866594
 40
0.9981262705
100
AcDbArc
 50
60.1171675816
 51
119.8835587569
  0
ARC
  5
25C
100
AcDbEntity
  8
0
100
AcDbCircle
 62
9
  6
CONTINUOUS
 10
10.9374095
 20
9.2673866594
 40
0.9302280237
100
AcDbArc
 50
240.6789089353
 51
299.3210910647
  0
ARC
  5
25D
100
AcDbEntity
  8
0
100
AcDbCircle
 62
9
  6
CONTINUOUS
 10
10.9374095
 20
9.2673866594
 40
0.9302280237
100
AcDbArc
 50
150.6789089353
 51
209.3210910647
  0
ARC
  5
25E
100
AcDbEntity
  8
0
100
AcDbCircle
 62
9
  6
CONTINUOUS
 10
10.9374095
 20
9.2673866594
 40
0.9302280237
100
AcDbArc
 50
330.6789089353
 51
29.3210910647
  0
ARC
  5
25F
100
AcDbEntity
  8
0
100
AcDbCircle
 62
9
  6
CONTINUOUS
 10
10.9374095
 20
9.2673866594
 40
0.9302280237
100
AcDbArc
 50
60.6789089353
 51
119.3210910647
  0
ARC
  5
260
100
AcDbEntity
  8
0
100
AcDbCircle
 62
9
  6
CONTINUOUS
 10
10.9374095
 20
9.2673866594
 40
0.7616485311
100
AcDbArc
 50
242.5192580044
 51
297.4820603739
  0
ARC
  5
261
100
AcDbEntity
  8
0
100
AcDbCircle
 62
9
  6
CONTINUOUS
 10
10.9374095
 20
9.2673866594
 40
0.7616485311
100
AcDbArc
 50
152.5179396261
 51
207.4807419956
  0
ARC
  5
262
100
AcDbEntity
  8
0
100
AcDbCircle
 62
9
  6
CONTINUOUS
 10
10.9374095
 20
9.2673866594
 40
0.7616485311
100
AcDbArc
 50
332.5179396261
 51
27.4807419956
  0
ARC
  5
263
100
AcDbEntity
  8
0
100
AcDbCircle
 62
9
  6
CONTINUOUS
 10
10.9374095
 20
9.2673866594
 40
0.7616485311
100
AcDbArc
 50
62.5192580044
 51
117.4820603739
  0
ARC
  5
264
100
AcDbEntity
  8
0
100
AcDbCircle
 62
7
  6
CONTINUOUS
 10
10.9374095
 20
9.2673866594
 40
0.6917203626
100
AcDbArc
 50
333.549691209
 51
26.450308791
  0
ARC
  5
265
100
AcDbEntity
  8
0
100
AcDbCircle
 62
7
  6
CONTINUOUS
 10
10.9374095
 20
9.2673866594
 40
0.6917203626
100
AcDbArc
 50
63.549691209
 51
116.450308791
  0
ARC
  5
266
100
AcDbEntity
  8
0
100
AcDbCircle
 62
7
  6
CONTINUOUS
 10
10.9374095
 20
9.2673866594
 40
0.6917203626
100
AcDbArc
 50
243.549691209
 51
296.450308791
  0
ARC
  5
267
100
AcDbEntity
  8
0
100
AcDbCircle
 62
7
  6
CONTINUOUS
 10
10.9374095
 20
9.2673866594
 40
0.6917203626
100
AcDbArc
 50
153.549691209
 51
206.4503087911
  0
ARC
  5
268
100
AcDbEntity
  8
0
100
AcDbCircle
 62
9
  6
CONTINUOUS
 10
10.9374095
 20
9.2673866594
 40
0.5085759512
100
AcDbArc
 50
337.6290853441
 51
22.3733899569
  0
ARC
  5
269
100
AcDbEntity
  8
0
100
AcDbCircle
 62
9
  6
CONTINUOUS
 10
10.9374095
 20
9.2673866594
 40
0.5085759512
100
AcDbArc
 50
247.6266100431
 51
292.3709146559
  0
ARC
  5
26A
100
AcDbEntity
  8
0
100
AcDbCircle
 62
9
  6
CONTINUOUS
 10
10.9374095
 20
9.2673866594
 40
0.5085759512
100
AcDbArc
 50
67.6266100431
 51
112.3709146559
  0
ARC
  5
26B
100
AcDbEntity
  8
0
100
AcDbCircle
 62
9
  6
CONTINUOUS
 10
10.9374095
 20
9.2673866594
 40
0.5085759512
100
AcDbArc
 50
157.6290853441
 51
202.3733899569
  0
CIRCLE
  5
26C
100
AcDbEntity
  8
0
100
AcDbCircle
 62
7
  6
CONTINUOUS
 10
10.9374095
 20
9.2673866594
 40
0.5011759582
  0
CIRCLE
  5
26D
100
AcDbEntity
  8
0
100
AcDbCircle
 62
9
  6
CONTINUOUS
 10
10.9374095
 20
9.2673866594
 40
0.4694578864
  0
CIRCLE
  5
26E
100
AcDbEntity
  8
0
100
AcDbCircle
 62
9
  6
CONTINUOUS
 10
10.9374095
 20
9.2673866594
 40
0.3241653484
  0
ARC
  5
26F
100
AcDbEntity
  8
0
100
AcDbCircle
 62
7
  6
CONTINUOUS
 10
11.5527427728
 20
10.3246616704
 40
0.03
100
AcDbArc
 50
49.5033617277
 51
225.0
  0
ARC
  5
270
100
AcDbEntity
  8
0
100
AcDbCircle
 62
7
  6
CONTINUOUS
 10
11.994684511
 20
9.8827199322
 40
0.03
100
AcDbArc
 50
225.0
 51
40.4966382723
  0
ARC
  5
271
100
AcDbEntity
  8
0
100
AcDbCircle
 62
7
  6
CONTINUOUS
 10
12.9067018856
 20
11.236679045
 40
4.01
100
AcDbArc
 50
220.4966382723
 51
229.5033617277
  0
SPLINE
  5
272
100
AcDbEntity
  8
0
100
AcDbSpline
 62
7
  6
CONTINUOUS
 70
0
 71
3
 72
10
 73
6
 74
0
 42
0.0000001
 43
0.0000001
 44
0.0000000001
 40
0.0
 40
0.0
 40
0.0
 40
0.0
 40
0.25
 40
0.5
 40
1.0
 40
1.0
 40
1.0
 40
1.0
 10
10.8562356498
 20
7.7846773762
 30
0.0
 10
10.8562345983
 20
7.7782997411
 30
0.0
 10
10.8552483949
 20
7.7666235762
 30
0.0
 10
10.849217132
 20
7.7441477193
 30
0.0
 10
10.8400354881
 20
7.7295137804
 30
0.0
 10
10.8319443112
 20
7.7207403683
 30
0.0
  0
SPLINE
  5
273
100
AcDbEntity
  8
0
100
AcDbSpline
 62
7
  6
CONTINUOUS
 70
0
 71
3
 72
10
 73
6
 74
0
 42
0.0000001
 43
0.0000001
 44
0.0000000001
 40
0.0
 40
0.0
 40
0.0
 40
0.0
 40
0.5
 40
0.75
 40
1.0
 40
1.0
 40
1.0
 40
1.0
 10
10.8315112404
 20
7.8497561163
 30
0.0
 10
10.8397488744
 20
7.8407709293
 30
0.0
 10
10.8489494293
 20
7.8259620865
 30
0.0
 10
10.8551717833
 20
7.8035666788
 30
0.0
 10
10.8562366792
 20
7.7909204364
 30
0.0
 10
10.8562356498
 20
7.7846773762
 30
0.0
  0
SPLINE
  5
274
100
AcDbEntity
  8
0
100
AcDbSpline
 62
7
  6
CONTINUOUS
 70
0
 71
3
 72
17
 73
13
 74
0
 42
0.0000001
 43
0.0000001
 44
0.0000000001
 40
0.0
 40
0.0
 40
0.0
 40
0.0
 40
0.1260748315
 40
0.252149663
 40
0.3782244945
 40
0.4412619103
 40
0.5042993261
 40
0.5662619103
 40
0.6282244945
 40
0.752149663
 40
0.8760748315
 40
1.0
 40
1.0
 40
1.0
 40
1.0
 10
10.6948576971
 20
7.8493624155
 30
0.0
 10
10.6989227366
 20
7.8539165889
 30
0.0
 10
10.7078768952
 20
7.8618889462
 30
0.0
 10
10.723771745
 20
7.8704326621
 30
0.0
 10
10.7391015407
 20
7.87470736
 30
0.0
 10
10.7525417431
 20
7.8764182063
 30
0.0
 10
10.7633357487
 20
7.8768469219
 30
0.0
 10
10.774079559
 20
7.8764274956
 30
0.0
 10
10.7873364809
 20
7.8747456971
 30
0.0
 10
10.8025197036
 20
7.8705379863
 30
0.0
 10
10.8183746935
 20
7.8621166325
 30
0.0
 10
10.8273910139
 20
7.8542502472
 30
0.0
 10
10.8315112404
 20
7.8497561163
 30
0.0
  0
SPLINE
  5
275
100
AcDbEntity
  8
0
100
AcDbSpline
 62
7
  6
CONTINUOUS
 70
0
 71
3
 72
13
 73
9
 74
0
 42
0.0000001
 43
0.0000001
 44
0.0000000001
 40
0.0
 40
0.0
 40
0.0
 40
0.0
 40
0.2501360915
 40
0.3752041372
 40
0.5002721829
 40
0.6252041372
 40
0.7501360915
 40
1.0
 40
1.0
 40
1.0
 40
1.0
 10
10.6948576971
 20
7.7208584785
 30
0.0
 10
10.6867268988
 20
7.7296739349
 30
0.0
 10
10.6775799602
 20
7.7442950112
 30
0.0
 10
10.6714821602
 20
7.7663875785
 30
0.0
 10
10.669957507
 20
7.7846665453
 30
0.0
 10
10.6714819102
 20
7.8029991215
 30
0.0
 10
10.6775799015
 20
7.8253039569
 30
0.0
 10
10.6867279423
 20
7.8402544319
 30
0.0
 10
10.6948576971
 20
7.8493624155
 30
0.0
  0
SPLINE
  5
276
100
AcDbEntity
  8
0
100
AcDbSpline
 62
7
  6
CONTINUOUS
 70
0
 71
3
 72
17
 73
13
 74
0
 42
0.0000001
 43
0.0000001
 44
0.0000000001
 40
0.0
 40
0.0
 40
0.0
 40
0.0
 40
0.1251725725
 40
0.250345145
 40
0.3755177174
 40
0.4381040037
 40
0.5006902899
 40
0.5631040037
 40
0.6255177174
 40
0.750345145
 40
0.8751725725
 40
1.0
 40
1.0
 40
1.0
 40
1.0
 10
10.8319443112
 20
7.7207403683
 30
0.0
 10
10.8278986987
 20
7.716353636
 30
0.0
 10
10.8189746661
 20
7.7086743716
 30
0.0
 10
10.8030944644
 20
7.7004480907
 30
0.0
 10
10.7877515881
 20
7.6963342415
 30
0.0
 10
10.7742875358
 20
7.6946888932
 30
0.0
 10
10.7634122682
 20
7.694276759
 30
0.0
 10
10.752544021
 20
7.6946891706
 30
0.0
 10
10.7391052016
 20
7.6963419639
 30
0.0
 10
10.7237747342
 20
7.7004736022
 30
0.0
 10
10.7078793019
 20
7.7087376844
 30
0.0
 10
10.6989230268
 20
7.7164508255
 30
0.0
 10
10.6948576971
 20
7.7208584785
 30
0.0
  0
SPLINE
  5
277
100
AcDbEntity
  8
0
100
AcDbSpline
 62
7
  6
CONTINUOUS
 70
0
 71
3
 72
8
 73
4
 74
0
 42
0.0000001
 43
0.0000001
 44
0.0000000001
 40
0.0
 40
0.0
 40
0.0
 40
0.0
 40
1.0
 40
1.0
 40
1.0
 40
1.0
 10
10.9003695081
 20
7.7302285573
 30
0.0
 10
10.9003713208
 20
7.7233702942
 30
0.0
 10
10.8989130301
 20
7.7184348369
 30
0.0
 10
10.8959994294
 20
7.7154254077
 30
0.0
  0
SPLINE
  5
278
100
AcDbEntity
  8
0
100
AcDbSpline
 62
7
  6
CONTINUOUS
 70
0
 71
3
 72
8
 73
4
 74
0
 42
0.0000001
 43
0.0000001
 44
0.0000000001
 40
0.0
 40
0.0
 40
0.0
 40
0.0
 40
1.0
 40
1.0
 40
1.0
 40
1.0
 10
10.8959994294
 20
7.7154254077
 30
0.0
 10
10.8930850465
 20
7.7124151706
 30
0.0
 10
10.8870843038
 20
7.7103296293
 30
0.0
 10
10.8780073034
 20
7.7091655651
 30
0.0
  0
SPLINE
  5
279
100
AcDbEntity
  8
0
100
AcDbSpline
 62
7
  6
CONTINUOUS
 70
0
 71
3
 72
15
 73
11
 74
0
 42
0.0000001
 43
0.0000001
 44
0.0000000001
 40
0.0
 40
0.0
 40
0.0
 40
0.0
 40
0.105263648
 40
0.210527296
 40
0.3139446207
 40
0.4173619455
 40
0.5638698222
 40
0.710377699
 40
0.8551888495
 40
1.0
 40
1.0
 40
1.0
 40
1.0
 10
10.8780073034
 20
7.7091655651
 30
0.0
 10
10.8777569343
 20
7.7090843643
 30
0.0
 10
10.877293105
 20
7.7086666106
 30
0.0
 10
10.8766789473
 20
7.7070037475
 30
0.0
 10
10.8762211584
 20
7.7050691675
 30
0.0
 10
10.8760940454
 20
7.7035435325
 30
0.0
 10
10.8762306287
 20
7.7020411508
 30
0.0
 10
10.8766670143
 20
7.7001133067
 30
0.0
 10
10.8772947847
 20
7.6986280484
 30
0.0
 10
10.8777569343
 20
7.6983387935
 30
0.0
 10
10.8780073034
 20
7.6983387935
 30
0.0
  0
SPLINE
  5
27A
100
AcDbEntity
  8
0
100
AcDbSpline
 62
7
  6
CONTINUOUS
 70
0
 71
3
 72
15
 73
11
 74
0
 42
0.0000001
 43
0.0000001
 44
0.0000000001
 40
0.0
 40
0.0
 40
0.0
 40
0.0
 40
0.1251311632
 40
0.2502623264
 40
0.3752851097
 40
0.500307893
 40
0.6253306762
 40
0.7503534595
 40
0.8751767298
 40
1.0
 40
1.0
 40
1.0
 40
1.0
 10
10.8780073034
 20
7.6983387935
 30
0.0
 10
10.8818382754
 20
7.6983387935
 30
0.0
 10
10.8895278585
 20
7.6984318227
 30
0.0
 10
10.9012235705
 20
7.6989894196
 30
0.0
 10
10.9128149854
 20
7.6995476891
 30
0.0
 10
10.923782158
 20
7.6996871492
 30
0.0
 10
10.934953803
 20
7.6995475898
 30
0.0
 10
10.9473864196
 20
7.6989902746
 30
0.0
 10
10.9599684676
 20
7.6984317094
 30
0.0
 10
10.9678690254
 20
7.6983387935
 30
0.0
 10
10.9717474608
 20
7.6983387935
 30
0.0
  0
SPLINE
  5
27B
100
AcDbEntity
  8
0
100
AcDbSpline
 62
7
  6
CONTINUOUS
 70
0
 71
3
 72
15
 73
11
 74
0
 42
0.0000001
 43
0.0000001
 44
0.0000000001
 40
0.0
 40
0.0
 40
0.0
 40
0.0
 40
0.1398637912
 40
0.2797275825
 40
0.4165870847
 40
0.5534465869
 40
0.6659338489
 40
0.778421111
 40
0.8892105555
 40
1.0
 40
1.0
 40
1.0
 40
1.0
 10
10.9717474608
 20
7.6983387935
 30
0.0
 10
10.9719504628
 20
7.6983387935
 30
0.0
 10
10.9723554091
 20
7.6986354369
 30
0.0
 10
10.973015167
 20
7.7002325521
 30
0.0
 10
10.9735099473
 20
7.7022312537
 30
0.0
 10
10.9736678494
 20
7.7036399488
 30
0.0
 10
10.9735136008
 20
7.7050721337
 30
0.0
 10
10.9730269623
 20
7.7071256241
 30
0.0
 10
10.9723543751
 20
7.7088468973
 30
0.0
 10
10.9719504628
 20
7.7091655651
 30
0.0
 10
10.9717474608
 20
7.7091655651
 30
0.0
  0
SPLINE
  5
27C
100
AcDbEntity
  8
0
100
AcDbSpline
 62
7
  6
CONTINUOUS
 70
0
 71
3
 72
11
 73
7
 74
0
 42
0.0000001
 43
0.0000001
 44
0.0000000001
 40
0.0
 40
0.0
 40
0.0
 40
0.0
 40
0.25
 40
0.5
 40
0.75
 40
1.0
 40
1.0
 40
1.0
 40
1.0
 10
10.9717474608
 20
7.7091655651
 30
0.0
 10
10.9671656699
 20
7.7096688272
 30
0.0
 10
10.9593554671
 20
7.7112403386
 30
0.0
 10
10.9520475595
 20
7.7150934544
 30
0.0
 10
10.948186624
 20
7.7210803951
 30
0.0
 10
10.9472586562
 20
7.7269195606
 30
0.0
 10
10.9472592719
 20
7.7302679273
 30
0.0
  0
SPLINE
  5
27D
100
AcDbEntity
  8
0
100
AcDbSpline
 62
7
  6
CONTINUOUS
 70
0
 71
3
 72
11
 73
7
 74
0
 42
0.0000001
 43
0.0000001
 44
0.0000000001
 40
0.0
 40
0.0
 40
0.0
 40
0.0
 40
0.25
 40
0.5
 40
0.75
 40
1.0
 40
1.0
 40
1.0
 40
1.0
 10
10.9589915553
 20
7.7790474549
 30
0.0
 10
10.9632772847
 20
7.779047027
 30
0.0
 10
10.9707925753
 20
7.7778659366
 30
0.0
 10
10.9786862798
 20
7.7724284979
 30
0.0
 10
10.9837922499
 20
7.7637159669
 30
0.0
 10
10.9857388559
 20
7.7559995367
 30
0.0
 10
10.98631439
 20
7.7516458801
 30
0.0
  0
SPLINE
  5
27E
100
AcDbEntity
  8
0
100
AcDbSpline
 62
7
  6
CONTINUOUS
 70
0
 71
3
 72
15
 73
11
 74
0
 42
0.0000001
 43
0.0000001
 44
0.0000000001
 40
0.0
 40
0.0
 40
0.0
 40
0.0
 40
0.1265759093
 40
0.2531518186
 40
0.3793610249
 40
0.5055702311
 40
0.630221299
 40
0.7548723669
 40
0.8774361834
 40
1.0
 40
1.0
 40
1.0
 40
1.0
 10
10.98631439
 20
7.7516458801
 30
0.0
 10
10.98631439
 20
7.7513877703
 30
0.0
 10
10.9865823845
 20
7.7509020111
 30
0.0
 10
10.9880138588
 20
7.7502357787
 30
0.0
 10
10.9898336015
 20
7.7497203007
 30
0.0
 10
10.9914670264
 20
7.749592679
 30
0.0
 10
10.9931103221
 20
7.7497209978
 30
0.0
 10
10.9949797985
 20
7.7502285825
 30
0.0
 10
10.9964670462
 20
7.7509027958
 30
0.0
 10
10.9967474608
 20
7.7513877703
 30
0.0
 10
10.9967474608
 20
7.7516458801
 30
0.0
  0
SPLINE
  5
27F
100
AcDbEntity
  8
0
100
AcDbSpline
 62
7
  6
CONTINUOUS
 70
0
 71
3
 72
15
 73
11
 74
0
 42
0.0000001
 43
0.0000001
 44
0.0000000001
 40
0.0
 40
0.0
 40
0.0
 40
0.0
 40
0.1273095528
 40
0.2546191056
 40
0.3815925071
 40
0.5085659087
 40
0.6314244315
 40
0.7542829544
 40
0.8771414772
 40
1.0
 40
1.0
 40
1.0
 40
1.0
 10
10.9967474608
 20
7.7516458801
 30
0.0
 10
10.9967474608
 20
7.7546437787
 30
0.0
 10
10.9966543522
 20
7.7604514153
 30
0.0
 10
10.9960971409
 20
7.7683111798
 30
0.0
 10
10.9955385274
 20
7.7760789809
 30
0.0
 10
10.9953986976
 20
7.784598105
 30
0.0
 10
10.9955378126
 20
7.7931777184
 30
0.0
 10
10.9960964444
 20
7.8012021987
 30
0.0
 10
10.996654411
 20
7.8094539382
 30
0.0
 10
10.9967474608
 20
7.8154495718
 30
0.0
 10
10.9967474608
 20
7.8185356439
 30
0.0
  0
SPLINE
  5
280
100
AcDbEntity
  8
0
100
AcDbSpline
 62
7
  6
CONTINUOUS
 70
0
 71
3
 72
15
 73
11
 74
0
 42
0.0000001
 43
0.0000001
 44
0.0000000001
 40
0.0
 40
0.0
 40
0.0
 40
0.0
 40
0.1225638166
 40
0.2451276331
 40
0.369778701
 40
0.4944297689
 40
0.6206389751
 40
0.7468481814
 40
0.8734240907
 40
1.0
 40
1.0
 40
1.0
 40
1.0
 10
10.9967474608
 20
7.8185356439
 30
0.0
 10
10.9967474608
 20
7.8187869613
 30
0.0
 10
10.9964670462
 20
7.8192656174
 30
0.0
 10
10.9949797985
 20
7.819937686
 30
0.0
 10
10.9931103221
 20
7.8204532644
 30
0.0
 10
10.9914670264
 20
7.8205924831
 30
0.0
 10
10.9898336015
 20
7.8204539332
 30
0.0
 10
10.9880138588
 20
7.8199304604
 30
0.0
 10
10.9865823845
 20
7.8192664146
 30
0.0
 10
10.98631439
 20
7.8187869613
 30
0.0
 10
10.98631439
 20
7.8185356439
 30
0.0
  0
SPLINE
  5
281
100
AcDbEntity
  8
0
100
AcDbSpline
 62
7
  6
CONTINUOUS
 70
0
 71
3
 72
11
 73
7
 74
0
 42
0.0000001
 43
0.0000001
 44
0.0000000001
 40
0.0
 40
0.0
 40
0.0
 40
0.0
 40
0.2498315466
 40
0.4996630931
 40
0.7498315466
 40
1.0
 40
1.0
 40
1.0
 40
1.0
 10
10.98631439
 20
7.8185356439
 30
0.0
 10
10.9858194602
 20
7.8144406086
 30
0.0
 10
10.9839213194
 20
7.8070778206
 30
0.0
 10
10.9782837335
 20
7.7982051491
 30
0.0
 10
10.9700406754
 20
7.79242791
 30
0.0
 10
10.9629509934
 20
7.7912128092
 30
0.0
 10
10.9589915553
 20
7.7912128092
 30
0.0
  0
SPLINE
  5
282
100
AcDbEntity
  8
0
100
AcDbSpline
 62
7
  6
CONTINUOUS
 70
0
 71
3
 72
8
 73
4
 74
0
 42
0.0000001
 43
0.0000001
 44
0.0000000001
 40
0.0
 40
0.0
 40
0.0
 40
0.0
 40
1.0
 40
1.0
 40
1.0
 40
1.0
 10
10.9472592719
 20
7.8441261951
 30
0.0
 10
10.9472480048
 20
7.8506434822
 30
0.0
 10
10.948717821
 20
7.8547379703
 30
0.0
 10
10.9516687207
 20
7.8564096596
 30
0.0
  0
SPLINE
  5
283
100
AcDbEntity
  8
0
100
AcDbSpline
 62
7
  6
CONTINUOUS
 70
0
 71
3
 72
8
 73
4
 74
0
 42
0.0000001
 43
0.0000001
 44
0.0000000001
 40
0.0
 40
0.0
 40
0.0
 40
0.0
 40
1.0
 40
1.0
 40
1.0
 40
1.0
 10
10.9516687207
 20
7.8564096596
 30
0.0
 10
10.9546362187
 20
7.8580844824
 30
0.0
 10
10.9578080234
 20
7.8589291305
 30
0.0
 10
10.9611569097
 20
7.8589293447
 30
0.0
  0
SPLINE
  5
284
100
AcDbEntity
  8
0
100
AcDbSpline
 62
7
  6
CONTINUOUS
 70
0
 71
3
 72
8
 73
4
 74
0
 42
0.0000001
 43
0.0000001
 44
0.0000000001
 40
0.0
 40
0.0
 40
0.0
 40
0.0
 40
1.0
 40
1.0
 40
1.0
 40
1.0
 10
10.9752907679
 20
7.8589293447
 30
0.0
 10
10.989115087
 20
7.8589248979
 30
0.0
 10
10.9996928082
 20
7.8540177523
 30
0.0
 10
11.0070230514
 20
7.8442443053
 30
0.0
  0
SPLINE
  5
285
100
AcDbEntity
  8
0
100
AcDbSpline
 62
7
  6
CONTINUOUS
 70
0
 71
3
 72
8
 73
4
 74
0
 42
0.0000001
 43
0.0000001
 44
0.0000000001
 40
0.0
 40
0.0
 40
0.0
 40
0.0
 40
1.0
 40
1.0
 40
1.0
 40
1.0
 10
11.0070230514
 20
7.8442443053
 30
0.0
 10
11.0143662111
 20
7.8344536367
 30
0.0
 10
11.0187445882
 20
7.8239626434
 30
0.0
 10
11.0201726577
 20
7.8127482423
 30
0.0
  0
SPLINE
  5
286
100
AcDbEntity
  8
0
100
AcDbSpline
 62
7
  6
CONTINUOUS
 70
0
 71
3
 72
11
 73
7
 74
0
 42
0.0000001
 43
0.0000001
 44
0.0000000001
 40
0.0
 40
0.0
 40
0.0
 40
0.0
 40
0.25
 40
0.5
 40
0.75
 40
1.0
 40
1.0
 40
1.0
 40
1.0
 10
11.0201726577
 20
7.8127482423
 30
0.0
 10
11.0201739457
 20
7.8122152625
 30
0.0
 10
11.0238400479
 20
7.8108782279
 30
0.0
 10
11.0267637159
 20
7.8115002336
 30
0.0
 10
11.0301168492
 20
7.8133146423
 30
0.0
 10
11.0305678035
 20
7.8139219544
 30
0.0
 10
11.0305663585
 20
7.8145198958
 30
0.0
  0
LINE
  5
287
100
AcDbEntity
  8
0
100
AcDbLine
 62
7
  6
CONTINUOUS
 10
11.0305663585
 20
7.8145198958
 11
11.0291490357
 21
7.8439293447
  0
SPLINE
  5
288
100
AcDbEntity
  8
0
100
AcDbSpline
 62
7
  6
CONTINUOUS
 70
0
 71
3
 72
8
 73
4
 74
0
 42
0.0000001
 43
0.0000001
 44
0.0000000001
 40
0.0
 40
0.0
 40
0.0
 40
0.0
 40
1.0
 40
1.0
 40
1.0
 40
1.0
 10
11.0291490357
 20
7.8439293447
 30
0.0
 10
11.0286463678
 20
7.8557008334
 30
0.0
 10
11.0284015452
 20
7.8651668583
 30
0.0
 10
11.0284010042
 20
7.8723545415
 30
0.0
  0
SPLINE
  5
289
100
AcDbEntity
  8
0
100
AcDbSpline
 62
7
  6
CONTINUOUS
 70
0
 71
3
 72
18
 73
14
 74
0
 42
0.0000001
 43
0.0000001
 44
0.0000000001
 40
0.0
 40
0.0
 40
0.0
 40
0.0
 40
0.1596445147
 40
0.239466772
 40
0.3192890294
 40
0.3991090524
 40
0.4789290755
 40
0.5587490986
 40
0.6385691217
 40
0.6837479815
 40
0.7289268413
 40
0.8192845609
 40
1.0
 40
1.0
 40
1.0
 40
1.0
 10
11.0284010042
 20
7.8723545415
 30
0.0
 10
11.0235935616
 20
7.87217821
 30
0.0
 10
11.0151908926
 20
7.8719327192
 30
0.0
 10
11.0017964599
 20
7.8716412004
 30
0.0
 10
10.9902710339
 20
7.871422001
 30
0.0
 10
10.9788030929
 20
7.8712633794
 30
0.0
 10
10.9689649324
 20
7.8711426885
 30
0.0
 10
10.9602704107
 20
7.8710691218
 30
0.0
 10
10.9541299153
 20
7.8710474642
 30
0.0
 10
10.9493140697
 20
7.8710571919
 30
0.0
 10
10.9436987589
 20
7.8710880367
 30
0.0
 10
10.9330187239
 20
7.8711977656
 30
0.0
 10
10.9222575301
 20
7.8713908355
 30
0.0
 10
10.9143852561
 20
7.8715671399
 30
0.0
  0
SPLINE
  5
28A
100
AcDbEntity
  8
0
100
AcDbSpline
 62
7
  6
CONTINUOUS
 70
0
 71
3
 72
15
 73
11
 74
0
 42
0.0000001
 43
0.0000001
 44
0.0000000001
 40
0.0
 40
0.0
 40
0.0
 40
0.0
 40
0.1427891906
 40
0.2855783814
 40
0.4314914897
 40
0.577404598
 40
0.682118711
 40
0.786832824
 40
0.893416412
 40
1.0
 40
1.0
 40
1.0
 40
1.0
 10
10.8780073034
 20
7.8723545415
 30
0.0
 10
10.8777569343
 20
7.8723545415
 30
0.0
 10
10.8772951058
 20
7.8720663476
 30
0.0
 10
10.8766637618
 20
7.870571269
 30
0.0
 10
10.8762308797
 20
7.868646255
 30
0.0
 10
10.8760942255
 20
7.8671387812
 30
0.0
 10
10.8762213155
 20
7.8656164057
 30
0.0
 10
10.8766789042
 20
7.8636917187
 30
0.0
 10
10.8772931174
 20
7.8620261109
 30
0.0
 10
10.8777569343
 20
7.8616089706
 30
0.0
 10
10.8780073034
 20
7.8615277699
 30
0.0
  0
SPLINE
  5
28B
100
AcDbEntity
  8
0
100
AcDbSpline
 62
7
  6
CONTINUOUS
 70
0
 71
3
 72
8
 73
4
 74
0
 42
0.0000001
 43
0.0000001
 44
0.0000000001
 40
0.0
 40
0.0
 40
0.0
 40
0.0
 40
1.0
 40
1.0
 40
1.0
 40
1.0
 10
10.8780073034
 20
7.8615277699
 30
0.0
 10
10.8870881959
 20
7.8603451977
 30
0.0
 10
10.8930860013
 20
7.8582436869
 30
0.0
 10
10.8959994294
 20
7.8552285573
 30
0.0
  0
SPLINE
  5
28C
100
AcDbEntity
  8
0
100
AcDbSpline
 62
7
  6
CONTINUOUS
 70
0
 71
3
 72
8
 73
4
 74
0
 42
0.0000001
 43
0.0000001
 44
0.0000000001
 40
0.0
 40
0.0
 40
0.0
 40
0.0
 40
1.0
 40
1.0
 40
1.0
 40
1.0
 10
10.8959994294
 20
7.8552285573
 30
0.0
 10
10.8989100933
 20
7.8522162882
 30
0.0
 10
10.9003713208
 20
7.8472836707
 30
0.0
 10
10.9003695081
 20
7.8404254077
 30
0.0
  0
SPLINE
  5
28D
100
AcDbEntity
  8
0
100
AcDbSpline
 62
7
  6
CONTINUOUS
 70
0
 71
3
 72
15
 73
11
 74
0
 42
0.0000001
 43
0.0000001
 44
0.0000000001
 40
0.0
 40
0.0
 40
0.0
 40
0.0
 40
0.1429080624
 40
0.2858161249
 40
0.431622451
 40
0.577428777
 40
0.682066258
 40
0.7867037391
 40
0.8933518695
 40
1.0
 40
1.0
 40
1.0
 40
1.0
 10
11.0535191144
 20
7.8723545415
 30
0.0
 10
11.0532687453
 20
7.8723545415
 30
0.0
 10
11.0528081672
 20
7.8720661011
 30
0.0
 10
11.0521663828
 20
7.8705729298
 30
0.0
 10
11.0517394393
 20
7.8686460899
 30
0.0
 10
11.0516076865
 20
7.8671387513
 30
0.0
 10
11.0517301366
 20
7.8656165633
 30
0.0
 10
11.0521814278
 20
7.8636902226
 30
0.0
 10
11.0528062289
 20
7.8620263306
 30
0.0
 10
11.0532687453
 20
7.8616089706
 30
0.0
 10
11.0535191144
 20
7.8615277699
 30
0.0
  0
SPLINE
  5
28E
100
AcDbEntity
  8
0
100
AcDbSpline
 62
7
  6
CONTINUOUS
 70
0
 71
3
 72
8
 73
4
 74
0
 42
0.0000001
 43
0.0000001
 44
0.0000000001
 40
0.0
 40
0.0
 40
0.0
 40
0.0
 40
1.0
 40
1.0
 40
1.0
 40
1.0
 10
11.0535191144
 20
7.8615277699
 30
0.0
 10
11.0625932236
 20
7.8603452095
 30
0.0
 10
11.0685978123
 20
7.8582436869
 30
0.0
 10
11.0715112404
 20
7.8552285573
 30
0.0
  0
SPLINE
  5
28F
100
AcDbEntity
  8
0
100
AcDbSpline
 62
7
  6
CONTINUOUS
 70
0
 71
3
 72
8
 73
4
 74
0
 42
0.0000001
 43
0.0000001
 44
0.0000000001
 40
0.0
 40
0.0
 40
0.0
 40
0.0
 40
1.0
 40
1.0
 40
1.0
 40
1.0
 10
11.0715112404
 20
7.8552285573
 30
0.0
 10
11.0744219043
 20
7.8522162882
 30
0.0
 10
11.0758831318
 20
7.8472836707
 30
0.0
 10
11.0758813191
 20
7.8404254077
 30
0.0
  0
SPLINE
  5
290
100
AcDbEntity
  8
0
100
AcDbSpline
 62
7
  6
CONTINUOUS
 70
0
 71
3
 72
8
 73
4
 74
0
 42
0.0000001
 43
0.0000001
 44
0.0000000001
 40
0.0
 40
0.0
 40
0.0
 40
0.0
 40
1.0
 40
1.0
 40
1.0
 40
1.0
 10
11.0758813191
 20
7.7302285573
 30
0.0
 10
11.0758831318
 20
7.7233702942
 30
0.0
 10
11.0744248411
 20
7.7184348369
 30
0.0
 10
11.0715112404
 20
7.7154254077
 30
0.0
  0
SPLINE
  5
291
100
AcDbEntity
  8
0
100
AcDbSpline
 62
7
  6
CONTINUOUS
 70
0
 71
3
 72
8
 73
4
 74
0
 42
0.0000001
 43
0.0000001
 44
0.0000000001
 40
0.0
 40
0.0
 40
0.0
 40
0.0
 40
1.0
 40
1.0
 40
1.0
 40
1.0
 10
11.0715112404
 20
7.7154254077
 30
0.0
 10
11.0685968575
 20
7.7124151706
 30
0.0
 10
11.0625893361
 20
7.7103296308
 30
0.0
 10
11.0535191144
 20
7.7091655651
 30
0.0
  0
SPLINE
  5
292
100
AcDbEntity
  8
0
100
AcDbSpline
 62
7
  6
CONTINUOUS
 70
0
 71
3
 72
15
 73
11
 74
0
 42
0.0000001
 43
0.0000001
 44
0.0000000001
 40
0.0
 40
0.0
 40
0.0
 40
0.0
 40
0.1053270967
 40
0.2106541935
 40
0.3139955464
 40
0.4173368993
 40
0.5637371493
 40
0.7101373992
 40
0.8550686996
 40
1.0
 40
1.0
 40
1.0
 40
1.0
 10
11.0535191144
 20
7.7091655651
 30
0.0
 10
11.0532687453
 20
7.7090843643
 30
0.0
 10
11.0528062168
 20
7.7086663896
 30
0.0
 10
11.0521814698
 20
7.7070052467
 30
0.0
 10
11.051729984
 20
7.70506901
 30
0.0
 10
11.0516075183
 20
7.7035435646
 30
0.0
 10
11.0517391703
 20
7.7020413121
 30
0.0
 10
11.0521696516
 20
7.700111648
 30
0.0
 10
11.0528078506
 20
7.6986282983
 30
0.0
 10
11.0532687453
 20
7.6983387935
 30
0.0
 10
11.0535191144
 20
7.6983387935
 30
0.0
  0
SPLINE
  5
293
100
AcDbEntity
  8
0
100
AcDbSpline
 62
7
  6
CONTINUOUS
 70
0
 71
3
 72
15
 73
11
 74
0
 42
0.0000001
 43
0.0000001
 44
0.0000000001
 40
0.0
 40
0.0
 40
0.0
 40
0.0
 40
0.1251124979
 40
0.2502249958
 40
0.3751209535
 40
0.5000169111
 40
0.6249128687
 40
0.7498088263
 40
0.8749044132
 40
1.0
 40
1.0
 40
1.0
 40
1.0
 10
11.0535191144
 20
7.6983387935
 30
0.0
 10
11.0573503636
 20
7.6983387935
 30
0.0
 10
11.065036634
 20
7.6984318703
 30
0.0
 10
11.0767319716
 20
7.6989891628
 30
0.0
 10
11.0883300086
 20
7.6995478239
 30
0.0
 10
11.0992962423
 20
7.6996871996
 30
0.0
 10
11.1104731912
 20
7.6995478185
 30
0.0
 10
11.1229138699
 20
7.6989892097
 30
0.0
 10
11.1354928126
 20
7.6984318641
 30
0.0
 10
11.1433873368
 20
7.6983387935
 30
0.0
 10
11.1472592719
 20
7.6983387935
 30
0.0
  0
SPLINE
  5
294
100
AcDbEntity
  8
0
100
AcDbSpline
 62
7
  6
CONTINUOUS
 70
0
 71
3
 72
15
 73
11
 74
0
 42
0.0000001
 43
0.0000001
 44
0.0000000001
 40
0.0
 40
0.0
 40
0.0
 40
0.0
 40
0.139641474
 40
0.279282948
 40
0.4163362681
 40
0.5533895883
 40
0.6660361528
 40
0.7786827173
 40
0.8893413587
 40
1.0
 40
1.0
 40
1.0
 40
1.0
 10
11.1472592719
 20
7.6983387935
 30
0.0
 10
11.1474690406
 20
7.6983387935
 30
0.0
 10
11.1478741526
 20
7.6986349219
 30
0.0
 10
11.1485237345
 20
7.7002359199
 30
0.0
 10
11.149031769
 20
7.7022309265
 30
0.0
 10
11.1491746741
 20
7.7036399107
 30
0.0
 10
11.1490349523
 20
7.7050724621
 30
0.0
 10
11.1485355642
 20
7.7071225765
 30
0.0
 10
11.1478730532
 20
7.7088473341
 30
0.0
 10
11.1474690406
 20
7.7091655651
 30
0.0
 10
11.1472592719
 20
7.7091655651
 30
0.0
  0
SPLINE
  5
295
100
AcDbEntity
  8
0
100
AcDbSpline
 62
7
  6
CONTINUOUS
 70
0
 71
3
 72
11
 73
7
 74
0
 42
0.0000001
 43
0.0000001
 44
0.0000000001
 40
0.0
 40
0.0
 40
0.0
 40
0.0
 40
0.25
 40
0.5
 40
0.75
 40
1.0
 40
1.0
 40
1.0
 40
1.0
 10
11.1472592719
 20
7.7091655651
 30
0.0
 10
11.142675887
 20
7.7096677326
 30
0.0
 10
11.1348700527
 20
7.7112376042
 30
0.0
 10
11.127566685
 20
7.7150899429
 30
0.0
 10
11.1237009739
 20
7.7210777292
 30
0.0
 10
11.1227709255
 20
7.7269184962
 30
0.0
 10
11.1227710829
 20
7.7302679273
 30
0.0
  0
SPLINE
  5
296
100
AcDbEntity
  8
0
100
AcDbSpline
 62
7
  6
CONTINUOUS
 70
0
 71
3
 72
11
 73
7
 74
0
 42
0.0000001
 43
0.0000001
 44
0.0000000001
 40
0.0
 40
0.0
 40
0.0
 40
0.0
 40
0.25
 40
0.5
 40
0.75
 40
1.0
 40
1.0
 40
1.0
 40
1.0
 10
11.1345033664
 20
7.7790474549
 30
0.0
 10
11.1387890957
 20
7.779047027
 30
0.0
 10
11.1462976052
 20
7.7778659379
 30
0.0
 10
11.1541811378
 20
7.7724285012
 30
0.0
 10
11.1592972797
 20
7.7637159682
 30
0.0
 10
11.1612506669
 20
7.7559995367
 30
0.0
 10
11.161826201
 20
7.7516458801
 30
0.0
  0
SPLINE
  5
297
100
AcDbEntity
  8
0
100
AcDbSpline
 62
7
  6
CONTINUOUS
 70
0
 71
3
 72
15
 73
11
 74
0
 42
0.0000001
 43
0.0000001
 44
0.0000000001
 40
0.0
 40
0.0
 40
0.0
 40
0.0
 40
0.1242103398
 40
0.2484206797
 40
0.3735558601
 40
0.4986910405
 40
0.6238262209
 40
0.7489614013
 40
0.8744807007
 40
1.0
 40
1.0
 40
1.0
 40
1.0
 10
11.161826201
 20
7.7516458801
 30
0.0
 10
11.161826201
 20
7.7513877703
 30
0.0
 10
11.1620953884
 20
7.750902422
 30
0.0
 10
11.1635162076
 20
7.7502320365
 30
0.0
 10
11.1653396342
 20
7.7497206273
 30
0.0
 10
11.1669734838
 20
7.7495928258
 30
0.0
 10
11.1686153076
 20
7.7497201121
 30
0.0
 10
11.1704925533
 20
7.7502358876
 30
0.0
 10
11.1719785086
 20
7.7509019903
 30
0.0
 10
11.1722592719
 20
7.7513877703
 30
0.0
 10
11.1722592719
 20
7.7516458801
 30
0.0
  0
SPLINE
  5
298
100
AcDbEntity
  8
0
100
AcDbSpline
 62
7
  6
CONTINUOUS
 70
0
 71
3
 72
15
 73
11
 74
0
 42
0.0000001
 43
0.0000001
 44
0.0000000001
 40
0.0
 40
0.0
 40
0.0
 40
0.0
 40
0.1273095528
 40
0.2546191056
 40
0.3815925071
 40
0.5085659087
 40
0.6314244315
 40
0.7542829544
 40
0.8771414772
 40
1.0
 40
1.0
 40
1.0
 40
1.0
 10
11.1722592719
 20
7.7516458801
 30
0.0
 10
11.1722592719
 20
7.7546437787
 30
0.0
 10
11.1721661633
 20
7.7604514153
 30
0.0
 10
11.1716089519
 20
7.7683111798
 30
0.0
 10
11.1710503384
 20
7.7760789809
 30
0.0
 10
11.1709105087
 20
7.784598105
 30
0.0
 10
11.1710496237
 20
7.7931777184
 30
0.0
 10
11.1716082555
 20
7.8012021987
 30
0.0
 10
11.172166222
 20
7.8094539382
 30
0.0
 10
11.1722592719
 20
7.8154495718
 30
0.0
 10
11.1722592719
 20
7.8185356439
 30
0.0
  0
SPLINE
  5
299
100
AcDbEntity
  8
0
100
AcDbSpline
 62
7
  6
CONTINUOUS
 70
0
 71
3
 72
15
 73
11
 74
0
 42
0.0000001
 43
0.0000001
 44
0.0000000001
 40
0.0
 40
0.0
 40
0.0
 40
0.0
 40
0.1255192993
 40
0.2510385987
 40
0.3761737791
 40
0.5013089595
 40
0.6264441399
 40
0.7515793203
 40
0.8757896602
 40
1.0
 40
1.0
 40
1.0
 40
1.0
 10
11.1722592719
 20
7.8185356439
 30
0.0
 10
11.1722592719
 20
7.8187869613
 30
0.0
 10
11.1719785086
 20
7.8192664364
 30
0.0
 10
11.1704925533
 20
7.8199303479
 30
0.0
 10
11.1686153076
 20
7.8204541338
 30
0.0
 10
11.1669734838
 20
7.8205923367
 30
0.0
 10
11.1653396342
 20
7.8204536208
 30
0.0
 10
11.1635162076
 20
7.8199342181
 30
0.0
 10
11.1620953884
 20
7.819265997
 30
0.0
 10
11.161826201
 20
7.8187869613
 30
0.0
 10
11.161826201
 20
7.8185356439
 30
0.0
  0
SPLINE
  5
29A
100
AcDbEntity
  8
0
100
AcDbSpline
 62
7
  6
CONTINUOUS
 70
0
 71
3
 72
11
 73
7
 74
0
 42
0.0000001
 43
0.0000001
 44
0.0000000001
 40
0.0
 40
0.0
 40
0.0
 40
0.0
 40
0.25
 40
0.5
 40
0.75
 40
1.0
 40
1.0
 40
1.0
 40
1.0
 10
11.161826201
 20
7.8185356439
 30
0.0
 10
11.1613312712
 20
7.8144406086
 30
0.0
 10
11.1594256464
 20
7.8070771967
 30
0.0
 10
11.1537835924
 20
7.7982113194
 30
0.0
 10
11.1455482421
 20
7.7924268884
 30
0.0
 10
11.1384560246
 20
7.7912128092
 30
0.0
 10
11.1345033664
 20
7.7912128092
 30
0.0
  0
SPLINE
  5
29B
100
AcDbEntity
  8
0
100
AcDbSpline
 62
7
  6
CONTINUOUS
 70
0
 71
3
 72
8
 73
4
 74
0
 42
0.0000001
 43
0.0000001
 44
0.0000000001
 40
0.0
 40
0.0
 40
0.0
 40
0.0
 40
1.0
 40
1.0
 40
1.0
 40
1.0
 10
11.1227710829
 20
7.8441261951
 30
0.0
 10
11.1227598158
 20
7.8506434822
 30
0.0
 10
11.1242288605
 20
7.8547393337
 30
0.0
 10
11.1271805317
 20
7.8564096596
 30
0.0
  0
SPLINE
  5
29C
100
AcDbEntity
  8
0
100
AcDbSpline
 62
7
  6
CONTINUOUS
 70
0
 71
3
 72
8
 73
4
 74
0
 42
0.0000001
 43
0.0000001
 44
0.0000000001
 40
0.0
 40
0.0
 40
0.0
 40
0.0
 40
1.0
 40
1.0
 40
1.0
 40
1.0
 10
11.1271805317
 20
7.8564096596
 30
0.0
 10
11.1301385913
 20
7.8580836007
 30
0.0
 10
11.1332889666
 20
7.8589280001
 30
0.0
 10
11.1366293506
 20
7.8589293447
 30
0.0
  0
SPLINE
  5
29D
100
AcDbEntity
  8
0
100
AcDbSpline
 62
7
  6
CONTINUOUS
 70
0
 71
3
 72
8
 73
4
 74
0
 42
0.0000001
 43
0.0000001
 44
0.0000000001
 40
0.0
 40
0.0
 40
0.0
 40
0.0
 40
1.0
 40
1.0
 40
1.0
 40
1.0
 10
11.1507632089
 20
7.8589293447
 30
0.0
 10
11.1646152243
 20
7.8589281609
 30
0.0
 10
11.175196612
 20
7.8540273548
 30
0.0
 10
11.1825348624
 20
7.8442443053
 30
0.0
  0
SPLINE
  5
29E
100
AcDbEntity
  8
0
100
AcDbSpline
 62
7
  6
CONTINUOUS
 70
0
 71
3
 72
8
 73
4
 74
0
 42
0.0000001
 43
0.0000001
 44
0.0000000001
 40
0.0
 40
0.0
 40
0.0
 40
0.0
 40
1.0
 40
1.0
 40
1.0
 40
1.0
 10
11.1825348624
 20
7.8442443053
 30
0.0
 10
11.1898774133
 20
7.8344555227
 30
0.0
 10
11.194260734
 20
7.8239614485
 30
0.0
 10
11.1956844687
 20
7.8127482423
 30
0.0
  0
SPLINE
  5
29F
100
AcDbEntity
  8
0
100
AcDbSpline
 62
7
  6
CONTINUOUS
 70
0
 71
3
 72
11
 73
7
 74
0
 42
0.0000001
 43
0.0000001
 44
0.0000000001
 40
0.0
 40
0.0
 40
0.0
 40
0.0
 40
0.25
 40
0.5
 40
0.75
 40
1.0
 40
1.0
 40
1.0
 40
1.0
 10
11.1956844687
 20
7.8127482423
 30
0.0
 10
11.1956857392
 20
7.8122225305
 30
0.0
 10
11.1992654726
 20
7.8108941631
 30
0.0
 10
11.2022344837
 20
7.8114787482
 30
0.0
 10
11.2056042591
 20
7.8133075624
 30
0.0
 10
11.2060796247
 20
7.813917722
 30
0.0
 10
11.2060781695
 20
7.8145198958
 30
0.0
  0
LINE
  5
2A0
100
AcDbEntity
  8
0
100
AcDbLine
 62
7
  6
CONTINUOUS
 10
11.2060781695
 20
7.8145198958
 11
11.2046608467
 21
7.8439293447
  0
SPLINE
  5
2A1
100
AcDbEntity
  8
0
100
AcDbSpline
 62
7
  6
CONTINUOUS
 70
0
 71
3
 72
8
 73
4
 74
0
 42
0.0000001
 43
0.0000001
 44
0.0000000001
 40
0.0
 40
0.0
 40
0.0
 40
0.0
 40
1.0
 40
1.0
 40
1.0
 40
1.0
 10
11.2046608467
 20
7.8439293447
 30
0.0
 10
11.2041665817
 20
7.8557007651
 30
0.0
 10
11.2039167832
 20
7.8651667702
 30
0.0
 10
11.2039128152
 20
7.8723545415
 30
0.0
  0
SPLINE
  5
2A2
100
AcDbEntity
  8
0
100
AcDbSpline
 62
7
  6
CONTINUOUS
 70
0
 71
3
 72
18
 73
14
 74
0
 42
0.0000001
 43
0.0000001
 44
0.0000000001
 40
0.0
 40
0.0
 40
0.0
 40
0.0
 40
0.1597319875
 40
0.2395979813
 40
0.319463975
 40
0.3993277333
 40
0.4791914916
 40
0.5590552498
 40
0.6389190081
 40
0.6840541321
 40
0.7291892561
 40
0.8194595041
 40
1.0
 40
1.0
 40
1.0
 40
1.0
 10
11.2039128152
 20
7.8723545415
 30
0.0
 10
11.1991056585
 20
7.8721782185
 30
0.0
 10
11.190703489
 20
7.8719327389
 30
0.0
 10
11.1773098538
 20
7.8716412319
 30
0.0
 10
11.1657851106
 20
7.8714220408
 30
0.0
 10
11.1543178614
 20
7.8712634241
 30
0.0
 10
11.1444789784
 20
7.8711427356
 30
0.0
 10
11.1357812952
 20
7.8710691726
 30
0.0
 10
11.1296362631
 20
7.8710475114
 30
0.0
 10
11.1248171486
 20
7.871057235
 30
0.0
 10
11.1192033678
 20
7.8710880786
 30
0.0
 10
11.108526847
 20
7.8711977861
 30
0.0
 10
11.0977688739
 20
7.8713908855
 30
0.0
 10
11.0898970672
 20
7.8715671399
 30
0.0
  0
SPLINE
  5
2A3
100
AcDbEntity
  8
0
100
AcDbSpline
 62
7
  6
CONTINUOUS
 70
0
 71
3
 72
11
 73
7
 74
0
 42
0.0000001
 43
0.0000001
 44
0.0000000001
 40
0.0
 40
0.0
 40
0.0
 40
0.0
 40
0.2499023858
 40
0.4998047715
 40
0.7499023858
 40
1.0
 40
1.0
 40
1.0
 40
1.0
 10
9.336826201
 20
9.1834569037
 30
0.0
 10
9.3368266271
 20
9.1785188338
 30
0.0
 10
9.3356899214
 20
9.1699606787
 30
0.0
 10
9.3313267981
 20
9.1615840273
 30
0.0
 10
9.322038876
 20
9.1563071546
 30
0.0
 10
9.3110624432
 20
9.1539054346
 30
0.0
 10
9.3045033664
 20
9.1530632029
 30
0.0
  0
SPLINE
  5
2A4
100
AcDbEntity
  8
0
100
AcDbSpline
 62
7
  6
CONTINUOUS
 70
0
 71
3
 72
15
 73
11
 74
0
 42
0.0000001
 43
0.0000001
 44
0.0000000001
 40
0.0
 40
0.0
 40
0.0
 40
0.0
 40
0.1036344321
 40
0.2072688643
 40
0.3115755927
 40
0.4158823211
 40
0.5619117408
 40
0.7079411605
 40
0.8539705803
 40
1.0
 40
1.0
 40
1.0
 40
1.0
 10
9.3045033664
 20
9.1530632029
 30
0.0
 10
9.3041404567
 20
9.1529411025
 30
0.0
 10
9.3034688649
 20
9.1523122341
 30
0.0
 10
9.3025564074
 20
9.1498356035
 30
0.0
 10
9.301917957
 20
9.1469855201
 30
0.0
 10
9.3017297398
 20
9.1447387967
 30
0.0
 10
9.3019290811
 20
9.1424884917
 30
0.0
 10
9.3025564124
 20
9.1396317464
 30
0.0
 10
9.303469426
 20
9.1374286478
 30
0.0
 10
9.3041404567
 20
9.1370002108
 30
0.0
 10
9.3045033664
 20
9.1370002108
 30
0.0
  0
SPLINE
  5
2A5
100
AcDbEntity
  8
0
100
AcDbSpline
 62
7
  6
CONTINUOUS
 70
0
 71
3
 72
13
 73
9
 74
0
 42
0.0000001
 43
0.0000001
 44
0.0000000001
 40
0.0
 40
0.0
 40
0.0
 40
0.0
 40
0.2499911351
 40
0.3749963933
 40
0.5000016514
 40
0.6250069096
 40
0.7500121678
 40
1.0
 40
1.0
 40
1.0
 40
1.0
 10
9.3045033664
 20
9.1370002108
 30
0.0
 10
9.3155807721
 20
9.1370002108
 30
0.0
 10
9.3324463296
 20
9.137736593
 30
0.0
 10
9.3546909271
 20
9.1390290814
 30
0.0
 10
9.3705758988
 20
9.139241841
 30
0.0
 10
9.386207429
 20
9.1390290809
 30
0.0
 10
9.4069286974
 20
9.1377366044
 30
0.0
 10
9.4229766614
 20
9.1370002108
 30
0.0
 10
9.4341490357
 20
9.1370002108
 30
0.0
  0
SPLINE
  5
2A6
100
AcDbEntity
  8
0
100
AcDbSpline
 62
7
  6
CONTINUOUS
 70
0
 71
3
 72
15
 73
11
 74
0
 42
0.0000001
 43
0.0000001
 44
0.0000000001
 40
0.0
 40
0.0
 40
0.0
 40
0.0
 40
0.1364615832
 40
0.2729231665
 40
0.4092500728
 40
0.5455769791
 40
0.6591827343
 40
0.7727884895
 40
0.8863942448
 40
1.0
 40
1.0
 40
1.0
 40
1.0
 10
9.4341490357
 20
9.1370002108
 30
0.0
 10
9.4344475037
 20
9.1370008163
 30
0.0
 10
9.435035428
 20
9.1374494063
 30
0.0
 10
9.4359876122
 20
9.1398227326
 30
0.0
 10
9.4366971676
 20
9.1427778316
 30
0.0
 10
9.4369121684
 20
9.1448858393
 30
0.0
 10
9.4366964684
 20
9.1470036298
 30
0.0
 10
9.435956652
 20
9.1500388134
 30
0.0
 10
9.4349989818
 20
9.1526016132
 30
0.0
 10
9.4344081336
 20
9.1530638084
 30
0.0
 10
9.4341096656
 20
9.1530632029
 30
0.0
  0
SPLINE
  5
2A7
100
AcDbEntity
  8
0
100
AcDbSpline
 62
7
  6
CONTINUOUS
 70
0
 71
3
 72
8
 73
4
 74
0
 42
0.0000001
 43
0.0000001
 44
0.0000000001
 40
0.0
 40
0.0
 40
0.0
 40
0.0
 40
1.0
 40
1.0
 40
1.0
 40
1.0
 10
9.4341096656
 20
9.1530632029
 30
0.0
 10
9.4208628046
 20
9.1545150225
 30
0.0
 10
9.4125579769
 20
9.1575333926
 30
0.0
 10
9.4091884057
 20
9.162118321
 30
0.0
  0
SPLINE
  5
2A8
100
AcDbEntity
  8
0
100
AcDbSpline
 62
7
  6
CONTINUOUS
 70
0
 71
3
 72
8
 73
4
 74
0
 42
0.0000001
 43
0.0000001
 44
0.0000000001
 40
0.0
 40
0.0
 40
0.0
 40
0.0
 40
1.0
 40
1.0
 40
1.0
 40
1.0
 10
9.4091884057
 20
9.162118321
 30
0.0
 10
9.4058074775
 20
9.1666983216
 30
0.0
 10
9.4041143726
 20
9.1738157046
 30
0.0
 10
9.4041096656
 20
9.1834569037
 30
0.0
  0
SPLINE
  5
2A9
100
AcDbEntity
  8
0
100
AcDbSpline
 62
7
  6
CONTINUOUS
 70
0
 71
3
 72
8
 73
4
 74
0
 42
0.0000001
 43
0.0000001
 44
0.0000000001
 40
0.0
 40
0.0
 40
0.0
 40
0.0
 40
1.0
 40
1.0
 40
1.0
 40
1.0
 10
9.4961175396
 20
9.1834569037
 30
0.0
 10
9.4961162606
 20
9.1735868526
 30
0.0
 10
9.494389013
 20
9.1664577212
 30
0.0
 10
9.4909600593
 20
9.162118321
 30
0.0
  0
SPLINE
  5
2AA
100
AcDbEntity
  8
0
100
AcDbSpline
 62
7
  6
CONTINUOUS
 70
0
 71
3
 72
8
 73
4
 74
0
 42
0.0000001
 43
0.0000001
 44
0.0000000001
 40
0.0
 40
0.0
 40
0.0
 40
0.0
 40
1.0
 40
1.0
 40
1.0
 40
1.0
 10
9.4909600593
 20
9.162118321
 30
0.0
 10
9.4875287483
 20
9.1577759377
 30
0.0
 10
9.4793660435
 20
9.1547557567
 30
0.0
 10
9.4664718703
 20
9.1530632029
 30
0.0
  0
SPLINE
  5
2AB
100
AcDbEntity
  8
0
100
AcDbSpline
 62
7
  6
CONTINUOUS
 70
0
 71
3
 72
15
 73
11
 74
0
 42
0.0000001
 43
0.0000001
 44
0.0000000001
 40
0.0
 40
0.0
 40
0.0
 40
0.0
 40
0.1036344321
 40
0.2072688643
 40
0.3115755927
 40
0.4158823211
 40
0.5619117408
 40
0.7079411605
 40
0.8539705803
 40
1.0
 40
1.0
 40
1.0
 40
1.0
 10
9.4664718703
 20
9.1530632029
 30
0.0
 10
9.466109064
 20
9.1529407961
 30
0.0
 10
9.4654377422
 20
9.1523113607
 30
0.0
 10
9.4645285567
 20
9.1498339622
 30
0.0
 10
9.4638881617
 20
9.1469833377
 30
0.0
 10
9.4636971888
 20
9.1447364542
 30
0.0
 10
9.4639001325
 20
9.1424863145
 30
0.0
 10
9.4645293714
 20
9.1396301247
 30
0.0
 10
9.4654443828
 20
9.1374277095
 30
0.0
 10
9.4661123525
 20
9.137000059
 30
0.0
 10
9.4664718703
 20
9.1370002108
 30
0.0
  0
SPLINE
  5
2AC
100
AcDbEntity
  8
0
100
AcDbSpline
 62
7
  6
CONTINUOUS
 70
0
 71
3
 72
13
 73
9
 74
0
 42
0.0000001
 43
0.0000001
 44
0.0000000001
 40
0.0
 40
0.0
 40
0.0
 40
0.0
 40
0.2501060623
 40
0.3751705747
 40
0.5002350871
 40
0.6252184414
 40
0.7502017958
 40
1.0
 40
1.0
 40
1.0
 40
1.0
 10
9.4664718703
 20
9.1370002108
 30
0.0
 10
9.4775255659
 20
9.1370048787
 30
0.0
 10
9.4934362639
 20
9.1377353339
 30
0.0
 10
9.5140567331
 20
9.1390286551
 30
0.0
 10
9.5296533856
 20
9.1392410912
 30
0.0
 10
9.5455569541
 20
9.1390285513
 30
0.0
 10
9.5678798068
 20
9.1377364208
 30
0.0
 10
9.5848820627
 20
9.1370022076
 30
0.0
 10
9.5960781695
 20
9.1370002108
 30
0.0
  0
SPLINE
  5
2AD
100
AcDbEntity
  8
0
100
AcDbSpline
 62
7
  6
CONTINUOUS
 70
0
 71
3
 72
10
 73
6
 74
0
 42
0.0000001
 43
0.0000001
 44
0.0000000001
 40
0.0
 40
0.0
 40
0.0
 40
0.0
 40
0.25
 40
0.625
 40
1.0
 40
1.0
 40
1.0
 40
1.0
 10
9.5960781695
 20
9.1370002108
 30
0.0
 10
9.5964377308
 20
9.1370001467
 30
0.0
 10
9.5972769813
 20
9.1375456465
 30
0.0
 10
9.5984745075
 20
9.14136527
 30
0.0
 10
9.5987947049
 20
9.1439311883
 30
0.0
 10
9.5987947049
 20
9.1450317069
 30
0.0
  0
SPLINE
  5
2AE
100
AcDbEntity
  8
0
100
AcDbSpline
 62
7
  6
CONTINUOUS
 70
0
 71
3
 72
10
 73
6
 74
0
 42
0.0000001
 43
0.0000001
 44
0.0000000001
 40
0.0
 40
0.0
 40
0.0
 40
0.0
 40
0.25
 40
0.625
 40
1.0
 40
1.0
 40
1.0
 40
1.0
 10
9.5987947049
 20
9.1450317069
 30
0.0
 10
9.5987947049
 20
9.1456414573
 30
0.0
 10
9.598633399
 20
9.1473459654
 30
0.0
 10
9.5976196874
 20
9.1517792209
 30
0.0
 10
9.5966175115
 20
9.1530633953
 30
0.0
 10
9.5960781695
 20
9.1530632029
 30
0.0
  0
SPLINE
  5
2AF
100
AcDbEntity
  8
0
100
AcDbSpline
 62
7
  6
CONTINUOUS
 70
0
 71
3
 72
11
 73
7
 74
0
 42
0.0000001
 43
0.0000001
 44
0.0000000001
 40
0.0
 40
0.0
 40
0.0
 40
0.0
 40
0.25
 40
0.5
 40
0.75
 40
1.0
 40
1.0
 40
1.0
 40
1.0
 10
9.5960781695
 20
9.1530632029
 30
0.0
 10
9.5894586482
 20
9.1537838039
 30
0.0
 10
9.578373954
 20
9.1560456309
 30
0.0
 10
9.5689767374
 20
9.1615904829
 30
0.0
 10
9.5645497028
 20
9.1702167279
 30
0.0
 10
9.5634004003
 20
9.1786345597
 30
0.0
 10
9.5634010042
 20
9.1834569037
 30
0.0
  0
SPLINE
  5
2B0
100
AcDbEntity
  8
0
100
AcDbSpline
 62
7
  6
CONTINUOUS
 70
0
 71
3
 72
11
 73
7
 74
0
 42
0.0000001
 43
0.0000001
 44
0.0000000001
 40
0.0
 40
0.0
 40
0.0
 40
0.0
 40
0.25
 40
0.5
 40
0.75
 40
1.0
 40
1.0
 40
1.0
 40
1.0
 10
9.5634010042
 20
9.3423151714
 30
0.0
 10
9.5634006687
 20
9.3471370165
 30
0.0
 10
9.5645511825
 20
9.3555502162
 30
0.0
 10
9.5689785614
 20
9.3641710794
 30
0.0
 10
9.5783754656
 20
9.3697154018
 30
0.0
 10
9.5894592539
 20
9.3719823007
 30
0.0
 10
9.5960781695
 20
9.3727088722
 30
0.0
  0
SPLINE
  5
2B1
100
AcDbEntity
  8
0
100
AcDbSpline
 62
7
  6
CONTINUOUS
 70
0
 71
3
 72
15
 73
11
 74
0
 42
0.0000001
 43
0.0000001
 44
0.0000000001
 40
0.0
 40
0.0
 40
0.0
 40
0.0
 40
0.1139240506
 40
0.2278481013
 40
0.3417721519
 40
0.4556962025
 40
0.5917721519
 40
0.7278481013
 40
0.8639240506
 40
1.0
 40
1.0
 40
1.0
 40
1.0
 10
9.5960781695
 20
9.3727088722
 30
0.0
 10
9.5964368063
 20
9.3727088722
 30
0.0
 10
9.5971074127
 20
9.3731721365
 30
0.0
 10
9.598017772
 20
9.3757209673
 30
0.0
 10
9.5986586267
 20
9.3787516075
 30
0.0
 10
9.5988505672
 20
9.3808705835
 30
0.0
 10
9.5986524482
 20
9.3829629708
 30
0.0
 10
9.5980194354
 20
9.3859115255
 30
0.0
 10
9.5971069375
 20
9.3882871232
 30
0.0
 10
9.5964368063
 20
9.3887324943
 30
0.0
 10
9.5960781695
 20
9.3887324943
 30
0.0
  0
SPLINE
  5
2B2
100
AcDbEntity
  8
0
100
AcDbSpline
 62
7
  6
CONTINUOUS
 70
0
 71
3
 72
11
 73
7
 74
0
 42
0.0000001
 43
0.0000001
 44
0.0000000001
 40
0.0
 40
0.0
 40
0.0
 40
0.0
 40
0.2528025934
 40
0.5056151552
 40
0.7528132249
 40
1.0
 40
1.0
 40
1.0
 40
1.0
 10
9.5960781695
 20
9.3887324943
 30
0.0
 10
9.5847667784
 20
9.3887324943
 30
0.0
 10
9.5622642914
 20
9.3876511184
 30
0.0
 10
9.5297374518
 20
9.3860191879
 30
0.0
 10
9.498702123
 20
9.3876461428
 30
0.0
 10
9.4775255659
 20
9.3887278263
 30
0.0
 10
9.4664718703
 20
9.3887324943
 30
0.0
  0
SPLINE
  5
2B3
100
AcDbEntity
  8
0
100
AcDbSpline
 62
7
  6
CONTINUOUS
 70
0
 71
3
 72
15
 73
11
 74
0
 42
0.0000001
 43
0.0000001
 44
0.0000000001
 40
0.0
 40
0.0
 40
0.0
 40
0.0
 40
0.1455916473
 40
0.2911832947
 40
0.436774942
 40
0.5823665893
 40
0.686774942
 40
0.7911832947
 40
0.8955916473
 40
1.0
 40
1.0
 40
1.0
 40
1.0
 10
9.4664718703
 20
9.3887324943
 30
0.0
 10
9.4661132337
 20
9.3887326457
 30
0.0
 10
9.465446893
 20
9.3883101151
 30
0.0
 10
9.4645341737
 20
9.3861100001
 30
0.0
 10
9.4639062787
 20
9.3832518697
 30
0.0
 10
9.4637042705
 20
9.3810125104
 30
0.0
 10
9.4638940778
 20
9.3787704605
 30
0.0
 10
9.4645364232
 20
9.3759218951
 30
0.0
 10
9.4654399456
 20
9.3734553704
 30
0.0
 10
9.4661099533
 20
9.3728309791
 30
0.0
 10
9.4664718703
 20
9.3727088722
 30
0.0
  0
SPLINE
  5
2B4
100
AcDbEntity
  8
0
100
AcDbSpline
 62
7
  6
CONTINUOUS
 70
0
 71
3
 72
8
 73
4
 74
0
 42
0.0000001
 43
0.0000001
 44
0.0000000001
 40
0.0
 40
0.0
 40
0.0
 40
0.0
 40
1.0
 40
1.0
 40
1.0
 40
1.0
 10
9.4664718703
 20
9.3727088722
 30
0.0
 10
9.4800958211
 20
9.3710108697
 30
0.0
 10
9.4884405522
 20
9.3681087495
 30
0.0
 10
9.4915112404
 20
9.3640080848
 30
0.0
  0
SPLINE
  5
2B5
100
AcDbEntity
  8
0
100
AcDbSpline
 62
7
  6
CONTINUOUS
 70
0
 71
3
 72
8
 73
4
 74
0
 42
0.0000001
 43
0.0000001
 44
0.0000000001
 40
0.0
 40
0.0
 40
0.0
 40
0.0
 40
1.0
 40
1.0
 40
1.0
 40
1.0
 10
9.4915112404
 20
9.3640080848
 30
0.0
 10
9.4945813014
 20
9.3599082577
 30
0.0
 10
9.4961179977
 20
9.3526768839
 30
0.0
 10
9.4961175396
 20
9.3423151714
 30
0.0
  0
SPLINE
  5
2B6
100
AcDbEntity
  8
0
100
AcDbSpline
 62
7
  6
CONTINUOUS
 70
0
 71
3
 72
8
 73
4
 74
0
 42
0.0000001
 43
0.0000001
 44
0.0000000001
 40
0.0
 40
0.0
 40
0.0
 40
0.0
 40
1.0
 40
1.0
 40
1.0
 40
1.0
 10
9.4041096656
 20
9.3423151714
 30
0.0
 10
9.4041140303
 20
9.3519592715
 30
0.0
 10
9.405806787
 20
9.3590721345
 30
0.0
 10
9.4091884057
 20
9.3636537541
 30
0.0
  0
SPLINE
  5
2B7
100
AcDbEntity
  8
0
100
AcDbSpline
 62
7
  6
CONTINUOUS
 70
0
 71
3
 72
8
 73
4
 74
0
 42
0.0000001
 43
0.0000001
 44
0.0000000001
 40
0.0
 40
0.0
 40
0.0
 40
0.0
 40
1.0
 40
1.0
 40
1.0
 40
1.0
 10
9.4091884057
 20
9.3636537541
 30
0.0
 10
9.4125595927
 20
9.3682362649
 30
0.0
 10
9.4208644238
 20
9.371250119
 30
0.0
 10
9.4341096656
 20
9.3727088722
 30
0.0
  0
SPLINE
  5
2B8
100
AcDbEntity
  8
0
100
AcDbSpline
 62
7
  6
CONTINUOUS
 70
0
 71
3
 72
15
 73
11
 74
0
 42
0.0000001
 43
0.0000001
 44
0.0000000001
 40
0.0
 40
0.0
 40
0.0
 40
0.0
 40
0.113893624
 40
0.2277872481
 40
0.3416808721
 40
0.4555744961
 40
0.5916141026
 40
0.7276537091
 40
0.8638268545
 40
1.0
 40
1.0
 40
1.0
 40
1.0
 10
9.4341096656
 20
9.3727088722
 30
0.0
 10
9.434407402
 20
9.3727082664
 30
0.0
 10
9.4349968012
 20
9.373170333
 30
0.0
 10
9.4359521457
 20
9.3757172361
 30
0.0
 10
9.436690076
 20
9.3787463776
 30
0.0
 10
9.4369052787
 20
9.3808649754
 30
0.0
 10
9.4366909693
 20
9.3829575908
 30
0.0
 10
9.4359830486
 20
9.385909409
 30
0.0
 10
9.435033262
 20
9.3882850781
 30
0.0
 10
9.4344467721
 20
9.3887318885
 30
0.0
 10
9.4341490357
 20
9.3887324943
 30
0.0
  0
SPLINE
  5
2B9
100
AcDbEntity
  8
0
100
AcDbSpline
 62
7
  6
CONTINUOUS
 70
0
 71
3
 72
12
 73
8
 74
0
 42
0.0000001
 43
0.0000001
 44
0.0000000001
 40
0.0
 40
0.0
 40
0.0
 40
0.0
 40
0.2499939442
 40
0.4999991781
 40
0.625001795
 40
0.7500044119
 40
1.0
 40
1.0
 40
1.0
 40
1.0
 10
9.4341490357
 20
9.3887324943
 30
0.0
 10
9.4229766614
 20
9.3887324943
 30
0.0
 10
9.4016073269
 20
9.3876230988
 30
0.0
 10
9.3758838054
 20
9.3863564306
 30
0.0
 10
9.3546885677
 20
9.3867191527
 30
0.0
 10
9.3324471369
 20
9.3879868279
 30
0.0
 10
9.3155807721
 20
9.3887324943
 30
0.0
 10
9.3045033664
 20
9.3887324943
 30
0.0
  0
SPLINE
  5
2BA
100
AcDbEntity
  8
0
100
AcDbSpline
 62
7
  6
CONTINUOUS
 70
0
 71
3
 72
15
 73
11
 74
0
 42
0.0000001
 43
0.0000001
 44
0.0000000001
 40
0.0
 40
0.0
 40
0.0
 40
0.0
 40
0.1455916473
 40
0.2911832947
 40
0.436774942
 40
0.5823665893
 40
0.686774942
 40
0.7911832947
 40
0.8955916473
 40
1.0
 40
1.0
 40
1.0
 40
1.0
 10
9.3045033664
 20
9.3887324943
 30
0.0
 10
9.3041413462
 20
9.3887324943
 30
0.0
 10
9.3034719487
 20
9.3883091791
 30
0.0
 10
9.3025612242
 20
9.3861083824
 30
0.0
 10
9.3019352424
 20
9.3832496978
 30
0.0
 10
9.301736816
 20
9.3810101738
 30
0.0
 10
9.301923879
 20
9.3787682831
 30
0.0
 10
9.3025642836
 20
9.3759202605
 30
0.0
 10
9.3034710746
 20
9.3734544988
 30
0.0
 10
9.3041413462
 20
9.3728306734
 30
0.0
 10
9.3045033664
 20
9.3727088722
 30
0.0
  0
SPLINE
  5
2BB
100
AcDbEntity
  8
0
100
AcDbSpline
 62
7
  6
CONTINUOUS
 70
0
 71
3
 72
11
 73
7
 74
0
 42
0.0000001
 43
0.0000001
 44
0.0000000001
 40
0.0
 40
0.0
 40
0.0
 40
0.0
 40
0.2500976142
 40
0.5001952285
 40
0.7500976142
 40
1.0
 40
1.0
 40
1.0
 40
1.0
 10
9.3045033664
 20
9.3727088722
 30
0.0
 10
9.3110618499
 20
9.3718640681
 30
0.0
 10
9.3220373907
 20
9.369457525
 30
0.0
 10
9.3313249717
 20
9.3641749701
 30
0.0
 10
9.3356884099
 20
9.3558127629
 30
0.0
 10
9.3368263522
 20
9.3472595067
 30
0.0
 10
9.336826201
 20
9.3423151714
 30
0.0
  0
SPLINE
  5
2BC
100
AcDbEntity
  8
0
100
AcDbSpline
 62
7
  6
CONTINUOUS
 70
0
 71
3
 72
18
 73
14
 74
0
 42
0.0000001
 43
0.0000001
 44
0.0000000001
 40
0.0
 40
0.0
 40
0.0
 40
0.0
 40
0.1706832056
 40
0.2560248083
 40
0.3413664111
 40
0.3825595077
 40
0.4237526043
 40
0.5061387975
 40
0.6706582272
 40
0.7530581553
 40
0.8354580834
 40
0.9177290417
 40
1.0
 40
1.0
 40
1.0
 40
1.0
 10
12.3349758073
 20
9.3544805258
 30
0.0
 10
12.3219821733
 20
9.3411357975
 30
0.0
 10
12.3073676742
 20
9.3195656013
 30
0.0
 10
12.2976187371
 20
9.2878291463
 30
0.0
 10
12.2956185554
 20
9.266682623
 30
0.0
 10
12.2963620205
 20
9.2495998459
 30
0.0
 10
12.2985241536
 20
9.2333172241
 30
0.0
 10
12.306059337
 20
9.2053505656
 30
0.0
 10
12.3236254409
 20
9.1772591015
 30
0.0
 10
12.3501991854
 20
9.1555337746
 30
0.0
 10
12.3747704553
 20
9.1425974636
 30
0.0
 10
12.403605077
 20
9.1341324835
 30
0.0
 10
12.4253875688
 20
9.1323558554
 30
0.0
 10
12.4369443112
 20
9.1323545415
 30
0.0
  0
SPLINE
  5
2BD
100
AcDbEntity
  8
0
100
AcDbSpline
 62
7
  6
CONTINUOUS
 70
0
 71
3
 72
8
 73
4
 74
0
 42
0.0000001
 43
0.0000001
 44
0.0000000001
 40
0.0
 40
0.0
 40
0.0
 40
0.0
 40
1.0
 40
1.0
 40
1.0
 40
1.0
 10
12.4369443112
 20
9.1323545415
 30
0.0
 10
12.4541383818
 20
9.1323525867
 30
0.0
 10
12.4702778565
 20
9.1349409862
 30
0.0
 10
12.4853695081
 20
9.1401498171
 30
0.0
  0
SPLINE
  5
2BE
100
AcDbEntity
  8
0
100
AcDbSpline
 62
7
  6
CONTINUOUS
 70
0
 71
3
 72
8
 73
4
 74
0
 42
0.0000001
 43
0.0000001
 44
0.0000000001
 40
0.0
 40
0.0
 40
0.0
 40
0.0
 40
1.0
 40
1.0
 40
1.0
 40
1.0
 10
12.4853695081
 20
9.1401498171
 30
0.0
 10
12.500467086
 20
9.1453606935
 30
0.0
 10
12.513133386
 20
9.1479788034
 30
0.0
 10
12.5233616341
 20
9.1479844628
 30
0.0
  0
LINE
  5
2BF
100
AcDbEntity
  8
0
100
AcDbLine
 62
7
  6
CONTINUOUS
 10
12.5233616341
 20
9.1479844628
 11
12.5325348624
 21
9.2266852502
  0
SPLINE
  5
2C0
100
AcDbEntity
  8
0
100
AcDbSpline
 62
7
  6
CONTINUOUS
 70
0
 71
3
 72
15
 73
11
 74
0
 42
0.0000001
 43
0.0000001
 44
0.0000000001
 40
0.0
 40
0.0
 40
0.0
 40
0.0
 40
0.1188935893
 40
0.2377871786
 40
0.3550506896
 40
0.4723142006
 40
0.6042356504
 40
0.7361571003
 40
0.8680785501
 40
1.0
 40
1.0
 40
1.0
 40
1.0
 10
12.5325348624
 20
9.2266852502
 30
0.0
 10
12.5325345422
 20
9.2270438867
 30
0.0
 10
12.5320721709
 20
9.2277243269
 30
0.0
 10
12.5295122284
 20
9.2287136893
 30
0.0
 10
12.5264911928
 20
9.2294248824
 30
0.0
 10
12.5245765653
 20
9.229627738
 30
0.0
 10
12.5227907106
 20
9.2294329221
 30
0.0
 10
12.5202318809
 20
9.2289014594
 30
0.0
 10
12.5180738871
 20
9.2279993165
 30
0.0
 10
12.5174987603
 20
9.2271590298
 30
0.0
 10
12.5173773821
 20
9.2266852502
 30
0.0
  0
SPLINE
  5
2C1
100
AcDbEntity
  8
0
100
AcDbSpline
 62
7
  6
CONTINUOUS
 70
0
 71
3
 72
8
 73
4
 74
0
 42
0.0000001
 43
0.0000001
 44
0.0000000001
 40
0.0
 40
0.0
 40
0.0
 40
0.0
 40
1.0
 40
1.0
 40
1.0
 40
1.0
 10
12.5173773821
 20
9.2266852502
 30
0.0
 10
12.5108881639
 20
9.2063136404
 30
0.0
 10
12.5010721358
 20
9.1884695373
 30
0.0
 10
12.4879285632
 20
9.1731419431
 30
0.0
  0
SPLINE
  5
2C2
100
AcDbEntity
  8
0
100
AcDbSpline
 62
7
  6
CONTINUOUS
 70
0
 71
3
 72
15
 73
11
 74
0
 42
0.0000001
 43
0.0000001
 44
0.0000000001
 40
0.0
 40
0.0
 40
0.0
 40
0.0
 40
0.2224631396
 40
0.3336947095
 40
0.3893104944
 40
0.4449262793
 40
0.5143104944
 40
0.5836947095
 40
0.7224631396
 40
1.0
 40
1.0
 40
1.0
 40
1.0
 10
12.4879285632
 20
9.1731419431
 30
0.0
 10
12.4813526346
 20
9.1654733153
 30
0.0
 10
12.4700486999
 20
9.1568440742
 30
0.0
 10
12.4542905706
 20
9.1518174644
 30
0.0
 10
12.444605878
 20
9.1503784587
 30
0.0
 10
12.4362212817
 20
9.1500010685
 30
0.0
 10
12.4273275226
 20
9.1504766383
 30
0.0
 10
12.4158015655
 20
9.1524589858
 30
0.0
 10
12.3980874599
 20
9.1594107135
 30
0.0
 10
12.3873136769
 20
9.1713272253
 30
0.0
 10
12.3820624215
 20
9.1819214706
 30
0.0
  0
SPLINE
  5
2C3
100
AcDbEntity
  8
0
100
AcDbSpline
 62
7
  6
CONTINUOUS
 70
0
 71
3
 72
15
 73
11
 74
0
 42
0.0000001
 43
0.0000001
 44
0.0000000001
 40
0.0
 40
0.0
 40
0.0
 40
0.0
 40
0.2472761233
 40
0.3709141849
 40
0.4327332157
 40
0.4945522465
 40
0.5577332157
 40
0.6209141849
 40
0.7472761233
 40
1.0
 40
1.0
 40
1.0
 40
1.0
 10
12.3820624215
 20
9.1819214706
 30
0.0
 10
12.3768112782
 20
9.1925154899
 30
0.0
 10
12.3709000288
 20
9.2104777707
 30
0.0
 10
12.3674581933
 20
9.2351234188
 30
0.0
 10
12.3664750845
 20
9.2502020016
 30
0.0
 10
12.3662302979
 20
9.2622577762
 30
0.0
 10
12.3664807257
 20
9.2744020535
 30
0.0
 10
12.367479391
 20
9.2898149257
 30
0.0
 10
12.3709731186
 20
9.3150101569
 30
0.0
 10
12.3769729762
 20
9.333373564
 30
0.0
 10
12.382298642
 20
9.3442049352
 30
0.0
  0
SPLINE
  5
2C4
100
AcDbEntity
  8
0
100
AcDbSpline
 62
7
  6
CONTINUOUS
 70
0
 71
3
 72
8
 73
4
 74
0
 42
0.0000001
 43
0.0000001
 44
0.0000000001
 40
0.0
 40
0.0
 40
0.0
 40
0.0
 40
1.0
 40
1.0
 40
1.0
 40
1.0
 10
12.382298642
 20
9.3442049352
 30
0.0
 10
12.3929482798
 20
9.365864233
 30
0.0
 10
12.4116774303
 20
9.3767188671
 30
0.0
 10
12.4385191144
 20
9.3767246203
 30
0.0
  0
SPLINE
  5
2C5
100
AcDbEntity
  8
0
100
AcDbSpline
 62
7
  6
CONTINUOUS
 70
0
 71
3
 72
8
 73
4
 74
0
 42
0.0000001
 43
0.0000001
 44
0.0000000001
 40
0.0
 40
0.0
 40
0.0
 40
0.0
 40
1.0
 40
1.0
 40
1.0
 40
1.0
 10
12.4385191144
 20
9.3767246203
 30
0.0
 10
12.4562086232
 20
9.3767284117
 30
0.0
 10
12.4720388785
 20
9.3691213418
 30
0.0
 10
12.4859994294
 20
9.3539293447
 30
0.0
  0
SPLINE
  5
2C6
100
AcDbEntity
  8
0
100
AcDbSpline
 62
7
  6
CONTINUOUS
 70
0
 71
3
 72
8
 73
4
 74
0
 42
0.0000001
 43
0.0000001
 44
0.0000000001
 40
0.0
 40
0.0
 40
0.0
 40
0.0
 40
1.0
 40
1.0
 40
1.0
 40
1.0
 10
12.4859994294
 20
9.3539293447
 30
0.0
 10
12.4999687588
 20
9.3387277946
 30
0.0
 10
12.5083904727
 20
9.3223901688
 30
0.0
 10
12.5112750199
 20
9.3049135966
 30
0.0
  0
SPLINE
  5
2C7
100
AcDbEntity
  8
0
100
AcDbSpline
 62
7
  6
CONTINUOUS
 70
0
 71
3
 72
15
 73
11
 74
0
 42
0.0000001
 43
0.0000001
 44
0.0000000001
 40
0.0
 40
0.0
 40
0.0
 40
0.0
 40
0.101668041
 40
0.203336082
 40
0.3051385106
 40
0.4069409393
 40
0.5557291042
 40
0.7045172692
 40
0.8522586346
 40
1.0
 40
1.0
 40
1.0
 40
1.0
 10
12.5112750199
 20
9.3049135966
 30
0.0
 10
12.5115130696
 20
9.3044355992
 30
0.0
 10
12.5122148843
 20
9.3035975028
 30
0.0
 10
12.5141821927
 20
9.3027090354
 30
0.0
 10
12.5163954226
 20
9.3021640577
 30
0.0
 10
12.5183282032
 20
9.3019849543
 30
0.0
 10
12.520445601
 20
9.3022018916
 30
0.0
 10
12.5235276338
 20
9.3029124265
 30
0.0
 10
12.5260079552
 20
9.3039025337
 30
0.0
 10
12.5264723245
 20
9.3045900056
 30
0.0
 10
12.5264718703
 20
9.3049529667
 30
0.0
  0
SPLINE
  5
2C8
100
AcDbEntity
  8
0
100
AcDbSpline
 62
7
  6
CONTINUOUS
 70
0
 71
3
 72
13
 73
9
 74
0
 42
0.0000001
 43
0.0000001
 44
0.0000000001
 40
0.0
 40
0.0
 40
0.0
 40
0.0
 40
0.2500073003
 40
0.3750109505
 40
0.5000146007
 40
0.6250109505
 40
0.7500073003
 40
1.0
 40
1.0
 40
1.0
 40
1.0
 10
12.5264718703
 20
9.3049529667
 30
0.0
 10
12.5260520148
 20
9.3109677579
 30
0.0
 10
12.5254054198
 20
9.3204556658
 30
0.0
 10
12.5245243379
 20
9.3339591254
 30
0.0
 10
12.5238361693
 20
9.3446700222
 30
0.0
 10
12.5231985688
 20
9.3553360125
 30
0.0
 10
12.5224608049
 20
9.3686579154
 30
0.0
 10
12.5220236217
 20
9.3778763154
 30
0.0
 10
12.5217868309
 20
9.3836537541
 30
0.0
  0
SPLINE
  5
2C9
100
AcDbEntity
  8
0
100
AcDbSpline
 62
7
  6
CONTINUOUS
 70
0
 71
3
 72
8
 73
4
 74
0
 42
0.0000001
 43
0.0000001
 44
0.0000000001
 40
0.0
 40
0.0
 40
0.0
 40
0.0
 40
1.0
 40
1.0
 40
1.0
 40
1.0
 10
12.5217868309
 20
9.3836537541
 30
0.0
 10
12.5113194291
 20
9.3836566614
 30
0.0
 10
12.4998639698
 20
9.3854674124
 30
0.0
 10
12.4874167522
 20
9.389086825
 30
0.0
  0
SPLINE
  5
2CA
100
AcDbEntity
  8
0
100
AcDbSpline
 62
7
  6
CONTINUOUS
 70
0
 71
3
 72
8
 73
4
 74
0
 42
0.0000001
 43
0.0000001
 44
0.0000000001
 40
0.0
 40
0.0
 40
0.0
 40
0.0
 40
1.0
 40
1.0
 40
1.0
 40
1.0
 10
12.4874167522
 20
9.389086825
 30
0.0
 10
12.4749601405
 20
9.3927089691
 30
0.0
 10
12.4590402697
 20
9.394519431
 30
0.0
 10
12.4396608467
 20
9.3945198958
 30
0.0
  0
SPLINE
  5
2CB
100
AcDbEntity
  8
0
100
AcDbSpline
 62
7
  6
CONTINUOUS
 70
0
 71
3
 72
8
 73
4
 74
0
 42
0.0000001
 43
0.0000001
 44
0.0000000001
 40
0.0
 40
0.0
 40
0.0
 40
0.0
 40
1.0
 40
1.0
 40
1.0
 40
1.0
 10
12.4396608467
 20
9.3945198958
 30
0.0
 10
12.3958490957
 20
9.3945209467
 30
0.0
 10
12.3609626109
 20
9.3811695053
 30
0.0
 10
12.3349758073
 20
9.3544805258
 30
0.0
  0
SPLINE
  5
2CC
100
AcDbEntity
  8
0
100
AcDbSpline
 62
7
  6
CONTINUOUS
 70
0
 71
3
 72
10
 73
6
 74
0
 42
0.0000001
 43
0.0000001
 44
0.0000000001
 40
0.0
 40
0.0
 40
0.0
 40
0.0
 40
0.5
 40
0.75
 40
1.0
 40
1.0
 40
1.0
 40
1.0
 10
10.7977710829
 20
7.7283387935
 30
0.0
 10
10.8009122081
 20
7.7355950048
 30
0.0
 10
10.8044591615
 20
7.7481148969
 30
0.0
 10
10.8068022029
 20
7.768086442
 30
0.0
 10
10.8071805636
 20
7.7788593619
 30
0.0
 10
10.8071805317
 20
7.7846773762
 30
0.0
  0
SPLINE
  5
2CD
100
AcDbEntity
  8
0
100
AcDbSpline
 62
7
  6
CONTINUOUS
 70
0
 71
3
 72
10
 73
6
 74
0
 42
0.0000001
 43
0.0000001
 44
0.0000000001
 40
0.0
 40
0.0
 40
0.0
 40
0.0
 40
0.25
 40
0.5
 40
1.0
 40
1.0
 40
1.0
 40
1.0
 10
10.8071805317
 20
7.7846773762
 30
0.0
 10
10.8071805005
 20
7.7903761226
 30
0.0
 10
10.8067876152
 20
7.8016125498
 30
0.0
 10
10.8044249715
 20
7.8215438296
 30
0.0
 10
10.800912436
 20
7.8343279223
 30
0.0
 10
10.7977710829
 20
7.8418821006
 30
0.0
  0
SPLINE
  5
2CE
100
AcDbEntity
  8
0
100
AcDbSpline
 62
7
  6
CONTINUOUS
 70
0
 71
3
 72
17
 73
13
 74
0
 42
0.0000001
 43
0.0000001
 44
0.0000000001
 40
0.0
 40
0.0
 40
0.0
 40
0.0
 40
0.124366768
 40
0.248733536
 40
0.373100304
 40
0.4352836879
 40
0.4974670719
 40
0.5602836879
 40
0.623100304
 40
0.748733536
 40
0.874366768
 40
1.0
 40
1.0
 40
1.0
 40
1.0
 10
10.7977710829
 20
7.8418821006
 30
0.0
 10
10.7962013292
 20
7.8456569704
 30
0.0
 10
10.7924100635
 20
7.8522631535
 30
0.0
 10
10.7847886099
 20
7.8593446727
 30
0.0
 10
10.776795983
 20
7.8628873132
 30
0.0
 10
10.7694769583
 20
7.8643061687
 30
0.0
 10
10.7633528917
 20
7.8646627014
 30
0.0
 10
10.7572111276
 20
7.8643071508
 30
0.0
 10
10.7498298694
 20
7.8628778816
 30
0.0
 10
10.7417872969
 20
7.8593007497
 30
0.0
 10
10.7341520362
 20
7.8521441682
 30
0.0
 10
10.7303850375
 20
7.8454634927
 30
0.0
 10
10.728834075
 20
7.8416458801
 30
0.0
  0
SPLINE
  5
2CF
100
AcDbEntity
  8
0
100
AcDbSpline
 62
7
  6
CONTINUOUS
 70
0
 71
3
 72
17
 73
13
 74
0
 42
0.0000001
 43
0.0000001
 44
0.0000000001
 40
0.0
 40
0.0
 40
0.0
 40
0.0
 40
0.1235598227
 40
0.2471196455
 40
0.3706794682
 40
0.4324593796
 40
0.494239291
 40
0.5574593796
 40
0.6206794682
 40
0.7471196455
 40
0.8735598227
 40
1.0
 40
1.0
 40
1.0
 40
1.0
 10
10.728834075
 20
7.8416458801
 30
0.0
 10
10.7272829693
 20
7.8378279148
 30
0.0
 10
10.7245685478
 20
7.8297267243
 30
0.0
 10
10.7216612526
 20
7.8161880253
 30
0.0
 10
10.720208231
 20
7.8037304697
 30
0.0
 10
10.7196265931
 20
7.7931055316
 30
0.0
 10
10.7194815965
 20
7.7846258798
 30
0.0
 10
10.7196271791
 20
7.7761096389
 30
0.0
 10
10.7202078866
 20
7.7653522153
 30
0.0
 10
10.7216614223
 20
7.7528901522
 30
0.0
 10
10.7245683162
 20
7.7396006549
 30
0.0
 10
10.7272833965
 20
7.7318320033
 30
0.0
 10
10.728834075
 20
7.7282206832
 30
0.0
  0
SPLINE
  5
2D0
100
AcDbEntity
  8
0
100
AcDbSpline
 62
7
  6
CONTINUOUS
 70
0
 71
3
 72
17
 73
13
 74
0
 42
0.0000001
 43
0.0000001
 44
0.0000000001
 40
0.0
 40
0.0
 40
0.0
 40
0.0
 40
0.125633232
 40
0.251266464
 40
0.376899696
 40
0.4397163121
 40
0.5025329281
 40
0.5647163121
 40
0.626899696
 40
0.751266464
 40
0.875633232
 40
1.0
 40
1.0
 40
1.0
 40
1.0
 10
10.728834075
 20
7.7282206832
 30
0.0
 10
10.730383358
 20
7.7246126131
 30
0.0
 10
10.734146046
 20
7.7182974287
 30
0.0
 10
10.7417776133
 20
7.711530885
 30
0.0
 10
10.7498181544
 20
7.7081460861
 30
0.0
 10
10.7571986355
 20
7.7067918534
 30
0.0
 10
10.7633402046
 20
7.7064513357
 30
0.0
 10
10.7694644719
 20
7.7067892385
 30
0.0
 10
10.7767842922
 20
7.7081487941
 30
0.0
 10
10.7847788675
 20
7.711548986
 30
0.0
 10
10.7924043686
 20
7.7183540968
 30
0.0
 10
10.7961990505
 20
7.7247072926
 30
0.0
 10
10.7977710829
 20
7.7283387935
 30
0.0
  0
ENDSEC
  0
SECTION
  2
OBJECTS
  0
DICTIONARY
  5
C
100
AcDbDictionary
280
0
281
1
  3
ACAD_GROUP
350
D
  3
ACAD_MLINESTYLE
350
17
  3
ACAD_LAYOUT
350
1A
  3
ACAD_PLOTSETTINGS
350
19
  3
ACAD_PLOTSTYLENAME
350
E
  0
DICTIONARY
  5
D
102
{ACAD_REACTORS
330
C
102
}
100
AcDbDictionary
280
0
281
1
  0
ACDBDICTIONARYWDFLT
  5
E
102
{ACAD_REACTORS
330
C
102
}
100
AcDbDictionary
281
1
  3
Normal
350
F
100
AcDbDictionaryWithDefault
340
F
  0
DICTIONARY
  5
17
102
{ACAD_REACTORS
330
C
102
}
100
AcDbDictionary
280
0
281
1
  3
Standard
350
18
  0
DICTIONARY
  5
19
102
{ACAD_REACTORS
330
C
102
}
100
AcDbDictionary
281
1
  0
DICTIONARY
  5
1A
102
{ACAD_REACTORS
330
C
102
}
100
AcDbDictionary
281
1
  3
Model
350
2D1
  3
Layout1
350
2D2
  0
ACDBPLACEHOLDER
  5
F
102
{ACAD_REACTORS
330
E
102
}
  0
MLINESTYLE
  5
18
102
{ACAD_REACTORS
330
17
102
}
100
AcDbMlineStyle
  2
STANDARD
 70
0
  3

 62
256
 51
90.0
 52
90.0
 71
2
 49
0.5
 62
256
  6
BYLAYER
 49
-0.5
 62
256
  6
BYLAYER
  0
LAYOUT
  5
2D1
102
{ACAD_REACTORS
330
1A
102
}
100
AcDbPlotSettings
  1

  2
none_device
  4
ANSI_C_(22.00_x_17.00_Inches)
  6

 40
0.0
 41
0.0
 42
0.0
 43
0.0
 44
558.8
 45
431.8
 46
0.0
 47
0.0
 48
0.0
 49
0.0
140
0.0
141
0.0
142
1.0
143
1.0
 70
1024
 72
0
 73
0
 74
0
  7

 75
0
147
1.0
148
0.0
149
0.0
100
AcDbLayout
  1
Model
 70
0
 71
0
 10
0.0
 20
0.0
 11
22.0
 21
17.0
 12
0.0
 22
0.0
 32
0.0
 14
0.0
 24
0.0
 34
0.0
 15
0.0
 25
0.0
 35
0.0
146
0.0
 13
0.0
 23
0.0
 33
0.0
 16
1.0
 26
0.0
 36
0.0
 17
0.0
 27
1.0
 37
0.0
 76
0
330
205
345
0
346
0
  0
LAYOUT
  5
2D2
102
{ACAD_REACTORS
330
1A
102
}
100
AcDbPlotSettings
  1

  2
none_device
  4
ANSI_C_(22.00_x_17.00_Inches)
  6

 40
0.0
 41
0.0
 42
0.0
 43
0.0
 44
558.8
 45
431.8
 46
0.0
 47
0.0
 48
0.0
 49
0.0
140
0.0
141
0.0
142
1.0
143
1.0
 70
0
 72
0
 73
0
 74
0
  7

 75
0
147
1.0
148
0.0
149
0.0
100
AcDbLayout
  1
Layout1
 70
0
 71
1
 10
0.0
 20
0.0
 11
22.0
 21
17.0
 12
0.0
 22
0.0
 32
0.0
 14
0.0
 24
0.0
 34
0.0
 15
0.0
 25
0.0
 35
0.0
146
0.0
 13
0.0
 23
0.0
 33
0.0
 16
1.0
 26
0.0
 36
0.0
 17
0.0
 27
1.0
 37
0.0
 76
0
330
206
345
0
346
0
  0
ENDSEC
  0
EOF
