999
DXF file: E:\BT Custom\CADOUTPUT\_RIGHT.dxf
999
Pro/ENGINEER 2018400 by Parametric Technology Corporation
  0
SECTION
  2
HEADER
  9
$ACADVER
  1
AC1018
  9
$DWGCODEPAGE
  3
ANSI_1252
  9
$EXTMAX
 10
22.0
 20
17.0
 30
0.0
  9
$EXTMIN
 10
0.0
 20
0.0
 30
0.0
  9
$LIMMIN
 10
0.0
 20
0.0
  9
$LIMMAX
 10
22.0
 20
17.0
  9
$VIEWCTR
 10
11.0
 20
8.5
  9
$VIEWSIZE
 40
17.0
  9
$CLAYER
  8
0
  9
$LTSCALE
 40
1.21
  9
$CELTYPE
  6
BYLAYER
  9
$DIMSCALE
 40
1.0
  9
$DIMASZ
 40
0.1
  9
$DIMEXO
 40
0.0625
  9
$DIMDLI
 40
0.836
  9
$DIMEXE
 40
0.125
  9
$DIMCEN
 40
0.198
  9
$DIMLFAC
 40
1.0
  9
$DIMBLK
  1
_FILLED
  9
$DIMALT
 70
1
  9
$DIMALTD
 70
2
  9
$DIMALTTD
 70
2
  9
$DIMALTF
 40
25.4
  9
$DIMTXT
 40
0.08
  9
$DIMTOL
 70
1
  9
$DIMLIM
 70
0
  9
$DIMTFAC
 40
1.0
  9
$DIMTP
 40
0.001
  9
$DIMTM
 40
0.001
  9
$DIMGAP
 40
0.09
  9
$DIMDSEP
 70
46
  9
$AUNITS
 70
0
  9
$PDMODE
 70
3
  9
$PDSIZE
 40
0.06
  9
$HANDSEED
  5
471
  9
$TILEMODE
 70
1
  9
$MEASUREMENT
 70
0
  9
$INSUNITS
 70
1
  0
ENDSEC
  0
SECTION
  2
CLASSES
  0
CLASS
  1
ACDBDICTIONARYWDFLT
  2
AcDbDictionaryWithDefault
  3
AutoCAD 2000
 90
0
 91
1
280
0
281
0
  0
CLASS
  1
ACDBPLACEHOLDER
  2
AcDbPlaceHolder
  3
AutoCAD 2000
 90
0
 91
1
280
0
281
0
  0
CLASS
  1
LAYOUT
  2
AcDbLayout
  3
AutoCAD 2000
 90
0
 91
0
280
0
281
0
  0
ENDSEC
  0
SECTION
  2
TABLES
  0
TABLE
  2
VPORT
  5
8
100
AcDbSymbolTable
 70
2
  0
VPORT
  5
1F4
100
AcDbSymbolTableRecord
100
AcDbViewportTableRecord
  2
*ACTIVE
 70
0
 10
0.0
 20
0.0
 11
1.0
 21
1.0
 12
11.0
 22
8.5
 13
0.0
 23
0.0
 14
1.0
 24
1.0
 15
0.0
 25
0.0
 16
0.0
 26
0.0
 36
1.0
 17
0.0
 27
0.0
 37
0.0
 40
17.0
 41
1.2941176471
 42
50.0
 43
0.0
 44
0.0
 50
0.0
 51
0.0
 71
0
 72
100
 73
1
 74
1
 75
0
 76
0
 77
0
 78
0
  0
ENDTAB
  0
TABLE
  2
LTYPE
  5
5
100
AcDbSymbolTable
 70
6
  0
LTYPE
  5
14
100
AcDbSymbolTableRecord
100
AcDbLinetypeTableRecord
  2
BYBLOCK
 70
0
  3

 72
65
 73
0
 40
0.0
  0
LTYPE
  5
15
100
AcDbSymbolTableRecord
100
AcDbLinetypeTableRecord
  2
BYLAYER
 70
0
  3

 72
65
 73
0
 40
0.0
  0
LTYPE
  5
16
100
AcDbSymbolTableRecord
100
AcDbLinetypeTableRecord
  2
CONTINUOUS
 70
64
  3
Solid line
 72
65
 73
0
 40
0.0
  0
LTYPE
  5
1F5
100
AcDbSymbolTableRecord
100
AcDbLinetypeTableRecord
  2
CENTER
 70
64
  3
____ _ ____ _ ____ _ ____ _ ____ _ ____ _ ____
 72
65
 73
4
 40
0.6
 49
0.375
 74
0
 49
-0.075
 74
0
 49
0.075
 74
0
 49
-0.075
 74
0
  0
LTYPE
  5
1F6
100
AcDbSymbolTableRecord
100
AcDbLinetypeTableRecord
  2
HIDDEN
 70
64
  3
- - - - - - - - - - - - - - - - - - - -
 72
65
 73
2
 40
0.2
 49
0.1
 74
0
 49
-0.1
 74
0
  0
LTYPE
  5
1F7
100
AcDbSymbolTableRecord
100
AcDbLinetypeTableRecord
  2
PHANTOM
 70
64
  3
_____ _ _ _____ _ _ _____ _ _ _____
 72
65
 73
6
 40
0.8
 49
0.45
 74
0
 49
-0.05
 74
0
 49
0.1
 74
0
 49
-0.05
 74
0
 49
0.1
 74
0
 49
-0.05
 74
0
  0
LTYPE
  5
1F8
100
AcDbSymbolTableRecord
100
AcDbLinetypeTableRecord
  2
DOT
 70
64
  3
. . . . . . . . . . . . . . . . . . . .
 72
65
 73
2
 40
0.2
 49
0.1
 74
0
 49
-0.1
 74
0
  0
LTYPE
  5
1F9
100
AcDbSymbolTableRecord
100
AcDbLinetypeTableRecord
  2
DASHED
 70
64
  3
- - - - - - - - - - - - - - - - - - - -
 72
65
 73
2
 40
0.2
 49
0.1
 74
0
 49
-0.1
 74
0
  0
ENDTAB
  0
TABLE
  2
LAYER
  5
2
100
AcDbSymbolTable
 70
36
  0
LAYER
  5
10
100
AcDbSymbolTableRecord
100
AcDbLayerTableRecord
  2
0
 70
0
 62
7
  6
CONTINUOUS
370
-3
390
F
  0
LAYER
  5
1FA
100
AcDbSymbolTableRecord
100
AcDbLayerTableRecord
  2
DEFAULT_1
 70
0
 62
7
  6
CENTER
370
-3
390
F
  0
LAYER
  5
1FB
100
AcDbSymbolTableRecord
100
AcDbLayerTableRecord
  2
DEFAULT_2
 70
0
 62
8
  6
HIDDEN
370
-3
390
F
  0
LAYER
  5
1FC
100
AcDbSymbolTableRecord
100
AcDbLayerTableRecord
  2
DEFAULT_3
 70
0
 62
7
  6
PHANTOM
370
-3
390
F
  0
LAYER
  5
1FD
100
AcDbSymbolTableRecord
100
AcDbLayerTableRecord
  2
ALL_FEATURES
 70
0
 62
7
  6
CONTINUOUS
370
-3
390
F
  0
LAYER
  5
1FE
100
AcDbSymbolTableRecord
100
AcDbLayerTableRecord
  2
AXES_FEATURES
 70
0
 62
7
  6
CONTINUOUS
370
-3
390
F
  0
LAYER
  5
1FF
100
AcDbSymbolTableRecord
100
AcDbLayerTableRecord
  2
DEFAULT_COORDINATE_SYSTEM
 70
0
 62
7
  6
CONTINUOUS
370
-3
390
F
  0
LAYER
  5
200
100
AcDbSymbolTableRecord
100
AcDbLayerTableRecord
  2
DEFAULT_DATUM_AXES
 70
0
 62
7
  6
CONTINUOUS
370
-3
390
F
  0
LAYER
  5
201
100
AcDbSymbolTableRecord
100
AcDbLayerTableRecord
  2
DEFAULT_DATUM_PLANES
 70
0
 62
7
  6
CONTINUOUS
370
-3
390
F
  0
LAYER
  5
202
100
AcDbSymbolTableRecord
100
AcDbLayerTableRecord
  2
DIMENSIONS
 70
0
 62
7
  6
CONTINUOUS
370
-3
390
F
  0
ENDTAB
  0
TABLE
  2
STYLE
  5
3
100
AcDbSymbolTable
 70
1
  0
STYLE
  5
11
100
AcDbSymbolTableRecord
100
AcDbTextStyleTableRecord
  2
STANDARD
 70
0
 40
0.0
 41
0.8
 50
0.0
 71
0
 42
0.2
  3
txt
  4

  0
STYLE
  5
203
100
AcDbSymbolTableRecord
100
AcDbTextStyleTableRecord
  2
TEXTSTYLE_1
 70
0
 40
0.0
 41
0.8
 50
0.0
 71
0
 42
0.2
  3
gdt
  4

  0
ENDTAB
  0
TABLE
  2
VIEW
  5
6
100
AcDbSymbolTable
 70
0
  0
ENDTAB
  0
TABLE
  2
UCS
  5
7
100
AcDbSymbolTable
 70
0
  0
ENDTAB
  0
TABLE
  2
APPID
  5
9
100
AcDbSymbolTable
 70
1
  0
APPID
  5
204
100
AcDbSymbolTableRecord
100
AcDbRegAppTableRecord
  2
ACAD
 70
0
  0
ENDTAB
  0
TABLE
  2
BLOCK_RECORD
  5
1
100
AcDbSymbolTable
 70
0
  0
BLOCK_RECORD
  5
205
100
AcDbSymbolTableRecord
100
AcDbBlockTableRecord
  2
*Model_Space
  0
BLOCK_RECORD
  5
206
100
AcDbSymbolTableRecord
100
AcDbBlockTableRecord
  2
*Paper_Space
  0
BLOCK_RECORD
  5
207
100
AcDbSymbolTableRecord
100
AcDbBlockTableRecord
  2
_FILLED
  0
ENDTAB
  0
TABLE
  2
DIMSTYLE
  5
A
100
AcDbSymbolTable
 70
1
100
AcDbDimStyleTable
 71
0
  0
DIMSTYLE
105
208
100
AcDbSymbolTableRecord
100
AcDbDimStyleTableRecord
  2
STANDARD
 70
0
  3

  4

 40
1.0
 41
0.1
 42
0.0625
 43
0.38
 44
0.125
 45
0.0
 46
0.0
 47
0.001
 48
0.001
140
0.08
141
0.09
142
0.0
143
25.4
144
1.0
145
0.0
146
1.0
147
0.09
 71
1.0
 72
0.0
 73
1
 74
1
 75
0
 76
0
 77
0
 78
4
 79
1
170
1
171
2
172
0
173
0
174
0
175
0
176
0
177
0
178
0
270
2
179
3
271
3
272
3
273
2
274
2
275
0
280
0
281
0
282
0
283
1
284
4
285
0
286
0
287
3
288
0
340
11
278
46
341
207
342
207
343
207
344
207
  0
ENDTAB
  0
ENDSEC
  0
SECTION
  2
BLOCKS
  0
BLOCK
  5
20
100
AcDbEntity
  8
0
100
AcDbBlockBegin
  2
*Model_Space
 70
0
 10
0.0
 20
0.0
 30
0.0
  3
*Model_Space
  1

  0
ENDBLK
  5
21
100
AcDbEntity
  8
0
100
AcDbBlockEnd
  0
BLOCK
  5
1C
100
AcDbEntity
  8
0
100
AcDbBlockBegin
  2
*Paper_Space
 70
0
 10
0.0
 20
0.0
 30
0.0
  3
*Paper_Space
  1

  0
ENDBLK
  5
1D
100
AcDbEntity
  8
0
100
AcDbBlockEnd
  0
BLOCK
  5
209
100
AcDbEntity
  8
0
100
AcDbBlockBegin
  2
_FILLED
 70
64
 10
0.0
 20
0.0
  3
_FILLED
  1

  0
SOLID
  5
20A
100
AcDbEntity
  8
0
  6
BYBLOCK
 62
0
100
AcDbTrace
 10
0.0
 20
0.0
 11
-1.0
 21
0.2
 12
-1.0
 22
-0.2
 13
-1.0
 23
-0.2
  0
ENDBLK
  5
20B
100
AcDbEntity
  8
0
  6
BYBLOCK
 62
0
100
AcDbBlockEnd
  0
ENDSEC
  0
SECTION
  2
ENTITIES
  0
LINE
  5
20C
100
AcDbEntity
  8
0
100
AcDbLine
 62
7
  6
CONTINUOUS
 10
12.7460948486
 20
5.259891804
 11
12.5710948486
 21
5.259891804
  0
LINE
  5
20D
100
AcDbEntity
  8
0
100
AcDbLine
 62
9
  6
CONTINUOUS
 10
8.7041045957
 20
9.333774155
 11
8.7041045957
 21
8.6854437676
  0
LINE
  5
20E
100
AcDbEntity
  8
0
100
AcDbLine
 62
9
  6
CONTINUOUS
 10
8.7229118015
 20
9.4790668376
 11
8.7229118015
 21
8.5401510851
  0
LWPOLYLINE
  5
20F
100
AcDbEntity
  8
0
100
AcDbPolyline
 62
7
  6
CONTINUOUS
 90
20
 70
0
 10
8.7229118015
 20
8.5401510851
 10
8.7232378284
 20
8.5372977145
 10
8.7241328534
 20
8.533219657
 10
8.72550743
 20
8.5292791414
 10
8.727342865
 20
8.5255318873
 10
8.7296211871
 20
8.5220372469
 10
8.7323212456
 20
8.5188591435
 10
8.7354036617
 20
8.5160475954
 10
8.7388080619
 20
8.5136343524
 10
8.742477202
 20
8.5116461085
 10
8.7463555002
 20
8.5101098284
 10
8.7503895814
 20
8.5090533247
 10
8.7545209354
 20
8.5085069583
 10
8.7586889651
 20
8.508491515
 10
8.7628279956
 20
8.5089933251
 10
8.7668777072
 20
8.5099906695
 10
8.7707795674
 20
8.5114629954
 10
8.7744765042
 20
8.5133919357
 10
8.7779058254
 20
8.5157574835
 10
8.779984928
 20
8.5175408887
  0
LINE
  5
210
100
AcDbEntity
  8
0
100
AcDbLine
 62
9
  6
CONTINUOUS
 10
8.7799849218
 20
8.517540883
 11
8.7799849218
 21
9.5016770397
  0
LINE
  5
211
100
AcDbEntity
  8
0
100
AcDbLine
 62
9
  6
CONTINUOUS
 10
8.8405004373
 20
8.5441604303
 11
8.8405004373
 21
9.4750574924
  0
LINE
  5
212
100
AcDbEntity
  8
0
100
AcDbLine
 62
9
  6
CONTINUOUS
 10
8.9425620256
 20
8.7857693726
 11
8.9425620256
 21
9.2334485501
  0
LINE
  5
213
100
AcDbEntity
  8
0
100
AcDbLine
 62
7
  6
CONTINUOUS
 10
8.8498440036
 20
8.336227808
 11
8.9290328276
 21
8.7606246016
  0
LINE
  5
214
100
AcDbEntity
  8
0
100
AcDbLine
 62
7
  6
CONTINUOUS
 10
12.1016183876
 20
7.2729018131
 11
11.9960948486
 21
7.2756650442
  0
LINE
  5
215
100
AcDbEntity
  8
0
100
AcDbLine
 62
7
  6
CONTINUOUS
 10
8.84985275
 20
9.68294324
 11
8.9290328276
 21
9.258593321
  0
LINE
  5
216
100
AcDbEntity
  8
0
100
AcDbLine
 62
7
  6
CONTINUOUS
 10
9.3719002557
 20
9.6829901146
 11
9.2927114318
 21
9.258593321
  0
LINE
  5
217
100
AcDbEntity
  8
0
100
AcDbLine
 62
7
  6
CONTINUOUS
 10
9.3718915093
 20
8.3362746827
 11
9.2927114318
 21
8.7606246016
  0
LWPOLYLINE
  5
218
100
AcDbEntity
  8
0
100
AcDbPolyline
 62
7
  6
CONTINUOUS
 90
18
 70
0
 10
9.5478721297
 20
9.3316979708
 10
9.5476268458
 20
9.3356316565
 10
9.5468939302
 20
9.3395594276
 10
9.5456851925
 20
9.3434059669
 10
9.5440200219
 20
9.347098419
 10
9.5419240903
 20
9.3505656603
 10
9.5394290021
 20
9.3537388636
 10
9.5365633132
 20
9.3565625712
 10
9.5333615252
 20
9.3590074004
 10
9.5298689968
 20
9.3610542731
 10
9.5261416413
 20
9.3626746443
 10
9.522248571
 20
9.3638370227
 10
9.5182594421
 20
9.3645159245
 10
9.5142320976
 20
9.3646914242
 10
9.5102192963
 20
9.3643551319
 10
9.5062723209
 20
9.3635264979
 10
9.5024369638
 20
9.3622243675
 10
9.4999175031
 20
9.3610756912
  0
LINE
  5
219
100
AcDbEntity
  8
0
100
AcDbLine
 62
9
  6
CONTINUOUS
 10
9.4346607102
 20
9.3523368988
 11
9.4346607102
 21
8.6668810238
  0
LINE
  5
21A
100
AcDbEntity
  8
0
100
AcDbLine
 62
9
  6
CONTINUOUS
 10
9.4999174821
 20
9.3610756806
 11
9.4999174821
 21
8.6581422421
  0
LINE
  5
21B
100
AcDbEntity
  8
0
100
AcDbLine
 62
7
  6
CONTINUOUS
 10
9.5478721297
 20
8.6875199522
 11
9.5478721297
 21
9.3316979705
  0
LWPOLYLINE
  5
21C
100
AcDbEntity
  8
0
100
AcDbPolyline
 62
7
  6
CONTINUOUS
 90
18
 70
0
 10
9.4999175031
 20
8.6581422315
 10
9.5024369638
 20
8.6569935552
 10
9.5062723209
 20
8.6556914248
 10
9.5102192963
 20
8.6548627908
 10
9.5142320976
 20
8.6545264984
 10
9.5182594421
 20
8.6547019982
 10
9.522248571
 20
8.6553809
 10
9.5261416413
 20
8.6565432783
 10
9.5298689968
 20
8.6581636496
 10
9.5333615252
 20
8.6602105222
 10
9.5365633132
 20
8.6626553515
 10
9.5394290021
 20
8.6654790591
 10
9.5419240903
 20
8.6686522624
 10
9.5440200219
 20
8.6721195037
 10
9.5456851925
 20
8.6758119558
 10
9.5468939302
 20
8.6796584951
 10
9.5476268458
 20
8.6835862662
 10
9.5478721297
 20
8.6875199519
  0
LWPOLYLINE
  5
21D
100
AcDbEntity
  8
0
100
AcDbPolyline
 62
7
  6
CONTINUOUS
 90
20
 70
0
 10
8.779984928
 20
9.5016770339
 10
8.7779058254
 20
9.5034604392
 10
8.7744765042
 20
9.505825987
 10
8.7707795674
 20
9.5077549273
 10
8.7668777072
 20
9.5092272531
 10
8.7628279956
 20
9.5102245976
 10
8.7586889651
 20
9.5107264077
 10
8.7545209354
 20
9.5107109644
 10
8.7503895814
 20
9.510164598
 10
8.7463555002
 20
9.5091080942
 10
8.742477202
 20
9.5075718142
 10
8.7388080619
 20
9.5055835702
 10
8.7354036617
 20
9.5031703272
 10
8.7323212456
 20
9.5003587792
 10
8.7296211871
 20
9.4971806758
 10
8.727342865
 20
9.4936860354
 10
8.72550743
 20
9.4899387813
 10
8.7241328534
 20
9.4859982656
 10
8.7232378284
 20
9.4819202082
 10
8.7229118015
 20
9.4790668376
  0
LWPOLYLINE
  5
21E
100
AcDbEntity
  8
0
100
AcDbPolyline
 62
7
  6
CONTINUOUS
 90
7
 70
0
 10
10.1208882125
 20
8.5772155065
 10
10.1212025302
 20
8.5712455025
 10
10.1221184514
 20
8.5654245805
 10
10.1236051209
 20
8.5597874738
 10
10.125643641
 20
8.5543677024
 10
10.1282241723
 20
8.5492038044
 10
10.1313430446
 20
8.5443402244
  0
LINE
  5
21F
100
AcDbEntity
  8
0
100
AcDbLine
 62
7
  6
CONTINUOUS
 10
9.9320721662
 20
8.7038490678
 11
9.9320721662
 21
9.3153688549
  0
LINE
  5
220
100
AcDbEntity
  8
0
100
AcDbLine
 62
9
  6
CONTINUOUS
 10
9.9693121662
 20
8.6666089613
 11
9.9693121662
 21
9.3526089613
  0
LINE
  5
221
100
AcDbEntity
  8
0
100
AcDbLine
 62
7
  6
CONTINUOUS
 10
10.1208882125
 20
9.4420024161
 11
10.1208882125
 21
8.5772155065
  0
LWPOLYLINE
  5
222
100
AcDbEntity
  8
0
100
AcDbPolyline
 62
7
  6
CONTINUOUS
 90
8
 70
0
 10
10.1349719646
 20
9.4793887001
 10
10.1313430446
 20
9.4748776983
 10
10.1282241723
 20
9.4700141183
 10
10.125643641
 20
9.4648502203
 10
10.1236051209
 20
9.4594304488
 10
10.1221184514
 20
9.4537933422
 10
10.1212025302
 20
9.4479724202
 10
10.1208882125
 20
9.4420024161
  0
LINE
  5
223
100
AcDbEntity
  8
0
100
AcDbLine
 62
7
  6
CONTINUOUS
 10
10.1350434467
 20
9.4794607171
 11
10.1349719646
 21
9.4793887001
  0
LINE
  5
224
100
AcDbEntity
  8
0
100
AcDbLine
 62
7
  6
CONTINUOUS
 10
10.1630474585
 20
9.4965163772
 11
10.1627353685
 21
9.4964228654
  0
LINE
  5
225
100
AcDbEntity
  8
0
100
AcDbLine
 62
7
  6
CONTINUOUS
 10
11.4520721297
 20
8.4379894871
 11
11.2009951059
 21
8.4379894871
  0
LINE
  5
226
100
AcDbEntity
  8
0
100
AcDbLine
 62
7
  6
CONTINUOUS
 10
10.1627353685
 20
8.5227950572
 11
10.1630474585
 21
8.5227015455
  0
LINE
  5
227
100
AcDbEntity
  8
0
100
AcDbLine
 62
7
  6
CONTINUOUS
 10
10.1349719646
 20
8.5398292226
 11
10.1350434467
 21
8.5397572056
  0
LINE
  5
228
100
AcDbEntity
  8
0
100
AcDbLine
 62
7
  6
CONTINUOUS
 10
10.1313430446
 20
8.5443402244
 11
10.1349719646
 21
8.5398292226
  0
LINE
  5
229
100
AcDbEntity
  8
0
100
AcDbLine
 62
9
  6
CONTINUOUS
 10
10.2177217672
 20
8.5387587076
 11
10.2177217287
 21
8.5390049259
  0
LINE
  5
22A
100
AcDbEntity
  8
0
100
AcDbLine
 62
9
  6
CONTINUOUS
 10
10.2177218252
 20
8.545750217
 11
10.2177215992
 21
8.5519457489
  0
LINE
  5
22B
100
AcDbEntity
  8
0
100
AcDbLine
 62
9
  6
CONTINUOUS
 10
10.2177218136
 20
8.5610782122
 11
10.2177216703
 21
8.5712760757
  0
LINE
  5
22C
100
AcDbEntity
  8
0
100
AcDbLine
 62
9
  6
CONTINUOUS
 10
10.2177216224
 20
9.4672721404
 11
10.217721705
 21
9.4734677989
  0
LINE
  5
22D
100
AcDbEntity
  8
0
100
AcDbLine
 62
9
  6
CONTINUOUS
 10
10.2177218244
 20
8.6349469047
 11
10.2177216003
 21
8.6541650314
  0
LINE
  5
22E
100
AcDbEntity
  8
0
100
AcDbLine
 62
9
  6
CONTINUOUS
 10
10.2177217435
 20
8.5996043659
 11
10.2177216377
 21
8.6154269542
  0
LINE
  5
22F
100
AcDbEntity
  8
0
100
AcDbLine
 62
9
  6
CONTINUOUS
 10
10.2177218023
 20
8.6772686882
 11
10.2177216642
 21
8.69952455
  0
LINE
  5
230
100
AcDbEntity
  8
0
100
AcDbLine
 62
9
  6
CONTINUOUS
 10
10.2177218066
 20
8.8081539208
 11
10.2177215989
 21
8.836085347
  0
LINE
  5
231
100
AcDbEntity
  8
0
100
AcDbLine
 62
9
  6
CONTINUOUS
 10
10.2177216015
 20
9.4351863133
 11
10.2177216387
 21
9.4473185386
  0
LINE
  5
232
100
AcDbEntity
  8
0
100
AcDbLine
 62
9
  6
CONTINUOUS
 10
10.2177217598
 20
8.7520809267
 11
10.2177216293
 21
8.7781001669
  0
LINE
  5
233
100
AcDbEntity
  8
0
100
AcDbLine
 62
9
  6
CONTINUOUS
 10
10.217721817
 20
8.8679796657
 11
10.2177216727
 21
8.897303142
  0
LINE
  5
234
100
AcDbEntity
  8
0
100
AcDbLine
 62
9
  6
CONTINUOUS
 10
10.2177215959
 20
9.3852977893
 11
10.217721618
 21
9.4028590361
  0
LINE
  5
235
100
AcDbEntity
  8
0
100
AcDbLine
 62
9
  6
CONTINUOUS
 10
10.217721615
 20
9.4037910097
 11
10.2177216284
 21
9.4196135706
  0
LINE
  5
236
100
AcDbEntity
  8
0
100
AcDbLine
 62
9
  6
CONTINUOUS
 10
10.2177216343
 20
9.4479419049
 11
10.2177216414
 21
9.4581398
  0
LINE
  5
237
100
AcDbEntity
  8
0
100
AcDbLine
 62
9
  6
CONTINUOUS
 10
10.2177215975
 20
9.1219149214
 11
10.2177216593
 21
9.1512380579
  0
LINE
  5
238
100
AcDbEntity
  8
0
100
AcDbLine
 62
9
  6
CONTINUOUS
 10
10.2177216086
 20
9.0586051974
 11
10.2177217349
 21
9.0887740956
  0
LINE
  5
239
100
AcDbEntity
  8
0
100
AcDbLine
 62
9
  6
CONTINUOUS
 10
10.2177216081
 20
9.2125983929
 11
10.2177216282
 21
9.2396366005
  0
LINE
  5
23A
100
AcDbEntity
  8
0
100
AcDbLine
 62
9
  6
CONTINUOUS
 10
10.2177217569
 20
8.9623028887
 11
10.2177216228
 21
8.9926844999
  0
LINE
  5
23B
100
AcDbEntity
  8
0
100
AcDbLine
 62
9
  6
CONTINUOUS
 10
10.2177215961
 20
9.2947904898
 11
10.2177215982
 21
9.31841269
  0
LINE
  5
23C
100
AcDbEntity
  8
0
100
AcDbLine
 62
9
  6
CONTINUOUS
 10
10.2177215972
 20
9.3196935043
 11
10.2177216004
 21
9.3419491505
  0
LINE
  5
23D
100
AcDbEntity
  8
0
100
AcDbLine
 62
9
  6
CONTINUOUS
 10
10.2177215977
 20
9.3650528962
 11
10.2177215959
 21
9.3842709836
  0
LINE
  5
23E
100
AcDbEntity
  8
0
100
AcDbLine
 62
9
  6
CONTINUOUS
 10
10.2177216184
 20
9.1831325378
 11
10.2177216127
 21
9.2110637996
  0
LINE
  5
23F
100
AcDbEntity
  8
0
100
AcDbLine
 62
9
  6
CONTINUOUS
 10
10.2177216014
 20
9.3431507551
 11
10.2177215968
 21
9.3639360844
  0
LINE
  5
240
100
AcDbEntity
  8
0
100
AcDbLine
 62
9
  6
CONTINUOUS
 10
10.2177216333
 20
8.9943827467
 11
10.2177217457
 21
9.0248353589
  0
LINE
  5
241
100
AcDbEntity
  8
0
100
AcDbLine
 62
9
  6
CONTINUOUS
 10
10.2177216105
 20
9.2685577965
 11
10.2177215969
 21
9.2934364446
  0
LINE
  5
242
100
AcDbEntity
  8
0
100
AcDbLine
 62
9
  6
CONTINUOUS
 10
10.2177217445
 20
8.9304438129
 11
10.2177217707
 21
8.9606130118
  0
LINE
  5
243
100
AcDbEntity
  8
0
100
AcDbLine
 62
9
  6
CONTINUOUS
 10
10.2177217398
 20
9.0265332237
 11
10.2177216024
 21
9.0569147948
  0
LINE
  5
244
100
AcDbEntity
  8
0
100
AcDbLine
 62
9
  6
CONTINUOUS
 10
10.2177216279
 20
9.2411177585
 11
10.2177216075
 21
9.2671368736
  0
LINE
  5
245
100
AcDbEntity
  8
0
100
AcDbLine
 62
9
  6
CONTINUOUS
 10
10.2177216559
 20
9.1528575842
 11
10.2177216136
 21
9.1815517386
  0
LINE
  5
246
100
AcDbEntity
  8
0
100
AcDbLine
 62
9
  6
CONTINUOUS
 10
10.2177216574
 20
8.8989539413
 11
10.2177217292
 21
8.9287696381
  0
LINE
  5
247
100
AcDbEntity
  8
0
100
AcDbLine
 62
9
  6
CONTINUOUS
 10
10.2177217511
 20
8.7257813735
 11
10.2177217738
 21
8.7506604498
  0
LINE
  5
248
100
AcDbEntity
  8
0
100
AcDbLine
 62
9
  6
CONTINUOUS
 10
10.2177217318
 20
9.0904482798
 11
10.2177215953
 21
9.1202638968
  0
LINE
  5
249
100
AcDbEntity
  8
0
100
AcDbLine
 62
9
  6
CONTINUOUS
 10
10.2177217392
 20
8.5847614768
 11
10.217721757
 21
8.5987717646
  0
LINE
  5
24A
100
AcDbEntity
  8
0
100
AcDbLine
 62
9
  6
CONTINUOUS
 10
10.2177216304
 20
9.4204463801
 11
10.2177215985
 21
9.4344564818
  0
LINE
  5
24B
100
AcDbEntity
  8
0
100
AcDbLine
 62
9
  6
CONTINUOUS
 10
10.2177216484
 20
9.4586538198
 11
10.2177216298
 21
9.4668698123
  0
LINE
  5
24C
100
AcDbEntity
  8
0
100
AcDbLine
 62
9
  6
CONTINUOUS
 10
10.2177216499
 20
8.7008052042
 11
10.2177217358
 21
8.7244277091
  0
LINE
  5
24D
100
AcDbEntity
  8
0
100
AcDbLine
 62
9
  6
CONTINUOUS
 10
10.2177215966
 20
8.8376662037
 11
10.2177218098
 21
8.866360633
  0
LINE
  5
24E
100
AcDbEntity
  8
0
100
AcDbLine
 62
9
  6
CONTINUOUS
 10
10.217721642
 20
8.7795813094
 11
10.2177218107
 21
8.8066199282
  0
LINE
  5
24F
100
AcDbEntity
  8
0
100
AcDbLine
 62
9
  6
CONTINUOUS
 10
10.2177216552
 20
8.5718993905
 11
10.2177217248
 21
8.5840318173
  0
LINE
  5
250
100
AcDbEntity
  8
0
100
AcDbLine
 62
9
  6
CONTINUOUS
 10
10.2177215969
 20
8.6552818381
 11
10.2177217954
 21
8.6760675433
  0
LINE
  5
251
100
AcDbEntity
  8
0
100
AcDbLine
 62
9
  6
CONTINUOUS
 10
10.2177217158
 20
9.4737564589
 11
10.2177216839
 21
9.4779031295
  0
LINE
  5
252
100
AcDbEntity
  8
0
100
AcDbLine
 62
9
  6
CONTINUOUS
 10
10.2177216519
 20
8.616358886
 11
10.217721829
 21
8.6339205677
  0
LINE
  5
253
100
AcDbEntity
  8
0
100
AcDbLine
 62
9
  6
CONTINUOUS
 10
10.2177215966
 20
8.5523480888
 11
10.2177218065
 21
8.5605643445
  0
LINE
  5
254
100
AcDbEntity
  8
0
100
AcDbLine
 62
9
  6
CONTINUOUS
 10
10.2177216553
 20
8.5413147675
 11
10.2177218302
 21
8.5454616174
  0
LINE
  5
255
100
AcDbEntity
  8
0
100
AcDbLine
 62
9
  6
CONTINUOUS
 10
10.2813364978
 20
8.5620361062
 11
10.2813364978
 21
9.4571818164
  0
LINE
  5
256
100
AcDbEntity
  8
0
100
AcDbLine
 62
9
  6
CONTINUOUS
 10
10.2177216716
 20
9.4780768967
 11
10.2177216785
 21
9.4801550455
  0
LINE
  5
257
100
AcDbEntity
  8
0
100
AcDbLine
 62
9
  6
CONTINUOUS
 10
10.2177217178
 20
8.5390629172
 11
10.2177216407
 21
8.5411409877
  0
LINE
  5
258
100
AcDbEntity
  8
0
100
AcDbLine
 62
9
  6
CONTINUOUS
 10
10.2177216912
 20
9.4802130392
 11
10.2177217533
 21
9.4804318567
  0
LINE
  5
259
100
AcDbEntity
  8
0
100
AcDbLine
 62
7
  6
CONTINUOUS
 10
11.4520721297
 20
8.5196089613
 11
11.4620721297
 21
8.5196089613
  0
LINE
  5
25A
100
AcDbEntity
  8
0
100
AcDbLine
 62
7
  6
CONTINUOUS
 10
10.1904104298
 20
8.5227015455
 11
10.1630474585
 21
8.5227015455
  0
LINE
  5
25B
100
AcDbEntity
  8
0
100
AcDbLine
 62
7
  6
CONTINUOUS
 10
10.1904104298
 20
8.523836639
 11
10.1630474585
 21
8.523836639
  0
LINE
  5
25C
100
AcDbEntity
  8
0
100
AcDbLine
 62
7
  6
CONTINUOUS
 10
10.1904104298
 20
8.5272366274
 11
10.1630474585
 21
8.5272366274
  0
LINE
  5
25D
100
AcDbEntity
  8
0
100
AcDbLine
 62
7
  6
CONTINUOUS
 10
10.1904104298
 20
8.5328856583
 11
10.1630474585
 21
8.5328856583
  0
LINE
  5
25E
100
AcDbEntity
  8
0
100
AcDbLine
 62
7
  6
CONTINUOUS
 10
10.1904104298
 20
8.5407573933
 11
10.1630474585
 21
8.5407573933
  0
LINE
  5
25F
100
AcDbEntity
  8
0
100
AcDbLine
 62
7
  6
CONTINUOUS
 10
10.1904104298
 20
8.5508151307
 11
10.1630474585
 21
8.5508151307
  0
LINE
  5
260
100
AcDbEntity
  8
0
100
AcDbLine
 62
7
  6
CONTINUOUS
 10
10.1904104298
 20
8.5630119767
 11
10.1630474585
 21
8.5630119767
  0
LINE
  5
261
100
AcDbEntity
  8
0
100
AcDbLine
 62
7
  6
CONTINUOUS
 10
10.1904104298
 20
8.5772910641
 11
10.1630474585
 21
8.5772910641
  0
LINE
  5
262
100
AcDbEntity
  8
0
100
AcDbLine
 62
7
  6
CONTINUOUS
 10
11.4520721297
 20
8.5911544636
 11
11.2009951059
 21
8.5911544636
  0
LINE
  5
263
100
AcDbEntity
  8
0
100
AcDbLine
 62
7
  6
CONTINUOUS
 10
10.1904104298
 20
8.593585817
 11
10.1630474585
 21
8.593585817
  0
LINE
  5
264
100
AcDbEntity
  8
0
100
AcDbLine
 62
7
  6
CONTINUOUS
 10
10.1904104298
 20
8.6118202619
 11
10.1630474585
 21
8.6118202619
  0
LINE
  5
265
100
AcDbEntity
  8
0
100
AcDbLine
 62
7
  6
CONTINUOUS
 10
10.1904104298
 20
8.6319093813
 11
10.1630474585
 21
8.6319093813
  0
LINE
  5
266
100
AcDbEntity
  8
0
100
AcDbLine
 62
7
  6
CONTINUOUS
 10
10.1904104298
 20
8.6537595105
 11
10.1630474585
 21
8.6537595105
  0
LINE
  5
267
100
AcDbEntity
  8
0
100
AcDbLine
 62
7
  6
CONTINUOUS
 10
9.9693121662
 20
8.6666089613
 11
10.1208882125
 21
8.6666089613
  0
LINE
  5
268
100
AcDbEntity
  8
0
100
AcDbLine
 62
7
  6
CONTINUOUS
 10
10.135170143
 20
8.6772687742
 11
10.2185225668
 21
8.6772687742
  0
LINE
  5
269
100
AcDbEntity
  8
0
100
AcDbLine
 62
7
  6
CONTINUOUS
 10
10.135170143
 20
8.7007232323
 11
10.2185229198
 21
8.7007232323
  0
LINE
  5
26A
100
AcDbEntity
  8
0
100
AcDbLine
 62
7
  6
CONTINUOUS
 10
10.1904104298
 20
8.7023275612
 11
10.1630474585
 21
8.7023275612
  0
LINE
  5
26B
100
AcDbEntity
  8
0
100
AcDbLine
 62
7
  6
CONTINUOUS
 10
10.135170143
 20
8.7256178583
 11
10.2185227047
 21
8.7256178583
  0
LINE
  5
26C
100
AcDbEntity
  8
0
100
AcDbLine
 62
7
  6
CONTINUOUS
 10
10.1904104298
 20
8.7288190359
 11
10.1630474585
 21
8.7288190359
  0
LINE
  5
26D
100
AcDbEntity
  8
0
100
AcDbLine
 62
7
  6
CONTINUOUS
 10
9.5478721297
 20
8.7446089613
 11
9.9320721662
 21
8.7446089613
  0
LINE
  5
26E
100
AcDbEntity
  8
0
100
AcDbLine
 62
7
  6
CONTINUOUS
 10
10.135170143
 20
8.7518365818
 11
10.2185226466
 21
8.7518365818
  0
LINE
  5
26F
100
AcDbEntity
  8
0
100
AcDbLine
 62
7
  6
CONTINUOUS
 10
10.1904104298
 20
8.7566196829
 11
10.1630474585
 21
8.7566196829
  0
LINE
  5
270
100
AcDbEntity
  8
0
100
AcDbLine
 62
9
  6
CONTINUOUS
 10
10.5771913419
 20
8.550033872
 11
10.5771913419
 21
9.4691840507
  0
LINE
  5
271
100
AcDbEntity
  8
0
100
AcDbLine
 62
7
  6
CONTINUOUS
 10
10.135170143
 20
8.7792571593
 11
10.2185229731
 21
8.7792571593
  0
LINE
  5
272
100
AcDbEntity
  8
0
100
AcDbLine
 62
7
  6
CONTINUOUS
 10
10.1904104298
 20
8.7855998827
 11
10.1630474585
 21
8.7855998827
  0
LINE
  5
273
100
AcDbEntity
  8
0
100
AcDbLine
 62
7
  6
CONTINUOUS
 10
10.135170143
 20
8.8077517431
 11
10.2185225423
 21
8.8077517431
  0
LINE
  5
274
100
AcDbEntity
  8
0
100
AcDbLine
 62
7
  6
CONTINUOUS
 10
10.1904104298
 20
8.8156245162
 11
10.1630474585
 21
8.8156245162
  0
LINE
  5
275
100
AcDbEntity
  8
0
100
AcDbLine
 62
7
  6
CONTINUOUS
 10
10.135170143
 20
8.8371874785
 11
10.2185230679
 21
8.8371874785
  0
LINE
  5
276
100
AcDbEntity
  8
0
100
AcDbLine
 62
7
  6
CONTINUOUS
 10
10.1904104298
 20
8.8465535947
 11
10.1630474585
 21
8.8465535947
  0
LINE
  5
277
100
AcDbEntity
  8
0
100
AcDbLine
 62
7
  6
CONTINUOUS
 10
10.135170143
 20
8.8674271224
 11
10.2185225307
 21
8.8674271224
  0
LINE
  5
278
100
AcDbEntity
  8
0
100
AcDbLine
 62
7
  6
CONTINUOUS
 10
10.1904104298
 20
8.8782429127
 11
10.1630474585
 21
8.8782429127
  0
LINE
  5
279
100
AcDbEntity
  8
0
100
AcDbLine
 62
7
  6
CONTINUOUS
 10
10.135170143
 20
8.8983296837
 11
10.2185228999
 21
8.8983296837
  0
LINE
  5
27A
100
AcDbEntity
  8
0
100
AcDbLine
 62
7
  6
CONTINUOUS
 10
10.1904104298
 20
8.9105447198
 11
10.1630474585
 21
8.9105447198
  0
LINE
  5
27B
100
AcDbEntity
  8
0
100
AcDbLine
 62
7
  6
CONTINUOUS
 10
10.135170143
 20
8.9297510804
 11
10.218522721
 21
8.9297510804
  0
LINE
  5
27C
100
AcDbEntity
  8
0
100
AcDbLine
 62
7
  6
CONTINUOUS
 10
10.1904104298
 20
8.9433084101
 11
10.1630474585
 21
8.9433084101
  0
LINE
  5
27D
100
AcDbEntity
  8
0
100
AcDbLine
 62
7
  6
CONTINUOUS
 10
10.135170143
 20
8.9615448113
 11
10.2185226539
 21
8.9615448113
  0
LINE
  5
27E
100
AcDbEntity
  8
0
100
AcDbLine
 62
7
  6
CONTINUOUS
 10
10.1904104298
 20
8.9763812242
 11
10.1630474585
 21
8.9763812242
  0
LINE
  5
27F
100
AcDbEntity
  8
0
100
AcDbLine
 62
7
  6
CONTINUOUS
 10
10.135170143
 20
8.9935626395
 11
10.2185229918
 21
8.9935626395
  0
LINE
  5
280
100
AcDbEntity
  8
0
100
AcDbLine
 62
7
  6
CONTINUOUS
 10
10.1904104298
 20
9.0096089613
 11
10.1630474585
 21
9.0096089613
  0
LINE
  5
281
100
AcDbEntity
  8
0
100
AcDbLine
 62
7
  6
CONTINUOUS
 10
10.135170143
 20
9.0256552831
 11
10.2185227062
 21
9.0256552831
  0
LINE
  5
282
100
AcDbEntity
  8
0
100
AcDbLine
 62
7
  6
CONTINUOUS
 10
10.1904104298
 20
9.0428366985
 11
10.1630474585
 21
9.0428366985
  0
LINE
  5
283
100
AcDbEntity
  8
0
100
AcDbLine
 62
9
  6
CONTINUOUS
 10
10.8751001084
 20
8.5790108873
 11
10.8751001084
 21
9.4402070354
  0
LINE
  5
284
100
AcDbEntity
  8
0
100
AcDbLine
 62
9
  6
CONTINUOUS
 10
11.0323214428
 20
8.5983066113
 11
11.0323214428
 21
9.4209113114
  0
LINE
  5
285
100
AcDbEntity
  8
0
100
AcDbLine
 62
7
  6
CONTINUOUS
 10
10.135170143
 20
9.0576731113
 11
10.2185230482
 21
9.0576731113
  0
LINE
  5
286
100
AcDbEntity
  8
0
100
AcDbLine
 62
7
  6
CONTINUOUS
 10
10.1904104298
 20
9.0759095126
 11
10.1630474585
 21
9.0759095126
  0
LINE
  5
287
100
AcDbEntity
  8
0
100
AcDbLine
 62
7
  6
CONTINUOUS
 10
10.135170143
 20
9.0894668423
 11
10.2185227295
 21
9.0894668423
  0
LINE
  5
288
100
AcDbEntity
  8
0
100
AcDbLine
 62
7
  6
CONTINUOUS
 10
10.1904104298
 20
9.1086732029
 11
10.1630474585
 21
9.1086732029
  0
LINE
  5
289
100
AcDbEntity
  8
0
100
AcDbLine
 62
7
  6
CONTINUOUS
 10
10.135170143
 20
9.120888239
 11
10.2185230706
 21
9.120888239
  0
LINE
  5
28A
100
AcDbEntity
  8
0
100
AcDbLine
 62
7
  6
CONTINUOUS
 10
10.1904104298
 20
9.14097501
 11
10.1630474585
 21
9.14097501
  0
LINE
  5
28B
100
AcDbEntity
  8
0
100
AcDbLine
 62
7
  6
CONTINUOUS
 10
10.135170143
 20
9.1517908002
 11
10.218522918
 21
9.1517908002
  0
LINE
  5
28C
100
AcDbEntity
  8
0
100
AcDbLine
 62
7
  6
CONTINUOUS
 10
11.4520721297
 20
9.1627739378
 11
11.2009951059
 21
9.1627739378
  0
LINE
  5
28D
100
AcDbEntity
  8
0
100
AcDbLine
 62
7
  6
CONTINUOUS
 10
10.1904104298
 20
9.1726643279
 11
10.1630474585
 21
9.1726643279
  0
LINE
  5
28E
100
AcDbEntity
  8
0
100
AcDbLine
 62
7
  6
CONTINUOUS
 10
10.135170143
 20
9.1820304442
 11
10.2185230216
 21
9.1820304442
  0
LINE
  5
28F
100
AcDbEntity
  8
0
100
AcDbLine
 62
7
  6
CONTINUOUS
 10
10.1904104298
 20
9.2035934065
 11
10.1630474585
 21
9.2035934065
  0
LINE
  5
290
100
AcDbEntity
  8
0
100
AcDbLine
 62
7
  6
CONTINUOUS
 10
10.135170143
 20
9.2114661796
 11
10.2185230354
 21
9.2114661796
  0
LINE
  5
291
100
AcDbEntity
  8
0
100
AcDbLine
 62
7
  6
CONTINUOUS
 10
10.1904104298
 20
9.23361804
 11
10.1630474585
 21
9.23361804
  0
LINE
  5
292
100
AcDbEntity
  8
0
100
AcDbLine
 62
7
  6
CONTINUOUS
 10
10.135170143
 20
9.2399607634
 11
10.2185229914
 21
9.2399607634
  0
LINE
  5
293
100
AcDbEntity
  8
0
100
AcDbLine
 62
7
  6
CONTINUOUS
 10
10.1904104298
 20
9.2625982398
 11
10.1630474585
 21
9.2625982398
  0
LINE
  5
294
100
AcDbEntity
  8
0
100
AcDbLine
 62
7
  6
CONTINUOUS
 10
10.135170143
 20
9.2673813408
 11
10.2185230387
 21
9.2673813408
  0
LINE
  5
295
100
AcDbEntity
  8
0
100
AcDbLine
 62
7
  6
CONTINUOUS
 10
9.5478721297
 20
9.2746089613
 11
9.9320721662
 21
9.2746089613
  0
LINE
  5
296
100
AcDbEntity
  8
0
100
AcDbLine
 62
7
  6
CONTINUOUS
 10
10.1904104298
 20
9.2903988868
 11
10.1630474585
 21
9.2903988868
  0
LINE
  5
297
100
AcDbEntity
  8
0
100
AcDbLine
 62
7
  6
CONTINUOUS
 10
10.135170143
 20
9.2936000644
 11
10.2185230703
 21
9.2936000644
  0
LINE
  5
298
100
AcDbEntity
  8
0
100
AcDbLine
 62
7
  6
CONTINUOUS
 10
10.1904104298
 20
9.3168903615
 11
10.1630474585
 21
9.3168903615
  0
LINE
  5
299
100
AcDbEntity
  8
0
100
AcDbLine
 62
7
  6
CONTINUOUS
 10
10.135170143
 20
9.3184946904
 11
10.2185230677
 21
9.3184946904
  0
LINE
  5
29A
100
AcDbEntity
  8
0
100
AcDbLine
 62
7
  6
CONTINUOUS
 10
10.1907141821
 20
9.4964282508
 11
10.1904104298
 21
9.4965163772
  0
LINE
  5
29B
100
AcDbEntity
  8
0
100
AcDbLine
 62
9
  6
CONTINUOUS
 10
11.114486191
 20
8.5950909245
 11
11.114486191
 21
9.4241269982
  0
LINE
  5
29C
100
AcDbEntity
  8
0
100
AcDbLine
 62
9
  6
CONTINUOUS
 10
11.155557511
 20
8.5685153316
 11
11.155557511
 21
9.4507025911
  0
LINE
  5
29D
100
AcDbEntity
  8
0
100
AcDbLine
 62
9
  6
CONTINUOUS
 10
11.1865791684
 20
8.5010330101
 11
11.1865791684
 21
9.5181849126
  0
LINE
  5
29E
100
AcDbEntity
  8
0
100
AcDbLine
 62
7
  6
CONTINUOUS
 10
11.1920619901
 20
9.5401880038
 11
11.1865791684
 21
9.5181849126
  0
LINE
  5
29F
100
AcDbEntity
  8
0
100
AcDbLine
 62
7
  6
CONTINUOUS
 10
11.768208563
 20
10.0077352318
 11
11.7361831968
 21
9.939836985
  0
LINE
  5
2A0
100
AcDbEntity
  8
0
100
AcDbLine
 62
7
  6
CONTINUOUS
 10
10.1904104298
 20
8.5227015455
 11
10.1907141821
 21
8.5227896718
  0
LINE
  5
2A1
100
AcDbEntity
  8
0
100
AcDbLine
 62
7
  6
CONTINUOUS
 10
10.135170143
 20
9.3419491485
 11
10.2185230606
 21
9.3419491485
  0
LINE
  5
2A2
100
AcDbEntity
  8
0
100
AcDbLine
 62
7
  6
CONTINUOUS
 10
9.9693121662
 20
9.3526089613
 11
10.1208882125
 21
9.3526089613
  0
LINE
  5
2A3
100
AcDbEntity
  8
0
100
AcDbLine
 62
7
  6
CONTINUOUS
 10
10.1904104298
 20
9.3654584121
 11
10.1630474585
 21
9.3654584121
  0
LINE
  5
2A4
100
AcDbEntity
  8
0
100
AcDbLine
 62
7
  6
CONTINUOUS
 10
10.1904104298
 20
9.3873085414
 11
10.1630474585
 21
9.3873085414
  0
LINE
  5
2A5
100
AcDbEntity
  8
0
100
AcDbLine
 62
7
  6
CONTINUOUS
 10
10.1904104298
 20
9.4073976608
 11
10.1630474585
 21
9.4073976608
  0
LINE
  5
2A6
100
AcDbEntity
  8
0
100
AcDbLine
 62
7
  6
CONTINUOUS
 10
10.1904104298
 20
9.4256321057
 11
10.1630474585
 21
9.4256321057
  0
LINE
  5
2A7
100
AcDbEntity
  8
0
100
AcDbLine
 62
7
  6
CONTINUOUS
 10
10.1904104298
 20
9.4419268586
 11
10.1630474585
 21
9.4419268586
  0
LINE
  5
2A8
100
AcDbEntity
  8
0
100
AcDbLine
 62
7
  6
CONTINUOUS
 10
10.1904104298
 20
9.456205946
 11
10.1630474585
 21
9.456205946
  0
LINE
  5
2A9
100
AcDbEntity
  8
0
100
AcDbLine
 62
7
  6
CONTINUOUS
 10
10.1904104298
 20
9.468402792
 11
10.1630474585
 21
9.468402792
  0
LINE
  5
2AA
100
AcDbEntity
  8
0
100
AcDbLine
 62
7
  6
CONTINUOUS
 10
10.1904104298
 20
9.4784605294
 11
10.1630474585
 21
9.4784605294
  0
LINE
  5
2AB
100
AcDbEntity
  8
0
100
AcDbLine
 62
7
  6
CONTINUOUS
 10
10.1904104298
 20
9.4863322644
 11
10.1630474585
 21
9.4863322644
  0
LINE
  5
2AC
100
AcDbEntity
  8
0
100
AcDbLine
 62
7
  6
CONTINUOUS
 10
10.1904104298
 20
9.4919812953
 11
10.1630474585
 21
9.4919812953
  0
LINE
  5
2AD
100
AcDbEntity
  8
0
100
AcDbLine
 62
7
  6
CONTINUOUS
 10
10.1904104298
 20
9.4953812836
 11
10.1630474585
 21
9.4953812836
  0
LINE
  5
2AE
100
AcDbEntity
  8
0
100
AcDbLine
 62
7
  6
CONTINUOUS
 10
10.1904104298
 20
9.4965163772
 11
10.1630474585
 21
9.4965163772
  0
LINE
  5
2AF
100
AcDbEntity
  8
0
100
AcDbLine
 62
7
  6
CONTINUOUS
 10
11.4520721297
 20
9.4996089613
 11
11.4620721297
 21
9.4996089613
  0
LINE
  5
2B0
100
AcDbEntity
  8
0
100
AcDbLine
 62
7
  6
CONTINUOUS
 10
11.4520721297
 20
9.5812284356
 11
11.2009951059
 21
9.5812284356
  0
LINE
  5
2B1
100
AcDbEntity
  8
0
100
AcDbLine
 62
7
  6
CONTINUOUS
 10
11.768208563
 20
8.0114826908
 11
11.7361831968
 21
8.0793809376
  0
LINE
  5
2B2
100
AcDbEntity
  8
0
100
AcDbLine
 62
7
  6
CONTINUOUS
 10
11.1920619901
 20
8.4790299189
 11
11.1865791684
 21
8.5010330101
  0
LINE
  5
2B3
100
AcDbEntity
  8
0
100
AcDbLine
 62
7
  6
CONTINUOUS
 10
11.4520721297
 20
8.4379894871
 11
11.4520721297
 21
9.5812284356
  0
LINE
  5
2B4
100
AcDbEntity
  8
0
100
AcDbLine
 62
7
  6
CONTINUOUS
 10
11.4620721297
 20
8.3178885987
 11
11.4620721297
 21
9.7013293239
  0
LINE
  5
2B5
100
AcDbEntity
  8
0
100
AcDbLine
 62
9
  6
CONTINUOUS
 10
11.6016366083
 20
8.2479604303
 11
11.6016366083
 21
9.7712574924
  0
LINE
  5
2B6
100
AcDbEntity
  8
0
100
AcDbLine
 62
9
  6
CONTINUOUS
 10
11.7361831968
 20
8.0793809376
 11
11.7361831968
 21
9.939836985
  0
LINE
  5
2B7
100
AcDbEntity
  8
0
100
AcDbLine
 62
9
  6
CONTINUOUS
 10
11.768208563
 20
8.0114826908
 11
11.768208563
 21
10.0077352318
  0
LINE
  5
2B8
100
AcDbEntity
  8
0
100
AcDbLine
 62
9
  6
CONTINUOUS
 10
11.8105640128
 20
7.9409148967
 11
11.8105640128
 21
10.0783030259
  0
LINE
  5
2B9
100
AcDbEntity
  8
0
100
AcDbLine
 62
9
  6
CONTINUOUS
 10
11.855422679
 20
7.9077138562
 11
11.855422679
 21
10.1115040665
  0
LINE
  5
2BA
100
AcDbEntity
  8
0
100
AcDbLine
 62
7
  6
CONTINUOUS
 10
11.9960948486
 20
10.7441185639
 11
11.9960948486
 21
7.2756650442
  0
LINE
  5
2BB
100
AcDbEntity
  8
0
100
AcDbLine
 62
9
  6
CONTINUOUS
 10
12.1016183876
 20
7.2729018131
 11
12.1016183876
 21
10.746881795
  0
LINE
  5
2BC
100
AcDbEntity
  8
0
100
AcDbLine
 62
7
  6
CONTINUOUS
 10
12.1210948486
 20
12.242891804
 11
12.1210948486
 21
5.776891804
  0
LINE
  5
2BD
100
AcDbEntity
  8
0
100
AcDbLine
 62
9
  6
CONTINUOUS
 10
12.1801067119
 20
12.3200895898
 11
12.1801067119
 21
5.6996940183
  0
LINE
  5
2BE
100
AcDbEntity
  8
0
100
AcDbLine
 62
7
  6
CONTINUOUS
 10
12.1016183876
 20
10.746881795
 11
11.9960948486
 21
10.7441185639
  0
LINE
  5
2BF
100
AcDbEntity
  8
0
100
AcDbLine
 62
9
  6
CONTINUOUS
 10
12.4914928505
 20
12.687861867
 11
12.4914928505
 21
5.3319217411
  0
LINE
  5
2C0
100
AcDbEntity
  8
0
100
AcDbLine
 62
9
  6
CONTINUOUS
 10
12.5710948486
 20
12.759891804
 11
12.5710948486
 21
5.259891804
  0
LINE
  5
2C1
100
AcDbEntity
  8
0
100
AcDbLine
 62
7
  6
CONTINUOUS
 10
12.7460948486
 20
12.759891804
 11
12.7460948486
 21
5.259891804
  0
LINE
  5
2C2
100
AcDbEntity
  8
0
100
AcDbLine
 62
7
  6
CONTINUOUS
 10
12.7460948486
 20
12.759891804
 11
12.5710948486
 21
12.759891804
  0
ARC
  5
2C3
100
AcDbEntity
  8
0
100
AcDbCircle
 62
7
  6
CONTINUOUS
 10
7.4461793271
 20
8.4487504474
 40
1.279999952
100
AcDbArc
 50
4.0947903216
 51
10.6562742843
  0
ARC
  5
2C4
100
AcDbEntity
  8
0
100
AcDbCircle
 62
7
  6
CONTINUOUS
 10
8.7867004152
 20
8.7823656925
 40
0.69477793
100
AcDbArc
 50
81.4697639457
 51
85.5588642768
  0
ARC
  5
2C5
100
AcDbEntity
  8
0
100
AcDbCircle
 62
9
  6
CONTINUOUS
 10
8.0699113913
 20
8.6111749135
 40
0.6563775686
100
AcDbArc
 50
5.8128373465
 51
14.9395303773
  0
ARC
  5
2C6
100
AcDbEntity
  8
0
100
AcDbCircle
 62
7
  6
CONTINUOUS
 10
8.848243875
 20
8.4444612938
 40
0.099999893
100
AcDbArc
 50
94.4411357243
 51
133.0465642998
  0
ARC
  5
2C7
100
AcDbEntity
  8
0
100
AcDbCircle
 62
7
  6
CONTINUOUS
 10
10.4710721359
 20
6.8323185445
 40
2.6389999968
100
AcDbArc
 50
81.1934452325
 51
87.6954064276
  0
ARC
  5
2C8
100
AcDbEntity
  8
0
100
AcDbCircle
 62
7
  6
CONTINUOUS
 10
10.5034025041
 20
7.6356682495
 40
1.8349999961
100
AcDbArc
 50
87.6954064276
 51
96.9507945778
  0
ARC
  5
2C9
100
AcDbEntity
  8
0
100
AcDbCircle
 62
7
  6
CONTINUOUS
 10
9.454756011
 20
8.5689209393
 40
0.0999999992
100
AcDbArc
 50
63.1526561488
 51
101.5927103269
  0
ARC
  5
2CA
100
AcDbEntity
  8
0
100
AcDbCircle
 62
7
  6
CONTINUOUS
 10
9.0367750864
 20
8.740514113
 40
0.1096030387
100
AcDbArc
 50
165.0051195374
 51
169.4271958433
  0
ARC
  5
2CB
100
AcDbEntity
  8
0
100
AcDbCircle
 62
7
  6
CONTINUOUS
 10
9.0189090544
 20
8.7630914001
 40
0.1031274599
100
AcDbArc
 50
190.3176048994
 51
200.8473605489
  0
ARC
  5
2CC
100
AcDbEntity
  8
0
100
AcDbCircle
 62
7
  6
CONTINUOUS
 10
9.2079816559
 20
8.7621049113
 40
0.0978908062
100
AcDbArc
 50
2.3039554233
 51
6.0463483389
  0
ARC
  5
2CD
100
AcDbEntity
  8
0
100
AcDbCircle
 62
7
  6
CONTINUOUS
 10
9.2083797874
 20
8.7621211869
 40
0.0974923423
100
AcDbArc
 50
0.0002357038
 51
2.3038042672
  0
ARC
  5
2CE
100
AcDbEntity
  8
0
100
AcDbCircle
 62
9
  6
CONTINUOUS
 10
9.0226039656
 20
8.7431544049
 40
0.095188054
100
AcDbArc
 50
164.1538699923
 51
169.4243557317
  0
ARC
  5
2CF
100
AcDbEntity
  8
0
100
AcDbCircle
 62
7
  6
CONTINUOUS
 10
10.1973147733
 20
8.6822719214
 40
0.0689997211
100
AcDbArc
 50
287.0071567481
 51
287.2017838139
  0
ARC
  5
2D0
100
AcDbEntity
  8
0
100
AcDbCircle
 62
7
  6
CONTINUOUS
 10
10.1959454572
 20
8.6526408691
 40
0.0573328746
100
AcDbArc
 50
292.0468938074
 51
292.3196368629
  0
ARC
  5
2D1
100
AcDbEntity
  8
0
100
AcDbCircle
 62
7
  6
CONTINUOUS
 10
10.1766698894
 20
8.5781213439
 40
0.0570977803
100
AcDbArc
 50
283.9248653296
 51
284.2506498141
  0
ARC
  5
2D2
100
AcDbEntity
  8
0
100
AcDbCircle
 62
7
  6
CONTINUOUS
 10
10.1771025783
 20
8.5766777173
 40
0.0557878459
100
AcDbArc
 50
221.2662138565
 51
246.6403337861
  0
ARC
  5
2D3
100
AcDbEntity
  8
0
100
AcDbCircle
 62
7
  6
CONTINUOUS
 10
10.1767996359
 20
8.575971298
 40
0.0550195806
100
AcDbArc
 50
246.6382665742
 51
250.6642318122
  0
ARC
  5
2D4
100
AcDbEntity
  8
0
100
AcDbCircle
 62
7
  6
CONTINUOUS
 10
10.1765321698
 20
8.5752203139
 40
0.0542223973
100
AcDbArc
 50
250.6681690823
 51
255.2456641651
  0
ARC
  5
2D5
100
AcDbEntity
  8
0
100
AcDbCircle
 62
7
  6
CONTINUOUS
 10
10.1763076574
 20
8.5744147482
 40
0.0533862175
100
AcDbArc
 50
255.2584913262
 51
255.6181860696
  0
ARC
  5
2D6
100
AcDbEntity
  8
0
100
AcDbCircle
 62
7
  6
CONTINUOUS
 10
10.1793177719
 20
8.5760346436
 40
0.0533080729
100
AcDbArc
 50
315.8700660438
 51
316.0851959634
  0
ARC
  5
2D7
100
AcDbEntity
  8
0
100
AcDbCircle
 62
7
  6
CONTINUOUS
 10
10.194304648
 20
8.6307095848
 40
0.0515710239
100
AcDbArc
 50
296.6826789759
 51
297.0019138237
  0
ARC
  5
2D8
100
AcDbEntity
  8
0
100
AcDbCircle
 62
7
  6
CONTINUOUS
 10
10.1821055487
 20
8.5784024889
 40
0.0514198083
100
AcDbArc
 50
312.2316876418
 51
313.715881046
  0
ARC
  5
2D9
100
AcDbEntity
  8
0
100
AcDbCircle
 62
7
  6
CONTINUOUS
 10
10.1850036056
 20
8.5830268768
 40
0.0495983481
100
AcDbArc
 50
311.0668160619
 51
311.2675318691
  0
ARC
  5
2DA
100
AcDbEntity
  8
0
100
AcDbCircle
 62
7
  6
CONTINUOUS
 10
10.1923293064
 20
8.6137830352
 40
0.0489796218
100
AcDbArc
 50
300.8912769627
 51
301.2252567736
  0
ARC
  5
2DB
100
AcDbEntity
  8
0
100
AcDbCircle
 62
7
  6
CONTINUOUS
 10
10.1876287561
 20
8.5904101988
 40
0.048521163
100
AcDbArc
 50
308.0648745775
 51
308.330762066
  0
ARC
  5
2DC
100
AcDbEntity
  8
0
100
AcDbCircle
 62
7
  6
CONTINUOUS
 10
10.1901122786
 20
8.6005084059
 40
0.0481351927
100
AcDbArc
 50
304.68096401
 51
304.9944727313
  0
ARC
  5
2DD
100
AcDbEntity
  8
0
100
AcDbCircle
 62
7
  6
CONTINUOUS
 10
10.2453454902
 20
8.3892468878
 40
0.267465277
100
AcDbArc
 50
95.7555110211
 51
95.9280974902
  0
ARC
  5
2DE
100
AcDbEntity
  8
0
100
AcDbCircle
 62
7
  6
CONTINUOUS
 10
10.2460308282
 20
8.4983305298
 40
0.1395187609
100
AcDbArc
 50
101.3712725727
 51
101.7086830533
  0
ARC
  5
2DF
100
AcDbEntity
  8
0
100
AcDbCircle
 62
7
  6
CONTINUOUS
 10
10.3035619927
 20
8.5401863793
 40
0.1039271335
100
AcDbArc
 50
145.4286391263
 51
145.6891839932
  0
ARC
  5
2E0
100
AcDbEntity
  8
0
100
AcDbCircle
 62
7
  6
CONTINUOUS
 10
10.3005663857
 20
8.5262558333
 40
0.1010017048
100
AcDbArc
 50
144.8455416722
 51
145.1090840215
  0
ARC
  5
2E1
100
AcDbEntity
  8
0
100
AcDbCircle
 62
7
  6
CONTINUOUS
 10
10.2475437711
 20
8.5200270537
 40
0.1008424095
100
AcDbArc
 50
106.7253271432
 51
107.2019392108
  0
ARC
  5
2E2
100
AcDbEntity
  8
0
100
AcDbCircle
 62
7
  6
CONTINUOUS
 10
10.2986180644
 20
8.5276214799
 40
0.0986224364
100
AcDbArc
 50
144.3056505313
 51
144.842489833
  0
ARC
  5
2E3
100
AcDbEntity
  8
0
100
AcDbCircle
 62
7
  6
CONTINUOUS
 10
10.2972970995
 20
8.5142595001
 40
0.0978936312
100
AcDbArc
 50
144.1120285887
 51
144.3791934046
  0
ARC
  5
2E4
100
AcDbEntity
  8
0
100
AcDbCircle
 62
7
  6
CONTINUOUS
 10
10.2957801163
 20
8.5027889821
 40
0.0971141626
100
AcDbArc
 50
143.2521322947
 51
143.4960342437
  0
ARC
  5
2E5
100
AcDbEntity
  8
0
100
AcDbCircle
 62
7
  6
CONTINUOUS
 10
10.2959920511
 20
8.5152005697
 40
0.09628467
100
AcDbArc
 50
143.5701396942
 51
144.1104808229
  0
ARC
  5
2E6
100
AcDbEntity
  8
0
100
AcDbCircle
 62
7
  6
CONTINUOUS
 10
10.292399321
 20
8.5053038798
 40
0.0929005624
100
AcDbArc
 50
142.6764437949
 51
143.2474544145
  0
ARC
  5
2E7
100
AcDbEntity
  8
0
100
AcDbCircle
 62
7
  6
CONTINUOUS
 10
10.2897908685
 20
8.4965130707
 40
0.0909217366
100
AcDbArc
 50
142.2334372654
 51
142.4340590075
  0
ARC
  5
2E8
100
AcDbEntity
  8
0
100
AcDbCircle
 62
7
  6
CONTINUOUS
 10
10.2894805978
 20
8.4967538628
 40
0.0905289916
100
AcDbArc
 50
141.6107527834
 51
142.2336431289
  0
ARC
  5
2E9
100
AcDbEntity
  8
0
100
AcDbCircle
 62
7
  6
CONTINUOUS
 10
10.28545081
 20
8.490987178
 40
0.0869180431
100
AcDbArc
 50
140.3553578762
 51
141.0458563746
  0
ARC
  5
2EA
100
AcDbEntity
  8
0
100
AcDbCircle
 62
7
  6
CONTINUOUS
 10
10.2816751288
 20
8.4869631633
 40
0.0838170459
100
AcDbArc
 50
138.8903602588
 51
139.6411539035
  0
ARC
  5
2EB
100
AcDbEntity
  8
0
100
AcDbCircle
 62
7
  6
CONTINUOUS
 10
10.2493859737
 20
8.5224802864
 40
0.0833713048
100
AcDbArc
 50
111.7273818619
 51
112.3232290747
  0
ARC
  5
2EC
100
AcDbEntity
  8
0
100
AcDbCircle
 62
7
  6
CONTINUOUS
 10
10.2775125027
 20
8.4852427489
 40
0.0804073574
100
AcDbArc
 50
137.1921018961
 51
138.0412459933
  0
ARC
  5
2ED
100
AcDbEntity
  8
0
100
AcDbCircle
 62
7
  6
CONTINUOUS
 10
10.2736357183
 20
8.4852249742
 40
0.07762045
100
AcDbArc
 50
135.237477328
 51
135.5198537697
  0
ARC
  5
2EE
100
AcDbEntity
  8
0
100
AcDbCircle
 62
7
  6
CONTINUOUS
 10
10.2735058682
 20
8.4853550135
 40
0.0774366892
100
AcDbArc
 50
135.5211863983
 51
136.0886524809
  0
ARC
  5
2EF
100
AcDbEntity
  8
0
100
AcDbCircle
 62
7
  6
CONTINUOUS
 10
10.2522766048
 20
8.5169470454
 40
0.0761108587
100
AcDbArc
 50
116.7777818665
 51
117.0034305127
  0
ARC
  5
2F0
100
AcDbEntity
  8
0
100
AcDbCircle
 62
7
  6
CONTINUOUS
 10
10.2519732618
 20
8.5175387676
 40
0.075445927
100
AcDbArc
 50
116.3191565176
 51
116.7745745751
  0
ARC
  5
2F1
100
AcDbEntity
  8
0
100
AcDbCircle
 62
7
  6
CONTINUOUS
 10
10.2695239198
 20
8.4873652933
 40
0.074793297
100
AcDbArc
 50
132.9916959097
 51
133.2734275588
  0
ARC
  5
2F2
100
AcDbEntity
  8
0
100
AcDbCircle
 62
7
  6
CONTINUOUS
 10
10.2693306478
 20
8.4875714421
 40
0.0745107178
100
AcDbArc
 50
133.273882341
 51
133.8405263004
  0
ARC
  5
2F3
100
AcDbEntity
  8
0
100
AcDbCircle
 62
7
  6
CONTINUOUS
 10
10.2723232286
 20
8.4881041618
 40
0.0744799058
100
AcDbArc
 50
83.0492054218
 51
137.1474842961
  0
ARC
  5
2F4
100
AcDbEntity
  8
0
100
AcDbCircle
 62
7
  6
CONTINUOUS
 10
10.2657015675
 20
8.4910639127
 40
0.0727509923
100
AcDbArc
 50
130.4286595218
 51
130.707833423
  0
ARC
  5
2F5
100
AcDbEntity
  8
0
100
AcDbCircle
 62
7
  6
CONTINUOUS
 10
10.2653516018
 20
8.4914750901
 40
0.0722110529
100
AcDbArc
 50
130.7101192941
 51
131.273294072
  0
ARC
  5
2F6
100
AcDbEntity
  8
0
100
AcDbCircle
 62
7
  6
CONTINUOUS
 10
10.2589104733
 20
8.5022409794
 40
0.0718217943
100
AcDbArc
 50
124.7371390475
 51
124.9975629666
  0
ARC
  5
2F7
100
AcDbEntity
  8
0
100
AcDbCircle
 62
7
  6
CONTINUOUS
 10
10.2548630384
 20
8.5106289645
 40
0.0716488669
100
AcDbArc
 50
120.4773424535
 51
120.9756914538
  0
ARC
  5
2F8
100
AcDbEntity
  8
0
100
AcDbCircle
 62
7
  6
CONTINUOUS
 10
10.2547944985
 20
8.5107468678
 40
0.0715125025
100
AcDbArc
 50
120.9772270819
 51
121.2267474951
  0
ARC
  5
2F9
100
AcDbEntity
  8
0
100
AcDbCircle
 62
7
  6
CONTINUOUS
 10
10.2617899
 20
8.4966016473
 40
0.0710611276
100
AcDbArc
 50
127.5076824965
 51
127.7806527719
  0
ARC
  5
2FA
100
AcDbEntity
  8
0
100
AcDbCircle
 62
7
  6
CONTINUOUS
 10
10.2584182512
 20
8.5029294511
 40
0.0709755621
100
AcDbArc
 50
124.2014919276
 51
124.4646745781
  0
ARC
  5
2FB
100
AcDbEntity
  8
0
100
AcDbCircle
 62
7
  6
CONTINUOUS
 10
10.2614443773
 20
8.4970462961
 40
0.070498013
100
AcDbArc
 50
127.7801015396
 51
128.3306521157
  0
ARC
  5
2FC
100
AcDbEntity
  8
0
100
AcDbCircle
 62
7
  6
CONTINUOUS
 10
10.2573795392
 20
8.5044390262
 40
0.0691431498
100
AcDbArc
 50
124.4629122394
 51
124.7324910797
  0
ARC
  5
2FD
100
AcDbEntity
  8
0
100
AcDbCircle
 62
7
  6
CONTINUOUS
 10
10.3085812543
 20
8.6163581368
 40
0.1087231564
100
AcDbArc
 50
146.4357286298
 51
146.6915862124
  0
ARC
  5
2FE
100
AcDbEntity
  8
0
100
AcDbCircle
 62
7
  6
CONTINUOUS
 10
10.3077846408
 20
8.5741773906
 40
0.1080770106
100
AcDbArc
 50
146.1892448016
 51
146.4451810541
  0
ARC
  5
2FF
100
AcDbEntity
  8
0
100
AcDbCircle
 62
7
  6
CONTINUOUS
 10
10.3061164947
 20
8.5959377323
 40
0.1058493127
100
AcDbArc
 50
146.3653438239
 51
146.6264455958
  0
ARC
  5
300
100
AcDbEntity
  8
0
100
AcDbCircle
 62
7
  6
CONTINUOUS
 10
10.3057918147
 20
8.6415118893
 40
0.1054601496
100
AcDbArc
 50
145.8433784998
 51
146.6277671015
  0
ARC
  5
301
100
AcDbEntity
  8
0
100
AcDbCircle
 62
7
  6
CONTINUOUS
 10
10.3054739372
 20
8.5963656682
 40
0.1050772965
100
AcDbArc
 50
145.842203072
 51
146.3655532327
  0
ARC
  5
302
100
AcDbEntity
  8
0
100
AcDbCircle
 62
7
  6
CONTINUOUS
 10
10.3049672628
 20
8.6665572769
 40
0.1046939057
100
AcDbArc
 50
145.6583608845
 51
146.4446203281
  0
ARC
  5
303
100
AcDbEntity
  8
0
100
AcDbCircle
 62
7
  6
CONTINUOUS
 10
10.3052125391
 20
8.6185837173
 40
0.1046856591
100
AcDbArc
 50
145.9038372742
 51
146.4313678952
  0
ARC
  5
304
100
AcDbEntity
  8
0
100
AcDbCircle
 62
7
  6
CONTINUOUS
 10
10.3042548178
 20
8.5573457269
 40
0.1042182061
100
AcDbArc
 50
145.8690461303
 51
146.1310533505
  0
ARC
  5
305
100
AcDbEntity
  8
0
100
AcDbCircle
 62
7
  6
CONTINUOUS
 10
10.3037406771
 20
8.6929232045
 40
0.1035997044
100
AcDbArc
 50
145.3429153276
 51
146.132633943
  0
ARC
  5
306
100
AcDbEntity
  8
0
100
AcDbCircle
 62
7
  6
CONTINUOUS
 10
10.3040057555
 20
8.5766969056
 40
0.1035352226
100
AcDbArc
 50
145.6538597815
 51
146.1840694585
  0
ARC
  5
307
100
AcDbEntity
  8
0
100
AcDbCircle
 62
7
  6
CONTINUOUS
 10
10.3031569732
 20
8.5580883944
 40
0.1028927567
100
AcDbArc
 50
145.340473784
 51
145.8683572585
  0
ARC
  5
308
100
AcDbEntity
  8
0
100
AcDbCircle
 62
7
  6
CONTINUOUS
 10
10.3009396222
 20
8.5419859386
 40
0.1007466933
100
AcDbArc
 50
144.8911547701
 51
145.4250993422
  0
ARC
  5
309
100
AcDbEntity
  8
0
100
AcDbCircle
 62
7
  6
CONTINUOUS
 10
10.2453082449
 20
8.9664682379
 40
0.2670914855
100
AcDbArc
 50
264.0714030884
 51
264.2444057596
  0
ARC
  5
30A
100
AcDbEntity
  8
0
100
AcDbCircle
 62
7
  6
CONTINUOUS
 10
10.2460813123
 20
8.8626516899
 40
0.1397774941
100
AcDbArc
 50
258.2927152872
 51
258.6290353622
  0
ARC
  5
30B
100
AcDbEntity
  8
0
100
AcDbCircle
 62
7
  6
CONTINUOUS
 10
10.3015958214
 20
8.7208596825
 40
0.1015448838
100
AcDbArc
 50
144.8940444059
 51
145.6886823719
  0
ARC
  5
30C
100
AcDbEntity
  8
0
100
AcDbCircle
 62
7
  6
CONTINUOUS
 10
10.2474653975
 20
8.8481493094
 40
0.1005675113
100
AcDbArc
 50
252.7951577497
 51
253.2740533552
  0
ARC
  5
30D
100
AcDbEntity
  8
0
100
AcDbCircle
 62
7
  6
CONTINUOUS
 10
10.2995339907
 20
8.7495601331
 40
0.0997452668
100
AcDbArc
 50
144.3098058449
 51
145.1100697334
  0
ARC
  5
30E
100
AcDbEntity
  8
0
100
AcDbCircle
 62
7
  6
CONTINUOUS
 10
10.2963173083
 20
8.7797728034
 40
0.0966870661
100
AcDbArc
 50
143.571470147
 51
144.3790399705
  0
ARC
  5
30F
100
AcDbEntity
  8
0
100
AcDbCircle
 62
7
  6
CONTINUOUS
 10
10.2927966621
 20
8.8108011639
 40
0.0933977825
100
AcDbArc
 50
142.6784146574
 51
143.5000384121
  0
ARC
  5
310
100
AcDbEntity
  8
0
100
AcDbCircle
 62
7
  6
CONTINUOUS
 10
10.289419357
 20
8.8421587984
 40
0.0904515118
100
AcDbArc
 50
141.6104021242
 51
142.4365456615
  0
ARC
  5
311
100
AcDbEntity
  8
0
100
AcDbCircle
 62
7
  6
CONTINUOUS
 10
10.2855281156
 20
8.8742323409
 40
0.0870175461
100
AcDbArc
 50
140.355833163
 51
141.1911633274
  0
ARC
  5
312
100
AcDbEntity
  8
0
100
AcDbCircle
 62
7
  6
CONTINUOUS
 10
10.2815594433
 20
8.9065339683
 40
0.0836649847
100
AcDbArc
 50
138.8894998737
 51
139.733901665
  0
ARC
  5
313
100
AcDbEntity
  8
0
100
AcDbCircle
 62
7
  6
CONTINUOUS
 10
10.2494642073
 20
8.856903859
 40
0.0835845079
100
AcDbArc
 50
247.6801610475
 51
248.2733394406
  0
ARC
  5
314
100
AcDbEntity
  8
0
100
AcDbCircle
 62
7
  6
CONTINUOUS
 10
10.2776144026
 20
8.9388294979
 40
0.0805450905
100
AcDbArc
 50
137.1927474993
 51
138.0388823141
  0
ARC
  5
315
100
AcDbEntity
  8
0
100
AcDbCircle
 62
7
  6
CONTINUOUS
 10
10.2733725037
 20
8.9712561968
 40
0.077251284
100
AcDbArc
 50
135.2363749759
 51
136.0890925955
  0
ARC
  5
316
100
AcDbEntity
  8
0
100
AcDbCircle
 62
7
  6
CONTINUOUS
 10
10.2517252742
 20
8.8748776602
 40
0.0748886517
100
AcDbArc
 50
242.9925076529
 51
243.6814555502
  0
ARC
  5
317
100
AcDbEntity
  8
0
100
AcDbCircle
 62
7
  6
CONTINUOUS
 10
10.2694011358
 20
9.0030980422
 40
0.0746124518
100
AcDbArc
 50
132.99214432
 51
133.8394753669
  0
ARC
  5
318
100
AcDbEntity
  8
0
100
AcDbCircle
 62
7
  6
CONTINUOUS
 10
10.2651740747
 20
8.9845173627
 40
0.0719422997
100
AcDbArc
 50
228.7285017425
 51
229.5747732391
  0
ARC
  5
319
100
AcDbEntity
  8
0
100
AcDbCircle
 62
7
  6
CONTINUOUS
 10
10.2547444424
 20
8.8987387828
 40
0.0714181421
100
AcDbArc
 50
238.7753112915
 51
239.5242729421
  0
ARC
  5
31A
100
AcDbEntity
  8
0
100
AcDbCircle
 62
7
  6
CONTINUOUS
 10
10.2614657444
 20
8.9542801283
 40
0.07053042
100
AcDbArc
 50
231.6668998382
 51
232.4931952668
  0
ARC
  5
31B
100
AcDbEntity
  8
0
100
AcDbCircle
 62
7
  6
CONTINUOUS
 10
10.2577552806
 20
8.9251602182
 40
0.0698019986
100
AcDbArc
 50
234.9991252243
 51
235.8017796632
  0
ARC
  5
31C
100
AcDbEntity
  8
0
100
AcDbCircle
 62
7
  6
CONTINUOUS
 10
9.9693121662
 20
8.7038489613
 40
0.03724
100
AcDbArc
 50
180.0
 51
270.0
  0
ARC
  5
31D
100
AcDbEntity
  8
0
100
AcDbCircle
 62
7
  6
CONTINUOUS
 10
7.4461793271
 20
9.5704674753
 40
1.279999952
100
AcDbArc
 50
349.3437257157
 51
355.9052096784
  0
ARC
  5
31E
100
AcDbEntity
  8
0
100
AcDbCircle
 62
7
  6
CONTINUOUS
 10
8.7867004152
 20
9.2368522302
 40
0.69477793
100
AcDbArc
 50
274.4411357232
 51
278.5302360543
  0
ARC
  5
31F
100
AcDbEntity
  8
0
100
AcDbCircle
 62
7
  6
CONTINUOUS
 10
8.848243875
 20
9.5747566289
 40
0.099999893
100
AcDbArc
 50
226.9534357002
 51
265.5588642757
  0
ARC
  5
320
100
AcDbEntity
  8
0
100
AcDbCircle
 62
7
  6
CONTINUOUS
 10
9.0371158623
 20
9.2787811545
 40
0.1099522215
100
AcDbArc
 50
190.5798412983
 51
194.9864549765
  0
ARC
  5
321
100
AcDbEntity
  8
0
100
AcDbCircle
 62
7
  6
CONTINUOUS
 10
9.0189090545
 20
9.2561265225
 40
0.1031274601
100
AcDbArc
 50
159.1526394557
 51
169.6823947103
  0
ARC
  5
322
100
AcDbEntity
  8
0
100
AcDbCircle
 62
7
  6
CONTINUOUS
 10
9.2079813893
 20
9.2571130255
 40
0.0978910732
100
AcDbArc
 50
353.9498987263
 51
357.6960491851
  0
ARC
  5
323
100
AcDbEntity
  8
0
100
AcDbCircle
 62
7
  6
CONTINUOUS
 10
9.2083797877
 20
9.2570967358
 40
0.097492342
100
AcDbArc
 50
357.6962023485
 51
359.9997642978
  0
ARC
  5
324
100
AcDbEntity
  8
0
100
AcDbCircle
 62
9
  6
CONTINUOUS
 10
9.0230940441
 20
9.2761785629
 40
0.0956909253
100
AcDbArc
 50
190.589502593
 51
195.8322708334
  0
ARC
  5
325
100
AcDbEntity
  8
0
100
AcDbCircle
 62
7
  6
CONTINUOUS
 10
9.454756011
 20
9.4502969833
 40
0.0999999992
100
AcDbArc
 50
258.4072896731
 51
296.8473438512
  0
ARC
  5
326
100
AcDbEntity
  8
0
100
AcDbCircle
 62
7
  6
CONTINUOUS
 10
10.4269060163
 20
9.0096089613
 40
1.7530338866
100
AcDbArc
 50
169.3437257157
 51
190.6562742843
  0
ARC
  5
327
100
AcDbEntity
  8
0
100
AcDbCircle
 62
7
  6
CONTINUOUS
 10
10.2455567588
 20
9.050311433
 40
0.2695423529
100
AcDbArc
 50
95.7561454881
 51
95.9274057812
  0
ARC
  5
328
100
AcDbEntity
  8
0
100
AcDbCircle
 62
7
  6
CONTINUOUS
 10
10.2463988469
 20
9.155008918
 40
0.141366774
100
AcDbArc
 50
101.3725462132
 51
101.7040854807
  0
ARC
  5
329
100
AcDbEntity
  8
0
100
AcDbCircle
 62
7
  6
CONTINUOUS
 10
10.2477760873
 20
9.1700451026
 40
0.1016370214
100
AcDbArc
 50
106.7274175331
 51
107.1998233949
  0
ARC
  5
32A
100
AcDbEntity
  8
0
100
AcDbCircle
 62
7
  6
CONTINUOUS
 10
10.301591651
 20
9.2983564738
 40
0.1015404411
100
AcDbArc
 50
214.3117796325
 51
215.1064994323
  0
ARC
  5
32B
100
AcDbEntity
  8
0
100
AcDbCircle
 62
7
  6
CONTINUOUS
 10
10.2991648275
 20
9.2693990676
 40
0.0992940993
100
AcDbArc
 50
214.8927396017
 51
215.69338432
  0
ARC
  5
32C
100
AcDbEntity
  8
0
100
AcDbCircle
 62
7
  6
CONTINUOUS
 10
10.2963471386
 20
9.2394666566
 40
0.0967238941
100
AcDbArc
 50
215.6206887498
 51
216.4282855549
  0
ARC
  5
32D
100
AcDbEntity
  8
0
100
AcDbCircle
 62
7
  6
CONTINUOUS
 10
10.2930412469
 20
9.2086034814
 40
0.0937051871
100
AcDbArc
 50
216.5049729464
 51
217.3218520529
  0
ARC
  5
32E
100
AcDbEntity
  8
0
100
AcDbCircle
 62
7
  6
CONTINUOUS
 10
10.2895909741
 20
9.1771932382
 40
0.090669178
100
AcDbArc
 50
217.5656594952
 51
218.3887448566
  0
ARC
  5
32F
100
AcDbEntity
  8
0
100
AcDbCircle
 62
7
  6
CONTINUOUS
 10
10.2853959796
 20
9.1448787274
 40
0.086847617
100
AcDbArc
 50
218.8084314175
 51
219.6455063194
  0
ARC
  5
330
100
AcDbEntity
  8
0
100
AcDbCircle
 62
7
  6
CONTINUOUS
 10
10.2496689074
 20
9.1618093338
 40
0.0841291509
100
AcDbArc
 50
111.7289085711
 51
112.3180312297
  0
ARC
  5
331
100
AcDbEntity
  8
0
100
AcDbCircle
 62
7
  6
CONTINUOUS
 10
10.2817470908
 20
9.1128473459
 40
0.0839135014
100
AcDbArc
 50
220.2709163168
 51
221.1104896411
  0
ARC
  5
332
100
AcDbEntity
  8
0
100
AcDbCircle
 62
7
  6
CONTINUOUS
 10
10.2774361034
 20
9.0802243365
 40
0.0803029884
100
AcDbArc
 50
221.956968919
 51
222.8076691636
  0
ARC
  5
333
100
AcDbEntity
  8
0
100
AcDbCircle
 62
7
  6
CONTINUOUS
 10
10.273427967
 20
9.0480181528
 40
0.0773301961
100
AcDbArc
 50
223.914236824
 51
224.7645207614
  0
ARC
  5
334
100
AcDbEntity
  8
0
100
AcDbCircle
 62
7
  6
CONTINUOUS
 10
10.2520605674
 20
9.1436683562
 40
0.0756393476
100
AcDbArc
 50
116.3202097449
 51
116.9997326656
  0
ARC
  5
335
100
AcDbEntity
  8
0
100
AcDbCircle
 62
7
  6
CONTINUOUS
 10
10.269157458
 20
9.0158594542
 40
0.0742560692
100
AcDbArc
 50
226.1540989621
 51
227.0081372357
  0
ARC
  5
336
100
AcDbEntity
  8
0
100
AcDbCircle
 62
7
  6
CONTINUOUS
 10
10.2653029029
 20
9.0345528714
 40
0.0721382619
100
AcDbArc
 50
130.4270494789
 51
131.2700285825
  0
ARC
  5
337
100
AcDbEntity
  8
0
100
AcDbCircle
 62
7
  6
CONTINUOUS
 10
10.2548820375
 20
9.1202493734
 40
0.0716859731
100
AcDbArc
 50
120.4774007871
 51
121.2237782074
  0
ARC
  5
338
100
AcDbEntity
  8
0
100
AcDbCircle
 62
7
  6
CONTINUOUS
 10
10.2616336363
 20
9.064720233
 40
0.0708051253
100
AcDbArc
 50
127.5072793367
 51
128.3293808982
  0
ARC
  5
339
100
AcDbEntity
  8
0
100
AcDbCircle
 62
7
  6
CONTINUOUS
 10
10.2580442755
 20
9.0936370582
 40
0.0703121285
100
AcDbArc
 50
124.2000777099
 51
124.9938744638
  0
ARC
  5
33A
100
AcDbEntity
  8
0
100
AcDbCircle
 62
7
  6
CONTINUOUS
 10
9.9693121662
 20
9.3153689613
 40
0.03724
100
AcDbArc
 50
90.0
 51
180.0
  0
ARC
  5
33B
100
AcDbEntity
  8
0
100
AcDbCircle
 62
7
  6
CONTINUOUS
 10
10.1973117049
 20
9.3369336807
 40
0.0690124204
100
AcDbArc
 50
72.7982468655
 51
72.9930369326
  0
ARC
  5
33C
100
AcDbEntity
  8
0
100
AcDbCircle
 62
7
  6
CONTINUOUS
 10
10.1959326422
 20
9.3665388527
 40
0.0573731786
100
AcDbArc
 50
67.6804908711
 51
67.9533352954
  0
ARC
  5
33D
100
AcDbEntity
  8
0
100
AcDbCircle
 62
7
  6
CONTINUOUS
 10
10.1766698943
 20
9.4410965987
 40
0.0570977598
100
AcDbArc
 50
75.7493497639
 51
76.0751346673
  0
ARC
  5
33E
100
AcDbEntity
  8
0
100
AcDbCircle
 62
7
  6
CONTINUOUS
 10
10.176727228
 20
9.4413142371
 40
0.056872705
100
AcDbArc
 50
71.2348363148
 51
75.7513592139
  0
ARC
  5
33F
100
AcDbEntity
  8
0
100
AcDbCircle
 62
7
  6
CONTINUOUS
 10
10.1764061779
 20
9.443065044
 40
0.0555601283
100
AcDbArc
 50
41.962243909
 51
42.1359656454
  0
ARC
  5
340
100
AcDbEntity
  8
0
100
AcDbCircle
 62
7
  6
CONTINUOUS
 10
10.1763076637
 20
9.4448031502
 40
0.0533862425
100
AcDbArc
 50
104.381813925
 51
104.7415044386
  0
ARC
  5
341
100
AcDbEntity
  8
0
100
AcDbCircle
 62
7
  6
CONTINUOUS
 10
10.1792887397
 20
9.4431523882
 40
0.0533504797
100
AcDbArc
 50
43.914865674
 51
44.1321833045
  0
ARC
  5
342
100
AcDbEntity
  8
0
100
AcDbCircle
 62
7
  6
CONTINUOUS
 10
10.1942912773
 20
9.388475399
 40
0.0516065856
100
AcDbArc
 50
62.9982691649
 51
63.3188830825
  0
ARC
  5
343
100
AcDbEntity
  8
0
100
AcDbCircle
 62
7
  6
CONTINUOUS
 10
10.18210507
 20
9.4408156347
 40
0.0514199517
100
AcDbArc
 50
46.2846010399
 51
47.7678298605
  0
ARC
  5
344
100
AcDbEntity
  8
0
100
AcDbCircle
 62
7
  6
CONTINUOUS
 10
10.1849837751
 20
9.43616364
 40
0.0496322049
100
AcDbArc
 50
48.7326568632
 51
48.933297217
  0
ARC
  5
345
100
AcDbEntity
  8
0
100
AcDbCircle
 62
7
  6
CONTINUOUS
 10
10.1923263094
 20
9.405429069
 40
0.0489861705
100
AcDbArc
 50
58.7747657358
 51
59.1083788458
  0
ARC
  5
346
100
AcDbEntity
  8
0
100
AcDbCircle
 62
7
  6
CONTINUOUS
 10
10.1876306439
 20
9.4288112168
 40
0.0485172066
100
AcDbArc
 50
51.6691867643
 51
51.935073046
  0
ARC
  5
347
100
AcDbEntity
  8
0
100
AcDbCircle
 62
7
  6
CONTINUOUS
 10
10.1900869835
 20
9.4186657837
 40
0.0481857478
100
AcDbArc
 50
55.0057836554
 51
55.3200540731
  0
ARC
  5
348
100
AcDbEntity
  8
0
100
AcDbCircle
 62
7
  6
CONTINUOUS
 10
10.3061582701
 20
9.401268822
 40
0.1058241753
100
AcDbArc
 50
213.3116804491
 51
213.8513459595
  0
ARC
  5
349
100
AcDbEntity
  8
0
100
AcDbCircle
 62
7
  6
CONTINUOUS
 10
10.3058756514
 20
9.4231205633
 40
0.1055603687
100
AcDbArc
 50
213.3731494794
 51
213.895857416
  0
ARC
  5
34A
100
AcDbEntity
  8
0
100
AcDbCircle
 62
7
  6
CONTINUOUS
 10
10.3056775073
 20
9.3776294205
 40
0.1053224224
100
AcDbArc
 50
213.3725976629
 51
214.157091575
  0
ARC
  5
34B
100
AcDbEntity
  8
0
100
AcDbCircle
 62
7
  6
CONTINUOUS
 10
10.3055524426
 20
9.4008634036
 40
0.1050952099
100
AcDbArc
 50
213.8517690381
 51
214.0959064404
  0
ARC
  5
34C
100
AcDbEntity
  8
0
100
AcDbCircle
 62
7
  6
CONTINUOUS
 10
10.3052825326
 20
9.4227227438
 40
0.1048461909
100
AcDbArc
 50
213.8961647521
 51
214.1579614219
  0
ARC
  5
34D
100
AcDbEntity
  8
0
100
AcDbCircle
 62
7
  6
CONTINUOUS
 10
10.3050235913
 20
9.4432095068
 40
0.1047635681
100
AcDbArc
 50
213.5582898006
 51
214.0824050968
  0
ARC
  5
34E
100
AcDbEntity
  8
0
100
AcDbCircle
 62
7
  6
CONTINUOUS
 10
10.3048327123
 20
9.3525744493
 40
0.1045338815
100
AcDbArc
 50
213.5577673058
 51
214.3443458561
  0
ARC
  5
34F
100
AcDbEntity
  8
0
100
AcDbCircle
 62
7
  6
CONTINUOUS
 10
10.3044490499
 20
9.4428213802
 40
0.104070214
100
AcDbArc
 50
214.082683241
 51
214.3451571385
  0
ARC
  5
350
100
AcDbEntity
  8
0
100
AcDbCircle
 62
7
  6
CONTINUOUS
 10
10.3036667989
 20
9.4614778914
 40
0.1035101801
100
AcDbArc
 50
213.8694052503
 51
214.3957865158
  0
ARC
  5
351
100
AcDbEntity
  8
0
100
AcDbCircle
 62
7
  6
CONTINUOUS
 10
10.3034682665
 20
9.3261110991
 40
0.1032708876
100
AcDbArc
 50
213.8693318951
 51
214.659355682
  0
ARC
  5
352
100
AcDbEntity
  8
0
100
AcDbCircle
 62
7
  6
CONTINUOUS
 10
10.3031022836
 20
9.4610926746
 40
0.102826756
100
AcDbArc
 50
214.3963630421
 51
214.6599873855
  0
ARC
  5
353
100
AcDbEntity
  8
0
100
AcDbCircle
 62
7
  6
CONTINUOUS
 10
10.301775401
 20
9.477811338
 40
0.1017633839
100
AcDbArc
 50
214.3121321595
 51
214.8416680556
  0
ARC
  5
354
100
AcDbEntity
  8
0
100
AcDbCircle
 62
7
  6
CONTINUOUS
 10
10.3012362283
 20
9.4774377647
 40
0.1011074402
100
AcDbArc
 50
214.8424788877
 51
215.1076701593
  0
ARC
  5
355
100
AcDbEntity
  8
0
100
AcDbCircle
 62
7
  6
CONTINUOUS
 10
10.2455575588
 20
9.6320445214
 40
0.2695495776
100
AcDbArc
 50
264.072587273
 51
264.2438386342
  0
ARC
  5
356
100
AcDbEntity
  8
0
100
AcDbCircle
 62
7
  6
CONTINUOUS
 10
10.2463991996
 20
9.5227000625
 40
0.1413683651
100
AcDbArc
 50
258.2959095442
 51
258.6274382774
  0
ARC
  5
357
100
AcDbEntity
  8
0
100
AcDbCircle
 62
7
  6
CONTINUOUS
 10
10.2477724786
 20
9.4999396694
 40
0.1016253306
100
AcDbArc
 50
252.8001180962
 51
253.2727149693
  0
ARC
  5
358
100
AcDbEntity
  8
0
100
AcDbCircle
 62
7
  6
CONTINUOUS
 10
10.2993058438
 20
9.4920868217
 40
0.0994668694
100
AcDbArc
 50
214.8935595375
 51
215.4271658374
  0
ARC
  5
359
100
AcDbEntity
  8
0
100
AcDbCircle
 62
7
  6
CONTINUOUS
 10
10.2988429644
 20
9.4917582402
 40
0.0988992226
100
AcDbArc
 50
215.427496377
 51
215.6945659078
  0
ARC
  5
35A
100
AcDbEntity
  8
0
100
AcDbCircle
 62
7
  6
CONTINUOUS
 10
10.2965216047
 20
9.5044007327
 40
0.0969383667
100
AcDbArc
 50
215.6202718304
 51
216.1584593784
  0
ARC
  5
35B
100
AcDbEntity
  8
0
100
AcDbCircle
 62
7
  6
CONTINUOUS
 10
10.2960877834
 20
9.5040854716
 40
0.096402094
100
AcDbArc
 50
216.1593064941
 51
216.4286693405
  0
ARC
  5
35C
100
AcDbEntity
  8
0
100
AcDbCircle
 62
7
  6
CONTINUOUS
 10
10.2933031287
 20
9.5145962591
 40
0.0940326174
100
AcDbArc
 50
216.5064505557
 51
217.0498454389
  0
ARC
  5
35D
100
AcDbEntity
  8
0
100
AcDbCircle
 62
7
  6
CONTINUOUS
 10
10.2929249684
 20
9.5143129437
 40
0.0935601031
100
AcDbArc
 50
217.0509035629
 51
217.3227946743
  0
ARC
  5
35E
100
AcDbEntity
  8
0
100
AcDbCircle
 62
7
  6
CONTINUOUS
 10
10.2896855303
 20
9.5226223044
 40
0.0907879541
100
AcDbArc
 50
217.5647725414
 51
218.113786928
  0
ARC
  5
35F
100
AcDbEntity
  8
0
100
AcDbCircle
 62
7
  6
CONTINUOUS
 10
10.2894025593
 20
9.5224015188
 40
0.0904290419
100
AcDbArc
 50
218.1143861402
 51
218.3888655512
  0
ARC
  5
360
100
AcDbEntity
  8
0
100
AcDbCircle
 62
7
  6
CONTINUOUS
 10
10.2859518519
 20
9.5286407975
 40
0.0875652711
100
AcDbArc
 50
218.8114529729
 51
219.3659692359
  0
ARC
  5
361
100
AcDbEntity
  8
0
100
AcDbCircle
 62
7
  6
CONTINUOUS
 10
10.2857468014
 20
9.5284766747
 40
0.087302646
100
AcDbArc
 50
219.3680513948
 51
219.6451058772
  0
ARC
  5
362
100
AcDbEntity
  8
0
100
AcDbCircle
 62
7
  6
CONTINUOUS
 10
10.2819095874
 20
9.5324551897
 40
0.0841255509
100
AcDbArc
 50
220.2689781211
 51
220.8285978256
  0
ARC
  5
363
100
AcDbEntity
  8
0
100
AcDbCircle
 62
7
  6
CONTINUOUS
 10
10.2496633309
 20
9.4974265851
 40
0.0841138717
100
AcDbArc
 50
247.6819738411
 51
248.2710303574
  0
ARC
  5
364
100
AcDbEntity
  8
0
100
AcDbCircle
 62
7
  6
CONTINUOUS
 10
10.281753843
 20
9.5323232389
 40
0.0839214348
100
AcDbArc
 50
220.8299512583
 51
221.1094980222
  0
ARC
  5
365
100
AcDbEntity
  8
0
100
AcDbCircle
 62
7
  6
CONTINUOUS
 10
10.2775027041
 20
9.533967092
 40
0.0803946067
100
AcDbArc
 50
221.959533244
 51
222.8084643251
  0
ARC
  5
366
100
AcDbEntity
  8
0
100
AcDbCircle
 62
7
  6
CONTINUOUS
 10
10.2734074764
 20
9.533767446
 40
0.077299531
100
AcDbArc
 50
223.9124779928
 51
224.7630227168
  0
ARC
  5
367
100
AcDbEntity
  8
0
100
AcDbCircle
 62
7
  6
CONTINUOUS
 10
10.2520694308
 20
9.5018690507
 40
0.0756586306
100
AcDbArc
 50
243.0003694085
 51
243.6795475096
  0
ARC
  5
368
100
AcDbEntity
  8
0
100
AcDbCircle
 62
7
  6
CONTINUOUS
 10
10.269333983
 20
9.5316492316
 40
0.0745150555
100
AcDbArc
 50
226.1587558315
 51
227.0084424846
  0
ARC
  5
369
100
AcDbEntity
  8
0
100
AcDbCircle
 62
7
  6
CONTINUOUS
 10
10.2723232286
 20
9.5311137609
 40
0.0744799058
100
AcDbArc
 50
222.8525157039
 51
276.9507945782
  0
ARC
  5
36A
100
AcDbEntity
  8
0
100
AcDbCircle
 62
7
  6
CONTINUOUS
 10
10.2653455855
 20
9.5277378426
 40
0.072203156
100
AcDbArc
 50
228.7300684638
 51
229.5723845453
  0
ARC
  5
36B
100
AcDbEntity
  8
0
100
AcDbCircle
 62
7
  6
CONTINUOUS
 10
10.254866418
 20
9.5085951826
 40
0.0716559125
100
AcDbArc
 50
238.7758795268
 51
239.5228976506
  0
ARC
  5
36C
100
AcDbEntity
  8
0
100
AcDbCircle
 62
7
  6
CONTINUOUS
 10
10.2616079702
 20
9.5223808015
 40
0.070763605
100
AcDbArc
 50
231.6699618465
 51
232.4930388775
  0
ARC
  5
36D
100
AcDbEntity
  8
0
100
AcDbCircle
 62
7
  6
CONTINUOUS
 10
10.258061006
 20
9.5157644353
 40
0.0703411095
100
AcDbArc
 50
235.0061702314
 51
235.7995194508
  0
ARC
  5
36E
100
AcDbEntity
  8
0
100
AcDbCircle
 62
7
  6
CONTINUOUS
 10
10.4710721359
 20
11.1868993782
 40
2.6389999968
100
AcDbArc
 50
272.3045935724
 51
278.8065547675
  0
ARC
  5
36F
100
AcDbEntity
  8
0
100
AcDbCircle
 62
7
  6
CONTINUOUS
 10
10.5034025041
 20
10.3835496731
 40
1.8349999961
100
AcDbArc
 50
263.0492054222
 51
272.3045935724
  0
ARC
  5
370
100
AcDbEntity
  8
0
100
AcDbCircle
 62
7
  6
CONTINUOUS
 10
13.6643488997
 20
-11.9518711257
 40
21.0481163619
100
AcDbArc
 50
101.5927103259
 51
101.9258488505
  0
ARC
  5
371
100
AcDbEntity
  8
0
100
AcDbCircle
 62
7
  6
CONTINUOUS
 10
11.2590721271
 20
6.1005780149
 40
2.5080000028
100
AcDbArc
 50
95.1872496666
 51
98.8065547675
  0
ARC
  5
372
100
AcDbEntity
  8
0
100
AcDbCircle
 62
7
  6
CONTINUOUS
 10
12.0663338633
 20
8.4777902266
 40
0.6078409296
100
AcDbArc
 50
249.6970355865
 51
263.3643665393
  0
ARC
  5
373
100
AcDbEntity
  8
0
100
AcDbCircle
 62
7
  6
CONTINUOUS
 10
11.2962515324
 20
7.866244754
 40
0.4888424103
100
AcDbArc
 50
25.8490587855
 51
51.3390445145
  0
ARC
  5
374
100
AcDbEntity
  8
0
100
AcDbCircle
 62
7
  6
CONTINUOUS
 10
12.0686072358
 20
5.2895807818
 40
0.425
100
AcDbArc
 50
5.7176220275
 51
74.7903499152
  0
ARC
  5
375
100
AcDbEntity
  8
0
100
AcDbCircle
 62
7
  6
CONTINUOUS
 10
11.3680362041
 20
7.9559719105
 40
0.3739337434
100
AcDbArc
 50
51.3390445145
 51
75.43503933
  0
ARC
  5
376
100
AcDbEntity
  8
0
100
AcDbCircle
 62
7
  6
CONTINUOUS
 10
12.1080547947
 20
8.1674666107
 40
0.3739337434
100
AcDbArc
 50
204.6543569553
 51
217.2907938915
  0
ARC
  5
377
100
AcDbEntity
  8
0
100
AcDbCircle
 62
7
  6
CONTINUOUS
 10
11.0610721279
 20
8.281608964
 40
0.3180000027
100
AcDbArc
 50
80.330261138
 51
95.1872496666
  0
ARC
  5
378
100
AcDbEntity
  8
0
100
AcDbCircle
 62
7
  6
CONTINUOUS
 10
10.9620721292
 20
8.4386985067
 40
0.2330000021
100
AcDbArc
 50
15.5173434455
 51
33.859188203
  0
ARC
  5
379
100
AcDbEntity
  8
0
100
AcDbCircle
 62
7
  6
CONTINUOUS
 10
11.8901210967
 20
8.0015009545
 40
0.1
100
AcDbArc
 50
217.2907938915
 51
249.6970355865
  0
ARC
  5
37A
100
AcDbEntity
  8
0
100
AcDbCircle
 62
7
  6
CONTINUOUS
 10
12.5710948486
 20
5.339891804
 40
0.08
100
AcDbArc
 50
185.7176220275
 51
270.0
  0
ARC
  5
37B
100
AcDbEntity
  8
0
100
AcDbCircle
 62
7
  6
CONTINUOUS
 10
12.2010948486
 20
5.776891804
 40
0.08
100
AcDbArc
 50
180.0
 51
254.7903499152
  0
ARC
  5
37C
100
AcDbEntity
  8
0
100
AcDbCircle
 62
7
  6
CONTINUOUS
 10
11.1040721278
 20
8.533971797
 40
0.0620000037
100
AcDbArc
 50
33.859188203
 51
80.330261138
  0
ARC
  5
37D
100
AcDbEntity
  8
0
100
AcDbCircle
 62
7
  6
CONTINUOUS
 10
12.1010948486
 20
7.2529086666
 40
0.02
100
AcDbArc
 50
0.0
 51
88.5
  0
ARC
  5
37E
100
AcDbEntity
  8
0
100
AcDbCircle
 62
7
  6
CONTINUOUS
 10
13.6643488997
 20
29.9710890483
 40
21.0481163619
100
AcDbArc
 50
258.0741511495
 51
258.4072896741
  0
ARC
  5
37F
100
AcDbEntity
  8
0
100
AcDbCircle
 62
7
  6
CONTINUOUS
 10
11.2590721271
 20
11.9186399077
 40
2.5080000028
100
AcDbArc
 50
261.1934452325
 51
264.8127503334
  0
ARC
  5
380
100
AcDbEntity
  8
0
100
AcDbCircle
 62
7
  6
CONTINUOUS
 10
12.0663338633
 20
9.5414276961
 40
0.6078409296
100
AcDbArc
 50
96.6356334607
 51
110.3029644135
  0
ARC
  5
381
100
AcDbEntity
  8
0
100
AcDbCircle
 62
7
  6
CONTINUOUS
 10
11.2962515324
 20
10.1529731687
 40
0.4888424103
100
AcDbArc
 50
308.6609554855
 51
334.1509412145
  0
ARC
  5
382
100
AcDbEntity
  8
0
100
AcDbCircle
 62
7
  6
CONTINUOUS
 10
12.0686072358
 20
12.7302028263
 40
0.425
100
AcDbArc
 50
285.2096500848
 51
354.2823779725
  0
ARC
  5
383
100
AcDbEntity
  8
0
100
AcDbCircle
 62
7
  6
CONTINUOUS
 10
11.3680362041
 20
10.0632460121
 40
0.3739337434
100
AcDbArc
 50
284.56496067
 51
308.6609554855
  0
ARC
  5
384
100
AcDbEntity
  8
0
100
AcDbCircle
 62
7
  6
CONTINUOUS
 10
12.1080547947
 20
9.8517513119
 40
0.3739337434
100
AcDbArc
 50
142.7092061085
 51
155.3456430447
  0
ARC
  5
385
100
AcDbEntity
  8
0
100
AcDbCircle
 62
7
  6
CONTINUOUS
 10
11.0610721279
 20
9.7376089587
 40
0.3180000027
100
AcDbArc
 50
264.8127503334
 51
279.669738862
  0
ARC
  5
386
100
AcDbEntity
  8
0
100
AcDbCircle
 62
7
  6
CONTINUOUS
 10
10.9620721292
 20
9.580519416
 40
0.2330000021
100
AcDbArc
 50
326.140811797
 51
344.4826565545
  0
ARC
  5
387
100
AcDbEntity
  8
0
100
AcDbCircle
 62
7
  6
CONTINUOUS
 10
11.8901210967
 20
10.0177169681
 40
0.1
100
AcDbArc
 50
110.3029644135
 51
142.7092061085
  0
ARC
  5
388
100
AcDbEntity
  8
0
100
AcDbCircle
 62
7
  6
CONTINUOUS
 10
12.5710948486
 20
12.679891804
 40
0.08
100
AcDbArc
 50
90.0
 51
174.2823779725
  0
ARC
  5
389
100
AcDbEntity
  8
0
100
AcDbCircle
 62
7
  6
CONTINUOUS
 10
12.2010948486
 20
12.242891804
 40
0.08
100
AcDbArc
 50
105.2096500848
 51
180.0
  0
ARC
  5
38A
100
AcDbEntity
  8
0
100
AcDbCircle
 62
7
  6
CONTINUOUS
 10
11.1040721278
 20
9.4852461256
 40
0.0620000037
100
AcDbArc
 50
279.669738862
 51
326.140811797
  0
ARC
  5
38B
100
AcDbEntity
  8
0
100
AcDbCircle
 62
7
  6
CONTINUOUS
 10
12.1010948486
 20
10.7668749415
 40
0.02
100
AcDbArc
 50
271.5
 51
360.0
  0
SPLINE
  5
38C
100
AcDbEntity
  8
0
100
AcDbSpline
 62
7
  6
CONTINUOUS
 70
0
 71
3
 72
27
 73
23
 74
0
 42
0.0000001
 43
0.0000001
 44
0.0000000001
 40
0.0
 40
0.0
 40
0.0
 40
0.0
 40
0.1320957954
 40
0.1656051483
 40
0.1992094342
 40
0.2665086347
 40
0.3336461047
 40
0.4002685281
 40
0.4660512052
 40
0.5307169994
 40
0.5940536176
 40
0.6559280637
 40
0.7162963254
 40
0.7752063605
 40
0.8041680259
 40
0.8328223104
 40
0.8611968163
 40
0.8893221302
 40
0.9172309541
 40
0.9449576898
 40
0.9725347019
 40
1.0
 40
1.0
 40
1.0
 40
1.0
 10
9.0391976644
 20
8.8687383602
 30
0.0
 10
9.0521085397
 20
8.8728140093
 30
0.0
 10
9.0688117059
 20
8.8764497095
 30
0.0
 10
9.0891067454
 20
8.878679986
 30
0.0
 10
9.1028563208
 20
8.8796072803
 30
0.0
 10
9.1201005489
 20
8.8796847351
 30
0.0
 10
9.1406669634
 20
8.8780539435
 30
0.0
 10
9.1608697626
 20
8.8747152582
 30
0.0
 10
9.1804627065
 20
8.8697001164
 30
0.0
 10
9.1992092636
 20
8.8630540329
 30
0.0
 10
9.2168831806
 20
8.854834684
 30
0.0
 10
9.2332692742
 20
8.845109059
 30
0.0
 10
9.2481591078
 20
8.8339558069
 30
0.0
 10
9.259219326
 20
8.8234801773
 30
0.0
 10
9.267088763
 20
8.8144872026
 30
0.0
 10
9.2724578869
 20
8.8074897795
 30
0.0
 10
9.2773011651
 20
8.8002212677
 30
0.0
 10
9.2815945008
 20
8.7927022903
 30
0.0
 10
9.2853141023
 20
8.7849568064
 30
0.0
 10
9.2884374596
 20
8.777012102
 30
0.0
 10
9.2909443635
 20
8.7688996802
 30
0.0
 10
9.2921950884
 20
8.7633918416
 30
0.0
 10
9.2927114318
 20
8.7606246016
 30
0.0
  0
SPLINE
  5
38D
100
AcDbEntity
  8
0
100
AcDbSpline
 62
7
  6
CONTINUOUS
 70
0
 71
3
 72
51
 73
47
 74
0
 42
0.0000001
 43
0.0000001
 44
0.0000000001
 40
0.0
 40
0.0
 40
0.0
 40
0.0
 40
0.01354978
 40
0.0271188371
 40
0.0407276817
 40
0.0543951503
 40
0.0681402883
 40
0.0819814784
 40
0.0959362268
 40
0.1100210714
 40
0.1242514068
 40
0.1386411566
 40
0.1532025987
 40
0.1679463206
 40
0.1980032867
 40
0.2288676583
 40
0.2605506907
 40
0.2930305947
 40
0.3262548405
 40
0.3601431737
 40
0.3945917588
 40
0.4294775238
 40
0.4646628671
 40
0.5000004292
 40
0.5353379844
 40
0.5705233063
 40
0.6054090399
 40
0.6398575799
 40
0.6737458545
 40
0.7069700381
 40
0.7394498664
 40
0.7711328177
 40
0.8019971076
 40
0.8320539908
 40
0.8467976705
 40
0.8613590743
 40
0.8757487857
 40
0.8899790841
 40
0.904063896
 40
0.9180186142
 40
0.9318597764
 40
0.9456048924
 40
0.9592723425
 40
0.9728811711
 40
0.9864502261
 40
1.0
 40
1.0
 40
1.0
 40
1.0
 10
9.4533721297
 20
8.1733048195
 30
0.0
 10
9.4533721297
 20
8.1690674721
 30
0.0
 10
9.453082345
 20
8.1605839067
 30
0.0
 10
9.4517806288
 20
8.1479046856
 30
0.0
 10
9.4496180771
 20
8.1353057963
 30
0.0
 10
9.4466042286
 20
8.1228267391
 30
0.0
 10
9.4427524038
 20
8.1105044506
 30
0.0
 10
9.4380788412
 20
8.0983737976
 30
0.0
 10
9.4326020429
 20
8.0864673165
 30
0.0
 10
9.426342508
 20
8.0748151604
 30
0.0
 10
9.4193223633
 20
8.0634450305
 30
0.0
 10
9.4115649228
 20
8.0523825908
 30
0.0
 10
9.4030940106
 20
8.0416512529
 30
0.0
 10
9.3908051927
 20
8.0277266567
 30
0.0
 10
9.3737449224
 20
8.0112635541
 30
0.0
 10
9.3509800819
 20
7.993293536
 30
0.0
 10
9.3260101952
 20
7.9771056967
 30
0.0
 10
9.2990723308
 20
7.9628189497
 30
0.0
 10
9.2704140171
 20
7.9505380074
 30
0.0
 10
9.2402965673
 20
7.9403556278
 30
0.0
 10
9.2089939413
 20
7.9323504683
 30
0.0
 10
9.1767914781
 20
7.926585918
 30
0.0
 10
9.1439837453
 20
7.923108311
 30
0.0
 10
9.1108717285
 20
7.9219459221
 30
0.0
 10
9.0777597197
 20
7.9231083616
 30
0.0
 10
9.0449520129
 20
7.9265860347
 30
0.0
 10
9.0127495881
 20
7.9323506236
 30
0.0
 10
8.9814470161
 20
7.9403558257
 30
0.0
 10
8.9513296356
 20
7.950538247
 30
0.0
 10
8.9226713943
 20
7.9628192015
 30
0.0
 10
8.895733614
 20
7.9771059618
 30
0.0
 10
8.8707638174
 20
7.9932938015
 30
0.0
 10
8.8479990557
 20
8.0112637955
 30
0.0
 10
8.8309388575
 20
8.0277268791
 30
0.0
 10
8.8186500839
 20
8.0416514462
 30
0.0
 10
8.8101792087
 20
8.0523827662
 30
0.0
 10
8.8024217977
 20
8.0634451828
 30
0.0
 10
8.7954016761
 20
8.0748152873
 30
0.0
 10
8.789142165
 20
8.0864674207
 30
0.0
 10
8.7836653857
 20
8.0983738791
 30
0.0
 10
8.7789918341
 20
8.1105045094
 30
0.0
 10
8.7751400195
 20
8.1228267788
 30
0.0
 10
8.7721261786
 20
8.1353058196
 30
0.0
 10
8.769963628
 20
8.1479046974
 30
0.0
 10
8.7686619148
 20
8.1605839112
 30
0.0
 10
8.7683721297
 20
8.169067474
 30
0.0
 10
8.7683721297
 20
8.1733048195
 30
0.0
  0
SPLINE
  5
38E
100
AcDbEntity
  8
0
100
AcDbSpline
 62
7
  6
CONTINUOUS
 70
0
 71
3
 72
51
 73
47
 74
0
 42
0.0000001
 43
0.0000001
 44
0.0000000001
 40
0.0
 40
0.0
 40
0.0
 40
0.0
 40
0.01354978
 40
0.0271188371
 40
0.0407276817
 40
0.0543951503
 40
0.0681402883
 40
0.0819814784
 40
0.0959362268
 40
0.1100210714
 40
0.1242514068
 40
0.1386411566
 40
0.1532025987
 40
0.1679463206
 40
0.1980032867
 40
0.2288676583
 40
0.2605506907
 40
0.2930305947
 40
0.3262548405
 40
0.3601431737
 40
0.3945917588
 40
0.4294775238
 40
0.4646628671
 40
0.5000004292
 40
0.5353379844
 40
0.5705233063
 40
0.6054090399
 40
0.6398575799
 40
0.6737458545
 40
0.7069700381
 40
0.7394498664
 40
0.7711328177
 40
0.8019971076
 40
0.8320539908
 40
0.8467976705
 40
0.8613590743
 40
0.8757487857
 40
0.8899790841
 40
0.904063896
 40
0.9180186142
 40
0.9318597764
 40
0.9456048924
 40
0.9592723425
 40
0.9728811711
 40
0.9864502261
 40
1.0
 40
1.0
 40
1.0
 40
1.0
 10
8.7683721297
 20
8.1733048195
 30
0.0
 10
8.7683721297
 20
8.1775421669
 30
0.0
 10
8.7686619144
 20
8.1860257323
 30
0.0
 10
8.7699636305
 20
8.1987049533
 30
0.0
 10
8.7721261823
 20
8.2113038426
 30
0.0
 10
8.7751400307
 20
8.2237828998
 30
0.0
 10
8.7789918556
 20
8.2361051884
 30
0.0
 10
8.7836654182
 20
8.2482358413
 30
0.0
 10
8.7891422164
 20
8.2601423224
 30
0.0
 10
8.7954017513
 20
8.2717944785
 30
0.0
 10
8.8024218961
 20
8.2831646085
 30
0.0
 10
8.8101793365
 20
8.2942270481
 30
0.0
 10
8.8186502488
 20
8.304958386
 30
0.0
 10
8.8309390667
 20
8.3188829823
 30
0.0
 10
8.847999337
 20
8.3353460849
 30
0.0
 10
8.8707641775
 20
8.3533161029
 30
0.0
 10
8.8957340642
 20
8.3695039422
 30
0.0
 10
8.9226719286
 20
8.3837906893
 30
0.0
 10
8.9513302423
 20
8.3960716315
 30
0.0
 10
8.9814476921
 20
8.4062540111
 30
0.0
 10
9.0127503181
 20
8.4142591706
 30
0.0
 10
9.0449527812
 20
8.4200237209
 30
0.0
 10
9.077760514
 20
8.4235013279
 30
0.0
 10
9.1108725308
 20
8.4246637168
 30
0.0
 10
9.1439845397
 20
8.4235012774
 30
0.0
 10
9.1767922465
 20
8.4200236042
 30
0.0
 10
9.2089946713
 20
8.4142590153
 30
0.0
 10
9.2402972432
 20
8.4062538133
 30
0.0
 10
9.2704146237
 20
8.3960713919
 30
0.0
 10
9.299072865
 20
8.3837904374
 30
0.0
 10
9.3260106453
 20
8.3695036771
 30
0.0
 10
9.350980442
 20
8.3533158374
 30
0.0
 10
9.3737452036
 20
8.3353458434
 30
0.0
 10
9.3908054019
 20
8.3188827598
 30
0.0
 10
9.4030941755
 20
8.3049581927
 30
0.0
 10
9.4115650506
 20
8.2942268728
 30
0.0
 10
9.4193224617
 20
8.2831644562
 30
0.0
 10
9.4263425832
 20
8.2717943516
 30
0.0
 10
9.4326020944
 20
8.2601422182
 30
0.0
 10
9.4380788736
 20
8.2482357598
 30
0.0
 10
9.4427524252
 20
8.2361051295
 30
0.0
 10
9.4466042398
 20
8.2237828601
 30
0.0
 10
9.4496180808
 20
8.2113038193
 30
0.0
 10
9.4517806314
 20
8.1987049415
 30
0.0
 10
9.4530823445
 20
8.1860257277
 30
0.0
 10
9.4533721297
 20
8.1775421649
 30
0.0
 10
9.4533721297
 20
8.1733048195
 30
0.0
  0
SPLINE
  5
38F
100
AcDbEntity
  8
0
100
AcDbSpline
 62
7
  6
CONTINUOUS
 70
0
 71
3
 72
27
 73
23
 74
0
 42
0.0000001
 43
0.0000001
 44
0.0000000001
 40
0.0
 40
0.0
 40
0.0
 40
0.0
 40
0.0274654642
 40
0.0550424759
 40
0.0827694027
 40
0.1106783556
 40
0.1388037661
 40
0.1671783613
 40
0.1958326732
 40
0.2247942853
 40
0.2837040752
 40
0.3440718148
 40
0.405945529
 40
0.4692812631
 40
0.5339461599
 40
0.599728005
 40
0.6663498217
 40
0.7334870363
 40
0.8007864383
 40
0.8343910259
 40
0.8679008192
 40
1.0
 40
1.0
 40
1.0
 40
1.0
 10
9.2927114318
 20
9.258593321
 30
0.0
 10
9.2921951524
 20
9.2558264238
 30
0.0
 10
9.2909446174
 20
9.2503192786
 30
0.0
 10
9.288438135
 20
9.2422078449
 30
0.0
 10
9.2853153658
 20
9.234264068
 30
0.0
 10
9.2815964705
 20
9.2265194373
 30
0.0
 10
9.2773039685
 20
9.2190012439
 30
0.0
 10
9.2724616471
 20
9.2117334335
 30
0.0
 10
9.2670935865
 20
9.2047366319
 30
0.0
 10
9.2592257085
 20
9.1957443948
 30
0.0
 10
9.2481676968
 20
9.185269446
 30
0.0
 10
9.233280757
 20
9.174116627
 30
0.0
 10
9.2168977923
 20
9.1643910215
 30
0.0
 10
9.1992271467
 20
9.1561712639
 30
0.0
 10
9.1804839175
 20
9.149524343
 30
0.0
 10
9.1608942771
 20
9.1445078767
 30
0.0
 10
9.1406946459
 20
9.1411674275
 30
0.0
 10
9.1201311707
 20
9.1395344133
 30
0.0
 10
9.1028891526
 20
9.1396096142
 30
0.0
 10
9.0891411417
 20
9.1405349143
 30
0.0
 10
9.0688479967
 20
9.142762021
 30
0.0
 10
9.05214607
 20
9.1463946229
 30
0.0
 10
9.0392358078
 20
9.1504675229
 30
0.0
  0
SPLINE
  5
390
100
AcDbEntity
  8
0
100
AcDbSpline
 62
7
  6
CONTINUOUS
 70
0
 71
3
 72
51
 73
47
 74
0
 42
0.0000001
 43
0.0000001
 44
0.0000000001
 40
0.0
 40
0.0
 40
0.0
 40
0.0
 40
0.01354978
 40
0.0271188371
 40
0.0407276817
 40
0.0543951503
 40
0.0681402883
 40
0.0819814784
 40
0.0959362268
 40
0.1100210714
 40
0.1242514068
 40
0.1386411566
 40
0.1532025987
 40
0.1679463206
 40
0.1980032867
 40
0.2288676583
 40
0.2605506907
 40
0.2930305947
 40
0.3262548405
 40
0.3601431737
 40
0.3945917588
 40
0.4294775238
 40
0.4646628671
 40
0.5000004292
 40
0.5353379844
 40
0.5705233063
 40
0.6054090399
 40
0.6398575799
 40
0.6737458545
 40
0.7069700381
 40
0.7394498664
 40
0.7711328177
 40
0.8019971076
 40
0.8320539908
 40
0.8467976705
 40
0.8613590743
 40
0.8757487857
 40
0.8899790841
 40
0.904063896
 40
0.9180186142
 40
0.9318597764
 40
0.9456048924
 40
0.9592723425
 40
0.9728811711
 40
0.9864502261
 40
1.0
 40
1.0
 40
1.0
 40
1.0
 10
9.4533721297
 20
9.8459131032
 30
0.0
 10
9.4533721297
 20
9.8416757558
 30
0.0
 10
9.453082345
 20
9.8331921904
 30
0.0
 10
9.4517806288
 20
9.8205129694
 30
0.0
 10
9.4496180771
 20
9.8079140801
 30
0.0
 10
9.4466042286
 20
9.7954350229
 30
0.0
 10
9.4427524038
 20
9.7831127343
 30
0.0
 10
9.4380788412
 20
9.7709820814
 30
0.0
 10
9.4326020429
 20
9.7590756002
 30
0.0
 10
9.426342508
 20
9.7474234442
 30
0.0
 10
9.4193223633
 20
9.7360533142
 30
0.0
 10
9.4115649228
 20
9.7249908745
 30
0.0
 10
9.4030940106
 20
9.7142595366
 30
0.0
 10
9.3908051927
 20
9.7003349404
 30
0.0
 10
9.3737449224
 20
9.6838718378
 30
0.0
 10
9.3509800819
 20
9.6659018198
 30
0.0
 10
9.3260101952
 20
9.6497139804
 30
0.0
 10
9.2990723308
 20
9.6354272334
 30
0.0
 10
9.2704140171
 20
9.6231462911
 30
0.0
 10
9.2402965673
 20
9.6129639116
 30
0.0
 10
9.2089939413
 20
9.6049587521
 30
0.0
 10
9.1767914781
 20
9.5991942018
 30
0.0
 10
9.1439837453
 20
9.5957165948
 30
0.0
 10
9.1108717285
 20
9.5945542059
 30
0.0
 10
9.0777597197
 20
9.5957166453
 30
0.0
 10
9.0449520129
 20
9.5991943184
 30
0.0
 10
9.0127495881
 20
9.6049589074
 30
0.0
 10
8.9814470161
 20
9.6129641094
 30
0.0
 10
8.9513296356
 20
9.6231465307
 30
0.0
 10
8.9226713943
 20
9.6354274853
 30
0.0
 10
8.895733614
 20
9.6497142455
 30
0.0
 10
8.8707638174
 20
9.6659020853
 30
0.0
 10
8.8479990557
 20
9.6838720793
 30
0.0
 10
8.8309388575
 20
9.7003351629
 30
0.0
 10
8.8186500839
 20
9.71425973
 30
0.0
 10
8.8101792087
 20
9.7249910499
 30
0.0
 10
8.8024217977
 20
9.7360534665
 30
0.0
 10
8.7954016761
 20
9.7474235711
 30
0.0
 10
8.789142165
 20
9.7590757044
 30
0.0
 10
8.7836653857
 20
9.7709821629
 30
0.0
 10
8.7789918341
 20
9.7831127932
 30
0.0
 10
8.7751400195
 20
9.7954350626
 30
0.0
 10
8.7721261786
 20
9.8079141033
 30
0.0
 10
8.769963628
 20
9.8205129812
 30
0.0
 10
8.7686619148
 20
9.833192195
 30
0.0
 10
8.7683721297
 20
9.8416757577
 30
0.0
 10
8.7683721297
 20
9.8459131032
 30
0.0
  0
SPLINE
  5
391
100
AcDbEntity
  8
0
100
AcDbSpline
 62
7
  6
CONTINUOUS
 70
0
 71
3
 72
51
 73
47
 74
0
 42
0.0000001
 43
0.0000001
 44
0.0000000001
 40
0.0
 40
0.0
 40
0.0
 40
0.0
 40
0.01354978
 40
0.0271188371
 40
0.0407276817
 40
0.0543951503
 40
0.0681402883
 40
0.0819814784
 40
0.0959362268
 40
0.1100210714
 40
0.1242514068
 40
0.1386411566
 40
0.1532025987
 40
0.1679463206
 40
0.1980032867
 40
0.2288676583
 40
0.2605506907
 40
0.2930305947
 40
0.3262548405
 40
0.3601431737
 40
0.3945917588
 40
0.4294775238
 40
0.4646628671
 40
0.5000004292
 40
0.5353379844
 40
0.5705233063
 40
0.6054090399
 40
0.6398575799
 40
0.6737458545
 40
0.7069700381
 40
0.7394498664
 40
0.7711328177
 40
0.8019971076
 40
0.8320539908
 40
0.8467976705
 40
0.8613590743
 40
0.8757487857
 40
0.8899790841
 40
0.904063896
 40
0.9180186142
 40
0.9318597764
 40
0.9456048924
 40
0.9592723425
 40
0.9728811711
 40
0.9864502261
 40
1.0
 40
1.0
 40
1.0
 40
1.0
 10
8.7683721297
 20
9.8459131032
 30
0.0
 10
8.7683721297
 20
9.8501504506
 30
0.0
 10
8.7686619144
 20
9.858634016
 30
0.0
 10
8.7699636305
 20
9.871313237
 30
0.0
 10
8.7721261823
 20
9.8839121263
 30
0.0
 10
8.7751400307
 20
9.8963911835
 30
0.0
 10
8.7789918556
 20
9.9087134721
 30
0.0
 10
8.7836654182
 20
9.9208441251
 30
0.0
 10
8.7891422164
 20
9.9327506062
 30
0.0
 10
8.7954017513
 20
9.9444027622
 30
0.0
 10
8.8024218961
 20
9.9557728922
 30
0.0
 10
8.8101793365
 20
9.9668353319
 30
0.0
 10
8.8186502488
 20
9.9775666698
 30
0.0
 10
8.8309390667
 20
9.991491266
 30
0.0
 10
8.847999337
 20
10.0079543686
 30
0.0
 10
8.8707641775
 20
10.0259243866
 30
0.0
 10
8.8957340642
 20
10.042112226
 30
0.0
 10
8.9226719286
 20
10.056398973
 30
0.0
 10
8.9513302423
 20
10.0686799153
 30
0.0
 10
8.9814476921
 20
10.0788622948
 30
0.0
 10
9.0127503181
 20
10.0868674543
 30
0.0
 10
9.0449527812
 20
10.0926320046
 30
0.0
 10
9.077760514
 20
10.0961096117
 30
0.0
 10
9.1108725308
 20
10.0972720005
 30
0.0
 10
9.1439845397
 20
10.0961095611
 30
0.0
 10
9.1767922465
 20
10.092631888
 30
0.0
 10
9.2089946713
 20
10.0868672991
 30
0.0
 10
9.2402972432
 20
10.078862097
 30
0.0
 10
9.2704146237
 20
10.0686796757
 30
0.0
 10
9.299072865
 20
10.0563987211
 30
0.0
 10
9.3260106453
 20
10.0421119609
 30
0.0
 10
9.350980442
 20
10.0259241211
 30
0.0
 10
9.3737452036
 20
10.0079541271
 30
0.0
 10
9.3908054019
 20
9.9914910435
 30
0.0
 10
9.4030941755
 20
9.9775664764
 30
0.0
 10
9.4115650506
 20
9.9668351565
 30
0.0
 10
9.4193224617
 20
9.9557727399
 30
0.0
 10
9.4263425832
 20
9.9444026353
 30
0.0
 10
9.4326020944
 20
9.932750502
 30
0.0
 10
9.4380788736
 20
9.9208440435
 30
0.0
 10
9.4427524252
 20
9.9087134132
 30
0.0
 10
9.4466042398
 20
9.8963911438
 30
0.0
 10
9.4496180808
 20
9.8839121031
 30
0.0
 10
9.4517806314
 20
9.8713132252
 30
0.0
 10
9.4530823445
 20
9.8586340115
 30
0.0
 10
9.4533721297
 20
9.8501504487
 30
0.0
 10
9.4533721297
 20
9.8459131032
 30
0.0
  0
SPLINE
  5
392
100
AcDbEntity
  8
0
100
AcDbSpline
 62
7
  6
CONTINUOUS
 70
0
 71
3
 72
39
 73
35
 74
0
 42
0.0000001
 43
0.0000001
 44
0.0000000001
 40
0.0
 40
0.0
 40
0.0
 40
0.0
 40
0.0250263671
 40
0.0508366459
 40
0.0774364994
 40
0.1048019165
 40
0.1328871862
 40
0.1616332717
 40
0.1909745296
 40
0.2208439846
 40
0.251177133
 40
0.2819144279
 40
0.3130028293
 40
0.3443966031
 40
0.3760574926
 40
0.4079544277
 40
0.4400627508
 40
0.4723631127
 40
0.5048400655
 40
0.5374806388
 40
0.5702728181
 40
0.6032043269
 40
0.6362614158
 40
0.6694278678
 40
0.7026841287
 40
0.7360064408
 40
0.7693660217
 40
0.8027282443
 40
0.8360516365
 40
0.8692865947
 40
0.9023744899
 40
0.9352452896
 40
0.9678190537
 40
1.0
 40
1.0
 40
1.0
 40
1.0
 10
9.3066636771
 20
9.2531230589
 30
0.0
 10
9.3060017217
 20
9.2493397393
 30
0.0
 10
9.3042483072
 20
9.2417211336
 30
0.0
 10
9.3004578073
 20
9.2304400058
 30
0.0
 10
9.2955027363
 20
9.2192262912
 30
0.0
 10
9.2894257463
 20
9.2081803195
 30
0.0
 10
9.2822735539
 20
9.1974014472
 30
0.0
 10
9.2740961854
 20
9.186990312
 30
0.0
 10
9.264945941
 20
9.1770477677
 30
0.0
 10
9.2548773199
 20
9.1676750321
 30
0.0
 10
9.2439476404
 20
9.1589734645
 30
0.0
 10
9.2322183691
 20
9.1510439807
 30
0.0
 10
9.2197569305
 20
9.1439856334
 30
0.0
 10
9.2066386102
 20
9.1378931104
 30
0.0
 10
9.1929480308
 20
9.1328530475
 30
0.0
 10
9.1787795867
 20
9.1289394348
 30
0.0
 10
9.1642363281
 20
9.1262087476
 30
0.0
 10
9.1494271108
 20
9.1246958304
 30
0.0
 10
9.134462328
 20
9.1244115332
 30
0.0
 10
9.1194490631
 20
9.1253428312
 30
0.0
 10
9.1044866764
 20
9.1274553858
 30
0.0
 10
9.0896637246
 20
9.1306979656
 30
0.0
 10
9.0750565861
 20
9.1350076397
 30
0.0
 10
9.0607297324
 20
9.1403148243
 30
0.0
 10
9.0467372094
 20
9.1465474442
 30
0.0
 10
9.0331248231
 20
9.1536339353
 30
0.0
 10
9.0199325802
 20
9.1615050606
 30
0.0
 10
9.0071970828
 20
9.1700947129
 30
0.0
 10
8.9949537998
 20
9.1793399578
 30
0.0
 10
8.9832389612
 20
9.189180426
 30
0.0
 10
8.9720914362
 20
9.1995571933
 30
0.0
 10
8.9615535069
 20
9.2104116044
 30
0.0
 10
8.9516732013
 20
9.2216829419
 30
0.0
 10
8.9455149903
 20
9.2294897876
 30
0.0
 10
8.9425620256
 20
9.2334485501
 30
0.0
  0
SPLINE
  5
393
100
AcDbEntity
  8
0
100
AcDbSpline
 62
7
  6
CONTINUOUS
 70
0
 71
3
 72
15
 73
11
 74
0
 42
0.0000001
 43
0.0000001
 44
0.0000000001
 40
0.0
 40
0.0
 40
0.0
 40
0.0
 40
0.1117749245
 40
0.2278125746
 40
0.3479566014
 40
0.4719655169
 40
0.5995347861
 40
0.7303131725
 40
0.8639334439
 40
1.0
 40
1.0
 40
1.0
 40
1.0
 10
8.9043347241
 20
8.7046785821
 30
0.0
 10
8.9049154099
 20
8.7079974654
 30
0.0
 10
8.9063757991
 20
8.7147157303
 30
0.0
 10
8.90935062
 20
8.7247820591
 30
0.0
 10
8.9131215352
 20
8.7349717539
 30
0.0
 10
8.9176524661
 20
8.7452269407
 30
0.0
 10
8.9229031073
 20
8.7554934857
 30
0.0
 10
8.9288298646
 20
8.7657206788
 30
0.0
 10
8.935387012
 20
8.7758610766
 30
0.0
 10
8.9401096724
 20
8.782481733
 30
0.0
 10
8.9425620256
 20
8.7857693726
 30
0.0
  0
SPLINE
  5
394
100
AcDbEntity
  8
0
100
AcDbSpline
 62
7
  6
CONTINUOUS
 70
0
 71
3
 72
11
 73
7
 74
0
 42
0.0000001
 43
0.0000001
 44
0.0000000001
 40
0.0
 40
0.0
 40
0.0
 40
0.0
 40
0.1978699166
 40
0.4314070708
 40
0.6998728862
 40
1.0
 40
1.0
 40
1.0
 40
1.0
 10
10.135170143
 20
9.3638540832
 30
0.0
 10
10.1370019246
 20
9.3640495189
 30
0.0
 10
10.141002434
 20
9.3644126659
 30
0.0
 10
10.147503571
 20
9.3648560967
 30
0.0
 10
10.15496284
 20
9.3652226253
 30
0.0
 10
10.1602540622
 20
9.3653915295
 30
0.0
 10
10.1630474585
 20
9.3654584121
 30
0.0
  0
SPLINE
  5
395
100
AcDbEntity
  8
0
100
AcDbSpline
 62
7
  6
CONTINUOUS
 70
0
 71
3
 72
13
 73
9
 74
0
 42
0.0000001
 43
0.0000001
 44
0.0000000001
 40
0.0
 40
0.0
 40
0.0
 40
0.0
 40
0.0953093823
 40
0.1992559503
 40
0.311866644
 40
0.43314633
 40
0.7010915023
 40
1.0
 40
1.0
 40
1.0
 40
1.0
 10
10.135170143
 20
9.3841073637
 30
0.0
 10
10.1360429192
 20
9.3842931653
 30
0.0
 10
10.1378733908
 20
9.3846545315
 30
0.0
 10
10.1407514282
 20
9.3851483814
 30
0.0
 10
10.1438803241
 20
9.3856133144
 30
0.0
 10
10.1485411906
 20
9.3862085007
 30
0.0
 10
10.1549545776
 20
9.3868373633
 30
0.0
 10
10.1602521153
 20
9.3871749949
 30
0.0
 10
10.1630474585
 20
9.3873085414
 30
0.0
  0
SPLINE
  5
396
100
AcDbEntity
  8
0
100
AcDbSpline
 62
7
  6
CONTINUOUS
 70
0
 71
3
 72
14
 73
10
 74
0
 42
0.0000001
 43
0.0000001
 44
0.0000000001
 40
0.0
 40
0.0
 40
0.0
 40
0.0
 40
0.0966265863
 40
0.2014482259
 40
0.3145276324
 40
0.4359017761
 40
0.5654873826
 40
0.7030426087
 40
1.0
 40
1.0
 40
1.0
 40
1.0
 10
10.135170143
 20
9.4026145597
 30
0.0
 10
10.1360401188
 20
9.4028912879
 30
0.0
 10
10.1378661066
 20
9.4034301327
 30
0.0
 10
10.1407451114
 20
9.4041685253
 30
0.0
 10
10.1438748668
 20
9.4048635613
 30
0.0
 10
10.1472537608
 20
9.4055085583
 30
0.0
 10
10.1508776499
 20
9.4060958558
 30
0.0
 10
10.1561598238
 20
9.406808506
 30
0.0
 10
10.160248928
 20
9.4071978923
 30
0.0
 10
10.1630474585
 20
9.4073976608
 30
0.0
  0
SPLINE
  5
397
100
AcDbEntity
  8
0
100
AcDbSpline
 62
7
  6
CONTINUOUS
 70
0
 71
3
 72
14
 73
10
 74
0
 42
0.0000001
 43
0.0000001
 44
0.0000000001
 40
0.0
 40
0.0
 40
0.0
 40
0.0
 40
0.0983415679
 40
0.2043126138
 40
0.318015156
 40
0.4395231894
 40
0.5687888842
 40
0.7056075869
 40
1.0
 40
1.0
 40
1.0
 40
1.0
 10
10.135170143
 20
9.4192893822
 30
0.0
 10
10.1360366923
 20
9.4196548977
 30
0.0
 10
10.1378569651
 20
9.4203675776
 30
0.0
 10
10.140737019
 20
9.4213475018
 30
0.0
 10
10.1438677537
 20
9.4222697834
 30
0.0
 10
10.1472475225
 20
9.4231255788
 30
0.0
 10
10.1508722634
 20
9.4239047682
 30
0.0
 10
10.1561492572
 20
9.4248491275
 30
0.0
 10
10.1602445841
 20
9.4253667877
 30
0.0
 10
10.1630474585
 20
9.4256321057
 30
0.0
  0
SPLINE
  5
398
100
AcDbEntity
  8
0
100
AcDbSpline
 62
7
  6
CONTINUOUS
 70
0
 71
3
 72
14
 73
10
 74
0
 42
0.0000001
 43
0.0000001
 44
0.0000000001
 40
0.0
 40
0.0
 40
0.0
 40
0.0
 40
0.1003497971
 40
0.207680094
 40
0.3221290823
 40
0.4438073899
 40
0.572704256
 40
0.7086558025
 40
1.0
 40
1.0
 40
1.0
 40
1.0
 10
10.135170143
 20
9.4340540855
 30
0.0
 10
10.136032965
 20
9.4345058225
 30
0.0
 10
10.1378467271
 20
9.4353877628
 30
0.0
 10
10.1407277286
 20
9.436605051
 30
0.0
 10
10.143859414
 20
9.4377506332
 30
0.0
 10
10.1472400821
 20
9.4388135419
 30
0.0
 10
10.1508657494
 20
9.4397812534
 30
0.0
 10
10.1561363174
 20
9.4409523889
 30
0.0
 10
10.1602391952
 20
9.441596905
 30
0.0
 10
10.1630474585
 20
9.4419268586
 30
0.0
  0
SPLINE
  5
399
100
AcDbEntity
  8
0
100
AcDbSpline
 62
7
  6
CONTINUOUS
 70
0
 71
3
 72
14
 73
10
 74
0
 42
0.0000001
 43
0.0000001
 44
0.0000000001
 40
0.0
 40
0.0
 40
0.0
 40
0.0
 40
0.2717566477
 40
0.4026600414
 40
0.5297867397
 40
0.6529749889
 40
0.772251587
 40
0.8878387482
 40
1.0
 40
1.0
 40
1.0
 40
1.0
 10
10.1904104298
 20
8.5272366274
 30
0.0
 10
10.1930389989
 20
8.527799394
 30
0.0
 10
10.1968885905
 20
8.5288769404
 30
0.0
 10
10.2017744328
 20
8.5307792986
 30
0.0
 10
10.2051929718
 20
8.5323781268
 30
0.0
 10
10.2083943799
 20
8.534149233
 30
0.0
 10
10.2113721474
 20
8.5360718034
 30
0.0
 10
10.2141273246
 20
8.5381232286
 30
0.0
 10
10.2158448721
 20
8.5395838573
 30
0.0
 10
10.2166663543
 20
8.5403295667
 30
0.0
  0
LINE
  5
39A
100
AcDbEntity
  8
0
100
AcDbLine
 62
7
  6
CONTINUOUS
 10
10.2176408925
 20
8.5412375049
 11
10.2177205373
 21
8.5413138234
  0
SPLINE
  5
39B
100
AcDbEntity
  8
0
100
AcDbSpline
 62
7
  6
CONTINUOUS
 70
0
 71
3
 72
14
 73
10
 74
0
 42
0.0000001
 43
0.0000001
 44
0.0000000001
 40
0.0
 40
0.0
 40
0.0
 40
0.0
 40
0.102547039
 40
0.2113804575
 40
0.3266667022
 40
0.44854826
 40
0.5770491922
 40
0.712046616
 40
1.0
 40
1.0
 40
1.0
 40
1.0
 10
10.135170143
 20
9.4468398297
 30
0.0
 10
10.1360292047
 20
9.4473749121
 30
0.0
 10
10.1378360782
 20
9.4484207704
 30
0.0
 10
10.1407177978
 20
9.4498700488
 30
0.0
 10
10.1438502875
 20
9.4512338884
 30
0.0
 10
10.1472317784
 20
9.4524992337
 30
0.0
 10
10.1508583625
 20
9.4536512142
 30
0.0
 10
10.1561214253
 20
9.4550430501
 30
0.0
 10
10.1602328963
 20
9.4558125248
 30
0.0
 10
10.1630474585
 20
9.456205946
 30
0.0
  0
SPLINE
  5
39C
100
AcDbEntity
  8
0
100
AcDbSpline
 62
7
  6
CONTINUOUS
 70
0
 71
3
 72
13
 73
9
 74
0
 42
0.0000001
 43
0.0000001
 44
0.0000000001
 40
0.0
 40
0.0
 40
0.0
 40
0.0
 40
0.2151718656
 40
0.331366303
 40
0.4534920861
 40
0.5816029844
 40
0.71561444
 40
1.0
 40
1.0
 40
1.0
 40
1.0
 10
10.135170143
 20
9.4575870017
 30
0.0
 10
10.1369257113
 20
9.4588497382
 30
0.0
 10
10.1397677185
 20
9.4606079517
 30
0.0
 10
10.143840578
 20
9.4626566541
 30
0.0
 10
10.1472230042
 20
9.4641188862
 30
0.0
 10
10.1508503487
 20
9.4654499581
 30
0.0
 10
10.1561050452
 20
9.4670553474
 30
0.0
 10
10.16022584
 20
9.4679473387
 30
0.0
 10
10.1630474585
 20
9.468402792
 30
0.0
  0
SPLINE
  5
39D
100
AcDbEntity
  8
0
100
AcDbSpline
 62
7
  6
CONTINUOUS
 70
0
 71
3
 72
11
 73
7
 74
0
 42
0.0000001
 43
0.0000001
 44
0.0000000001
 40
0.0
 40
0.0
 40
0.0
 40
0.0
 40
0.219130316
 40
0.458570068
 40
0.7192295606
 40
1.0
 40
1.0
 40
1.0
 40
1.0
 10
10.135170143
 20
9.4662454934
 30
0.0
 10
10.1369122959
 20
9.4676606931
 30
0.0
 10
10.1407735176
 20
9.4703637984
 30
0.0
 10
10.1473145584
 20
9.473792201
 30
0.0
 10
10.1548157591
 20
9.4766218188
 30
0.0
 10
10.1602181905
 20
9.4779447593
 30
0.0
 10
10.1630474585
 20
9.4784605294
 30
0.0
  0
SPLINE
  5
39E
100
AcDbEntity
  8
0
100
AcDbSpline
 62
7
  6
CONTINUOUS
 70
0
 71
3
 72
12
 73
8
 74
0
 42
0.0000001
 43
0.0000001
 44
0.0000000001
 40
0.0
 40
0.0
 40
0.0
 40
0.0
 40
0.2229477266
 40
0.4635435642
 40
0.5909004747
 40
0.7229267699
 40
1.0
 40
1.0
 40
1.0
 40
1.0
 10
10.135170143
 20
9.4727749347
 30
0.0
 10
10.1369001533
 20
9.4743347011
 30
0.0
 10
10.140735568
 20
9.4773204643
 30
0.0
 10
10.146085323
 20
9.4804380182
 30
0.0
 10
10.1508334224
 20
9.482623856
 30
0.0
 10
10.1560696647
 20
9.4846308969
 30
0.0
 10
10.1602101188
 20
9.4857581838
 30
0.0
 10
10.1630474585
 20
9.4863322644
 30
0.0
  0
SPLINE
  5
39F
100
AcDbEntity
  8
0
100
AcDbSpline
 62
7
  6
CONTINUOUS
 70
0
 71
3
 72
11
 73
7
 74
0
 42
0.0000001
 43
0.0000001
 44
0.0000000001
 40
0.0
 40
0.0
 40
0.0
 40
0.0
 40
0.2266769696
 40
0.4684840578
 40
0.7264505542
 40
1.0
 40
1.0
 40
1.0
 40
1.0
 10
10.135170143
 20
9.4771448824
 30
0.0
 10
10.1368893601
 20
9.4788411577
 30
0.0
 10
10.1407006931
 20
9.4820936532
 30
0.0
 10
10.1472433928
 20
9.4862728705
 30
0.0
 10
10.1547527832
 20
9.4897249778
 30
0.0
 10
10.1602017966
 20
9.4913512096
 30
0.0
 10
10.1630474585
 20
9.4919812953
 30
0.0
  0
SPLINE
  5
3A0
100
AcDbEntity
  8
0
100
AcDbSpline
 62
7
  6
CONTINUOUS
 70
0
 71
3
 72
13
 73
9
 74
0
 42
0.0000001
 43
0.0000001
 44
0.0000000001
 40
0.0
 40
0.0
 40
0.0
 40
0.0
 40
0.1136021734
 40
0.2302384106
 40
0.3500675438
 40
0.4732685846
 40
0.7299321614
 40
1.0
 40
1.0
 40
1.0
 40
1.0
 10
10.135170143
 20
9.4793349618
 30
0.0
 10
10.1360142706
 20
9.4802357451
 30
0.0
 10
10.1377904094
 20
9.4820013041
 30
0.0
 10
10.1406717603
 20
9.484489559
 30
0.0
 10
10.1438049452
 20
9.4868316738
 30
0.0
 10
10.1483768234
 20
9.4897687311
 30
0.0
 10
10.1547219628
 20
9.4929287889
 30
0.0
 10
10.160193392
 20
9.4946978019
 30
0.0
 10
10.1630474585
 20
9.4953812836
 30
0.0
  0
SPLINE
  5
3A1
100
AcDbEntity
  8
0
100
AcDbSpline
 62
7
  6
CONTINUOUS
 70
0
 71
3
 72
13
 73
9
 74
0
 42
0.0000001
 43
0.0000001
 44
0.0000000001
 40
0.0
 40
0.0
 40
0.0
 40
0.0
 40
0.297124181
 40
0.4353105146
 40
0.5654598404
 40
0.7998072577
 40
0.9040488642
 40
1.0
 40
1.0
 40
1.0
 40
1.0
 10
10.1904104298
 20
9.3873085414
 30
0.0
 10
10.1931143481
 20
9.3871836353
 30
0.0
 10
10.1970736535
 20
9.3869442887
 30
0.0
 10
10.2022064365
 20
9.3865047619
 30
0.0
 10
10.2067616894
 20
9.3860332865
 30
0.0
 10
10.2109968444
 20
9.3854757629
 30
0.0
 10
10.2149018922
 20
9.3848247421
 30
0.0
 10
10.2166934284
 20
9.3844822156
 30
0.0
 10
10.2175496874
 20
9.3843064385
 30
0.0
  0
LINE
  5
3A2
100
AcDbEntity
  8
0
100
AcDbLine
 62
7
  6
CONTINUOUS
 10
10.2175496874
 20
9.3843064385
 11
10.2177216084
 21
9.3842709816
  0
SPLINE
  5
3A3
100
AcDbEntity
  8
0
100
AcDbSpline
 62
7
  6
CONTINUOUS
 70
0
 71
3
 72
11
 73
7
 74
0
 42
0.0000001
 43
0.0000001
 44
0.0000000001
 40
0.0
 40
0.0
 40
0.0
 40
0.0
 40
0.2985263779
 40
0.5674523496
 40
0.8013784397
 40
1.0
 40
1.0
 40
1.0
 40
1.0
 10
10.1904104298
 20
9.3654584121
 30
0.0
 10
10.1931226613
 20
9.3653956207
 30
0.0
 10
10.1982774389
 20
9.3652392204
 30
0.0
 10
10.2055526947
 20
9.3648995526
 30
0.0
 10
10.2119140896
 20
9.3644787778
 30
0.0
 10
10.2158301204
 20
9.3641315076
 30
0.0
 10
10.2176256052
 20
9.3639460265
 30
0.0
  0
SPLINE
  5
3A4
100
AcDbEntity
  8
0
100
AcDbSpline
 62
7
  6
CONTINUOUS
 70
0
 71
3
 72
8
 73
4
 74
0
 42
0.0000001
 43
0.0000001
 44
0.0000000001
 40
0.0
 40
0.0
 40
0.0
 40
0.0
 40
1.0
 40
1.0
 40
1.0
 40
1.0
 10
10.2176256052
 20
9.3639460265
 30
0.0
 10
10.2176576022
 20
9.3639427125
 30
0.0
 10
10.2176895993
 20
9.3639393985
 30
0.0
 10
10.2177215964
 20
9.3639360844
 30
0.0
  0
SPLINE
  5
3A5
100
AcDbEntity
  8
0
100
AcDbSpline
 62
7
  6
CONTINUOUS
 70
0
 71
3
 72
13
 73
9
 74
0
 42
0.0000001
 43
0.0000001
 44
0.0000000001
 40
0.0
 40
0.0
 40
0.0
 40
0.0
 40
0.295135876
 40
0.4327328432
 40
0.5626202296
 40
0.7975562695
 40
0.9027076336
 40
1.0
 40
1.0
 40
1.0
 40
1.0
 10
10.1904104298
 20
9.4073976608
 30
0.0
 10
10.1931101318
 20
9.4072113211
 30
0.0
 10
10.1970636781
 20
9.4068542043
 30
0.0
 10
10.2021812505
 20
9.406200137
 30
0.0
 10
10.2067343496
 20
9.4054970819
 30
0.0
 10
10.2109658467
 20
9.404665585
 30
0.0
 10
10.2148583444
 20
9.4036979804
 30
0.0
 10
10.2166439351
 20
9.4031890607
 30
0.0
 10
10.2174970043
 20
9.4029281339
 30
0.0
  0
SPLINE
  5
3A6
100
AcDbEntity
  8
0
100
AcDbSpline
 62
7
  6
CONTINUOUS
 70
0
 71
3
 72
13
 73
9
 74
0
 42
0.0000001
 43
0.0000001
 44
0.0000000001
 40
0.0
 40
0.0
 40
0.0
 40
0.0
 40
0.292657394
 40
0.429519581
 40
0.5590800442
 40
0.7947509586
 40
0.901037181
 40
1.0
 40
1.0
 40
1.0
 40
1.0
 10
10.1904104298
 20
9.4256321057
 30
0.0
 10
10.1931100287
 20
9.4253850158
 30
0.0
 10
10.1970636377
 20
9.4249111983
 30
0.0
 10
10.2021704554
 20
9.4240460559
 30
0.0
 10
10.2067275101
 20
9.4231136057
 30
0.0
 10
10.210959126
 20
9.4220106812
 30
0.0
 10
10.2148392927
 20
9.4207327442
 30
0.0
 10
10.2166186704
 20
9.4200609088
 30
0.0
 10
10.2174683313
 20
9.4197168154
 30
0.0
  0
SPLINE
  5
3A7
100
AcDbEntity
  8
0
100
AcDbSpline
 62
7
  6
CONTINUOUS
 70
0
 71
3
 72
14
 73
10
 74
0
 42
0.0000001
 43
0.0000001
 44
0.0000000001
 40
0.0
 40
0.0
 40
0.0
 40
0.0
 40
0.2897765416
 40
0.4257864923
 40
0.5549649917
 40
0.6769057227
 40
0.7915366758
 40
0.8991268322
 40
1.0
 40
1.0
 40
1.0
 40
1.0
 10
10.1904104298
 20
9.4419268586
 30
0.0
 10
10.1931139746
 20
9.4416197151
 30
0.0
 10
10.1970733968
 20
9.4410301361
 30
0.0
 10
10.2021738554
 20
9.4399574153
 30
0.0
 10
10.2056981632
 20
9.4390621743
 30
0.0
 10
10.2089871736
 20
9.4380697196
 30
0.0
 10
10.2120351315
 20
9.4369921046
 30
0.0
 10
10.2148442931
 20
9.4358434516
 30
0.0
 10
10.2166175831
 20
9.4350121958
 30
0.0
 10
10.2174639009
 20
9.4345868857
 30
0.0
  0
SPLINE
  5
3A8
100
AcDbEntity
  8
0
100
AcDbSpline
 62
7
  6
CONTINUOUS
 70
0
 71
3
 72
14
 73
10
 74
0
 42
0.0000001
 43
0.0000001
 44
0.0000000001
 40
0.0
 40
0.0
 40
0.0
 40
0.0
 40
0.2832768545
 40
0.4173919694
 40
0.5457521383
 40
0.6680683505
 40
0.7843441488
 40
0.8948768541
 40
1.0
 40
1.0
 40
1.0
 40
1.0
 10
10.1904104298
 20
9.468402792
 30
0.0
 10
10.1931306312
 20
9.4679782317
 30
0.0
 10
10.1971135136
 20
9.4671609577
 30
0.0
 10
10.2022102508
 20
9.4656857099
 30
0.0
 10
10.2057423477
 20
9.4644505656
 30
0.0
 10
10.2090375423
 20
9.4630812738
 30
0.0
 10
10.2120899868
 20
9.4615947802
 30
0.0
 10
10.2149022763
 20
9.4600104895
 30
0.0
 10
10.216664106
 20
9.4588723372
 30
0.0
 10
10.2175042755
 20
9.4582910078
 30
0.0
  0
SPLINE
  5
3A9
100
AcDbEntity
  8
0
100
AcDbSpline
 62
7
  6
CONTINUOUS
 70
0
 71
3
 72
14
 73
10
 74
0
 42
0.0000001
 43
0.0000001
 44
0.0000000001
 40
0.0
 40
0.0
 40
0.0
 40
0.0
 40
0.2866194953
 40
0.4217048239
 40
0.550479545
 40
0.6725962892
 40
0.7880231111
 40
0.8970469512
 40
1.0
 40
1.0
 40
1.0
 40
1.0
 10
10.1904104298
 20
9.456205946
 30
0.0
 10
10.1931209725
 20
9.4558395963
 30
0.0
 10
10.1970903431
 20
9.4551354537
 30
0.0
 10
10.2021876156
 20
9.453859188
 30
0.0
 10
10.2057147992
 20
9.4527924455
 30
0.0
 10
10.2090061191
 20
9.4516098478
 30
0.0
 10
10.2120557586
 20
9.4503258565
 30
0.0
 10
10.2148661263
 20
9.4489572792
 30
0.0
 10
10.2166334844
 20
9.4479704821
 30
0.0
 10
10.2174765816
 20
9.4474660611
 30
0.0
  0
SPLINE
  5
3AA
100
AcDbEntity
  8
0
100
AcDbSpline
 62
7
  6
CONTINUOUS
 70
0
 71
3
 72
13
 73
9
 74
0
 42
0.0000001
 43
0.0000001
 44
0.0000000001
 40
0.0
 40
0.0
 40
0.0
 40
0.0
 40
0.2798747552
 40
0.4130201449
 40
0.5409828742
 40
0.6635292314
 40
0.7806946281
 40
1.0
 40
1.0
 40
1.0
 40
1.0
 10
10.1904104298
 20
9.4784605294
 30
0.0
 10
10.1931424644
 20
9.4779789577
 30
0.0
 10
10.1971416839
 20
9.4770503766
 30
0.0
 10
10.2022400372
 20
9.4753813746
 30
0.0
 10
10.2057785504
 20
9.4739815728
 30
0.0
 10
10.2090790037
 20
9.4724296277
 30
0.0
 10
10.2130653958
 20
9.4702324486
 30
0.0
 10
10.2158326799
 20
9.4683496804
 30
0.0
 10
10.2175441239
 20
9.4670094242
 30
0.0
  0
SPLINE
  5
3AB
100
AcDbEntity
  8
0
100
AcDbSpline
 62
7
  6
CONTINUOUS
 70
0
 71
3
 72
13
 73
9
 74
0
 42
0.0000001
 43
0.0000001
 44
0.0000000001
 40
0.0
 40
0.0
 40
0.0
 40
0.0
 40
0.2696786309
 40
0.3999743812
 40
0.5268212789
 40
0.6501128826
 40
0.7699253016
 40
1.0
 40
1.0
 40
1.0
 40
1.0
 10
10.1904104298
 20
9.4953812836
 30
0.0
 10
10.1931685952
 20
9.4947426147
 30
0.0
 10
10.1972015427
 20
9.4935062204
 30
0.0
 10
10.2022837299
 20
9.491315853
 30
0.0
 10
10.2058292593
 20
9.4894689448
 30
0.0
 10
10.2091342563
 20
9.4874218969
 30
0.0
 10
10.2131564903
 20
9.4845015722
 30
0.0
 10
10.2158983982
 20
9.4820347824
 30
0.0
 10
10.2175802615
 20
9.4803011841
 30
0.0
  0
SPLINE
  5
3AC
100
AcDbEntity
  8
0
100
AcDbSpline
 62
7
  6
CONTINUOUS
 70
0
 71
3
 72
13
 73
9
 74
0
 42
0.0000001
 43
0.0000001
 44
0.0000000001
 40
0.0
 40
0.0
 40
0.0
 40
0.0
 40
0.2764322877
 40
0.4086024107
 40
0.5361698136
 40
0.6589508416
 40
0.7770044444
 40
1.0
 40
1.0
 40
1.0
 40
1.0
 10
10.1904104298
 20
9.4863322644
 30
0.0
 10
10.193155432
 20
9.4857952365
 30
0.0
 10
10.1971722935
 20
9.4847579222
 30
0.0
 10
10.2022729349
 20
9.4829017864
 30
0.0
 10
10.2058185161
 20
9.4813421704
 30
0.0
 10
10.2091243848
 20
9.4796131332
 30
0.0
 10
10.2131273631
 20
9.4771586459
 30
0.0
 10
10.2158878542
 20
9.4750658875
 30
0.0
 10
10.217589017
 20
9.4735836074
 30
0.0
  0
SPLINE
  5
3AD
100
AcDbEntity
  8
0
100
AcDbSpline
 62
7
  6
CONTINUOUS
 70
0
 71
3
 72
14
 73
10
 74
0
 42
0.0000001
 43
0.0000001
 44
0.0000000001
 40
0.0
 40
0.0
 40
0.0
 40
0.0
 40
0.2717567324
 40
0.4026601817
 40
0.5297869254
 40
0.6529752231
 40
0.7722519459
 40
0.8878390696
 40
1.0
 40
1.0
 40
1.0
 40
1.0
 10
10.1904104298
 20
9.4919812953
 30
0.0
 10
10.1930389947
 20
9.4914185296
 30
0.0
 10
10.1968885801
 20
9.4903409852
 30
0.0
 10
10.2017744152
 20
9.4884386315
 30
0.0
 10
10.2051929497
 20
9.4868398073
 30
0.0
 10
10.2083943534
 20
9.4850687033
 30
0.0
 10
10.2113721205
 20
9.4831461428
 30
0.0
 10
10.2141272908
 20
9.4810947225
 30
0.0
 10
10.2158448206
 20
9.4796340847
 30
0.0
 10
10.2166662926
 20
9.478888372
 30
0.0
  0
LINE
  5
3AE
100
AcDbEntity
  8
0
100
AcDbLine
 62
7
  6
CONTINUOUS
 10
10.2176402001
 20
9.4779810213
 11
10.2177201946
 21
9.4779043683
  0
SPLINE
  5
3AF
100
AcDbEntity
  8
0
100
AcDbSpline
 62
7
  6
CONTINUOUS
 70
0
 71
3
 72
13
 73
9
 74
0
 42
0.0000001
 43
0.0000001
 44
0.0000000001
 40
0.0
 40
0.0
 40
0.0
 40
0.0
 40
0.2700678439
 40
0.5267314097
 40
0.6499324502
 40
0.769761579
 40
0.8863978202
 40
1.0
 40
1.0
 40
1.0
 40
1.0
 10
10.1630474585
 20
8.523836639
 30
0.0
 10
10.160193392
 20
8.5245201208
 30
0.0
 10
10.1547219628
 20
8.5262891338
 30
0.0
 10
10.1483768234
 20
8.5294491915
 30
0.0
 10
10.1438049454
 20
8.5323862488
 30
0.0
 10
10.1406717605
 20
8.5347283635
 30
0.0
 10
10.1377904095
 20
8.5372166184
 30
0.0
 10
10.1360142706
 20
8.5389821776
 30
0.0
 10
10.135170143
 20
8.5398829608
 30
0.0
  0
SPLINE
  5
3B0
100
AcDbEntity
  8
0
100
AcDbSpline
 62
7
  6
CONTINUOUS
 70
0
 71
3
 72
11
 73
7
 74
0
 42
0.0000001
 43
0.0000001
 44
0.0000000001
 40
0.0
 40
0.0
 40
0.0
 40
0.0
 40
0.2735494421
 40
0.5315159382
 40
0.7733230335
 40
1.0
 40
1.0
 40
1.0
 40
1.0
 10
10.1630474585
 20
8.5272366274
 30
0.0
 10
10.1602017966
 20
8.527866713
 30
0.0
 10
10.1547527833
 20
8.5294929449
 30
0.0
 10
10.1472433929
 20
8.5329450522
 30
0.0
 10
10.1407006931
 20
8.5371242694
 30
0.0
 10
10.1368893601
 20
8.540376765
 30
0.0
 10
10.135170143
 20
8.5420730403
 30
0.0
  0
SPLINE
  5
3B1
100
AcDbEntity
  8
0
100
AcDbSpline
 62
7
  6
CONTINUOUS
 70
0
 71
3
 72
12
 73
8
 74
0
 42
0.0000001
 43
0.0000001
 44
0.0000000001
 40
0.0
 40
0.0
 40
0.0
 40
0.0
 40
0.2770732263
 40
0.4090995249
 40
0.5364564318
 40
0.7770522765
 40
1.0
 40
1.0
 40
1.0
 40
1.0
 10
10.1630474585
 20
8.5328856583
 30
0.0
 10
10.1602101188
 20
8.5334597388
 30
0.0
 10
10.1560696648
 20
8.5345870257
 30
0.0
 10
10.1508334224
 20
8.5365940666
 30
0.0
 10
10.1460853231
 20
8.5387799045
 30
0.0
 10
10.140735568
 20
8.5418974583
 30
0.0
 10
10.1369001533
 20
8.5448832216
 30
0.0
 10
10.135170143
 20
8.546442988
 30
0.0
  0
SPLINE
  5
3B2
100
AcDbEntity
  8
0
100
AcDbSpline
 62
7
  6
CONTINUOUS
 70
0
 71
3
 72
11
 73
7
 74
0
 42
0.0000001
 43
0.0000001
 44
0.0000000001
 40
0.0
 40
0.0
 40
0.0
 40
0.0
 40
0.2807704356
 40
0.541429928
 40
0.780869687
 40
1.0
 40
1.0
 40
1.0
 40
1.0
 10
10.1630474585
 20
8.5407573933
 30
0.0
 10
10.1602181905
 20
8.5412731634
 30
0.0
 10
10.1548157592
 20
8.5425961038
 30
0.0
 10
10.1473145585
 20
8.5454257216
 30
0.0
 10
10.1407735176
 20
8.5488541243
 30
0.0
 10
10.1369122959
 20
8.5515572296
 30
0.0
 10
10.135170143
 20
8.5529724293
 30
0.0
  0
SPLINE
  5
3B3
100
AcDbEntity
  8
0
100
AcDbSpline
 62
7
  6
CONTINUOUS
 70
0
 71
3
 72
13
 73
9
 74
0
 42
0.0000001
 43
0.0000001
 44
0.0000000001
 40
0.0
 40
0.0
 40
0.0
 40
0.0
 40
0.2843855656
 40
0.4183970099
 40
0.5465079082
 40
0.6686336912
 40
0.7848281244
 40
1.0
 40
1.0
 40
1.0
 40
1.0
 10
10.1630474585
 20
8.5508151307
 30
0.0
 10
10.1602258399
 20
8.551270584
 30
0.0
 10
10.1561050452
 20
8.5521625753
 30
0.0
 10
10.1508503488
 20
8.5537679646
 30
0.0
 10
10.1472230043
 20
8.5550990364
 30
0.0
 10
10.1438405782
 20
8.5565612685
 30
0.0
 10
10.1397677186
 20
8.5586099708
 30
0.0
 10
10.1369257114
 20
8.5603681844
 30
0.0
 10
10.135170143
 20
8.5616309209
 30
0.0
  0
SPLINE
  5
3B4
100
AcDbEntity
  8
0
100
AcDbSpline
 62
7
  6
CONTINUOUS
 70
0
 71
3
 72
14
 73
10
 74
0
 42
0.0000001
 43
0.0000001
 44
0.0000000001
 40
0.0
 40
0.0
 40
0.0
 40
0.0
 40
0.2879533801
 40
0.4229508075
 40
0.551451736
 40
0.6733333007
 40
0.7886195456
 40
0.8974529616
 40
1.0
 40
1.0
 40
1.0
 40
1.0
 10
10.1630474585
 20
8.5630119767
 30
0.0
 10
10.1602328963
 20
8.5634053979
 30
0.0
 10
10.1561214253
 20
8.5641748726
 30
0.0
 10
10.1508583626
 20
8.5655667084
 30
0.0
 10
10.1472317785
 20
8.5667186889
 30
0.0
 10
10.1438502875
 20
8.5679840343
 30
0.0
 10
10.1407177977
 20
8.5693478738
 30
0.0
 10
10.1378360781
 20
8.5707971523
 30
0.0
 10
10.1360292047
 20
8.5718430106
 30
0.0
 10
10.135170143
 20
8.572378093
 30
0.0
  0
SPLINE
  5
3B5
100
AcDbEntity
  8
0
100
AcDbSpline
 62
7
  6
CONTINUOUS
 70
0
 71
3
 72
14
 73
10
 74
0
 42
0.0000001
 43
0.0000001
 44
0.0000000001
 40
0.0
 40
0.0
 40
0.0
 40
0.0
 40
0.2913438303
 40
0.4272951356
 40
0.5561920732
 40
0.6778705699
 40
0.7923198657
 40
0.8996502765
 40
1.0
 40
1.0
 40
1.0
 40
1.0
 10
10.1630474585
 20
8.5772910641
 30
0.0
 10
10.1602391987
 20
8.5776210173
 30
0.0
 10
10.1561363267
 20
8.578265532
 30
0.0
 10
10.1508657638
 20
8.5794366661
 30
0.0
 10
10.1472400959
 20
8.5804043764
 30
0.0
 10
10.1438594225
 20
8.5814672864
 30
0.0
 10
10.1407277314
 20
8.5826128704
 30
0.0
 10
10.1378467267
 20
8.5838301599
 30
0.0
 10
10.1360329644
 20
8.5847121005
 30
0.0
 10
10.135170143
 20
8.5851638371
 30
0.0
  0
SPLINE
  5
3B6
100
AcDbEntity
  8
0
100
AcDbSpline
 62
7
  6
CONTINUOUS
 70
0
 71
3
 72
14
 73
10
 74
0
 42
0.0000001
 43
0.0000001
 44
0.0000000001
 40
0.0
 40
0.0
 40
0.0
 40
0.0
 40
0.2943924189
 40
0.43121111
 40
0.5604768049
 40
0.6819848382
 40
0.7956873764
 40
0.9016584263
 40
1.0
 40
1.0
 40
1.0
 40
1.0
 10
10.1630474585
 20
8.593585817
 30
0.0
 10
10.1602445841
 20
8.593851135
 30
0.0
 10
10.1561492572
 20
8.5943687952
 30
0.0
 10
10.1508722635
 20
8.5953131545
 30
0.0
 10
10.1472475227
 20
8.5960923438
 30
0.0
 10
10.1438677539
 20
8.5969481392
 30
0.0
 10
10.1407370192
 20
8.5978704208
 30
0.0
 10
10.1378569652
 20
8.5988503451
 30
0.0
 10
10.1360366924
 20
8.5995630249
 30
0.0
 10
10.135170143
 20
8.5999285404
 30
0.0
  0
SPLINE
  5
3B7
100
AcDbEntity
  8
0
100
AcDbSpline
 62
7
  6
CONTINUOUS
 70
0
 71
3
 72
14
 73
10
 74
0
 42
0.0000001
 43
0.0000001
 44
0.0000000001
 40
0.0
 40
0.0
 40
0.0
 40
0.0
 40
0.2969573872
 40
0.4345126171
 40
0.5640982198
 40
0.6854723705
 40
0.7985517771
 40
0.9033734143
 40
1.0
 40
1.0
 40
1.0
 40
1.0
 10
10.1630474585
 20
8.6118202619
 30
0.0
 10
10.160248928
 20
8.6120200304
 30
0.0
 10
10.1561598238
 20
8.6124094167
 30
0.0
 10
10.1508776499
 20
8.6131220668
 30
0.0
 10
10.1472537608
 20
8.6137093643
 30
0.0
 10
10.1438748668
 20
8.6143543613
 30
0.0
 10
10.1407451114
 20
8.6150493974
 30
0.0
 10
10.1378661065
 20
8.61578779
 30
0.0
 10
10.1360401188
 20
8.6163266347
 30
0.0
 10
10.135170143
 20
8.6166033629
 30
0.0
  0
SPLINE
  5
3B8
100
AcDbEntity
  8
0
100
AcDbSpline
 62
7
  6
CONTINUOUS
 70
0
 71
3
 72
13
 73
9
 74
0
 42
0.0000001
 43
0.0000001
 44
0.0000000001
 40
0.0
 40
0.0
 40
0.0
 40
0.0
 40
0.2989084936
 40
0.5668536659
 40
0.6881333589
 40
0.8007440527
 40
0.9046906182
 40
1.0
 40
1.0
 40
1.0
 40
1.0
 10
10.1630474585
 20
8.6319093813
 30
0.0
 10
10.1602521153
 20
8.6320429277
 30
0.0
 10
10.1549545776
 20
8.6323805594
 30
0.0
 10
10.1485411906
 20
8.633009422
 30
0.0
 10
10.1438803241
 20
8.6336046083
 30
0.0
 10
10.1407514281
 20
8.6340695413
 30
0.0
 10
10.1378733908
 20
8.6345633911
 30
0.0
 10
10.1360429192
 20
8.6349247574
 30
0.0
 10
10.135170143
 20
8.635110559
 30
0.0
  0
SPLINE
  5
3B9
100
AcDbEntity
  8
0
100
AcDbSpline
 62
7
  6
CONTINUOUS
 70
0
 71
3
 72
11
 73
7
 74
0
 42
0.0000001
 43
0.0000001
 44
0.0000000001
 40
0.0
 40
0.0
 40
0.0
 40
0.0
 40
0.2479974986
 40
0.4981241972
 40
0.7492683314
 40
1.0
 40
1.0
 40
1.0
 40
1.0
 10
11.2009951059
 20
8.4379894871
 30
0.0
 10
11.2005140399
 20
8.4414292057
 30
0.0
 10
11.1992871418
 20
8.4483021314
 30
0.0
 10
11.1969670098
 20
8.4585370338
 30
0.0
 10
11.1944483685
 20
8.4687630829
 30
0.0
 10
11.1928201217
 20
8.475601244
 30
0.0
 10
11.1920620105
 20
8.4790299191
 30
0.0
  0
SPLINE
  5
3BA
100
AcDbEntity
  8
0
100
AcDbSpline
 62
7
  6
CONTINUOUS
 70
0
 71
3
 72
11
 73
7
 74
0
 42
0.0000001
 43
0.0000001
 44
0.0000000001
 40
0.0
 40
0.0
 40
0.0
 40
0.0
 40
0.3001271096
 40
0.5685929251
 40
0.8021300863
 40
1.0
 40
1.0
 40
1.0
 40
1.0
 10
10.1630474585
 20
8.6537595105
 30
0.0
 10
10.1602540623
 20
8.6538263932
 30
0.0
 10
10.1549628401
 20
8.6539952973
 30
0.0
 10
10.1475035711
 20
8.654361826
 30
0.0
 10
10.141002434
 20
8.6548052567
 30
0.0
 10
10.1370019246
 20
8.6551684038
 30
0.0
 10
10.135170143
 20
8.6553638394
 30
0.0
  0
SPLINE
  5
3BB
100
AcDbEntity
  8
0
100
AcDbSpline
 62
7
  6
CONTINUOUS
 70
0
 71
3
 72
11
 73
7
 74
0
 42
0.0000001
 43
0.0000001
 44
0.0000000001
 40
0.0
 40
0.0
 40
0.0
 40
0.0
 40
0.2479974986
 40
0.4981241972
 40
0.7492683314
 40
1.0
 40
1.0
 40
1.0
 40
1.0
 10
11.2009951059
 20
9.5812284356
 30
0.0
 10
11.2005140399
 20
9.577788717
 30
0.0
 10
11.1992871418
 20
9.5709157912
 30
0.0
 10
11.1969670098
 20
9.5606808888
 30
0.0
 10
11.1944483685
 20
9.5504548398
 30
0.0
 10
11.1928201217
 20
9.5436166786
 30
0.0
 10
11.1920620105
 20
9.5401880035
 30
0.0
  0
SPLINE
  5
3BC
100
AcDbEntity
  8
0
100
AcDbSpline
 62
7
  6
CONTINUOUS
 70
0
 71
3
 72
13
 73
9
 74
0
 42
0.0000001
 43
0.0000001
 44
0.0000000001
 40
0.0
 40
0.0
 40
0.0
 40
0.0
 40
0.2696786751
 40
0.3999750101
 40
0.526821613
 40
0.6501121283
 40
0.7699240556
 40
1.0
 40
1.0
 40
1.0
 40
1.0
 10
10.1904104298
 20
8.523836639
 30
0.0
 10
10.1931686073
 20
8.5244753108
 30
0.0
 10
10.1972015785
 20
8.5257117122
 30
0.0
 10
10.2022837864
 20
8.5279020997
 30
0.0
 10
10.2058293229
 20
8.5297490109
 30
0.0
 10
10.2091343243
 20
8.5317960483
 30
0.0
 10
10.2131565372
 20
8.5347164271
 30
0.0
 10
10.2158985027
 20
8.5371831973
 30
0.0
 10
10.2175803141
 20
8.5389168784
 30
0.0
  0
SPLINE
  5
3BD
100
AcDbEntity
  8
0
100
AcDbSpline
 62
7
  6
CONTINUOUS
 70
0
 71
3
 72
14
 73
10
 74
0
 42
0.0000001
 43
0.0000001
 44
0.0000000001
 40
0.0
 40
0.0
 40
0.0
 40
0.0
 40
0.2866182369
 40
0.4217032832
 40
0.5504779908
 40
0.6725949896
 40
0.7880222987
 40
0.8970466681
 40
1.0
 40
1.0
 40
1.0
 40
1.0
 10
10.1904104298
 20
8.5630119767
 30
0.0
 10
10.1931208934
 20
8.5633783157
 30
0.0
 10
10.1970901515
 20
8.5640824335
 30
0.0
 10
10.2021872875
 20
8.565358646
 30
0.0
 10
10.2057143888
 20
8.5664253436
 30
0.0
 10
10.2090056418
 20
8.5676078911
 30
0.0
 10
10.2120552288
 20
8.5688918266
 30
0.0
 10
10.2148655521
 20
8.5702603462
 30
0.0
 10
10.2166328822
 20
8.5712471069
 30
0.0
 10
10.2174759638
 20
8.5717515117
 30
0.0
  0
SPLINE
  5
3BE
100
AcDbEntity
  8
0
100
AcDbSpline
 62
7
  6
CONTINUOUS
 70
0
 71
3
 72
39
 73
35
 74
0
 42
0.0000001
 43
0.0000001
 44
0.0000000001
 40
0.0
 40
0.0
 40
0.0
 40
0.0
 40
0.0321809101
 40
0.0647546257
 40
0.0976253979
 40
0.1307132432
 40
0.1639481561
 40
0.1972715076
 40
0.2306336858
 40
0.2639932313
 40
0.2973155009
 40
0.3305717345
 40
0.3637381595
 40
0.3967952072
 40
0.4297266873
 40
0.4625188811
 40
0.4951595281
 40
0.5276366044
 40
0.5599371243
 40
0.5920455899
 40
0.6239426442
 40
0.6556036272
 40
0.6869974735
 40
0.7180859192
 40
0.748823234
 40
0.779156379
 40
0.8090258092
 40
0.8383670135
 40
0.8671130307
 40
0.8951982318
 40
0.922563593
 40
0.9491634067
 40
0.9749736533
 40
1.0
 40
1.0
 40
1.0
 40
1.0
 10
8.9425620256
 20
8.7857693726
 30
0.0
 10
8.9455149869
 20
8.7897281306
 30
0.0
 10
8.951673189
 20
8.7975349668
 30
0.0
 10
8.9615534835
 20
8.808806291
 30
0.0
 10
8.9720913969
 20
8.8196606907
 30
0.0
 10
8.9832389062
 20
8.830037447
 30
0.0
 10
8.9949537254
 20
8.8398779057
 30
0.0
 10
9.0071969889
 20
8.8491231432
 30
0.0
 10
9.0199324679
 20
8.8577127895
 30
0.0
 10
9.0331246906
 20
8.8655839119
 30
0.0
 10
9.0467370573
 20
8.8726704054
 30
0.0
 10
9.0607295624
 20
8.8789030291
 30
0.0
 10
9.0750563979
 20
8.8842102203
 30
0.0
 10
9.0896635186
 20
8.8885199021
 30
0.0
 10
9.1044864589
 20
8.8917624943
 30
0.0
 10
9.1194488524
 20
8.8938750652
 30
0.0
 10
9.1344621486
 20
8.8948063823
 30
0.0
 10
9.1494269864
 20
8.8945220973
 30
0.0
 10
9.1642362696
 20
8.8930091839
 30
0.0
 10
9.1787795923
 20
8.8902784877
 30
0.0
 10
9.1929480887
 20
8.8863648589
 30
0.0
 10
9.2066387066
 20
8.8813247737
 30
0.0
 10
9.2197570522
 20
8.8752322284
 30
0.0
 10
9.2322185029
 20
8.8681738597
 30
0.0
 10
9.2439477748
 20
8.8602443602
 30
0.0
 10
9.2548774448
 20
8.8515427828
 30
0.0
 10
9.2649460483
 20
8.8421700468
 30
0.0
 10
9.2740962691
 20
8.8322275114
 30
0.0
 10
9.2822736122
 20
8.8218163936
 30
0.0
 10
9.2894257824
 20
8.8110375423
 30
0.0
 10
9.2955027562
 20
8.7999915905
 30
0.0
 10
9.3004578162
 20
8.7887778927
 30
0.0
 10
9.3042483105
 20
8.7774967781
 30
0.0
 10
9.3060017225
 20
8.7698781802
 30
0.0
 10
9.3066636772
 20
8.7660948635
 30
0.0
  0
SPLINE
  5
3BF
100
AcDbEntity
  8
0
100
AcDbSpline
 62
7
  6
CONTINUOUS
 70
0
 71
3
 72
15
 73
11
 74
0
 42
0.0000001
 43
0.0000001
 44
0.0000000001
 40
0.0
 40
0.0
 40
0.0
 40
0.0
 40
0.1360665562
 40
0.2696868281
 40
0.4004652146
 40
0.5280344838
 40
0.6520433993
 40
0.7721874261
 40
0.8882250755
 40
1.0
 40
1.0
 40
1.0
 40
1.0
 10
8.9425620256
 20
9.2334485501
 30
0.0
 10
8.9401096724
 20
9.2367361897
 30
0.0
 10
8.935387012
 20
9.243356846
 30
0.0
 10
8.9288298646
 20
9.2534972439
 30
0.0
 10
8.9229031073
 20
9.263724437
 30
0.0
 10
8.917652466
 20
9.273990982
 30
0.0
 10
8.9131215352
 20
9.2842461689
 30
0.0
 10
8.9093506199
 20
9.2944358636
 30
0.0
 10
8.9063757991
 20
9.3045021924
 30
0.0
 10
8.9049154099
 20
9.3112204573
 30
0.0
 10
8.904334724
 20
9.3145393406
 30
0.0
  0
SPLINE
  5
3C0
100
AcDbEntity
  8
0
100
AcDbSpline
 62
7
  6
CONTINUOUS
 70
0
 71
3
 72
13
 73
9
 74
0
 42
0.0000001
 43
0.0000001
 44
0.0000000001
 40
0.0
 40
0.0
 40
0.0
 40
0.0
 40
0.2926528275
 40
0.4295146989
 40
0.5590750323
 40
0.7947477825
 40
0.9010368999
 40
1.0
 40
1.0
 40
1.0
 40
1.0
 10
10.1904104298
 20
8.593585817
 30
0.0
 10
10.1931097696
 20
8.5938328832
 30
0.0
 10
10.1970630166
 20
8.5943066462
 30
0.0
 10
10.2021693845
 20
8.5951716726
 30
0.0
 10
10.2067260977
 20
8.5961039908
 30
0.0
 10
10.2109574336
 20
8.5972067596
 30
0.0
 10
10.214837367
 20
8.5984845045
 30
0.0
 10
10.2166166366
 20
8.5991562793
 30
0.0
 10
10.2174662302
 20
8.5995003494
 30
0.0
  0
SPLINE
  5
3C1
100
AcDbEntity
  8
0
100
AcDbSpline
 62
7
  6
CONTINUOUS
 70
0
 71
3
 72
11
 73
7
 74
0
 42
0.0000001
 43
0.0000001
 44
0.0000000001
 40
0.0
 40
0.0
 40
0.0
 40
0.0
 40
0.2985262164
 40
0.5674521386
 40
0.8013783032
 40
1.0
 40
1.0
 40
1.0
 40
1.0
 10
10.1904104298
 20
8.6537595105
 30
0.0
 10
10.1931226552
 20
8.6538223018
 30
0.0
 10
10.1982774221
 20
8.6539787017
 30
0.0
 10
10.2055526642
 20
8.6543183685
 30
0.0
 10
10.2119140497
 20
8.6547391419
 30
0.0
 10
10.2158300758
 20
8.6550864109
 30
0.0
 10
10.2176255588
 20
8.6552718915
 30
0.0
  0
SPLINE
  5
3C2
100
AcDbEntity
  8
0
100
AcDbSpline
 62
7
  6
CONTINUOUS
 70
0
 71
3
 72
8
 73
4
 74
0
 42
0.0000001
 43
0.0000001
 44
0.0000000001
 40
0.0
 40
0.0
 40
0.0
 40
0.0
 40
1.0
 40
1.0
 40
1.0
 40
1.0
 10
10.2176255588
 20
8.6552718915
 30
0.0
 10
10.2176575694
 20
8.6552752069
 30
0.0
 10
10.2176895801
 20
8.6552785223
 30
0.0
 10
10.2177215907
 20
8.6552818377
 30
0.0
  0
SPLINE
  5
3C3
100
AcDbEntity
  8
0
100
AcDbSpline
 62
7
  6
CONTINUOUS
 70
0
 71
3
 72
13
 73
9
 74
0
 42
0.0000001
 43
0.0000001
 44
0.0000000001
 40
0.0
 40
0.0
 40
0.0
 40
0.0
 40
0.2798753422
 40
0.41302081
 40
0.5409834755
 40
0.6635295991
 40
0.7806945832
 40
1.0
 40
1.0
 40
1.0
 40
1.0
 10
10.1904104298
 20
8.5407573933
 30
0.0
 10
10.1931425276
 20
8.5412389761
 30
0.0
 10
10.1971418369
 20
8.5421675831
 30
0.0
 10
10.2022402972
 20
8.5438366401
 30
0.0
 10
10.2057788757
 20
8.5452364885
 30
0.0
 10
10.2090793823
 20
8.5467884845
 30
0.0
 10
10.2130658302
 20
8.5489857485
 30
0.0
 10
10.215833159
 20
8.5508685661
 30
0.0
 10
10.2175446405
 20
8.5522088491
 30
0.0
  0
SPLINE
  5
3C4
100
AcDbEntity
  8
0
100
AcDbSpline
 62
7
  6
CONTINUOUS
 70
0
 71
3
 72
14
 73
10
 74
0
 42
0.0000001
 43
0.0000001
 44
0.0000000001
 40
0.0
 40
0.0
 40
0.0
 40
0.0
 40
0.289774997
 40
0.4257848795
 40
0.5549638599
 40
0.6769056787
 40
0.791538453
 40
0.8991291751
 40
1.0
 40
1.0
 40
1.0
 40
1.0
 10
10.1904104298
 20
8.5772910641
 30
0.0
 10
10.1931138219
 20
8.5775981902
 30
0.0
 10
10.197073027
 20
8.5781877294
 30
0.0
 10
10.2021732205
 20
8.5792603629
 30
0.0
 10
10.2056973693
 20
8.5801555317
 30
0.0
 10
10.2089862527
 20
8.5811479079
 30
0.0
 10
10.2120341066
 20
8.5822254182
 30
0.0
 10
10.21484314
 20
8.5833739776
 30
0.0
 10
10.2166163165
 20
8.584205203
 30
0.0
 10
10.2174625597
 20
8.5846305046
 30
0.0
  0
SPLINE
  5
3C5
100
AcDbEntity
  8
0
100
AcDbSpline
 62
7
  6
CONTINUOUS
 70
0
 71
3
 72
13
 73
9
 74
0
 42
0.0000001
 43
0.0000001
 44
0.0000000001
 40
0.0
 40
0.0
 40
0.0
 40
0.0
 40
0.2971137656
 40
0.4352980463
 40
0.5654476674
 40
0.7998036759
 40
0.9040493852
 40
1.0
 40
1.0
 40
1.0
 40
1.0
 10
10.1904104298
 20
8.6319093813
 30
0.0
 10
10.1931138058
 20
8.6320342623
 30
0.0
 10
10.1970723425
 20
8.6322735521
 30
0.0
 10
10.2022041693
 20
8.6327129505
 30
0.0
 10
10.2067587358
 20
8.6331842974
 30
0.0
 10
10.2109933199
 20
8.6337416413
 30
0.0
 10
10.2148978481
 20
8.6343924692
 30
0.0
 10
10.2166891242
 20
8.6347349234
 30
0.0
 10
10.2175452373
 20
8.6349106681
 30
0.0
  0
LINE
  5
3C6
100
AcDbEntity
  8
0
100
AcDbLine
 62
7
  6
CONTINUOUS
 10
10.2175452373
 20
8.6349106681
 11
10.2177174919
 21
8.6349461937
  0
SPLINE
  5
3C7
100
AcDbEntity
  8
0
100
AcDbSpline
 62
7
  6
CONTINUOUS
 70
0
 71
3
 72
13
 73
9
 74
0
 42
0.0000001
 43
0.0000001
 44
0.0000000001
 40
0.0
 40
0.0
 40
0.0
 40
0.0
 40
0.2764297301
 40
0.4085994467
 40
0.5361670635
 40
0.6589489669
 40
0.7770040367
 40
1.0
 40
1.0
 40
1.0
 40
1.0
 10
10.1904104298
 20
8.5328856583
 30
0.0
 10
10.1931551389
 20
8.5334226289
 30
0.0
 10
10.1971715826
 20
8.5344598088
 30
0.0
 10
10.2022717326
 20
8.5363156635
 30
0.0
 10
10.2058170129
 20
8.5378750407
 30
0.0
 10
10.209122638
 20
8.5396038127
 30
0.0
 10
10.2131253611
 20
8.5420578895
 30
0.0
 10
10.2158856826
 20
8.5441503584
 30
0.0
 10
10.2175866797
 20
8.5456325
 30
0.0
  0
SPLINE
  5
3C8
100
AcDbEntity
  8
0
100
AcDbSpline
 62
7
  6
CONTINUOUS
 70
0
 71
3
 72
14
 73
10
 74
0
 42
0.0000001
 43
0.0000001
 44
0.0000000001
 40
0.0
 40
0.0
 40
0.0
 40
0.0
 40
0.2832727658
 40
0.4173877709
 40
0.5457479426
 40
0.6680644698
 40
0.7843419666
 40
0.8948772446
 40
1.0
 40
1.0
 40
1.0
 40
1.0
 10
10.1904104298
 20
8.5508151307
 30
0.0
 10
10.1931302904
 20
8.5512396377
 30
0.0
 10
10.1971126937
 20
8.5520567888
 30
0.0
 10
10.2022088507
 20
8.5535317772
 30
0.0
 10
10.205740589
 20
8.554766694
 30
0.0
 10
10.209035486
 20
8.5561357209
 30
0.0
 10
10.2120876927
 20
8.5576219435
 30
0.0
 10
10.2148997799
 20
8.5592059428
 30
0.0
 10
10.2166614456
 20
8.5603439643
 30
0.0
 10
10.2175015085
 20
8.5609252421
 30
0.0
  0
SPLINE
  5
3C9
100
AcDbEntity
  8
0
100
AcDbSpline
 62
7
  6
CONTINUOUS
 70
0
 71
3
 72
13
 73
9
 74
0
 42
0.0000001
 43
0.0000001
 44
0.0000000001
 40
0.0
 40
0.0
 40
0.0
 40
0.0
 40
0.2951351393
 40
0.4327320106
 40
0.5626194983
 40
0.7975564577
 40
0.9027081235
 40
1.0
 40
1.0
 40
1.0
 40
1.0
 10
10.1904104298
 20
8.6118202619
 30
0.0
 10
10.1931100822
 20
8.6120065982
 30
0.0
 10
10.1970635583
 20
8.6123637072
 30
0.0
 10
10.2021810436
 20
8.613017757
 30
0.0
 10
10.2067340799
 20
8.6137207948
 30
0.0
 10
10.2109655245
 20
8.6145522663
 30
0.0
 10
10.2148579702
 20
8.6155198444
 30
0.0
 10
10.2166435309
 20
8.6160287562
 30
0.0
 10
10.2174965813
 20
8.6162896803
 30
0.0
  0
SPLINE
  5
3CA
100
AcDbEntity
  8
0
100
AcDbSpline
 62
7
  6
CONTINUOUS
 70
0
 71
3
 72
11
 73
7
 74
0
 42
0.0000001
 43
0.0000001
 44
0.0000000001
 40
0.0
 40
0.0
 40
0.0
 40
0.0
 40
0.2363609038
 40
0.4814117601
 40
0.7360004163
 40
1.0
 40
1.0
 40
1.0
 40
1.0
 10
10.135170143
 20
8.5420730403
 30
0.0
 10
10.1368645853
 20
8.5400180837
 30
0.0
 10
10.1406141787
 20
8.5360689436
 30
0.0
 10
10.1471498189
 20
8.5309157821
 30
0.0
 10
10.1546622927
 20
8.5266511421
 30
0.0
 10
10.160176969
 20
8.5246178754
 30
0.0
 10
10.1630474585
 20
8.523836639
 30
0.0
  0
SPLINE
  5
3CB
100
AcDbEntity
  8
0
100
AcDbSpline
 62
7
  6
CONTINUOUS
 70
0
 71
3
 72
13
 73
9
 74
0
 42
0.0000001
 43
0.0000001
 44
0.0000000001
 40
0.0
 40
0.0
 40
0.0
 40
0.0
 40
0.2389193654
 40
0.4847908953
 40
0.610687846
 40
0.7385546395
 40
0.8683739931
 40
1.0
 40
1.0
 40
1.0
 40
1.0
 10
10.135170143
 20
8.546442988
 30
0.0
 10
10.1368585296
 20
8.5442864671
 30
0.0
 10
10.1405912391
 20
8.5401415926
 30
0.0
 10
10.1459956332
 20
8.5356488013
 30
0.0
 10
10.1507947699
 20
8.5325132687
 30
0.0
 10
10.1546619027
 20
8.5304093849
 30
0.0
 10
10.158752562
 20
8.5286121782
 30
0.0
 10
10.1615969818
 20
8.5276523879
 30
0.0
 10
10.1630474585
 20
8.5272366274
 30
0.0
  0
SPLINE
  5
3CC
100
AcDbEntity
  8
0
100
AcDbSpline
 62
7
  6
CONTINUOUS
 70
0
 71
3
 72
12
 73
8
 74
0
 42
0.0000001
 43
0.0000001
 44
0.0000000001
 40
0.0
 40
0.0
 40
0.0
 40
0.0
 40
0.2413369058
 40
0.4881003876
 40
0.7409017665
 40
0.8697343193
 40
1.0
 40
1.0
 40
1.0
 40
1.0
 10
10.135170143
 20
8.5529724293
 30
0.0
 10
10.136853394
 20
8.5507239147
 30
0.0
 10
10.1405726137
 20
8.5464014252
 30
0.0
 10
10.1470989403
 20
8.5407203837
 30
0.0
 10
10.153327571
 20
8.5368173096
 30
0.0
 10
10.1587465797
 20
8.5343267184
 30
0.0
 10
10.1615952302
 20
8.5333210021
 30
0.0
 10
10.1630474585
 20
8.5328856583
 30
0.0
  0
SPLINE
  5
3CD
100
AcDbEntity
  8
0
100
AcDbSpline
 62
7
  6
CONTINUOUS
 70
0
 71
3
 72
12
 73
8
 74
0
 42
0.0000001
 43
0.0000001
 44
0.0000000001
 40
0.0
 40
0.0
 40
0.0
 40
0.0
 40
0.2434091256
 40
0.4909199658
 40
0.7430193704
 40
0.8709602
 40
1.0
 40
1.0
 40
1.0
 40
1.0
 10
10.135170143
 20
8.5616309209
 30
0.0
 10
10.1368490809
 20
8.5593003239
 30
0.0
 10
10.140555973
 20
8.5548201304
 30
0.0
 10
10.1470783756
 20
8.5489149094
 30
0.0
 10
10.1533146325
 20
8.5448497278
 30
0.0
 10
10.1587412736
 20
8.5422571179
 30
0.0
 10
10.1615936225
 20
8.5412102894
 30
0.0
 10
10.1630474585
 20
8.5407573933
 30
0.0
  0
SPLINE
  5
3CE
100
AcDbEntity
  8
0
100
AcDbSpline
 62
9
  6
CONTINUOUS
 70
0
 71
3
 72
28
 73
24
 74
0
 42
0.0000001
 43
0.0000001
 44
0.0000000001
 40
0.0
 40
0.0
 40
0.0
 40
0.0
 40
0.0248238217
 40
0.0499304111
 40
0.075398259
 40
0.1012978668
 40
0.1276896868
 40
0.1546234301
 40
0.1821378061
 40
0.2102603874
 40
0.239007879
 40
0.2683865943
 40
0.3289892994
 40
0.3919617646
 40
0.4570451037
 40
0.5238802667
 40
0.5920314988
 40
0.6610085503
 40
0.7302883783
 40
0.7993361003
 40
0.8676258889
 40
0.9346619509
 40
1.0
 40
1.0
 40
1.0
 40
1.0
 10
9.2927114317
 20
9.2585933211
 30
0.0
 10
9.2922116262
 20
9.2559147108
 30
0.0
 10
9.2909711965
 20
9.2505680149
 30
0.0
 10
9.2884203928
 20
9.2426849641
 30
0.0
 10
9.2851807397
 20
9.234930723
 30
0.0
 10
9.2812656212
 20
9.2273362791
 30
0.0
 10
9.2766907383
 20
9.2199307417
 30
0.0
 10
9.2714742916
 20
9.2127426773
 30
0.0
 10
9.2656368192
 20
9.2057996483
 30
0.0
 10
9.2592012854
 20
9.1991282783
 30
0.0
 10
9.252192578
 20
9.1927538424
 30
0.0
 10
9.2420165401
 20
9.1846003026
 30
0.0
 10
9.2279832545
 20
9.175309032
 30
0.0
 10
9.2095301416
 20
9.1658285606
 30
0.0
 10
9.1895678515
 20
9.1580390093
 30
0.0
 10
9.1684032295
 20
9.1520578863
 30
0.0
 10
9.1463589893
 20
9.1479746453
 30
0.0
 10
9.123772193
 20
9.1458507709
 30
0.0
 10
9.1009880702
 20
9.1457184346
 30
0.0
 10
9.0783552651
 20
9.1475794425
 30
0.0
 10
9.0562190569
 20
9.1514061407
 30
0.0
 10
9.0349205885
 20
9.1571395106
 30
0.0
 10
9.0212898867
 20
9.1622537396
 30
0.0
 10
9.014714003
 20
9.1651164235
 30
0.0
  0
SPLINE
  5
3CF
100
AcDbEntity
  8
0
100
AcDbSpline
 62
7
  6
CONTINUOUS
 70
0
 71
3
 72
13
 73
9
 74
0
 42
0.0000001
 43
0.0000001
 44
0.0000000001
 40
0.0
 40
0.0
 40
0.0
 40
0.0
 40
0.1251050349
 40
0.2501999646
 40
0.3752670444
 40
0.5003195995
 40
0.7501741062
 40
1.0
 40
1.0
 40
1.0
 40
1.0
 10
10.1630474585
 20
9.3873085414
 30
0.0
 10
10.1615880944
 20
9.3867977114
 30
0.0
 10
10.158723491
 20
9.3856150519
 30
0.0
 10
10.1546321026
 20
9.3834161562
 30
0.0
 10
10.1507658315
 20
9.3808436774
 30
0.0
 10
10.1459331578
 20
9.3769825963
 30
0.0
 10
10.1405050968
 20
9.3714468388
 30
0.0
 10
10.1368365988
 20
9.3664533802
 30
0.0
 10
10.135170143
 20
9.3638540832
 30
0.0
  0
SPLINE
  5
3D0
100
AcDbEntity
  8
0
100
AcDbSpline
 62
7
  6
CONTINUOUS
 70
0
 71
3
 72
13
 73
9
 74
0
 42
0.0000001
 43
0.0000001
 44
0.0000000001
 40
0.0
 40
0.0
 40
0.0
 40
0.0
 40
0.2451332899
 40
0.4932382957
 40
0.6186395363
 40
0.7449079971
 40
0.8720507693
 40
1.0
 40
1.0
 40
1.0
 40
1.0
 10
10.135170143
 20
8.572378093
 30
0.0
 10
10.1368455051
 20
8.569975646
 30
0.0
 10
10.1405409708
 20
8.5653583091
 30
0.0
 10
10.1459601095
 20
8.560287211
 30
0.0
 10
10.1507785541
 20
8.5567500876
 30
0.0
 10
10.1546454288
 20
8.5543862548
 30
0.0
 10
10.1587367039
 20
8.5523663189
 30
0.0
 10
10.1615921824
 20
8.551283449
 30
0.0
 10
10.1630474585
 20
8.5508151307
 30
0.0
  0
SPLINE
  5
3D1
100
AcDbEntity
  8
0
100
AcDbSpline
 62
7
  6
CONTINUOUS
 70
0
 71
3
 72
13
 73
9
 74
0
 42
0.0000001
 43
0.0000001
 44
0.0000000001
 40
0.0
 40
0.0
 40
0.0
 40
0.0
 40
0.2466238322
 40
0.4952787122
 40
0.6205667408
 40
0.7464530093
 40
0.8729477767
 40
1.0
 40
1.0
 40
1.0
 40
1.0
 10
10.135170143
 20
8.5851638371
 30
0.0
 10
10.1368425944
 20
8.5827000657
 30
0.0
 10
10.1405293828
 20
8.5779653723
 30
0.0
 10
10.1459515567
 20
8.5727496248
 30
0.0
 10
10.1507745572
 20
8.5691117776
 30
0.0
 10
10.1546412812
 20
8.5666829813
 30
0.0
 10
10.1587326293
 20
8.5646073423
 30
0.0
 10
10.1615909307
 20
8.5634934989
 30
0.0
 10
10.1630474585
 20
8.5630119767
 30
0.0
  0
SPLINE
  5
3D2
100
AcDbEntity
  8
0
100
AcDbSpline
 62
7
  6
CONTINUOUS
 70
0
 71
3
 72
22
 73
18
 74
0
 42
0.0000001
 43
0.0000001
 44
0.0000000001
 40
0.0
 40
0.0
 40
0.0
 40
0.0
 40
0.0628746579
 40
0.1253911663
 40
0.1875420598
 40
0.2493926015
 40
0.3110690493
 40
0.3727336344
 40
0.434551039
 40
0.496654327
 40
0.559118363
 40
0.6219460488
 40
0.6850688799
 40
0.7483600638
 40
0.8116568866
 40
0.8747886455
 40
1.0
 40
1.0
 40
1.0
 40
1.0
 10
11.1920620105
 20
8.4790299191
 30
0.0
 10
11.191547151
 20
8.4813584511
 30
0.0
 10
11.1905713682
 20
8.4860139033
 30
0.0
 10
11.1893375276
 20
8.4930209703
 30
0.0
 10
11.1883994673
 20
8.5000353778
 30
0.0
 10
11.1878050844
 20
8.5070559165
 30
0.0
 10
11.1875852051
 20
8.5140800909
 30
0.0
 10
11.1877513173
 20
8.5211045111
 30
0.0
 10
11.1882946704
 20
8.5281257382
 30
0.0
 10
11.1891870931
 20
8.5351411017
 30
0.0
 10
11.1903829218
 20
8.5421492441
 30
0.0
 10
11.1918217559
 20
8.549150257
 30
0.0
 10
11.1934315393
 20
8.5561455539
 30
0.0
 10
11.1951314673
 20
8.56313736
 30
0.0
 10
11.1968349121
 20
8.5701289959
 30
0.0
 10
11.1989837899
 20
8.5794275228
 30
0.0
 10
11.2003373109
 20
8.5864510979
 30
0.0
 10
11.2009951059
 20
8.5911544636
 30
0.0
  0
SPLINE
  5
3D3
100
AcDbEntity
  8
0
100
AcDbSpline
 62
7
  6
CONTINUOUS
 70
0
 71
3
 72
13
 73
9
 74
0
 42
0.0000001
 43
0.0000001
 44
0.0000000001
 40
0.0
 40
0.0
 40
0.0
 40
0.0
 40
0.1253474902
 40
0.2506162004
 40
0.3757844924
 40
0.5008656043
 40
0.7505703138
 40
1.0
 40
1.0
 40
1.0
 40
1.0
 10
10.1630474585
 20
9.4073976608
 30
0.0
 10
10.1615884567
 20
9.4068905321
 30
0.0
 10
10.1587246511
 20
9.4057165681
 30
0.0
 10
10.1546332585
 20
9.403533209
 30
0.0
 10
10.1507669214
 20
9.4009788365
 30
0.0
 10
10.145935436
 20
9.3971459197
 30
0.0
 10
10.1405080572
 20
9.3916504926
 30
0.0
 10
10.1368373223
 20
9.3866895884
 30
0.0
 10
10.135170143
 20
9.3841073637
 30
0.0
  0
SPLINE
  5
3D4
100
AcDbEntity
  8
0
100
AcDbSpline
 62
7
  6
CONTINUOUS
 70
0
 71
3
 72
13
 73
9
 74
0
 42
0.0000001
 43
0.0000001
 44
0.0000000001
 40
0.0
 40
0.0
 40
0.0
 40
0.0
 40
0.2478330651
 40
0.496938011
 40
0.6221358688
 40
0.747712455
 40
0.8736798214
 40
1.0
 40
1.0
 40
1.0
 40
1.0
 10
10.135170143
 20
8.5999285404
 30
0.0
 10
10.1368402899
 20
8.5974142271
 30
0.0
 10
10.1405201146
 20
8.5925829399
 30
0.0
 10
10.1459446123
 20
8.5872478952
 30
0.0
 10
10.1507712843
 20
8.5835268932
 30
0.0
 10
10.1546378582
 20
8.5810445286
 30
0.0
 10
10.1587292411
 20
8.5789229457
 30
0.0
 10
10.1615898837
 20
8.577783496
 30
0.0
 10
10.1630474585
 20
8.5772910641
 30
0.0
  0
SPLINE
  5
3D5
100
AcDbEntity
  8
0
100
AcDbSpline
 62
7
  6
CONTINUOUS
 70
0
 71
3
 72
13
 73
9
 74
0
 42
0.0000001
 43
0.0000001
 44
0.0000000001
 40
0.0
 40
0.0
 40
0.0
 40
0.0
 40
0.1257522448
 40
0.251311395
 40
0.3766491506
 40
0.5017784175
 40
0.7512333184
 40
1.0
 40
1.0
 40
1.0
 40
1.0
 10
10.1630474585
 20
9.4256321057
 30
0.0
 10
10.1615890556
 20
9.4251311217
 30
0.0
 10
10.1587265735
 20
9.4239715907
 30
0.0
 10
10.1546351799
 20
9.4218140435
 30
0.0
 10
10.1507687389
 20
9.4192897554
 30
0.0
 10
10.1459392473
 20
9.4155036142
 30
0.0
 10
10.1405130392
 20
9.410075196
 30
0.0
 10
10.1368385444
 20
9.4051684149
 30
0.0
 10
10.135170143
 20
9.4026145597
 30
0.0
  0
SPLINE
  5
3D6
100
AcDbEntity
  8
0
100
AcDbSpline
 62
7
  6
CONTINUOUS
 70
0
 71
3
 72
11
 73
7
 74
0
 42
0.0000001
 43
0.0000001
 44
0.0000000001
 40
0.0
 40
0.0
 40
0.0
 40
0.0
 40
0.2668331634
 40
0.5223802845
 40
0.7664567214
 40
1.0
 40
1.0
 40
1.0
 40
1.0
 10
10.1627230775
 20
9.496432114
 30
0.0
 10
10.1598953756
 20
9.4956880944
 30
0.0
 10
10.1544693136
 20
9.493774363
 30
0.0
 10
10.1470483574
 20
9.4897774795
 30
0.0
 10
10.1405844629
 20
9.4849614604
 30
0.0
 10
10.1368555716
 20
9.4812607388
 30
0.0
 10
10.135170143
 20
9.4793349618
 30
0.0
  0
SPLINE
  5
3D7
100
AcDbEntity
  8
0
100
AcDbSpline
 62
7
  6
CONTINUOUS
 70
0
 71
3
 72
13
 73
9
 74
0
 42
0.0000001
 43
0.0000001
 44
0.0000000001
 40
0.0
 40
0.0
 40
0.0
 40
0.0
 40
0.2487666848
 40
0.4982215787
 40
0.6233508489
 40
0.7486886017
 40
0.8742477467
 40
1.0
 40
1.0
 40
1.0
 40
1.0
 10
10.135170143
 20
8.6166033629
 30
0.0
 10
10.1368385444
 20
8.6140495077
 30
0.0
 10
10.1405130392
 20
8.6091427267
 30
0.0
 10
10.1459392473
 20
8.6037143084
 30
0.0
 10
10.1507687388
 20
8.5999281674
 30
0.0
 10
10.1546351797
 20
8.5974038792
 30
0.0
 10
10.1587265734
 20
8.5952463321
 30
0.0
 10
10.1615890555
 20
8.594086801
 30
0.0
 10
10.1630474585
 20
8.593585817
 30
0.0
  0
SPLINE
  5
3D8
100
AcDbEntity
  8
0
100
AcDbSpline
 62
7
  6
CONTINUOUS
 70
0
 71
3
 72
13
 73
9
 74
0
 42
0.0000001
 43
0.0000001
 44
0.0000000001
 40
0.0
 40
0.0
 40
0.0
 40
0.0
 40
0.1263201701
 40
0.2522875417
 40
0.3778641306
 40
0.5030619851
 40
0.7521669382
 40
1.0
 40
1.0
 40
1.0
 40
1.0
 10
10.1630474585
 20
9.4419268586
 30
0.0
 10
10.1615898838
 20
9.4414344267
 30
0.0
 10
10.1587292412
 20
9.4402949771
 30
0.0
 10
10.1546378584
 20
9.4381733941
 30
0.0
 10
10.1507712844
 20
9.4356910295
 30
0.0
 10
10.1459446123
 20
9.4319700274
 30
0.0
 10
10.1405201146
 20
9.4266349827
 30
0.0
 10
10.1368402899
 20
9.4218036956
 30
0.0
 10
10.135170143
 20
9.4192893822
 30
0.0
  0
SPLINE
  5
3D9
100
AcDbEntity
  8
0
100
AcDbSpline
 62
7
  6
CONTINUOUS
 70
0
 71
3
 72
13
 73
9
 74
0
 42
0.0000001
 43
0.0000001
 44
0.0000000001
 40
0.0
 40
0.0
 40
0.0
 40
0.0
 40
0.1270522331
 40
0.2535469957
 40
0.3794332539
 40
0.5047212821
 40
0.7533761569
 40
1.0
 40
1.0
 40
1.0
 40
1.0
 10
10.1630474585
 20
9.456205946
 30
0.0
 10
10.1615909306
 20
9.4557244237
 30
0.0
 10
10.1587326292
 20
9.4546105802
 30
0.0
 10
10.1546412811
 20
9.4525349413
 30
0.0
 10
10.1507745573
 20
9.4501061451
 30
0.0
 10
10.1459515569
 20
9.446468298
 30
0.0
 10
10.140529383
 20
9.4412525505
 30
0.0
 10
10.1368425945
 20
9.4365178571
 30
0.0
 10
10.135170143
 20
9.4340540855
 30
0.0
  0
SPLINE
  5
3DA
100
AcDbEntity
  8
0
100
AcDbSpline
 62
7
  6
CONTINUOUS
 70
0
 71
3
 72
13
 73
9
 74
0
 42
0.0000001
 43
0.0000001
 44
0.0000000001
 40
0.0
 40
0.0
 40
0.0
 40
0.0
 40
0.2494296895
 40
0.4991343919
 40
0.6242155071
 40
0.7493837963
 40
0.8746525014
 40
1.0
 40
1.0
 40
1.0
 40
1.0
 10
10.135170143
 20
8.635110559
 30
0.0
 10
10.1368373223
 20
8.6325283342
 30
0.0
 10
10.1405080573
 20
8.62756743
 30
0.0
 10
10.1459354359
 20
8.6220720029
 30
0.0
 10
10.1507669214
 20
8.6182390863
 30
0.0
 10
10.1546332583
 20
8.6156847137
 30
0.0
 10
10.158724651
 20
8.6135013546
 30
0.0
 10
10.1615884566
 20
8.6123273906
 30
0.0
 10
10.1630474585
 20
8.6118202619
 30
0.0
  0
SPLINE
  5
3DB
100
AcDbEntity
  8
0
100
AcDbSpline
 62
7
  6
CONTINUOUS
 70
0
 71
3
 72
9
 73
5
 74
0
 42
0.0000001
 43
0.0000001
 44
0.0000000001
 40
0.0
 40
0.0
 40
0.0
 40
0.0
 40
0.5055349672
 40
1.0
 40
1.0
 40
1.0
 40
1.0
 10
9.3066636772
 20
8.7660948635
 30
0.0
 10
9.307173204
 20
8.7631827288
 30
0.0
 10
9.3079463358
 20
8.757378239
 30
0.0
 10
9.308213821
 20
8.7515276058
 30
0.0
 10
9.308213821
 20
8.7486359691
 30
0.0
  0
SPLINE
  5
3DC
100
AcDbEntity
  8
0
100
AcDbSpline
 62
7
  6
CONTINUOUS
 70
0
 71
3
 72
15
 73
11
 74
0
 42
0.0000001
 43
0.0000001
 44
0.0000000001
 40
0.0
 40
0.0
 40
0.0
 40
0.0
 40
0.1314603439
 40
0.2612707617
 40
0.3892119603
 40
0.5151759986
 40
0.6391267159
 40
0.7611345543
 40
0.8813814298
 40
1.0
 40
1.0
 40
1.0
 40
1.0
 10
10.1904104298
 20
8.5272366274
 30
0.0
 10
10.1918195643
 20
8.5276271782
 30
0.0
 10
10.1945890061
 20
8.5285212986
 30
0.0
 10
10.1985881229
 20
8.5301917543
 30
0.0
 10
10.2023820305
 20
8.5321576621
 30
0.0
 10
10.2059469027
 20
8.5343927657
 30
0.0
 10
10.2092663575
 20
8.5368690458
 30
0.0
 10
10.2123347066
 20
8.5395540786
 30
0.0
 10
10.2151569809
 20
8.5424129378
 30
0.0
 10
10.2168908608
 20
8.5444292091
 30
0.0
 10
10.2177178481
 20
8.5454572875
 30
0.0
  0
SPLINE
  5
3DD
100
AcDbEntity
  8
0
100
AcDbSpline
 62
7
  6
CONTINUOUS
 70
0
 71
3
 72
13
 73
9
 74
0
 42
0.0000001
 43
0.0000001
 44
0.0000000001
 40
0.0
 40
0.0
 40
0.0
 40
0.0
 40
0.2498258971
 40
0.4996803966
 40
0.624732955
 40
0.7498000321
 40
0.8748949567
 40
1.0
 40
1.0
 40
1.0
 40
1.0
 10
10.135170143
 20
8.6553638394
 30
0.0
 10
10.1368365988
 20
8.6527645424
 30
0.0
 10
10.1405050969
 20
8.6477710839
 30
0.0
 10
10.1459331578
 20
8.6422353264
 30
0.0
 10
10.1507658314
 20
8.6383742454
 30
0.0
 10
10.1546321024
 20
8.6358017665
 30
0.0
 10
10.1587234909
 20
8.6336028709
 30
0.0
 10
10.1615880943
 20
8.6324202113
 30
0.0
 10
10.1630474585
 20
8.6319093813
 30
0.0
  0
SPLINE
  5
3DE
100
AcDbEntity
  8
0
100
AcDbSpline
 62
7
  6
CONTINUOUS
 70
0
 71
3
 72
23
 73
19
 74
0
 42
0.0000001
 43
0.0000001
 44
0.0000000001
 40
0.0
 40
0.0
 40
0.0
 40
0.0
 40
0.0624992074
 40
0.1250011695
 40
0.1875047114
 40
0.2500080805
 40
0.3125097214
 40
0.3750087229
 40
0.4375051482
 40
0.5000000004
 40
0.5624948526
 40
0.6249912778
 40
0.6874902792
 40
0.74999192
 40
0.8124952891
 40
0.874998831
 40
0.9375007929
 40
1.0
 40
1.0
 40
1.0
 40
1.0
 10
11.2009951059
 20
8.5911544636
 30
0.0
 10
11.2005485959
 20
8.6030695442
 30
0.0
 10
11.1994275867
 20
8.6268918414
 30
0.0
 10
11.1972985014
 20
8.6626004597
 30
0.0
 10
11.1949598328
 20
8.698296436
 30
0.0
 10
11.1926448512
 20
8.7339939104
 30
0.0
 10
11.1905727809
 20
8.7697059286
 30
0.0
 10
11.1889365996
 20
8.8054399602
 30
0.0
 10
11.1878889401
 20
8.8411954954
 30
0.0
 10
11.1875283313
 20
8.876964201
 30
0.0
 10
11.1878889394
 20
8.9127329065
 30
0.0
 10
11.1889365992
 20
8.9484884416
 30
0.0
 10
11.1905727808
 20
8.9842224731
 30
0.0
 10
11.1926448512
 20
9.0199344913
 30
0.0
 10
11.1949598329
 20
9.0556319658
 30
0.0
 10
11.1972985014
 20
9.091327942
 30
0.0
 10
11.1994275867
 20
9.1270365602
 30
0.0
 10
11.2005485959
 20
9.1508588573
 30
0.0
 10
11.2009951059
 20
9.1627739378
 30
0.0
  0
SPLINE
  5
3DF
100
AcDbEntity
  8
0
100
AcDbSpline
 62
7
  6
CONTINUOUS
 70
0
 71
3
 72
15
 73
11
 74
0
 42
0.0000001
 43
0.0000001
 44
0.0000000001
 40
0.0
 40
0.0
 40
0.0
 40
0.0
 40
0.1249777719
 40
0.250031496
 40
0.37512733
 40
0.500218698
 40
0.6252631525
 40
0.7502362347
 40
0.8751394475
 40
1.0
 40
1.0
 40
1.0
 40
1.0
 10
11.2009951059
 20
9.1627739378
 30
0.0
 10
11.2005484598
 20
9.1714990409
 30
0.0
 10
11.1994270164
 20
9.1889430915
 30
0.0
 10
11.1972981345
 20
9.2150801556
 30
0.0
 10
11.1949598753
 20
9.2412068525
 30
0.0
 10
11.1926452549
 20
9.2673350283
 30
0.0
 10
11.1905732938
 20
9.2934756089
 30
0.0
 10
11.1889369521
 20
9.31963492
 30
0.0
 10
11.1878890331
 20
9.3458123115
 30
0.0
 10
11.1876485331
 20
9.3632728531
 30
0.0
 10
11.1876485331
 20
9.3720011867
 30
0.0
  0
SPLINE
  5
3E0
100
AcDbEntity
  8
0
100
AcDbSpline
 62
7
  6
CONTINUOUS
 70
0
 71
3
 72
13
 73
9
 74
0
 42
0.0000001
 43
0.0000001
 44
0.0000000001
 40
0.0
 40
0.0
 40
0.0
 40
0.0
 40
0.2499576957
 40
0.4998621104
 40
0.6249052061
 40
0.7499386247
 40
0.8749757055
 40
1.0
 40
1.0
 40
1.0
 40
1.0
 10
10.135170143
 20
8.6772687742
 30
0.0
 10
10.1368363592
 20
8.6746637779
 30
0.0
 10
10.1405041149
 20
8.6696594545
 30
0.0
 10
10.1459323999
 20
8.6641102326
 30
0.0
 10
10.1507654682
 20
8.6602397471
 30
0.0
 10
10.1546317167
 20
8.6576612235
 30
0.0
 10
10.1587231031
 20
8.6554571408
 30
0.0
 10
10.1615879731
 20
8.6542715768
 30
0.0
 10
10.1630474585
 20
8.6537595105
 30
0.0
  0
SPLINE
  5
3E1
100
AcDbEntity
  8
0
100
AcDbSpline
 62
7
  6
CONTINUOUS
 70
0
 71
3
 72
15
 73
11
 74
0
 42
0.0000001
 43
0.0000001
 44
0.0000000001
 40
0.0
 40
0.0
 40
0.0
 40
0.0
 40
0.1248605525
 40
0.2497637654
 40
0.3747368476
 40
0.4997813021
 40
0.62487267
 40
0.749968504
 40
0.8750222282
 40
1.0
 40
1.0
 40
1.0
 40
1.0
 10
11.1876485331
 20
9.3720011867
 30
0.0
 10
11.1876485331
 20
9.3807295202
 30
0.0
 10
11.1878890331
 20
9.3981900619
 30
0.0
 10
11.1889369521
 20
9.4243674534
 30
0.0
 10
11.1905732938
 20
9.4505267645
 30
0.0
 10
11.1926452549
 20
9.4766673451
 30
0.0
 10
11.1949598753
 20
9.5027955209
 30
0.0
 10
11.1972981345
 20
9.5289222178
 30
0.0
 10
11.1994270164
 20
9.5550592819
 30
0.0
 10
11.2005484598
 20
9.5725033325
 30
0.0
 10
11.2009951059
 20
9.5812284356
 30
0.0
  0
SPLINE
  5
3E2
100
AcDbEntity
  8
0
100
AcDbSpline
 62
7
  6
CONTINUOUS
 70
0
 71
3
 72
13
 73
9
 74
0
 42
0.0000001
 43
0.0000001
 44
0.0000000001
 40
0.0
 40
0.0
 40
0.0
 40
0.0
 40
0.2498258971
 40
0.4996803966
 40
0.624732955
 40
0.7498000321
 40
0.8748949567
 40
1.0
 40
1.0
 40
1.0
 40
1.0
 10
10.135170143
 20
8.7007232323
 30
0.0
 10
10.1368365988
 20
8.6981239353
 30
0.0
 10
10.1405050969
 20
8.6931304768
 30
0.0
 10
10.1459331578
 20
8.6875947192
 30
0.0
 10
10.1507658314
 20
8.6837336383
 30
0.0
 10
10.1546321024
 20
8.6811611594
 30
0.0
 10
10.1587234909
 20
8.6789622638
 30
0.0
 10
10.1615880943
 20
8.6777796042
 30
0.0
 10
10.1630474585
 20
8.6772687742
 30
0.0
  0
SPLINE
  5
3E3
100
AcDbEntity
  8
0
100
AcDbSpline
 62
7
  6
CONTINUOUS
 70
0
 71
3
 72
13
 73
9
 74
0
 42
0.0000001
 43
0.0000001
 44
0.0000000001
 40
0.0
 40
0.0
 40
0.0
 40
0.0
 40
0.1279492222
 40
0.2550919995
 40
0.3813604632
 40
0.5067617005
 40
0.7548667134
 40
1.0
 40
1.0
 40
1.0
 40
1.0
 10
10.1630474585
 20
9.468402792
 30
0.0
 10
10.1615921825
 20
9.4679344737
 30
0.0
 10
10.158736704
 20
9.4668516038
 30
0.0
 10
10.1546454289
 20
9.4648316679
 30
0.0
 10
10.1507785542
 20
9.4624678352
 30
0.0
 10
10.1459601095
 20
9.4589307116
 30
0.0
 10
10.1405409708
 20
9.4538596136
 30
0.0
 10
10.1368455051
 20
9.4492422767
 30
0.0
 10
10.135170143
 20
9.4468398297
 30
0.0
  0
SPLINE
  5
3E4
100
AcDbEntity
  8
0
100
AcDbSpline
 62
7
  6
CONTINUOUS
 70
0
 71
3
 72
11
 73
7
 74
0
 42
0.0000001
 43
0.0000001
 44
0.0000000001
 40
0.0
 40
0.0
 40
0.0
 40
0.0
 40
0.3001271096
 40
0.5685929251
 40
0.8021300863
 40
1.0
 40
1.0
 40
1.0
 40
1.0
 10
10.1630474585
 20
8.7023275612
 30
0.0
 10
10.1602540623
 20
8.7022606786
 30
0.0
 10
10.1549628401
 20
8.7020917744
 30
0.0
 10
10.1475035711
 20
8.7017252457
 30
0.0
 10
10.141002434
 20
8.701281815
 30
0.0
 10
10.1370019246
 20
8.7009186679
 30
0.0
 10
10.135170143
 20
8.7007232323
 30
0.0
  0
SPLINE
  5
3E5
100
AcDbEntity
  8
0
100
AcDbSpline
 62
7
  6
CONTINUOUS
 70
0
 71
3
 72
12
 73
8
 74
0
 42
0.0000001
 43
0.0000001
 44
0.0000000001
 40
0.0
 40
0.0
 40
0.0
 40
0.0
 40
0.1290397914
 40
0.2569806262
 40
0.5090800303
 40
0.7565908776
 40
1.0
 40
1.0
 40
1.0
 40
1.0
 10
10.1630474585
 20
9.4784605294
 30
0.0
 10
10.1615936226
 20
9.4780076333
 30
0.0
 10
10.1587412737
 20
9.4769608049
 30
0.0
 10
10.1533146327
 20
9.4743681949
 30
0.0
 10
10.1470783756
 20
9.4703030133
 30
0.0
 10
10.140555973
 20
9.4643977923
 30
0.0
 10
10.1368490808
 20
9.4599175987
 30
0.0
 10
10.135170143
 20
9.4575870017
 30
0.0
  0
SPLINE
  5
3E6
100
AcDbEntity
  8
0
100
AcDbSpline
 62
7
  6
CONTINUOUS
 70
0
 71
3
 72
13
 73
9
 74
0
 42
0.0000001
 43
0.0000001
 44
0.0000000001
 40
0.0
 40
0.0
 40
0.0
 40
0.0
 40
0.2494296752
 40
0.49913439
 40
0.6242155024
 40
0.7493838045
 40
0.8746525195
 40
1.0
 40
1.0
 40
1.0
 40
1.0
 10
10.135170143
 20
8.7256178583
 30
0.0
 10
10.1368373222
 20
8.7230356336
 30
0.0
 10
10.1405080571
 20
8.7180747295
 30
0.0
 10
10.1459354358
 20
8.7125793024
 30
0.0
 10
10.1507669214
 20
8.7087463855
 30
0.0
 10
10.1546332586
 20
8.706192013
 30
0.0
 10
10.1587246512
 20
8.7040086537
 30
0.0
 10
10.1615884568
 20
8.7028346898
 30
0.0
 10
10.1630474585
 20
8.7023275612
 30
0.0
  0
SPLINE
  5
3E7
100
AcDbEntity
  8
0
100
AcDbSpline
 62
7
  6
CONTINUOUS
 70
0
 71
3
 72
13
 73
9
 74
0
 42
0.0000001
 43
0.0000001
 44
0.0000000001
 40
0.0
 40
0.0
 40
0.0
 40
0.0
 40
0.2989084936
 40
0.5668536659
 40
0.6881333589
 40
0.8007440527
 40
0.9046906182
 40
1.0
 40
1.0
 40
1.0
 40
1.0
 10
10.1630474585
 20
8.7288190359
 30
0.0
 10
10.1602521153
 20
8.7286854895
 30
0.0
 10
10.1549545776
 20
8.7283478579
 30
0.0
 10
10.1485411906
 20
8.7277189953
 30
0.0
 10
10.1438803241
 20
8.7271238089
 30
0.0
 10
10.1407514281
 20
8.726658876
 30
0.0
 10
10.1378733908
 20
8.7261650261
 30
0.0
 10
10.1360429192
 20
8.7258036598
 30
0.0
 10
10.135170143
 20
8.7256178583
 30
0.0
  0
SPLINE
  5
3E8
100
AcDbEntity
  8
0
100
AcDbSpline
 62
7
  6
CONTINUOUS
 70
0
 71
3
 72
12
 73
8
 74
0
 42
0.0000001
 43
0.0000001
 44
0.0000000001
 40
0.0
 40
0.0
 40
0.0
 40
0.0
 40
0.1302656721
 40
0.2590982301
 40
0.5118996085
 40
0.7586630974
 40
1.0
 40
1.0
 40
1.0
 40
1.0
 10
10.1630474585
 20
9.4863322644
 30
0.0
 10
10.1615952303
 20
9.4858969206
 30
0.0
 10
10.1587465798
 20
9.4848912044
 30
0.0
 10
10.1533275712
 20
9.4824006132
 30
0.0
 10
10.1470989403
 20
9.478497539
 30
0.0
 10
10.1405726136
 20
9.4728164975
 30
0.0
 10
10.136853394
 20
9.4684940079
 30
0.0
 10
10.135170143
 20
9.4662454934
 30
0.0
  0
SPLINE
  5
3E9
100
AcDbEntity
  8
0
100
AcDbSpline
 62
7
  6
CONTINUOUS
 70
0
 71
3
 72
13
 73
9
 74
0
 42
0.0000001
 43
0.0000001
 44
0.0000000001
 40
0.0
 40
0.0
 40
0.0
 40
0.0
 40
0.2487666848
 40
0.4982215787
 40
0.6233508489
 40
0.7486886017
 40
0.8742477467
 40
1.0
 40
1.0
 40
1.0
 40
1.0
 10
10.135170143
 20
8.7518365818
 30
0.0
 10
10.1368385444
 20
8.7492827267
 30
0.0
 10
10.1405130392
 20
8.7443759456
 30
0.0
 10
10.1459392473
 20
8.7389475273
 30
0.0
 10
10.1507687388
 20
8.7351613863
 30
0.0
 10
10.1546351797
 20
8.7326370982
 30
0.0
 10
10.1587265734
 20
8.730479551
 30
0.0
 10
10.1615890555
 20
8.72932002
 30
0.0
 10
10.1630474585
 20
8.7288190359
 30
0.0
  0
SPLINE
  5
3EA
100
AcDbEntity
  8
0
100
AcDbSpline
 62
7
  6
CONTINUOUS
 70
0
 71
3
 72
14
 73
10
 74
0
 42
0.0000001
 43
0.0000001
 44
0.0000000001
 40
0.0
 40
0.0
 40
0.0
 40
0.0
 40
0.2969573872
 40
0.4345126171
 40
0.5640982198
 40
0.6854723705
 40
0.7985517771
 40
0.9033734143
 40
1.0
 40
1.0
 40
1.0
 40
1.0
 10
10.1630474585
 20
8.7566196829
 30
0.0
 10
10.160248928
 20
8.7564199144
 30
0.0
 10
10.1561598238
 20
8.7560305281
 30
0.0
 10
10.1508776499
 20
8.755317878
 30
0.0
 10
10.1472537608
 20
8.7547305804
 30
0.0
 10
10.1438748668
 20
8.7540855834
 30
0.0
 10
10.1407451114
 20
8.7533905474
 30
0.0
 10
10.1378661065
 20
8.7526521548
 30
0.0
 10
10.1360401188
 20
8.7521133101
 30
0.0
 10
10.135170143
 20
8.7518365818
 30
0.0
  0
SPLINE
  5
3EB
100
AcDbEntity
  8
0
100
AcDbSpline
 62
7
  6
CONTINUOUS
 70
0
 71
3
 72
13
 73
9
 74
0
 42
0.0000001
 43
0.0000001
 44
0.0000000001
 40
0.0
 40
0.0
 40
0.0
 40
0.0
 40
0.2478330651
 40
0.496938011
 40
0.6221358688
 40
0.747712455
 40
0.8736798214
 40
1.0
 40
1.0
 40
1.0
 40
1.0
 10
10.135170143
 20
8.7792571593
 30
0.0
 10
10.1368402899
 20
8.7767428459
 30
0.0
 10
10.1405201146
 20
8.7719115588
 30
0.0
 10
10.1459446123
 20
8.7665765141
 30
0.0
 10
10.1507712843
 20
8.7628555121
 30
0.0
 10
10.1546378582
 20
8.7603731475
 30
0.0
 10
10.1587292411
 20
8.7582515645
 30
0.0
 10
10.1615898837
 20
8.7571121148
 30
0.0
 10
10.1630474585
 20
8.7566196829
 30
0.0
  0
SPLINE
  5
3EC
100
AcDbEntity
  8
0
100
AcDbSpline
 62
7
  6
CONTINUOUS
 70
0
 71
3
 72
14
 73
10
 74
0
 42
0.0000001
 43
0.0000001
 44
0.0000000001
 40
0.0
 40
0.0
 40
0.0
 40
0.0
 40
0.2943924193
 40
0.431211109
 40
0.5604768033
 40
0.6819848376
 40
0.7956873752
 40
0.9016584254
 40
1.0
 40
1.0
 40
1.0
 40
1.0
 10
10.1630474585
 20
8.7855998827
 30
0.0
 10
10.1602445841
 20
8.7853345647
 30
0.0
 10
10.1561492572
 20
8.7848169045
 30
0.0
 10
10.1508722635
 20
8.7838725452
 30
0.0
 10
10.1472475227
 20
8.7830933559
 30
0.0
 10
10.1438677539
 20
8.7822375604
 30
0.0
 10
10.1407370192
 20
8.7813152789
 30
0.0
 10
10.1378569652
 20
8.7803353546
 30
0.0
 10
10.1360366924
 20
8.7796226748
 30
0.0
 10
10.135170143
 20
8.7792571593
 30
0.0
  0
SPLINE
  5
3ED
100
AcDbEntity
  8
0
100
AcDbSpline
 62
7
  6
CONTINUOUS
 70
0
 71
3
 72
13
 73
9
 74
0
 42
0.0000001
 43
0.0000001
 44
0.0000000001
 40
0.0
 40
0.0
 40
0.0
 40
0.0
 40
0.2466238474
 40
0.4952787132
 40
0.6205667456
 40
0.7464530001
 40
0.8729477561
 40
1.0
 40
1.0
 40
1.0
 40
1.0
 10
10.135170143
 20
8.8077517431
 30
0.0
 10
10.1368425945
 20
8.8052879715
 30
0.0
 10
10.140529383
 20
8.8005532782
 30
0.0
 10
10.1459515569
 20
8.7953375306
 30
0.0
 10
10.1507745572
 20
8.7916996837
 30
0.0
 10
10.1546412809
 20
8.7892708874
 30
0.0
 10
10.1587326291
 20
8.7871952485
 30
0.0
 10
10.1615909305
 20
8.786081405
 30
0.0
 10
10.1630474585
 20
8.7855998827
 30
0.0
  0
SPLINE
  5
3EE
100
AcDbEntity
  8
0
100
AcDbSpline
 62
7
  6
CONTINUOUS
 70
0
 71
3
 72
14
 73
10
 74
0
 42
0.0000001
 43
0.0000001
 44
0.0000000001
 40
0.0
 40
0.0
 40
0.0
 40
0.0
 40
0.2913441935
 40
0.4272957437
 40
0.5561926061
 40
0.6778709206
 40
0.7923199091
 40
0.8996502035
 40
1.0
 40
1.0
 40
1.0
 40
1.0
 10
10.1630474585
 20
8.8156245162
 30
0.0
 10
10.1602391952
 20
8.8152945626
 30
0.0
 10
10.1561363175
 20
8.8146500464
 30
0.0
 10
10.1508657495
 20
8.8134789111
 30
0.0
 10
10.1472400821
 20
8.8125111995
 30
0.0
 10
10.143859414
 20
8.8114482908
 30
0.0
 10
10.1407277285
 20
8.8103027086
 30
0.0
 10
10.137846727
 20
8.8090854204
 30
0.0
 10
10.136032965
 20
8.8082034801
 30
0.0
 10
10.135170143
 20
8.8077517431
 30
0.0
  0
SPLINE
  5
3EF
100
AcDbEntity
  8
0
100
AcDbSpline
 62
7
  6
CONTINUOUS
 70
0
 71
3
 72
13
 73
9
 74
0
 42
0.0000001
 43
0.0000001
 44
0.0000000001
 40
0.0
 40
0.0
 40
0.0
 40
0.0
 40
0.2451332758
 40
0.4932382938
 40
0.6186395315
 40
0.7449080055
 40
0.8720507876
 40
1.0
 40
1.0
 40
1.0
 40
1.0
 10
10.135170143
 20
8.8371874785
 30
0.0
 10
10.136845505
 20
8.8347850316
 30
0.0
 10
10.1405409707
 20
8.8301676947
 30
0.0
 10
10.1459601093
 20
8.8250965967
 30
0.0
 10
10.1507785541
 20
8.821559473
 30
0.0
 10
10.154645429
 20
8.8191956403
 30
0.0
 10
10.1587367042
 20
8.8171757043
 30
0.0
 10
10.1615921827
 20
8.8160928344
 30
0.0
 10
10.1630474585
 20
8.8156245162
 30
0.0
  0
SPLINE
  5
3F0
100
AcDbEntity
  8
0
100
AcDbSpline
 62
7
  6
CONTINUOUS
 70
0
 71
3
 72
13
 73
9
 74
0
 42
0.0000001
 43
0.0000001
 44
0.0000000001
 40
0.0
 40
0.0
 40
0.0
 40
0.0
 40
0.131626069
 40
0.2614451313
 40
0.3893117475
 40
0.5152087252
 40
0.7610806029
 40
1.0
 40
1.0
 40
1.0
 40
1.0
 10
10.1630474585
 20
9.4919812953
 30
0.0
 10
10.1615969812
 20
9.4915655346
 30
0.0
 10
10.158752564
 20
9.4906057447
 30
0.0
 10
10.1546619085
 20
9.4888085409
 30
0.0
 10
10.1507947803
 20
9.4867046593
 30
0.0
 10
10.1459956402
 20
9.4835691279
 30
0.0
 10
10.1405912424
 20
9.4790763333
 30
0.0
 10
10.1368585298
 20
9.4749314559
 30
0.0
 10
10.135170143
 20
9.4727749347
 30
0.0
  0
SPLINE
  5
3F1
100
AcDbEntity
  8
0
100
AcDbSpline
 62
7
  6
CONTINUOUS
 70
0
 71
3
 72
14
 73
10
 74
0
 42
0.0000001
 43
0.0000001
 44
0.0000000001
 40
0.0
 40
0.0
 40
0.0
 40
0.0
 40
0.2879533801
 40
0.4229508075
 40
0.551451736
 40
0.6733333007
 40
0.7886195456
 40
0.8974529616
 40
1.0
 40
1.0
 40
1.0
 40
1.0
 10
10.1630474585
 20
8.8465535947
 30
0.0
 10
10.1602328963
 20
8.8461601736
 30
0.0
 10
10.1561214253
 20
8.8453906988
 30
0.0
 10
10.1508583626
 20
8.843998863
 30
0.0
 10
10.1472317785
 20
8.8428468825
 30
0.0
 10
10.1438502875
 20
8.8415815372
 30
0.0
 10
10.1407177977
 20
8.8402176976
 30
0.0
 10
10.1378360781
 20
8.8387684192
 30
0.0
 10
10.1360292047
 20
8.8377225608
 30
0.0
 10
10.135170143
 20
8.8371874785
 30
0.0
  0
LINE
  5
3F2
100
AcDbEntity
  8
0
100
AcDbLine
 62
7
  6
CONTINUOUS
 10
10.2178062349
 20
8.5412407976
 11
10.2177208876
 21
8.5411402117
  0
LINE
  5
3F3
100
AcDbEntity
  8
0
100
AcDbLine
 62
7
  6
CONTINUOUS
 10
10.2178590471
 20
8.5456323957
 11
10.2177178481
 21
8.5454572875
  0
SPLINE
  5
3F4
100
AcDbEntity
  8
0
100
AcDbSpline
 62
7
  6
CONTINUOUS
 70
0
 71
3
 72
11
 73
7
 74
0
 42
0.0000001
 43
0.0000001
 44
0.0000000001
 40
0.0
 40
0.0
 40
0.0
 40
0.0
 40
0.2639995802
 40
0.518588236
 40
0.7636390993
 40
1.0
 40
1.0
 40
1.0
 40
1.0
 10
10.1630474585
 20
9.4953812836
 30
0.0
 10
10.160176969
 20
9.4946000473
 30
0.0
 10
10.1546622928
 20
9.4925667806
 30
0.0
 10
10.1471498189
 20
9.4883021406
 30
0.0
 10
10.1406141787
 20
9.4831489791
 30
0.0
 10
10.1368645853
 20
9.4791998389
 30
0.0
 10
10.135170143
 20
9.4771448824
 30
0.0
  0
SPLINE
  5
3F5
100
AcDbEntity
  8
0
100
AcDbSpline
 62
7
  6
CONTINUOUS
 70
0
 71
3
 72
12
 73
8
 74
0
 42
0.0000001
 43
0.0000001
 44
0.0000000001
 40
0.0
 40
0.0
 40
0.0
 40
0.0
 40
0.2434091256
 40
0.4909199658
 40
0.7430193704
 40
0.8709602
 40
1.0
 40
1.0
 40
1.0
 40
1.0
 10
10.135170143
 20
8.8674271224
 30
0.0
 10
10.1368490809
 20
8.8650965254
 30
0.0
 10
10.140555973
 20
8.8606163319
 30
0.0
 10
10.1470783756
 20
8.8547111109
 30
0.0
 10
10.1533146325
 20
8.8506459293
 30
0.0
 10
10.1587412736
 20
8.8480533194
 30
0.0
 10
10.1615936225
 20
8.8470064909
 30
0.0
 10
10.1630474585
 20
8.8465535947
 30
0.0
  0
SPLINE
  5
3F6
100
AcDbEntity
  8
0
100
AcDbSpline
 62
7
  6
CONTINUOUS
 70
0
 71
3
 72
13
 73
9
 74
0
 42
0.0000001
 43
0.0000001
 44
0.0000000001
 40
0.0
 40
0.0
 40
0.0
 40
0.0
 40
0.2843855656
 40
0.4183970099
 40
0.5465079082
 40
0.6686336912
 40
0.7848281244
 40
1.0
 40
1.0
 40
1.0
 40
1.0
 10
10.1630474585
 20
8.8782429127
 30
0.0
 10
10.1602258399
 20
8.8777874593
 30
0.0
 10
10.1561050452
 20
8.8768954681
 30
0.0
 10
10.1508503488
 20
8.8752900788
 30
0.0
 10
10.1472230043
 20
8.8739590069
 30
0.0
 10
10.1438405782
 20
8.8724967749
 30
0.0
 10
10.1397677186
 20
8.8704480725
 30
0.0
 10
10.1369257114
 20
8.8686898589
 30
0.0
 10
10.135170143
 20
8.8674271224
 30
0.0
  0
SPLINE
  5
3F7
100
AcDbEntity
  8
0
100
AcDbSpline
 62
9
  6
CONTINUOUS
 70
0
 71
3
 72
17
 73
13
 74
0
 42
0.0000001
 43
0.0000001
 44
0.0000000001
 40
0.0
 40
0.0
 40
0.0
 40
0.0
 40
0.1378450979
 40
0.2711559244
 40
0.3361676572
 40
0.4001361873
 40
0.4631305288
 40
0.5252229978
 40
0.6469785504
 40
0.7661571982
 40
0.8835440401
 40
1.0
 40
1.0
 40
1.0
 40
1.0
 10
10.135170143
 20
9.3419491485
 30
0.0
 10
10.1340388757
 20
9.3410648254
 30
0.0
 10
10.1318884125
 20
9.3392262439
 30
0.0
 10
10.129461156
 20
9.3366929318
 30
0.0
 10
10.1277356675
 20
9.334572983
 30
0.0
 10
10.1265594702
 20
9.3329544485
 30
0.0
 10
10.1254911376
 20
9.3312987998
 30
0.0
 10
10.1242199959
 20
9.329062429
 30
0.0
 10
10.1228964623
 20
9.326188289
 30
0.0
 10
10.12174446
 20
9.3226285499
 30
0.0
 10
10.121045834
 20
9.319009009
 30
0.0
 10
10.1208882214
 20
9.3165703952
 30
0.0
 10
10.1208882124
 20
9.3153573054
 30
0.0
  0
SPLINE
  5
3F8
100
AcDbEntity
  8
0
100
AcDbSpline
 62
7
  6
CONTINUOUS
 70
0
 71
3
 72
13
 73
9
 74
0
 42
0.0000001
 43
0.0000001
 44
0.0000000001
 40
0.0
 40
0.0
 40
0.0
 40
0.0
 40
0.125024286
 40
0.250061372
 40
0.3750947934
 40
0.5001378858
 40
0.7500423076
 40
1.0
 40
1.0
 40
1.0
 40
1.0
 10
10.1630474585
 20
9.3654584121
 30
0.0
 10
10.1615879732
 20
9.3649463459
 30
0.0
 10
10.1587231032
 20
9.363760782
 30
0.0
 10
10.1546317168
 20
9.3615566992
 30
0.0
 10
10.1507654682
 20
9.3589781757
 30
0.0
 10
10.1459323999
 20
9.35510769
 30
0.0
 10
10.1405041149
 20
9.3495584682
 30
0.0
 10
10.1368363592
 20
9.3445541447
 30
0.0
 10
10.135170143
 20
9.3419491485
 30
0.0
  0
SPLINE
  5
3F9
100
AcDbEntity
  8
0
100
AcDbSpline
 62
7
  6
CONTINUOUS
 70
0
 71
3
 72
15
 73
11
 74
0
 42
0.0000001
 43
0.0000001
 44
0.0000000001
 40
0.0
 40
0.0
 40
0.0
 40
0.0
 40
0.1250676162
 40
0.2501261236
 40
0.3751545469
 40
0.5001652177
 40
0.6251534127
 40
0.7501153148
 40
0.875078099
 40
1.0
 40
1.0
 40
1.0
 40
1.0
 10
10.1904104298
 20
9.3873085414
 30
0.0
 10
10.1918275007
 20
9.3868289217
 30
0.0
 10
10.1946156085
 20
9.3857278423
 30
0.0
 10
10.1986173589
 20
9.3836832003
 30
0.0
 10
10.2024124458
 20
9.3812778947
 30
0.0
 10
10.2059767984
 20
9.3785445909
 30
0.0
 10
10.2092940504
 20
9.375518202
 30
0.0
 10
10.2123590789
 20
9.372238477
 30
0.0
 10
10.2151782295
 20
9.3687473628
 30
0.0
 10
10.2168995783
 20
9.3663008064
 30
0.0
 10
10.2177215812
 20
9.3650529187
 30
0.0
  0
SPLINE
  5
3FA
100
AcDbEntity
  8
0
100
AcDbSpline
 62
7
  6
CONTINUOUS
 70
0
 71
3
 72
15
 73
11
 74
0
 42
0.0000001
 43
0.0000001
 44
0.0000000001
 40
0.0
 40
0.0
 40
0.0
 40
0.0
 40
0.1249880904
 40
0.2499881029
 40
0.3749812867
 40
0.4999811224
 40
0.6249828899
 40
0.7499814893
 40
0.8750018934
 40
1.0
 40
1.0
 40
1.0
 40
1.0
 10
10.1904104298
 20
9.3654584121
 30
0.0
 10
10.1918276
 20
9.364977638
 30
0.0
 10
10.1946159384
 20
9.3638738705
 30
0.0
 10
10.1986176898
 20
9.3618244102
 30
0.0
 10
10.2024127601
 20
9.3594134533
 30
0.0
 10
10.2059770776
 20
9.3566737475
 30
0.0
 10
10.209294279
 20
9.3536402938
 30
0.0
 10
10.2123592513
 20
9.3503529344
 30
0.0
 10
10.21517835
 20
9.3468536981
 30
0.0
 10
10.2168995483
 20
9.3444016181
 30
0.0
 10
10.2177214916
 20
9.3431509049
 30
0.0
  0
SPLINE
  5
3FB
100
AcDbEntity
  8
0
100
AcDbSpline
 62
7
  6
CONTINUOUS
 70
0
 71
3
 72
12
 73
8
 74
0
 42
0.0000001
 43
0.0000001
 44
0.0000000001
 40
0.0
 40
0.0
 40
0.0
 40
0.0
 40
0.2413369058
 40
0.4881003876
 40
0.7409017665
 40
0.8697343193
 40
1.0
 40
1.0
 40
1.0
 40
1.0
 10
10.135170143
 20
8.8983296837
 30
0.0
 10
10.136853394
 20
8.8960811691
 30
0.0
 10
10.1405726137
 20
8.8917586796
 30
0.0
 10
10.1470989403
 20
8.8860776381
 30
0.0
 10
10.153327571
 20
8.882174564
 30
0.0
 10
10.1587465797
 20
8.8796839728
 30
0.0
 10
10.1615952302
 20
8.8786782565
 30
0.0
 10
10.1630474585
 20
8.8782429127
 30
0.0
  0
SPLINE
  5
3FC
100
AcDbEntity
  8
0
100
AcDbSpline
 62
7
  6
CONTINUOUS
 70
0
 71
3
 72
11
 73
7
 74
0
 42
0.0000001
 43
0.0000001
 44
0.0000000001
 40
0.0
 40
0.0
 40
0.0
 40
0.0
 40
0.2807704356
 40
0.541429928
 40
0.780869687
 40
1.0
 40
1.0
 40
1.0
 40
1.0
 10
10.1630474585
 20
8.9105447198
 30
0.0
 10
10.1602181905
 20
8.9100289497
 30
0.0
 10
10.1548157592
 20
8.9087060092
 30
0.0
 10
10.1473145585
 20
8.9058763914
 30
0.0
 10
10.1407735176
 20
8.9024479887
 30
0.0
 10
10.1369122959
 20
8.8997448834
 30
0.0
 10
10.135170143
 20
8.8983296837
 30
0.0
  0
SPLINE
  5
3FD
100
AcDbEntity
  8
0
100
AcDbSpline
 62
7
  6
CONTINUOUS
 70
0
 71
3
 72
15
 73
11
 74
0
 42
0.0000001
 43
0.0000001
 44
0.0000000001
 40
0.0
 40
0.0
 40
0.0
 40
0.0
 40
0.1253063465
 40
0.2505405442
 40
0.3756749014
 40
0.5007182456
 40
0.6256657887
 40
0.7505175153
 40
0.8753071744
 40
1.0
 40
1.0
 40
1.0
 40
1.0
 10
10.1904104298
 20
9.4073976608
 30
0.0
 10
10.191827188
 20
9.4069215031
 30
0.0
 10
10.1946145753
 20
9.4058284856
 30
0.0
 10
10.1986162794
 20
9.4037983049
 30
0.0
 10
10.202411378
 20
9.4014099639
 30
0.0
 10
10.2059758034
 20
9.3986958797
 30
0.0
 10
10.2092931814
 20
9.3956907011
 30
0.0
 10
10.2123583614
 20
9.3924338986
 30
0.0
 10
10.2151776491
 20
9.3889671638
 30
0.0
 10
10.216899435
 20
9.3865371829
 30
0.0
 10
10.2177216085
 20
9.3852977723
 30
0.0
  0
SPLINE
  5
3FE
100
AcDbEntity
  8
0
100
AcDbSpline
 62
7
  6
CONTINUOUS
 70
0
 71
3
 72
13
 73
9
 74
0
 42
0.0000001
 43
0.0000001
 44
0.0000000001
 40
0.0
 40
0.0
 40
0.0
 40
0.0
 40
0.2389193515
 40
0.4847908935
 40
0.6106878411
 40
0.7385546481
 40
0.8683740119
 40
1.0
 40
1.0
 40
1.0
 40
1.0
 10
10.135170143
 20
8.9297510804
 30
0.0
 10
10.1368585295
 20
8.9275945595
 30
0.0
 10
10.1405912389
 20
8.9234496851
 30
0.0
 10
10.1459956331
 20
8.9189568938
 30
0.0
 10
10.1507947699
 20
8.915821361
 30
0.0
 10
10.1546619029
 20
8.9137174772
 30
0.0
 10
10.1587525623
 20
8.9119202704
 30
0.0
 10
10.161596982
 20
8.9109604802
 30
0.0
 10
10.1630474585
 20
8.9105447198
 30
0.0
  0
SPLINE
  5
3FF
100
AcDbEntity
  8
0
100
AcDbSpline
 62
7
  6
CONTINUOUS
 70
0
 71
3
 72
12
 73
8
 74
0
 42
0.0000001
 43
0.0000001
 44
0.0000000001
 40
0.0
 40
0.0
 40
0.0
 40
0.0
 40
0.2770732263
 40
0.4090995249
 40
0.5364564318
 40
0.7770522765
 40
1.0
 40
1.0
 40
1.0
 40
1.0
 10
10.1630474585
 20
8.9433084101
 30
0.0
 10
10.1602101188
 20
8.9427343296
 30
0.0
 10
10.1560696648
 20
8.9416070426
 30
0.0
 10
10.1508334224
 20
8.9396000018
 30
0.0
 10
10.1460853231
 20
8.9374141639
 30
0.0
 10
10.140735568
 20
8.93429661
 30
0.0
 10
10.1369001533
 20
8.9313108468
 30
0.0
 10
10.135170143
 20
8.9297510804
 30
0.0
  0
SPLINE
  5
400
100
AcDbEntity
  8
0
100
AcDbSpline
 62
7
  6
CONTINUOUS
 70
0
 71
3
 72
11
 73
7
 74
0
 42
0.0000001
 43
0.0000001
 44
0.0000000001
 40
0.0
 40
0.0
 40
0.0
 40
0.0
 40
0.2363609038
 40
0.4814117601
 40
0.7360004163
 40
1.0
 40
1.0
 40
1.0
 40
1.0
 10
10.135170143
 20
8.9615448113
 30
0.0
 10
10.1368645853
 20
8.9594898548
 30
0.0
 10
10.1406141787
 20
8.9555407146
 30
0.0
 10
10.1471498189
 20
8.9503875531
 30
0.0
 10
10.1546622927
 20
8.9461229132
 30
0.0
 10
10.160176969
 20
8.9440896464
 30
0.0
 10
10.1630474585
 20
8.9433084101
 30
0.0
  0
SPLINE
  5
401
100
AcDbEntity
  8
0
100
AcDbSpline
 62
7
  6
CONTINUOUS
 70
0
 71
3
 72
15
 73
11
 74
0
 42
0.0000001
 43
0.0000001
 44
0.0000000001
 40
0.0
 40
0.0
 40
0.0
 40
0.0
 40
0.1257046975
 40
0.251232368
 40
0.376543985
 40
0.5016423467
 40
0.6265223726
 40
0.7511902202
 40
0.8756904801
 40
1.0
 40
1.0
 40
1.0
 40
1.0
 10
10.1904104298
 20
9.4256321057
 30
0.0
 10
10.1918266455
 20
9.4251617044
 30
0.0
 10
10.1946127886
 20
9.424082091
 30
0.0
 10
10.1986143432
 20
9.4220759814
 30
0.0
 10
10.2024093966
 20
9.4197158854
 30
0.0
 10
10.2059738881
 20
9.4170338045
 30
0.0
 10
10.2092914317
 20
9.4140639461
 30
0.0
 10
10.2123568352
 20
9.4108453189
 30
0.0
 10
10.2151763212
 20
9.4074191729
 30
0.0
 10
10.2168988162
 20
9.4050167829
 30
0.0
 10
10.2177212622
 20
9.4037914796
 30
0.0
  0
SPLINE
  5
402
100
AcDbEntity
  8
0
100
AcDbSpline
 62
7
  6
CONTINUOUS
 70
0
 71
3
 72
11
 73
7
 74
0
 42
0.0000001
 43
0.0000001
 44
0.0000000001
 40
0.0
 40
0.0
 40
0.0
 40
0.0
 40
0.2735494421
 40
0.5315159382
 40
0.7733230335
 40
1.0
 40
1.0
 40
1.0
 40
1.0
 10
10.1630474585
 20
8.9763812242
 30
0.0
 10
10.1602017966
 20
8.9757511386
 30
0.0
 10
10.1547527833
 20
8.9741249067
 30
0.0
 10
10.1472433929
 20
8.9706727994
 30
0.0
 10
10.1407006931
 20
8.9664935822
 30
0.0
 10
10.1368893601
 20
8.9632410867
 30
0.0
 10
10.135170143
 20
8.9615448113
 30
0.0
  0
SPLINE
  5
403
100
AcDbEntity
  8
0
100
AcDbSpline
 62
7
  6
CONTINUOUS
 70
0
 71
3
 72
11
 73
7
 74
0
 42
0.0000001
 43
0.0000001
 44
0.0000000001
 40
0.0
 40
0.0
 40
0.0
 40
0.0
 40
0.2334011949
 40
0.4774362205
 40
0.7330470902
 40
1.0
 40
1.0
 40
1.0
 40
1.0
 10
10.135170143
 20
8.9935626395
 30
0.0
 10
10.1368716688
 20
8.9916184697
 30
0.0
 10
10.1406397921
 20
8.9878838225
 30
0.0
 10
10.1471786386
 20
8.9830326029
 30
0.0
 10
10.1546911711
 20
8.9790204883
 30
0.0
 10
10.1601850658
 20
8.9771151894
 30
0.0
 10
10.1630474585
 20
8.9763812242
 30
0.0
  0
SPLINE
  5
404
100
AcDbEntity
  8
0
100
AcDbSpline
 62
7
  6
CONTINUOUS
 70
0
 71
3
 72
13
 73
9
 74
0
 42
0.0000001
 43
0.0000001
 44
0.0000000001
 40
0.0
 40
0.0
 40
0.0
 40
0.0
 40
0.2700678439
 40
0.5267314097
 40
0.6499324502
 40
0.769761579
 40
0.8863978202
 40
1.0
 40
1.0
 40
1.0
 40
1.0
 10
10.1630474585
 20
9.0096089613
 30
0.0
 10
10.160193392
 20
9.0089254796
 30
0.0
 10
10.1547219628
 20
9.0071564666
 30
0.0
 10
10.1483768234
 20
9.0039964088
 30
0.0
 10
10.1438049454
 20
9.0010593516
 30
0.0
 10
10.1406717605
 20
8.9987172368
 30
0.0
 10
10.1377904095
 20
8.996228982
 30
0.0
 10
10.1360142706
 20
8.9944634228
 30
0.0
 10
10.135170143
 20
8.9935626395
 30
0.0
  0
SPLINE
  5
405
100
AcDbEntity
  8
0
100
AcDbSpline
 62
7
  6
CONTINUOUS
 70
0
 71
3
 72
15
 73
11
 74
0
 42
0.0000001
 43
0.0000001
 44
0.0000000001
 40
0.0
 40
0.0
 40
0.0
 40
0.0
 40
0.1262632613
 40
0.2522030908
 40
0.3777642979
 40
0.5029408601
 40
0.6277268795
 40
0.7521368113
 40
0.8762301928
 40
1.0
 40
1.0
 40
1.0
 40
1.0
 10
10.1904104298
 20
9.4419268586
 30
0.0
 10
10.1918259092
 20
9.4414644653
 30
0.0
 10
10.194610351
 20
9.4404034909
 30
0.0
 10
10.1986117232
 20
9.4384308917
 30
0.0
 10
10.2024067333
 20
9.43611012
 30
0.0
 10
10.2059713326
 20
9.4334726003
 30
0.0
 10
10.2092891209
 20
9.4305519252
 30
0.0
 10
10.2123548471
 20
9.4273864561
 30
0.0
 10
10.2151746251
 20
9.4240168338
 30
0.0
 10
10.2168981439
 20
9.4216528757
 30
0.0
 10
10.2177209879
 20
9.4204472208
 30
0.0
  0
SPLINE
  5
406
100
AcDbEntity
  8
0
100
AcDbSpline
 62
7
  6
CONTINUOUS
 70
0
 71
3
 72
13
 73
9
 74
0
 42
0.0000001
 43
0.0000001
 44
0.0000000001
 40
0.0
 40
0.0
 40
0.0
 40
0.0
 40
0.1136021804
 40
0.2302384241
 40
0.3500675527
 40
0.4732685863
 40
0.7299321524
 40
1.0
 40
1.0
 40
1.0
 40
1.0
 10
10.135170143
 20
9.0256552831
 30
0.0
 10
10.1360142706
 20
9.0247544999
 30
0.0
 10
10.1377904096
 20
9.0229889407
 30
0.0
 10
10.1406717606
 20
9.0205006858
 30
0.0
 10
10.1438049454
 20
9.018158571
 30
0.0
 10
10.1483768234
 20
9.0152215139
 30
0.0
 10
10.1547219627
 20
9.0120614561
 30
0.0
 10
10.1601933919
 20
9.0102924431
 30
0.0
 10
10.1630474585
 20
9.0096089613
 30
0.0
  0
SPLINE
  5
407
100
AcDbEntity
  8
0
100
AcDbSpline
 62
7
  6
CONTINUOUS
 70
0
 71
3
 72
11
 73
7
 74
0
 42
0.0000001
 43
0.0000001
 44
0.0000000001
 40
0.0
 40
0.0
 40
0.0
 40
0.0
 40
0.2669529062
 40
0.5225637755
 40
0.7665988083
 40
1.0
 40
1.0
 40
1.0
 40
1.0
 10
10.1630474585
 20
9.0428366985
 30
0.0
 10
10.1601850659
 20
9.0421027333
 30
0.0
 10
10.1546911712
 20
9.0401974344
 30
0.0
 10
10.1471786387
 20
9.0361853197
 30
0.0
 10
10.1406397921
 20
9.0313341001
 30
0.0
 10
10.1368716688
 20
9.0275994529
 30
0.0
 10
10.135170143
 20
9.0256552831
 30
0.0
  0
SPLINE
  5
408
100
AcDbEntity
  8
0
100
AcDbSpline
 62
7
  6
CONTINUOUS
 70
0
 71
3
 72
11
 73
7
 74
0
 42
0.0000001
 43
0.0000001
 44
0.0000000001
 40
0.0
 40
0.0
 40
0.0
 40
0.0
 40
0.2266769562
 40
0.4684840561
 40
0.7264505633
 40
1.0
 40
1.0
 40
1.0
 40
1.0
 10
10.135170143
 20
9.0576731113
 30
0.0
 10
10.13688936
 20
9.0559768361
 30
0.0
 10
10.140700693
 20
9.0527243406
 30
0.0
 10
10.1472433928
 20
9.0485451233
 30
0.0
 10
10.1547527833
 20
9.0450930159
 30
0.0
 10
10.1602017966
 20
9.0434667841
 30
0.0
 10
10.1630474585
 20
9.0428366985
 30
0.0
  0
SPLINE
  5
409
100
AcDbEntity
  8
0
100
AcDbSpline
 62
7
  6
CONTINUOUS
 70
0
 71
3
 72
15
 73
11
 74
0
 42
0.0000001
 43
0.0000001
 44
0.0000000001
 40
0.0
 40
0.0
 40
0.0
 40
0.0
 40
0.1278630878
 40
0.2549875867
 40
0.3812703301
 40
0.5066776992
 40
0.631198828
 40
0.7548695716
 40
0.8777905926
 40
1.0
 40
1.0
 40
1.0
 40
1.0
 10
10.1904104298
 20
9.468402792
 30
0.0
 10
10.1918239122
 20
9.4679629681
 30
0.0
 10
10.1946036775
 20
9.4669544803
 30
0.0
 10
10.1986045926
 20
9.4650764943
 30
0.0
 10
10.2023995123
 20
9.4628667801
 30
0.0
 10
10.2059644349
 20
9.4603551391
 30
0.0
 10
10.2092829364
 20
9.4575734234
 30
0.0
 10
10.2123495998
 20
9.4545581468
 30
0.0
 10
10.215170254
 20
9.4513482386
 30
0.0
 10
10.2168968534
 20
9.4490929261
 30
0.0
 10
10.2177209154
 20
9.4479427987
 30
0.0
  0
SPLINE
  5
40A
100
AcDbEntity
  8
0
100
AcDbSpline
 62
7
  6
CONTINUOUS
 70
0
 71
3
 72
11
 73
7
 74
0
 42
0.0000001
 43
0.0000001
 44
0.0000000001
 40
0.0
 40
0.0
 40
0.0
 40
0.0
 40
0.2639995802
 40
0.518588236
 40
0.7636390993
 40
1.0
 40
1.0
 40
1.0
 40
1.0
 10
10.1630474585
 20
9.0759095126
 30
0.0
 10
10.160176969
 20
9.0751282762
 30
0.0
 10
10.1546622928
 20
9.0730950095
 30
0.0
 10
10.1471498189
 20
9.0688303695
 30
0.0
 10
10.1406141787
 20
9.063677208
 30
0.0
 10
10.1368645853
 20
9.0597280679
 30
0.0
 10
10.135170143
 20
9.0576731113
 30
0.0
  0
SPLINE
  5
40B
100
AcDbEntity
  8
0
100
AcDbSpline
 62
7
  6
CONTINUOUS
 70
0
 71
3
 72
12
 73
8
 74
0
 42
0.0000001
 43
0.0000001
 44
0.0000000001
 40
0.0
 40
0.0
 40
0.0
 40
0.0
 40
0.222947759
 40
0.463543943
 40
0.5909008913
 40
0.7229270069
 40
1.0
 40
1.0
 40
1.0
 40
1.0
 10
10.135170143
 20
9.0894668423
 30
0.0
 10
10.1369001536
 20
9.0879070757
 30
0.0
 10
10.1407355715
 20
9.0849213102
 30
0.0
 10
10.1460853304
 20
9.0818037541
 30
0.0
 10
10.1508334325
 20
9.0796179172
 30
0.0
 10
10.1560696711
 20
9.0776108776
 30
0.0
 10
10.1602101212
 20
9.0764835926
 30
0.0
 10
10.1630474585
 20
9.0759095126
 30
0.0
  0
SPLINE
  5
40C
100
AcDbEntity
  8
0
100
AcDbSpline
 62
7
  6
CONTINUOUS
 70
0
 71
3
 72
13
 73
9
 74
0
 42
0.0000001
 43
0.0000001
 44
0.0000000001
 40
0.0
 40
0.0
 40
0.0
 40
0.0
 40
0.131625986
 40
0.2614453512
 40
0.3893121545
 40
0.5152090987
 40
0.7610806443
 40
1.0
 40
1.0
 40
1.0
 40
1.0
 10
10.1630474585
 20
9.1086732029
 30
0.0
 10
10.1615969821
 20
9.1082574425
 30
0.0
 10
10.1587525623
 20
9.1072976523
 30
0.0
 10
10.154661903
 20
9.1055004455
 30
0.0
 10
10.15079477
 20
9.1033965617
 30
0.0
 10
10.1459956332
 20
9.1002610289
 30
0.0
 10
10.140591239
 20
9.0957682377
 30
0.0
 10
10.1368585295
 20
9.0916233632
 30
0.0
 10
10.135170143
 20
9.0894668423
 30
0.0
  0
SPLINE
  5
40D
100
AcDbEntity
  8
0
100
AcDbSpline
 62
7
  6
CONTINUOUS
 70
0
 71
3
 72
11
 73
7
 74
0
 42
0.0000001
 43
0.0000001
 44
0.0000000001
 40
0.0
 40
0.0
 40
0.0
 40
0.0
 40
0.219130316
 40
0.458570068
 40
0.7192295606
 40
1.0
 40
1.0
 40
1.0
 40
1.0
 10
10.135170143
 20
9.120888239
 30
0.0
 10
10.1369122959
 20
9.1194730392
 30
0.0
 10
10.1407735176
 20
9.116769934
 30
0.0
 10
10.1473145584
 20
9.1133415313
 30
0.0
 10
10.1548157591
 20
9.1105119135
 30
0.0
 10
10.1602181905
 20
9.109188973
 30
0.0
 10
10.1630474585
 20
9.1086732029
 30
0.0
  0
SPLINE
  5
40E
100
AcDbEntity
  8
0
100
AcDbSpline
 62
7
  6
CONTINUOUS
 70
0
 71
3
 72
12
 73
8
 74
0
 42
0.0000001
 43
0.0000001
 44
0.0000000001
 40
0.0
 40
0.0
 40
0.0
 40
0.0
 40
0.1302656721
 40
0.2590982301
 40
0.5118996085
 40
0.7586630974
 40
1.0
 40
1.0
 40
1.0
 40
1.0
 10
10.1630474585
 20
9.14097501
 30
0.0
 10
10.1615952303
 20
9.1405396662
 30
0.0
 10
10.1587465798
 20
9.13953395
 30
0.0
 10
10.1533275712
 20
9.1370433588
 30
0.0
 10
10.1470989403
 20
9.1331402846
 30
0.0
 10
10.1405726136
 20
9.1274592431
 30
0.0
 10
10.136853394
 20
9.1231367535
 30
0.0
 10
10.135170143
 20
9.120888239
 30
0.0
  0
SPLINE
  5
40F
100
AcDbEntity
  8
0
100
AcDbSpline
 62
7
  6
CONTINUOUS
 70
0
 71
3
 72
13
 73
9
 74
0
 42
0.0000001
 43
0.0000001
 44
0.0000000001
 40
0.0
 40
0.0
 40
0.0
 40
0.0
 40
0.2151718656
 40
0.331366303
 40
0.4534920861
 40
0.5816029844
 40
0.71561444
 40
1.0
 40
1.0
 40
1.0
 40
1.0
 10
10.135170143
 20
9.1517908002
 30
0.0
 10
10.1369257113
 20
9.1505280638
 30
0.0
 10
10.1397677185
 20
9.1487698502
 30
0.0
 10
10.143840578
 20
9.1467211479
 30
0.0
 10
10.1472230042
 20
9.1452589158
 30
0.0
 10
10.1508503487
 20
9.1439278439
 30
0.0
 10
10.1561050452
 20
9.1423224546
 30
0.0
 10
10.16022584
 20
9.1414304633
 30
0.0
 10
10.1630474585
 20
9.14097501
 30
0.0
  0
SPLINE
  5
410
100
AcDbEntity
  8
0
100
AcDbSpline
 62
7
  6
CONTINUOUS
 70
0
 71
3
 72
12
 73
8
 74
0
 42
0.0000001
 43
0.0000001
 44
0.0000000001
 40
0.0
 40
0.0
 40
0.0
 40
0.0
 40
0.1290397914
 40
0.2569806262
 40
0.5090800303
 40
0.7565908776
 40
1.0
 40
1.0
 40
1.0
 40
1.0
 10
10.1630474585
 20
9.1726643279
 30
0.0
 10
10.1615936226
 20
9.1722114318
 30
0.0
 10
10.1587412737
 20
9.1711646034
 30
0.0
 10
10.1533146327
 20
9.1685719934
 30
0.0
 10
10.1470783756
 20
9.1645068118
 30
0.0
 10
10.140555973
 20
9.1586015908
 30
0.0
 10
10.1368490808
 20
9.1541213972
 30
0.0
 10
10.135170143
 20
9.1517908002
 30
0.0
  0
SPLINE
  5
411
100
AcDbEntity
  8
0
100
AcDbSpline
 62
7
  6
CONTINUOUS
 70
0
 71
3
 72
14
 73
10
 74
0
 42
0.0000001
 43
0.0000001
 44
0.0000000001
 40
0.0
 40
0.0
 40
0.0
 40
0.0
 40
0.102547039
 40
0.2113804575
 40
0.3266667022
 40
0.44854826
 40
0.5770491922
 40
0.712046616
 40
1.0
 40
1.0
 40
1.0
 40
1.0
 10
10.135170143
 20
9.1820304442
 30
0.0
 10
10.1360292047
 20
9.1814953618
 30
0.0
 10
10.1378360782
 20
9.1804495035
 30
0.0
 10
10.1407177978
 20
9.179000225
 30
0.0
 10
10.1438502875
 20
9.1776363855
 30
0.0
 10
10.1472317784
 20
9.1763710402
 30
0.0
 10
10.1508583625
 20
9.1752190597
 30
0.0
 10
10.1561214253
 20
9.1738272238
 30
0.0
 10
10.1602328963
 20
9.1730577491
 30
0.0
 10
10.1630474585
 20
9.1726643279
 30
0.0
  0
SPLINE
  5
412
100
AcDbEntity
  8
0
100
AcDbSpline
 62
7
  6
CONTINUOUS
 70
0
 71
3
 72
13
 73
9
 74
0
 42
0.0000001
 43
0.0000001
 44
0.0000000001
 40
0.0
 40
0.0
 40
0.0
 40
0.0
 40
0.1279492222
 40
0.2550919995
 40
0.3813604632
 40
0.5067617005
 40
0.7548667134
 40
1.0
 40
1.0
 40
1.0
 40
1.0
 10
10.1630474585
 20
9.2035934065
 30
0.0
 10
10.1615921825
 20
9.2031250882
 30
0.0
 10
10.158736704
 20
9.2020422183
 30
0.0
 10
10.1546454289
 20
9.2000222823
 30
0.0
 10
10.1507785542
 20
9.1976584497
 30
0.0
 10
10.1459601095
 20
9.1941213261
 30
0.0
 10
10.1405409708
 20
9.1890502281
 30
0.0
 10
10.1368455051
 20
9.1844328911
 30
0.0
 10
10.135170143
 20
9.1820304442
 30
0.0
  0
SPLINE
  5
413
100
AcDbEntity
  8
0
100
AcDbSpline
 62
7
  6
CONTINUOUS
 70
0
 71
3
 72
14
 73
10
 74
0
 42
0.0000001
 43
0.0000001
 44
0.0000000001
 40
0.0
 40
0.0
 40
0.0
 40
0.0
 40
0.1003497971
 40
0.207680094
 40
0.3221290823
 40
0.4438073899
 40
0.572704256
 40
0.7086558025
 40
1.0
 40
1.0
 40
1.0
 40
1.0
 10
10.135170143
 20
9.2114661796
 30
0.0
 10
10.136032965
 20
9.2110144425
 30
0.0
 10
10.1378467271
 20
9.2101325023
 30
0.0
 10
10.1407277286
 20
9.2089152141
 30
0.0
 10
10.143859414
 20
9.2077696319
 30
0.0
 10
10.1472400821
 20
9.2067067232
 30
0.0
 10
10.1508657494
 20
9.2057390116
 30
0.0
 10
10.1561363174
 20
9.2045678762
 30
0.0
 10
10.1602391952
 20
9.2039233601
 30
0.0
 10
10.1630474585
 20
9.2035934065
 30
0.0
  0
SPLINE
  5
414
100
AcDbEntity
  8
0
100
AcDbSpline
 62
7
  6
CONTINUOUS
 70
0
 71
3
 72
13
 73
9
 74
0
 42
0.0000001
 43
0.0000001
 44
0.0000000001
 40
0.0
 40
0.0
 40
0.0
 40
0.0
 40
0.1270522331
 40
0.2535469957
 40
0.3794332539
 40
0.5047212821
 40
0.7533761569
 40
1.0
 40
1.0
 40
1.0
 40
1.0
 10
10.1630474585
 20
9.23361804
 30
0.0
 10
10.1615909306
 20
9.2331365178
 30
0.0
 10
10.1587326292
 20
9.2320226743
 30
0.0
 10
10.1546412811
 20
9.2299470354
 30
0.0
 10
10.1507745573
 20
9.2275182391
 30
0.0
 10
10.1459515569
 20
9.223880392
 30
0.0
 10
10.140529383
 20
9.2186646445
 30
0.0
 10
10.1368425945
 20
9.2139299511
 30
0.0
 10
10.135170143
 20
9.2114661796
 30
0.0
  0
SPLINE
  5
415
100
AcDbEntity
  8
0
100
AcDbSpline
 62
7
  6
CONTINUOUS
 70
0
 71
3
 72
14
 73
10
 74
0
 42
0.0000001
 43
0.0000001
 44
0.0000000001
 40
0.0
 40
0.0
 40
0.0
 40
0.0
 40
0.0983415743
 40
0.2043126266
 40
0.3180151647
 40
0.439523191
 40
0.5687888897
 40
0.705607577
 40
1.0
 40
1.0
 40
1.0
 40
1.0
 10
10.135170143
 20
9.2399607634
 30
0.0
 10
10.1360366924
 20
9.2395952479
 30
0.0
 10
10.1378569653
 20
9.238882568
 30
0.0
 10
10.1407370193
 20
9.2379026437
 30
0.0
 10
10.1438677539
 20
9.2369803622
 30
0.0
 10
10.1472475226
 20
9.2361245668
 30
0.0
 10
10.1508722634
 20
9.2353453775
 30
0.0
 10
10.1561492571
 20
9.2344010182
 30
0.0
 10
10.1602445841
 20
9.233883358
 30
0.0
 10
10.1630474585
 20
9.23361804
 30
0.0
  0
SPLINE
  5
416
100
AcDbEntity
  8
0
100
AcDbSpline
 62
7
  6
CONTINUOUS
 70
0
 71
3
 72
13
 73
9
 74
0
 42
0.0000001
 43
0.0000001
 44
0.0000000001
 40
0.0
 40
0.0
 40
0.0
 40
0.0
 40
0.1263201701
 40
0.2522875417
 40
0.3778641306
 40
0.5030619851
 40
0.7521669382
 40
1.0
 40
1.0
 40
1.0
 40
1.0
 10
10.1630474585
 20
9.2625982398
 30
0.0
 10
10.1615898838
 20
9.2621058079
 30
0.0
 10
10.1587292412
 20
9.2609663582
 30
0.0
 10
10.1546378584
 20
9.2588447752
 30
0.0
 10
10.1507712844
 20
9.2563624107
 30
0.0
 10
10.1459446123
 20
9.2526414086
 30
0.0
 10
10.1405201146
 20
9.2473063639
 30
0.0
 10
10.1368402899
 20
9.2424750767
 30
0.0
 10
10.135170143
 20
9.2399607634
 30
0.0
  0
SPLINE
  5
417
100
AcDbEntity
  8
0
100
AcDbSpline
 62
7
  6
CONTINUOUS
 70
0
 71
3
 72
14
 73
10
 74
0
 42
0.0000001
 43
0.0000001
 44
0.0000000001
 40
0.0
 40
0.0
 40
0.0
 40
0.0
 40
0.09662658
 40
0.2014482132
 40
0.3145276237
 40
0.4359017745
 40
0.5654873771
 40
0.7030426186
 40
1.0
 40
1.0
 40
1.0
 40
1.0
 10
10.135170143
 20
9.2673813408
 30
0.0
 10
10.1360401187
 20
9.2671046126
 30
0.0
 10
10.1378661064
 20
9.2665657679
 30
0.0
 10
10.1407451112
 20
9.2658273753
 30
0.0
 10
10.1438748666
 20
9.2651323393
 30
0.0
 10
10.1472537607
 20
9.2644873423
 30
0.0
 10
10.1508776499
 20
9.2639000447
 30
0.0
 10
10.1561598238
 20
9.2631873946
 30
0.0
 10
10.1602489281
 20
9.2627980082
 30
0.0
 10
10.1630474585
 20
9.2625982398
 30
0.0
  0
SPLINE
  5
418
100
AcDbEntity
  8
0
100
AcDbSpline
 62
7
  6
CONTINUOUS
 70
0
 71
3
 72
13
 73
9
 74
0
 42
0.0000001
 43
0.0000001
 44
0.0000000001
 40
0.0
 40
0.0
 40
0.0
 40
0.0
 40
0.1257522448
 40
0.251311395
 40
0.3766491506
 40
0.5017784175
 40
0.7512333184
 40
1.0
 40
1.0
 40
1.0
 40
1.0
 10
10.1630474585
 20
9.2903988868
 30
0.0
 10
10.1615890556
 20
9.2898979027
 30
0.0
 10
10.1587265735
 20
9.2887383717
 30
0.0
 10
10.1546351799
 20
9.2865808246
 30
0.0
 10
10.1507687389
 20
9.2840565365
 30
0.0
 10
10.1459392473
 20
9.2802703953
 30
0.0
 10
10.1405130392
 20
9.2748419771
 30
0.0
 10
10.1368385444
 20
9.269935196
 30
0.0
 10
10.135170143
 20
9.2673813408
 30
0.0
  0
SPLINE
  5
419
100
AcDbEntity
  8
0
100
AcDbSpline
 62
7
  6
CONTINUOUS
 70
0
 71
3
 72
13
 73
9
 74
0
 42
0.0000001
 43
0.0000001
 44
0.0000000001
 40
0.0
 40
0.0
 40
0.0
 40
0.0
 40
0.0953093823
 40
0.1992559503
 40
0.311866644
 40
0.43314633
 40
0.7010915023
 40
1.0
 40
1.0
 40
1.0
 40
1.0
 10
10.135170143
 20
9.2936000644
 30
0.0
 10
10.1360429192
 20
9.2934142628
 30
0.0
 10
10.1378733908
 20
9.2930528966
 30
0.0
 10
10.1407514282
 20
9.2925590467
 30
0.0
 10
10.1438803241
 20
9.2920941137
 30
0.0
 10
10.1485411906
 20
9.2914989274
 30
0.0
 10
10.1549545776
 20
9.2908700648
 30
0.0
 10
10.1602521153
 20
9.2905324332
 30
0.0
 10
10.1630474585
 20
9.2903988868
 30
0.0
  0
SPLINE
  5
41A
100
AcDbEntity
  8
0
100
AcDbSpline
 62
7
  6
CONTINUOUS
 70
0
 71
3
 72
13
 73
9
 74
0
 42
0.0000001
 43
0.0000001
 44
0.0000000001
 40
0.0
 40
0.0
 40
0.0
 40
0.0
 40
0.1253474902
 40
0.2506162004
 40
0.3757844924
 40
0.5008656043
 40
0.7505703138
 40
1.0
 40
1.0
 40
1.0
 40
1.0
 10
10.1630474585
 20
9.3168903615
 30
0.0
 10
10.1615884567
 20
9.3163832328
 30
0.0
 10
10.1587246511
 20
9.3152092688
 30
0.0
 10
10.1546332585
 20
9.3130259097
 30
0.0
 10
10.1507669214
 20
9.3104715372
 30
0.0
 10
10.145935436
 20
9.3066386204
 30
0.0
 10
10.1405080572
 20
9.3011431934
 30
0.0
 10
10.1368373223
 20
9.2961822891
 30
0.0
 10
10.135170143
 20
9.2936000644
 30
0.0
  0
SPLINE
  5
41B
100
AcDbEntity
  8
0
100
AcDbSpline
 62
7
  6
CONTINUOUS
 70
0
 71
3
 72
11
 73
7
 74
0
 42
0.0000001
 43
0.0000001
 44
0.0000000001
 40
0.0
 40
0.0
 40
0.0
 40
0.0
 40
0.1978699166
 40
0.4314070708
 40
0.6998728862
 40
1.0
 40
1.0
 40
1.0
 40
1.0
 10
10.135170143
 20
9.3184946904
 30
0.0
 10
10.1370019246
 20
9.3182992547
 30
0.0
 10
10.141002434
 20
9.3179361077
 30
0.0
 10
10.147503571
 20
9.317492677
 30
0.0
 10
10.15496284
 20
9.3171261483
 30
0.0
 10
10.1602540622
 20
9.3169572441
 30
0.0
 10
10.1630474585
 20
9.3168903615
 30
0.0
  0
SPLINE
  5
41C
100
AcDbEntity
  8
0
100
AcDbSpline
 62
7
  6
CONTINUOUS
 70
0
 71
3
 72
13
 73
9
 74
0
 42
0.0000001
 43
0.0000001
 44
0.0000000001
 40
0.0
 40
0.0
 40
0.0
 40
0.0
 40
0.1251050349
 40
0.2501999646
 40
0.3752670444
 40
0.5003195995
 40
0.7501741062
 40
1.0
 40
1.0
 40
1.0
 40
1.0
 10
10.1630474585
 20
9.3419491485
 30
0.0
 10
10.1615880944
 20
9.3414383185
 30
0.0
 10
10.158723491
 20
9.340255659
 30
0.0
 10
10.1546321026
 20
9.3380567633
 30
0.0
 10
10.1507658315
 20
9.3354842845
 30
0.0
 10
10.1459331578
 20
9.3316232034
 30
0.0
 10
10.1405050968
 20
9.3260874459
 30
0.0
 10
10.1368365988
 20
9.3210939874
 30
0.0
 10
10.135170143
 20
9.3184946904
 30
0.0
  0
SPLINE
  5
41D
100
AcDbEntity
  8
0
100
AcDbSpline
 62
7
  6
CONTINUOUS
 70
0
 71
3
 72
11
 73
7
 74
0
 42
0.0000001
 43
0.0000001
 44
0.0000000001
 40
0.0
 40
0.0
 40
0.0
 40
0.0
 40
0.2988592032
 40
0.5679001603
 40
0.8016997191
 40
1.0
 40
1.0
 40
1.0
 40
1.0
 10
10.1904104298
 20
9.3168903615
 30
0.0
 10
10.1931352935
 20
9.3169534453
 30
0.0
 10
10.1983123915
 20
9.317110691
 30
0.0
 10
10.2056162829
 20
9.3174525745
 30
0.0
 10
10.2119970605
 20
9.3178762068
 30
0.0
 10
10.2159227501
 20
9.3182258949
 30
0.0
 10
10.2177215749
 20
9.3184126872
 30
0.0
  0
SPLINE
  5
41E
100
AcDbEntity
  8
0
100
AcDbSpline
 62
7
  6
CONTINUOUS
 70
0
 71
3
 72
15
 73
11
 74
0
 42
0.0000001
 43
0.0000001
 44
0.0000000001
 40
0.0
 40
0.0
 40
0.0
 40
0.0
 40
0.1253063465
 40
0.2505405442
 40
0.3756749014
 40
0.5007182455
 40
0.6256657887
 40
0.7505175152
 40
0.8753071744
 40
1.0
 40
1.0
 40
1.0
 40
1.0
 10
10.1904104298
 20
9.3168903615
 30
0.0
 10
10.1918271878
 20
9.3164142039
 30
0.0
 10
10.1946145748
 20
9.3153211865
 30
0.0
 10
10.1986162784
 20
9.3132910061
 30
0.0
 10
10.2024113766
 20
9.3109026656
 30
0.0
 10
10.2059758017
 20
9.3081885819
 30
0.0
 10
10.2092931794
 20
9.3051834037
 30
0.0
 10
10.2123583592
 20
9.3019266018
 30
0.0
 10
10.2151776467
 20
9.2984598676
 30
0.0
 10
10.2168994324
 20
9.296029887
 30
0.0
 10
10.2177216058
 20
9.2947904766
 30
0.0
  0
SPLINE
  5
41F
100
AcDbEntity
  8
0
100
AcDbSpline
 62
7
  6
CONTINUOUS
 70
0
 71
3
 72
15
 73
11
 74
0
 42
0.0000001
 43
0.0000001
 44
0.0000000001
 40
0.0
 40
0.0
 40
0.0
 40
0.0
 40
0.1269826679
 40
0.2534544515
 40
0.3793388835
 40
0.5046179665
 40
0.6292840405
 40
0.7533616271
 40
0.8769291197
 40
1.0
 40
1.0
 40
1.0
 40
1.0
 10
10.1904104298
 20
9.456205946
 30
0.0
 10
10.1918250357
 20
9.455753751
 30
0.0
 10
10.1946074255
 20
9.4547164985
 30
0.0
 10
10.1986086979
 20
9.4527866035
 30
0.0
 10
10.202403764
 20
9.4505159462
 30
0.0
 10
10.205968593
 20
9.4479352206
 30
0.0
 10
10.2092867703
 20
9.4450772356
 30
0.0
 10
10.2123529628
 20
9.4419795177
 30
0.0
 10
10.2151731797
 20
9.4386819594
 30
0.0
 10
10.2168981036
 20
9.4363670259
 30
0.0
 10
10.2177215078
 20
9.4351864332
 30
0.0
  0
SPLINE
  5
420
100
AcDbEntity
  8
0
100
AcDbSpline
 62
7
  6
CONTINUOUS
 70
0
 71
3
 72
15
 73
11
 74
0
 42
0.0000001
 43
0.0000001
 44
0.0000000001
 40
0.0
 40
0.0
 40
0.0
 40
0.0
 40
0.1250676162
 40
0.2501261237
 40
0.3751545469
 40
0.5001652179
 40
0.6251534128
 40
0.7501153149
 40
0.8750780991
 40
1.0
 40
1.0
 40
1.0
 40
1.0
 10
10.1904104298
 20
9.3419491485
 30
0.0
 10
10.1918275012
 20
9.3414695286
 30
0.0
 10
10.1946156101
 20
9.3403684487
 30
0.0
 10
10.1986173619
 20
9.3383238058
 30
0.0
 10
10.2024124501
 20
9.3359184989
 30
0.0
 10
10.2059768037
 20
9.3331851936
 30
0.0
 10
10.2092940566
 20
9.3301588031
 30
0.0
 10
10.2123590857
 20
9.3268790762
 30
0.0
 10
10.2151782369
 20
9.3233879604
 30
0.0
 10
10.2168995862
 20
9.320941403
 30
0.0
 10
10.2177215895
 20
9.3196935148
 30
0.0
  0
SPLINE
  5
421
100
AcDbEntity
  8
0
100
AcDbSpline
 62
7
  6
CONTINUOUS
 70
0
 71
3
 72
13
 73
9
 74
0
 42
0.0000001
 43
0.0000001
 44
0.0000000001
 40
0.0
 40
0.0
 40
0.0
 40
0.0
 40
0.297699264
 40
0.4360381123
 40
0.5662319504
 40
0.8003589534
 40
0.9043633772
 40
1.0
 40
1.0
 40
1.0
 40
1.0
 10
10.1904104298
 20
9.2903988868
 30
0.0
 10
10.1931369776
 20
9.2905248381
 30
0.0
 10
10.1971283547
 20
9.2907665865
 30
0.0
 10
10.2023009938
 20
9.291211421
 30
0.0
 10
10.2068850202
 20
9.2916884671
 30
0.0
 10
10.2111431611
 20
9.292252772
 30
0.0
 10
10.2150654645
 20
9.292911851
 30
0.0
 10
10.216862983
 20
9.2932585411
 30
0.0
 10
10.2177215904
 20
9.2934364433
 30
0.0
  0
SPLINE
  5
422
100
AcDbEntity
  8
0
100
AcDbSpline
 62
7
  6
CONTINUOUS
 70
0
 71
3
 72
15
 73
11
 74
0
 42
0.0000001
 43
0.0000001
 44
0.0000000001
 40
0.0
 40
0.0
 40
0.0
 40
0.0
 40
0.1257046996
 40
0.2512323716
 40
0.3765439888
 40
0.5016423506
 40
0.6265223752
 40
0.7511902203
 40
0.8756904795
 40
1.0
 40
1.0
 40
1.0
 40
1.0
 10
10.1904104298
 20
9.2903988868
 30
0.0
 10
10.1918266508
 20
9.2899284838
 30
0.0
 10
10.1946128041
 20
9.2888488658
 30
0.0
 10
10.1986143728
 20
9.2868427466
 30
0.0
 10
10.2024094383
 20
9.2844826384
 30
0.0
 10
10.2059739401
 20
9.2818005434
 30
0.0
 10
10.209291492
 20
9.2788306695
 30
0.0
 10
10.2123569011
 20
9.2756120247
 30
0.0
 10
10.2151763932
 20
9.2721858624
 30
0.0
 10
10.2168988938
 20
9.2697834629
 30
0.0
 10
10.217721343
 20
9.2685581552
 30
0.0
  0
SPLINE
  5
423
100
AcDbEntity
  8
0
100
AcDbSpline
 62
7
  6
CONTINUOUS
 70
0
 71
3
 72
15
 73
11
 74
0
 42
0.0000001
 43
0.0000001
 44
0.0000000001
 40
0.0
 40
0.0
 40
0.0
 40
0.0
 40
0.1289042475
 40
0.2568030059
 40
0.3835606197
 40
0.5091236819
 40
0.6334760088
 40
0.7566654383
 40
0.8788179227
 40
1.0
 40
1.0
 40
1.0
 40
1.0
 10
10.1904104298
 20
9.4784605294
 30
0.0
 10
10.191822649
 20
9.4780351485
 30
0.0
 10
10.1945994272
 20
9.4770602158
 30
0.0
 10
10.1985999662
 20
9.4752429224
 30
0.0
 10
10.202394739
 20
9.4731044789
 30
0.0
 10
10.205959785
 20
9.4706736483
 30
0.0
 10
10.2092786788
 20
9.4679811631
 30
0.0
 10
10.2123459067
 20
9.4650623412
 30
0.0
 10
10.2151671013
 20
9.4619549914
 30
0.0
 10
10.216895773
 20
9.4597694778
 30
0.0
 10
10.2177206616
 20
9.4586550059
 30
0.0
  0
SPLINE
  5
424
100
AcDbEntity
  8
0
100
AcDbSpline
 62
7
  6
CONTINUOUS
 70
0
 71
3
 72
13
 73
9
 74
0
 42
0.0000001
 43
0.0000001
 44
0.0000000001
 40
0.0
 40
0.0
 40
0.0
 40
0.0
 40
0.2958457524
 40
0.4336290106
 40
0.5635694723
 40
0.7982317508
 40
0.9030909358
 40
1.0
 40
1.0
 40
1.0
 40
1.0
 10
10.1904104298
 20
9.2625982398
 30
0.0
 10
10.1931397253
 20
9.2627866221
 30
0.0
 10
10.1971352407
 20
9.2631484406
 30
0.0
 10
10.2023047536
 20
9.2638128387
 30
0.0
 10
10.2068956449
 20
9.2645267983
 30
0.0
 10
10.2111573033
 20
9.2653715709
 30
0.0
 10
10.2150721506
 20
9.26635483
 30
0.0
 10
10.2168654357
 20
9.2668718135
 30
0.0
 10
10.2177215011
 20
9.2671368426
 30
0.0
  0
SPLINE
  5
425
100
AcDbEntity
  8
0
100
AcDbSpline
 62
7
  6
CONTINUOUS
 70
0
 71
3
 72
15
 73
11
 74
0
 42
0.0000001
 43
0.0000001
 44
0.0000000001
 40
0.0
 40
0.0
 40
0.0
 40
0.0
 40
0.1262632633
 40
0.2522030941
 40
0.3777643015
 40
0.5029408635
 40
0.6277268815
 40
0.7521368111
 40
0.8762301919
 40
1.0
 40
1.0
 40
1.0
 40
1.0
 10
10.1904104298
 20
9.2625982398
 30
0.0
 10
10.1918259121
 20
9.2621358455
 30
0.0
 10
10.1946103594
 20
9.2610748687
 30
0.0
 10
10.1986117392
 20
9.2591022643
 30
0.0
 10
10.2024067559
 20
9.2567814862
 30
0.0
 10
10.2059713608
 20
9.254143959
 30
0.0
 10
10.2092891536
 20
9.2512232756
 30
0.0
 10
10.2123548828
 20
9.2480577971
 30
0.0
 10
10.2151746641
 20
9.2446881661
 30
0.0
 10
10.216898186
 20
9.242324203
 30
0.0
 10
10.2177210317
 20
9.2411185457
 30
0.0
  0
SPLINE
  5
426
100
AcDbEntity
  8
0
100
AcDbSpline
 62
7
  6
CONTINUOUS
 70
0
 71
3
 72
13
 73
9
 74
0
 42
0.0000001
 43
0.0000001
 44
0.0000000001
 40
0.0
 40
0.0
 40
0.0
 40
0.0
 40
0.293397936
 40
0.4304536177
 40
0.5600659261
 40
0.7954431709
 40
0.9014291756
 40
1.0
 40
1.0
 40
1.0
 40
1.0
 10
10.1904104298
 20
9.23361804
 30
0.0
 10
10.1931434291
 20
9.233868187
 30
0.0
 10
10.1971444604
 20
9.2343490585
 30
0.0
 10
10.2023096208
 20
9.2352296067
 30
0.0
 10
10.2069094962
 20
9.2361783845
 30
0.0
 10
10.2111751968
 20
9.2373012636
 30
0.0
 10
10.2150802391
 20
9.2386024178
 30
0.0
 10
10.2168681451
 20
9.2392862258
 30
0.0
 10
10.2177210888
 20
9.2396363916
 30
0.0
  0
SPLINE
  5
427
100
AcDbEntity
  8
0
100
AcDbSpline
 62
7
  6
CONTINUOUS
 70
0
 71
3
 72
15
 73
11
 74
0
 42
0.0000001
 43
0.0000001
 44
0.0000000001
 40
0.0
 40
0.0
 40
0.0
 40
0.0
 40
0.1269826594
 40
0.2534544375
 40
0.3793388684
 40
0.5046179528
 40
0.6292840325
 40
0.7533616284
 40
0.8769291243
 40
1.0
 40
1.0
 40
1.0
 40
1.0
 10
10.1904104298
 20
9.23361804
 30
0.0
 10
10.1918250278
 20
9.2331658476
 30
0.0
 10
10.1946074024
 20
9.2321286015
 30
0.0
 10
10.198608654
 20
9.2301987203
 30
0.0
 10
10.202403702
 20
9.2279280804
 30
0.0
 10
10.2059685156
 20
9.2253473749
 30
0.0
 10
10.2092866805
 20
9.2224894123
 30
0.0
 10
10.2123528648
 20
9.2193917196
 30
0.0
 10
10.2151730725
 20
9.2160941846
 30
0.0
 10
10.2168979881
 20
9.2137792646
 30
0.0
 10
10.2177213875
 20
9.2125986783
 30
0.0
  0
SPLINE
  5
428
100
AcDbEntity
  8
0
100
AcDbSpline
 62
7
  6
CONTINUOUS
 70
0
 71
3
 72
15
 73
11
 74
0
 42
0.0000001
 43
0.0000001
 44
0.0000000001
 40
0.0
 40
0.0
 40
0.0
 40
0.0
 40
0.1329672062
 40
0.2639114434
 40
0.3925616732
 40
0.5187741753
 40
0.6424962205
 40
0.7638069104
 40
0.8829185691
 40
1.0
 40
1.0
 40
1.0
 40
1.0
 10
10.1904104298
 20
9.4953812836
 30
0.0
 10
10.1918181048
 20
9.4950108405
 30
0.0
 10
10.194583898
 20
9.4941632748
 30
0.0
 10
10.1985827901
 20
9.4925777588
 30
0.0
 10
10.2023766767
 20
9.4907116729
 30
0.0
 10
10.2059418213
 20
9.4885898585
 30
0.0
 10
10.2092618952
 20
9.4862387776
 30
0.0
 10
10.2123310866
 20
9.4836891046
 30
0.0
 10
10.215154285
 20
9.4809742707
 30
0.0
 10
10.2168917475
 20
9.4790563197
 30
0.0
 10
10.2177202431
 20
9.4780783895
 30
0.0
  0
SPLINE
  5
429
100
AcDbEntity
  8
0
100
AcDbSpline
 62
7
  6
CONTINUOUS
 70
0
 71
3
 72
15
 73
11
 74
0
 42
0.0000001
 43
0.0000001
 44
0.0000000001
 40
0.0
 40
0.0
 40
0.0
 40
0.0
 40
0.1479885463
 40
0.2905003616
 40
0.4266797183
 40
0.5558962627
 40
0.6777480311
 40
0.7921818646
 40
0.8994893789
 40
1.0
 40
1.0
 40
1.0
 40
1.0
 10
10.1904104298
 20
9.2035934065
 30
0.0
 10
10.1918053347
 20
9.2037518784
 30
0.0
 10
10.1945382088
 20
9.2041124129
 30
0.0
 10
10.1985291172
 20
9.2047935412
 30
0.0
 10
10.2023158476
 20
9.2055951896
 30
0.0
 10
10.2058757065
 20
9.2065068686
 30
0.0
 10
10.2091936702
 20
9.2075177514
 30
0.0
 10
10.2122641825
 20
9.2086152274
 30
0.0
 10
10.215090037
 20
9.2097844835
 30
0.0
 10
10.2168717924
 20
9.2106307653
 30
0.0
 10
10.2177213367
 20
9.2110636686
 30
0.0
  0
SPLINE
  5
42A
100
AcDbEntity
  8
0
100
AcDbSpline
 62
7
  6
CONTINUOUS
 70
0
 71
3
 72
15
 73
11
 74
0
 42
0.0000001
 43
0.0000001
 44
0.0000000001
 40
0.0
 40
0.0
 40
0.0
 40
0.0
 40
0.1278631174
 40
0.2549876348
 40
0.3812703824
 40
0.5066777458
 40
0.6311988545
 40
0.7548695666
 40
0.8777905756
 40
1.0
 40
1.0
 40
1.0
 40
1.0
 10
10.1904104298
 20
9.2035934065
 30
0.0
 10
10.191823931
 20
9.2031535767
 30
0.0
 10
10.1946037327
 20
9.2021450737
 30
0.0
 10
10.1986046974
 20
9.2002670558
 30
0.0
 10
10.2023996605
 20
9.1980573012
 30
0.0
 10
10.2059646197
 20
9.1955456134
 30
0.0
 10
10.2092831508
 20
9.1927638457
 30
0.0
 10
10.2123498342
 20
9.1897485103
 30
0.0
 10
10.2151705103
 20
9.1865385478
 30
0.0
 10
10.2168971295
 20
9.1842832039
 30
0.0
 10
10.2177212029
 20
9.1831330616
 30
0.0
  0
SPLINE
  5
42B
100
AcDbEntity
  8
0
100
AcDbSpline
 62
9
  6
CONTINUOUS
 70
0
 71
3
 72
13
 73
9
 74
0
 42
0.0000001
 43
0.0000001
 44
0.0000000001
 40
0.0
 40
0.0
 40
0.0
 40
0.0
 40
0.2609951731
 40
0.3907885935
 40
0.5188995853
 40
0.6445412151
 40
0.7670159211
 40
1.0
 40
1.0
 40
1.0
 40
1.0
 10
10.281336566
 20
9.3260907583
 30
0.0
 10
10.2756079051
 20
9.3255969166
 30
0.0
 10
10.2669473483
 20
9.3255646906
 30
0.0
 10
10.2555883568
 20
9.3269294884
 30
0.0
 10
10.2473024814
 20
9.3286391839
 30
0.0
 10
10.2393489505
 20
9.331015066
 30
0.0
 10
10.2295024798
 20
9.3349580907
 30
0.0
 10
10.2226517624
 20
9.3388996446
 30
0.0
 10
10.2185230584
 20
9.3419491485
 30
0.0
  0
SPLINE
  5
42C
100
AcDbEntity
  8
0
100
AcDbSpline
 62
9
  6
CONTINUOUS
 70
0
 71
3
 72
11
 73
7
 74
0
 42
0.0000001
 43
0.0000001
 44
0.0000000001
 40
0.0
 40
0.0
 40
0.0
 40
0.0
 40
0.254305658
 40
0.5067855743
 40
0.7558324708
 40
1.0
 40
1.0
 40
1.0
 40
1.0
 10
9.5148721297
 20
8.7585231148
 30
0.0
 10
9.5135801487
 20
8.7585231148
 30
0.0
 10
9.5110041644
 20
8.7586359979
 30
0.0
 10
9.5071915903
 20
8.7591289055
 30
0.0
 10
9.5034841987
 20
8.7599290758
 30
0.0
 10
9.5010854235
 20
8.7606664324
 30
0.0
 10
9.4999175036
 20
8.7610844531
 30
0.0
  0
SPLINE
  5
42D
100
AcDbEntity
  8
0
100
AcDbSpline
 62
7
  6
CONTINUOUS
 70
0
 71
3
 72
15
 73
11
 74
0
 42
0.0000001
 43
0.0000001
 44
0.0000000001
 40
0.0
 40
0.0
 40
0.0
 40
0.0
 40
0.1461685796
 40
0.2872545927
 40
0.422478
 40
0.5512781456
 40
0.6733126705
 40
0.7885674528
 40
0.8973506162
 40
1.0
 40
1.0
 40
1.0
 40
1.0
 10
10.1904104298
 20
9.1726643279
 30
0.0
 10
10.191806622
 20
9.1728530335
 30
0.0
 10
10.1945429456
 20
9.1732826192
 30
0.0
 10
10.1985349514
 20
9.1740934188
 30
0.0
 10
10.2023228391
 20
9.1750477409
 30
0.0
 10
10.2058838183
 20
9.1761331085
 30
0.0
 10
10.2092026822
 20
9.1773365858
 30
0.0
 10
10.2122737514
 20
9.1786430779
 30
0.0
 10
10.215100007
 20
9.1800349987
 30
0.0
 10
10.2168752407
 20
9.1810386564
 30
0.0
 10
10.2177213231
 20
9.1815515761
 30
0.0
  0
SPLINE
  5
42E
100
AcDbEntity
  8
0
100
AcDbSpline
 62
7
  6
CONTINUOUS
 70
0
 71
3
 72
15
 73
11
 74
0
 42
0.0000001
 43
0.0000001
 44
0.0000000001
 40
0.0
 40
0.0
 40
0.0
 40
0.0
 40
0.1289042285
 40
0.2568029751
 40
0.383560586
 40
0.5091236521
 40
0.6334759919
 40
0.7566654415
 40
0.878817934
 40
1.0
 40
1.0
 40
1.0
 40
1.0
 10
10.1904104298
 20
9.1726643279
 30
0.0
 10
10.1918226402
 20
9.1722389497
 30
0.0
 10
10.1945994015
 20
9.1712640238
 30
0.0
 10
10.1985999173
 20
9.1694467449
 30
0.0
 10
10.2023946699
 20
9.1673083196
 30
0.0
 10
10.2059596988
 20
9.1648775101
 30
0.0
 10
10.2092785788
 20
9.1621850483
 30
0.0
 10
10.2123457973
 20
9.1592662531
 30
0.0
 10
10.2151669816
 20
9.1561589279
 30
0.0
 10
10.2168956441
 20
9.1539734285
 30
0.0
 10
10.2177205274
 20
9.1528589632
 30
0.0
  0
SPLINE
  5
42F
100
AcDbEntity
  8
0
100
AcDbSpline
 62
9
  6
CONTINUOUS
 70
0
 71
3
 72
21
 73
17
 74
0
 42
0.0000001
 43
0.0000001
 44
0.0000000001
 40
0.0
 40
0.0
 40
0.0
 40
0.0
 40
0.0514730618
 40
0.1034676183
 40
0.156415304
 40
0.2106868639
 40
0.2665721489
 40
0.3243026531
 40
0.3840506734
 40
0.4459337259
 40
0.5758499351
 40
0.6436423503
 40
0.7129648144
 40
0.7835604626
 40
0.8551488495
 40
1.0
 40
1.0
 40
1.0
 40
1.0
 10
9.5478721297
 20
8.7818576386
 30
0.0
 10
9.5478721297
 20
8.7810938368
 30
0.0
 10
9.5477587494
 20
8.7795563649
 30
0.0
 10
9.5472636234
 20
8.7772817557
 30
0.0
 10
9.5464574999
 20
8.77505393
 30
0.0
 10
9.5453543474
 20
8.772893077
 30
0.0
 10
9.5439663443
 20
8.7708177724
 30
0.0
 10
9.5423047881
 20
8.76884734
 30
0.0
 10
9.5403811378
 20
8.7670008985
 30
0.0
 10
9.5374349751
 20
8.7647001044
 30
0.0
 10
9.5340631867
 20
8.7627874671
 30
0.0
 10
9.5304064208
 20
8.7612556914
 30
0.0
 10
9.527478531
 20
8.7602827103
 30
0.0
 10
9.524433594
 20
8.759510559
 30
0.0
 10
9.5202392205
 20
8.7587568449
 30
0.0
 10
9.5170215563
 20
8.7585231148
 30
0.0
 10
9.5148721297
 20
8.7585231148
 30
0.0
  0
SPLINE
  5
430
100
AcDbEntity
  8
0
100
AcDbSpline
 62
7
  6
CONTINUOUS
 70
0
 71
3
 72
13
 73
9
 74
0
 42
0.0000001
 43
0.0000001
 44
0.0000000001
 40
0.0
 40
0.0
 40
0.0
 40
0.0
 40
0.2837617017
 40
0.4180042161
 40
0.5464019263
 40
0.6686709991
 40
0.784830232
 40
1.0
 40
1.0
 40
1.0
 40
1.0
 10
10.1904104298
 20
9.14097501
 30
0.0
 10
10.193159672
 20
9.1414041028
 30
0.0
 10
10.1971838802
 20
9.1422319553
 30
0.0
 10
10.2023302554
 20
9.14372967
 30
0.0
 10
10.2058923361
 20
9.1449839356
 30
0.0
 10
10.2092121468
 20
9.1463747395
 30
0.0
 10
10.2132054401
 20
9.1483373692
 30
0.0
 10
10.2159925867
 20
9.1500276596
 30
0.0
 10
10.2177210533
 20
9.1512376933
 30
0.0
  0
SPLINE
  5
431
100
AcDbEntity
  8
0
100
AcDbSpline
 62
9
  6
CONTINUOUS
 70
0
 71
3
 72
26
 73
22
 74
0
 42
0.0000001
 43
0.0000001
 44
0.0000000001
 40
0.0
 40
0.0
 40
0.0
 40
0.0
 40
0.0624652367
 40
0.1274840165
 40
0.1945429259
 40
0.2630871987
 40
0.332527704
 40
0.4022061435
 40
0.471398871
 40
0.5394451334
 40
0.60578824
 40
0.6699459023
 40
0.7010856293
 40
0.731527781
 40
0.7612352084
 40
0.7901901054
 40
0.8184159369
 40
0.8459503749
 40
0.8991110519
 40
0.9502318626
 40
1.0
 40
1.0
 40
1.0
 40
1.0
 10
8.7799848345
 20
8.6616642286
 30
0.0
 10
8.7787928545
 20
8.6608769746
 30
0.0
 10
8.7762454238
 20
8.6594394218
 30
0.0
 10
8.7721279017
 20
8.6577313376
 30
0.0
 10
8.7677174522
 20
8.6564372587
 30
0.0
 10
8.7631000385
 20
8.6555777479
 30
0.0
 10
8.7583605962
 20
8.6551720208
 30
0.0
 10
8.75358884
 20
8.6552474292
 30
0.0
 10
8.7488827717
 20
8.6558167169
 30
0.0
 10
8.7443339013
 20
8.6568457139
 30
0.0
 10
8.7400249022
 20
8.6583026656
 30
0.0
 10
8.7366653088
 20
8.6598659795
 30
0.0
 10
8.7341784247
 20
8.6613127992
 30
0.0
 10
8.7324442191
 20
8.6624778967
 30
0.0
 10
8.7308336846
 20
8.6637290965
 30
0.0
 10
8.7293578282
 20
8.6650622981
 30
0.0
 10
8.7280217875
 20
8.6664680433
 30
0.0
 10
8.726450505
 20
8.668403305
 30
0.0
 10
8.7248352716
 20
8.6709665873
 30
0.0
 10
8.7234921834
 20
8.6742424369
 30
0.0
 10
8.723026445
 20
8.6765197592
 30
0.0
 10
8.7229118032
 20
8.6776520967
 30
0.0
  0
SPLINE
  5
432
100
AcDbEntity
  8
0
100
AcDbSpline
 62
7
  6
CONTINUOUS
 70
0
 71
3
 72
15
 73
11
 74
0
 42
0.0000001
 43
0.0000001
 44
0.0000000001
 40
0.0
 40
0.0
 40
0.0
 40
0.0
 40
0.1301048251
 40
0.2588995277
 40
0.3862098079
 40
0.5119577286
 40
0.6361189074
 40
0.7587530528
 40
0.8800139612
 40
1.0
 40
1.0
 40
1.0
 40
1.0
 10
10.1904104298
 20
9.14097501
 30
0.0
 10
10.1918213182
 20
9.1405660481
 30
0.0
 10
10.1945948839
 20
9.1396292212
 30
0.0
 10
10.1985951598
 20
9.1378810227
 30
0.0
 10
10.2023898923
 20
9.1358237317
 30
0.0
 10
10.2059551755
 20
9.1334849386
 30
0.0
 10
10.2092745948
 20
9.1308941027
 30
0.0
 10
10.2123425253
 20
9.1280851607
 30
0.0
 10
10.215164419
 20
9.1250946741
 30
0.0
 10
10.2168956458
 20
9.1229887641
 30
0.0
 10
10.2177215792
 20
9.121914943
 30
0.0
  0
SPLINE
  5
433
100
AcDbEntity
  8
0
100
AcDbSpline
 62
7
  6
CONTINUOUS
 70
0
 71
3
 72
15
 73
11
 74
0
 42
0.0000001
 43
0.0000001
 44
0.0000000001
 40
0.0
 40
0.0
 40
0.0
 40
0.0
 40
0.1301047409
 40
0.2588993908
 40
0.3862096575
 40
0.5119575961
 40
0.6361188319
 40
0.7587530658
 40
0.8800140108
 40
1.0
 40
1.0
 40
1.0
 40
1.0
 10
10.1904104298
 20
9.4863322644
 30
0.0
 10
10.1918212889
 20
9.485923311
 30
0.0
 10
10.1945947981
 20
9.484986506
 30
0.0
 10
10.1985949964
 20
9.483238354
 30
0.0
 10
10.2023896612
 20
9.4811811216
 30
0.0
 10
10.2059548872
 20
9.4788423966
 30
0.0
 10
10.2092742602
 20
9.4762516364
 30
0.0
 10
10.2123421589
 20
9.4734427804
 30
0.0
 10
10.2151640181
 20
9.4704523732
 30
0.0
 10
10.2168952143
 20
9.4683465086
 30
0.0
 10
10.2177211301
 20
9.4672727091
 30
0.0
  0
SPLINE
  5
434
100
AcDbEntity
  8
0
100
AcDbSpline
 62
7
  6
CONTINUOUS
 70
0
 71
3
 72
15
 73
11
 74
0
 42
0.0000001
 43
0.0000001
 44
0.0000000001
 40
0.0
 40
0.0
 40
0.0
 40
0.0
 40
0.1329674128
 40
0.2639117892
 40
0.3925620656
 40
0.5187745283
 40
0.6424964468
 40
0.7638069453
 40
0.8829184823
 40
1.0
 40
1.0
 40
1.0
 40
1.0
 10
10.1904104298
 20
8.523836639
 30
0.0
 10
10.1918181471
 20
8.5242070933
 30
0.0
 10
10.194584022
 20
8.5250546877
 30
0.0
 10
10.1985830266
 20
8.5266402649
 30
0.0
 10
10.2023770116
 20
8.5285064279
 30
0.0
 10
10.2059422392
 20
8.5306283318
 30
0.0
 10
10.20926238
 20
8.5329795128
 30
0.0
 10
10.2123316201
 20
8.5355292978
 30
0.0
 10
10.2151548651
 20
8.5382442402
 30
0.0
 10
10.2168923669
 20
8.5401622536
 30
0.0
 10
10.2177208876
 20
8.5411402117
 30
0.0
  0
SPLINE
  5
435
100
AcDbEntity
  8
0
100
AcDbSpline
 62
7
  6
CONTINUOUS
 70
0
 71
3
 72
11
 73
7
 74
0
 42
0.0000001
 43
0.0000001
 44
0.0000000001
 40
0.0
 40
0.0
 40
0.0
 40
0.0
 40
0.2474030215
 40
0.4958741783
 40
0.7464131332
 40
1.0
 40
1.0
 40
1.0
 40
1.0
 10
9.3058721297
 20
8.7621215879
 30
0.0
 10
9.3058721297
 20
8.7591086038
 30
0.0
 10
9.3055914587
 20
8.7530659489
 30
0.0
 10
9.304331485
 20
8.7440510893
 30
0.0
 10
9.3022380896
 20
8.7351154665
 30
0.0
 10
9.3003067022
 20
8.7292778673
 30
0.0
 10
9.2992110984
 20
8.7263904445
 30
0.0
  0
SPLINE
  5
436
100
AcDbEntity
  8
0
100
AcDbSpline
 62
7
  6
CONTINUOUS
 70
0
 71
3
 72
11
 73
7
 74
0
 42
0.0000001
 43
0.0000001
 44
0.0000000001
 40
0.0
 40
0.0
 40
0.0
 40
0.0
 40
0.2474030215
 40
0.4958741783
 40
0.7464131332
 40
1.0
 40
1.0
 40
1.0
 40
1.0
 10
9.3058721297
 20
9.2570963347
 30
0.0
 10
9.3058721297
 20
9.2601093189
 30
0.0
 10
9.3055914587
 20
9.2661519738
 30
0.0
 10
9.304331485
 20
9.2751668333
 30
0.0
 10
9.3022380896
 20
9.2841024562
 30
0.0
 10
9.3003067022
 20
9.2899400553
 30
0.0
 10
9.2992110984
 20
9.2928274782
 30
0.0
  0
SPLINE
  5
437
100
AcDbEntity
  8
0
100
AcDbSpline
 62
7
  6
CONTINUOUS
 70
0
 71
3
 72
11
 73
7
 74
0
 42
0.0000001
 43
0.0000001
 44
0.0000000001
 40
0.0
 40
0.0
 40
0.0
 40
0.0
 40
0.2545508113
 40
0.5050907246
 40
0.7530297236
 40
1.0
 40
1.0
 40
1.0
 40
1.0
 10
9.308213821
 20
8.7486359691
 30
0.0
 10
9.308213821
 20
8.7456632864
 30
0.0
 10
9.3079362615
 20
8.7397604975
 30
0.0
 10
9.3066597905
 20
8.7310453338
 30
0.0
 10
9.3045348052
 20
8.7225883742
 30
0.0
 10
9.3025615578
 20
8.7171437101
 30
0.0
 10
9.3014440818
 20
8.7144848375
 30
0.0
  0
SPLINE
  5
438
100
AcDbEntity
  8
0
100
AcDbSpline
 62
7
  6
CONTINUOUS
 70
0
 71
3
 72
15
 73
11
 74
0
 42
0.0000001
 43
0.0000001
 44
0.0000000001
 40
0.0
 40
0.0
 40
0.0
 40
0.0
 40
0.1314612104
 40
0.2612716337
 40
0.3892125091
 40
0.5151766269
 40
0.6391272664
 40
0.7611345845
 40
0.8813811634
 40
1.0
 40
1.0
 40
1.0
 40
1.0
 10
10.1904104298
 20
9.4919812953
 30
0.0
 10
10.1918197004
 20
9.4915907067
 30
0.0
 10
10.1945893971
 20
9.4906964895
 30
0.0
 10
10.1985888622
 20
9.4890258376
 30
0.0
 10
10.2023830704
 20
9.4870596777
 30
0.0
 10
10.2059482004
 20
9.4848242782
 30
0.0
 10
10.2092678699
 20
9.48234767
 30
0.0
 10
10.2123363662
 20
9.4796622631
 30
0.0
 10
10.2151587955
 20
9.4768030604
 30
0.0
 10
10.2168928142
 20
9.4747865955
 30
0.0
 10
10.2177198809
 20
9.4737584248
 30
0.0
  0
SPLINE
  5
439
100
AcDbEntity
  8
0
100
AcDbSpline
 62
7
  6
CONTINUOUS
 70
0
 71
3
 72
12
 73
8
 74
0
 42
0.0000001
 43
0.0000001
 44
0.0000000001
 40
0.0
 40
0.0
 40
0.0
 40
0.0
 40
0.1187164293
 40
0.2388444988
 40
0.4840944791
 40
0.7374006605
 40
1.0
 40
1.0
 40
1.0
 40
1.0
 10
8.909001474
 20
8.6537901666
 30
0.0
 10
8.9084752379
 20
8.6549836323
 30
0.0
 10
8.9074847204
 20
8.6574155384
 30
0.0
 10
8.9057563627
 20
8.6624479129
 30
0.0
 10
8.9040853916
 20
8.6690518689
 30
0.0
 10
8.9028910924
 20
8.6773424347
 30
0.0
 10
8.9026367738
 20
8.6830150286
 30
0.0
 10
8.9026367738
 20
8.6859001979
 30
0.0
  0
SPLINE
  5
43A
100
AcDbEntity
  8
0
100
AcDbSpline
 62
7
  6
CONTINUOUS
 70
0
 71
3
 72
15
 73
11
 74
0
 42
0.0000001
 43
0.0000001
 44
0.0000000001
 40
0.0
 40
0.0
 40
0.0
 40
0.0
 40
0.1269831053
 40
0.2534546408
 40
0.3793386632
 40
0.5046182348
 40
0.6292856681
 40
0.7533637396
 40
0.8769301439
 40
1.0
 40
1.0
 40
1.0
 40
1.0
 10
10.1904104298
 20
8.5630119767
 30
0.0
 10
10.1918249808
 20
8.5634641541
 30
0.0
 10
10.1946072564
 20
8.5645013597
 30
0.0
 10
10.1986083678
 20
8.566431149
 30
0.0
 10
10.2024032971
 20
8.5687016666
 30
0.0
 10
10.2059680146
 20
8.5712822596
 30
0.0
 10
10.2092860994
 20
8.574140106
 30
0.0
 10
10.2123522872
 20
8.5772375836
 30
0.0
 10
10.2151723429
 20
8.58053502
 30
0.0
 10
10.2168971282
 20
8.5828498721
 30
0.0
 10
10.217720487
 20
8.5840304078
 30
0.0
  0
SPLINE
  5
43B
100
AcDbEntity
  8
0
100
AcDbSpline
 62
7
  6
CONTINUOUS
 70
0
 71
3
 72
15
 73
11
 74
0
 42
0.0000001
 43
0.0000001
 44
0.0000000001
 40
0.0
 40
0.0
 40
0.0
 40
0.0
 40
0.1314615342
 40
0.2612721714
 40
0.3892131054
 40
0.5151774906
 40
0.6391290911
 40
0.7611367691
 40
0.8813821487
 40
1.0
 40
1.0
 40
1.0
 40
1.0
 10
10.1904104298
 20
8.9105447198
 30
0.0
 10
10.191819743
 20
8.9109353201
 30
0.0
 10
10.1945895216
 20
8.9118295671
 30
0.0
 10
10.1985890965
 20
8.9135002857
 30
0.0
 10
10.2023834068
 20
8.9154665198
 30
0.0
 10
10.2059486255
 20
8.9177020269
 30
0.0
 10
10.2092683613
 20
8.9201787658
 30
0.0
 10
10.2123369431
 20
8.9228642499
 30
0.0
 10
10.2151593572
 20
8.9257235986
 30
0.0
 10
10.216893366
 20
8.9277401345
 30
0.0
 10
10.2177204485
 20
8.9287683255
 30
0.0
  0
SPLINE
  5
43C
100
AcDbEntity
  8
0
100
AcDbSpline
 62
7
  6
CONTINUOUS
 70
0
 71
3
 72
11
 73
7
 74
0
 42
0.0000001
 43
0.0000001
 44
0.0000000001
 40
0.0
 40
0.0
 40
0.0
 40
0.0
 40
0.2469703041
 40
0.494909324
 40
0.7454492228
 40
1.0
 40
1.0
 40
1.0
 40
1.0
 10
9.3014440702
 20
9.3047331126
 30
0.0
 10
9.3025615483
 20
9.3020742378
 30
0.0
 10
9.3045347991
 20
9.2966295691
 30
0.0
 10
9.3066597881
 20
9.2881726024
 30
0.0
 10
9.3079362612
 20
9.2794574317
 30
0.0
 10
9.308213821
 20
9.2735546384
 30
0.0
 10
9.308213821
 20
9.2705819536
 30
0.0
  0
SPLINE
  5
43D
100
AcDbEntity
  8
0
100
AcDbSpline
 62
7
  6
CONTINUOUS
 70
0
 71
3
 72
13
 73
9
 74
0
 42
0.0000001
 43
0.0000001
 44
0.0000000001
 40
0.0
 40
0.0
 40
0.0
 40
0.0
 40
0.2801976864
 40
0.4134224525
 40
0.5414008234
 40
0.6639035897
 40
0.7809783523
 40
1.0
 40
1.0
 40
1.0
 40
1.0
 10
10.1904104298
 20
8.9105447198
 30
0.0
 10
10.1931662353
 20
8.910058958
 30
0.0
 10
10.1971993069
 20
8.9091205518
 30
0.0
 10
10.2023378997
 20
8.9074309236
 30
0.0
 10
10.2059008807
 20
8.906013475
 30
0.0
 10
10.2092211767
 20
8.9044418056
 30
0.0
 10
10.2132269606
 20
8.9022173575
 30
0.0
 10
10.2160046633
 20
8.9003113747
 30
0.0
 10
10.2177204999
 20
8.898954784
 30
0.0
  0
SPLINE
  5
43E
100
AcDbEntity
  8
0
100
AcDbSpline
 62
7
  6
CONTINUOUS
 70
0
 71
3
 72
9
 73
5
 74
0
 42
0.0000001
 43
0.0000001
 44
0.0000000001
 40
0.0
 40
0.0
 40
0.0
 40
0.0
 40
0.4944648682
 40
1.0
 40
1.0
 40
1.0
 40
1.0
 10
9.308213821
 20
9.2705819536
 30
0.0
 10
9.308213821
 20
9.2676903178
 30
0.0
 10
9.3079463346
 20
9.2618396847
 30
0.0
 10
9.3071732043
 20
9.2560351946
 30
0.0
 10
9.3066636771
 20
9.2531230589
 30
0.0
  0
SPLINE
  5
43F
100
AcDbEntity
  8
0
100
AcDbSpline
 62
7
  6
CONTINUOUS
 70
0
 71
3
 72
12
 73
8
 74
0
 42
0.0000001
 43
0.0000001
 44
0.0000000001
 40
0.0
 40
0.0
 40
0.0
 40
0.0
 40
0.2625993396
 40
0.5159055224
 40
0.7611555017
 40
0.8812835708
 40
1.0
 40
1.0
 40
1.0
 40
1.0
 10
8.9026367738
 20
9.3333177247
 30
0.0
 10
8.9026367738
 20
9.3362028939
 30
0.0
 10
8.9028910924
 20
9.3418754876
 30
0.0
 10
8.9040853915
 20
9.3501660531
 30
0.0
 10
8.9057563624
 20
9.3567700087
 30
0.0
 10
8.9074847199
 20
9.361802383
 30
0.0
 10
8.9084752374
 20
9.364234289
 30
0.0
 10
8.9090014734
 20
9.3654277546
 30
0.0
  0
SPLINE
  5
440
100
AcDbEntity
  8
0
100
AcDbSpline
 62
7
  6
CONTINUOUS
 70
0
 71
3
 72
13
 73
9
 74
0
 42
0.0000001
 43
0.0000001
 44
0.0000000001
 40
0.0
 40
0.0
 40
0.0
 40
0.0
 40
0.2648707935
 40
0.3936657777
 40
0.5198472672
 40
0.6434360399
 40
0.7645571201
 40
1.0
 40
1.0
 40
1.0
 40
1.0
 10
10.1950226122
 20
9.4951638749
 30
0.0
 10
10.1973048428
 20
9.4943880488
 30
0.0
 10
10.2006283801
 20
9.4930143628
 30
0.0
 10
10.2048016721
 20
9.4907809428
 30
0.0
 10
10.2077270268
 20
9.4889561072
 30
0.0
 10
10.2104698259
 20
9.4869846088
 30
0.0
 10
10.2138498043
 20
9.4842119387
 30
0.0
 10
10.2161695521
 20
9.4819288183
 30
0.0
 10
10.2176070608
 20
9.4803399028
 30
0.0
  0
SPLINE
  5
441
100
AcDbEntity
  8
0
100
AcDbSpline
 62
7
  6
CONTINUOUS
 70
0
 71
3
 72
9
 73
5
 74
0
 42
0.0000001
 43
0.0000001
 44
0.0000000001
 40
0.0
 40
0.0
 40
0.0
 40
0.0
 40
0.4900633032
 40
1.0
 40
1.0
 40
1.0
 40
1.0
 10
8.9026367738
 20
8.6859001979
 30
0.0
 10
8.9026367738
 20
8.6889831304
 30
0.0
 10
8.9029381106
 20
8.6952766473
 30
0.0
 10
8.9037818456
 20
8.7015186307
 30
0.0
 10
8.9043347241
 20
8.7046785821
 30
0.0
  0
SPLINE
  5
442
100
AcDbEntity
  8
0
100
AcDbSpline
 62
7
  6
CONTINUOUS
 70
0
 71
3
 72
13
 73
9
 74
0
 42
0.0000001
 43
0.0000001
 44
0.0000000001
 40
0.0
 40
0.0
 40
0.0
 40
0.0
 40
0.2801990409
 40
0.4134240068
 40
0.5414022418
 40
0.6639044952
 40
0.7809784104
 40
1.0
 40
1.0
 40
1.0
 40
1.0
 10
10.1904104298
 20
9.1086732029
 30
0.0
 10
10.1931663736
 20
9.109158989
 30
0.0
 10
10.197199642
 20
9.1100974521
 30
0.0
 10
10.2023384684
 20
9.1117872013
 30
0.0
 10
10.2059015914
 20
9.113204752
 30
0.0
 10
10.2092220021
 20
9.1147765344
 30
0.0
 10
10.2132279079
 20
9.1170011632
 30
0.0
 10
10.2160056999
 20
9.1189072627
 30
0.0
 10
10.2177216161
 20
9.1202639117
 30
0.0
  0
SPLINE
  5
443
100
AcDbEntity
  8
0
100
AcDbSpline
 62
7
  6
CONTINUOUS
 70
0
 71
3
 72
15
 73
11
 74
0
 42
0.0000001
 43
0.0000001
 44
0.0000000001
 40
0.0
 40
0.0
 40
0.0
 40
0.0
 40
0.1314615059
 40
0.2612721195
 40
0.389213062
 40
0.515177473
 40
0.6391290803
 40
0.7611367761
 40
0.8813821672
 40
1.0
 40
1.0
 40
1.0
 40
1.0
 10
10.1904104298
 20
9.1086732029
 30
0.0
 10
10.1918197359
 20
9.1082826045
 30
0.0
 10
10.1945895006
 20
9.1073883626
 30
0.0
 10
10.1985890567
 20
9.105717655
 30
0.0
 10
10.2023833507
 20
9.1037514342
 30
0.0
 10
10.2059485559
 20
9.1015159432
 30
0.0
 10
10.2092682801
 20
9.0990392214
 30
0.0
 10
10.2123368532
 20
9.0963537569
 30
0.0
 10
10.2151592608
 20
9.0934944289
 30
0.0
 10
10.2168932651
 20
9.091477906
 30
0.0
 10
10.2177203433
 20
9.0904497201
 30
0.0
  0
SPLINE
  5
444
100
AcDbEntity
  8
0
100
AcDbSpline
 62
9
  6
CONTINUOUS
 70
0
 71
3
 72
13
 73
9
 74
0
 42
0.0000001
 43
0.0000001
 44
0.0000000001
 40
0.0
 40
0.0
 40
0.0
 40
0.0
 40
0.2523259298
 40
0.3790391834
 40
0.5054932738
 40
0.6312457441
 40
0.7558668187
 40
1.0
 40
1.0
 40
1.0
 40
1.0
 10
9.4346606674
 20
8.7672637592
 30
0.0
 10
9.4401678541
 20
8.7680626018
 30
0.0
 10
9.4485243559
 20
8.7687611623
 30
0.0
 10
9.4596766799
 20
8.7687033171
 30
0.0
 10
9.4680212965
 20
8.768164808
 30
0.0
 10
9.4762732748
 20
8.7671345286
 30
0.0
 10
9.4869975361
 20
8.7651298673
 30
0.0
 10
9.494848311
 20
8.7628988663
 30
0.0
 10
9.4999175326
 20
8.7610844936
 30
0.0
  0
SPLINE
  5
445
100
AcDbEntity
  8
0
100
AcDbSpline
 62
7
  6
CONTINUOUS
 70
0
 71
3
 72
15
 73
11
 74
0
 42
0.0000001
 43
0.0000001
 44
0.0000000001
 40
0.0
 40
0.0
 40
0.0
 40
0.0
 40
0.1253068093
 40
0.25054077
 40
0.3756747042
 40
0.5007185125
 40
0.6256673688
 40
0.7505194736
 40
0.8753080904
 40
1.0
 40
1.0
 40
1.0
 40
1.0
 10
10.1904104298
 20
8.7023275612
 30
0.0
 10
10.1918271207
 20
8.7028036962
 30
0.0
 10
10.1946143694
 20
8.7038966534
 30
0.0
 10
10.1986158801
 20
8.7059267003
 30
0.0
 10
10.2024108143
 20
8.708314866
 30
0.0
 10
10.2059751041
 20
8.7110287781
 30
0.0
 10
10.2092923692
 20
8.7140337735
 30
0.0
 10
10.2123575381
 20
8.717290284
 30
0.0
 10
10.2151766431
 20
8.7207568553
 30
0.0
 10
10.2168982709
 20
8.7231867308
 30
0.0
 10
10.2177203919
 20
8.7244260718
 30
0.0
  0
SPLINE
  5
446
100
AcDbEntity
  8
0
100
AcDbSpline
 62
7
  6
CONTINUOUS
 70
0
 71
3
 72
11
 73
7
 74
0
 42
0.0000001
 43
0.0000001
 44
0.0000000001
 40
0.0
 40
0.0
 40
0.0
 40
0.0
 40
0.2988570489
 40
0.5678977243
 40
0.8016992501
 40
1.0
 40
1.0
 40
1.0
 40
1.0
 10
10.1904104298
 20
8.7023275612
 30
0.0
 10
10.1931351799
 20
8.70226448
 30
0.0
 10
10.1983120771
 20
8.7021072421
 30
0.0
 10
10.2056157125
 20
8.7017653775
 30
0.0
 10
10.2119962907
 20
8.7013417755
 30
0.0
 10
10.2159218681
 20
8.7009921078
 30
0.0
 10
10.217720635
 20
8.700805321
 30
0.0
  0
SPLINE
  5
447
100
AcDbEntity
  8
0
100
AcDbSpline
 62
9
  6
CONTINUOUS
 70
0
 71
3
 72
13
 73
9
 74
0
 42
0.0000001
 43
0.0000001
 44
0.0000000001
 40
0.0
 40
0.0
 40
0.0
 40
0.0
 40
0.2608851045
 40
0.3896166187
 40
0.5166080291
 40
0.6414733769
 40
0.7638692254
 40
1.0
 40
1.0
 40
1.0
 40
1.0
 10
8.8405003925
 20
8.6804871805
 30
0.0
 10
8.8349369502
 20
8.6801816385
 30
0.0
 10
8.8266431395
 20
8.6792318348
 30
0.0
 10
8.8158385492
 20
8.6769720093
 30
0.0
 10
8.8079968062
 20
8.6748109084
 30
0.0
 10
8.8004384751
 20
8.6721910751
 30
0.0
 10
8.7909283343
 20
8.6681619062
 30
0.0
 10
8.7841929736
 20
8.6644435659
 30
0.0
 10
8.7799848126
 20
8.6616642452
 30
0.0
  0
SPLINE
  5
448
100
AcDbEntity
  8
0
100
AcDbSpline
 62
7
  6
CONTINUOUS
 70
0
 71
3
 72
13
 73
9
 74
0
 42
0.0000001
 43
0.0000001
 44
0.0000000001
 40
0.0
 40
0.0
 40
0.0
 40
0.0
 40
0.2766376029
 40
0.4088569635
 40
0.5364332646
 40
0.6591858428
 40
0.7771818696
 40
1.0
 40
1.0
 40
1.0
 40
1.0
 10
10.1904104298
 20
9.0759095126
 30
0.0
 10
10.1931731834
 20
9.0764500134
 30
0.0
 10
10.197215328
 20
9.0774955037
 30
0.0
 10
10.2023457247
 20
9.0793686182
 30
0.0
 10
10.2059094717
 20
9.0809428113
 30
0.0
 10
10.209230057
 20
9.0826881349
 30
0.0
 10
10.2132475487
 20
9.0851652304
 30
0.0
 10
10.2160155816
 20
9.0872771071
 30
0.0
 10
10.2177198856
 20
9.0887726582
 30
0.0
  0
SPLINE
  5
449
100
AcDbEntity
  8
0
100
AcDbSpline
 62
9
  6
CONTINUOUS
 70
0
 71
3
 72
49
 73
45
 74
0
 42
0.0000001
 43
0.0000001
 44
0.0000000001
 40
0.0
 40
0.0
 40
0.0
 40
0.0
 40
0.0128549586
 40
0.025741798
 40
0.038689042
 40
0.051727007
 40
0.0648834093
 40
0.0781841518
 40
0.0916531039
 40
0.1053115779
 40
0.1191782315
 40
0.133268965
 40
0.1621610421
 40
0.1920699296
 40
0.2230217156
 40
0.2550018568
 40
0.2879594206
 40
0.3218118995
 40
0.3564500266
 40
0.3917425208
 40
0.4275407673
 40
0.4636832639
 40
0.5
 40
0.5363167361
 40
0.5724592327
 40
0.6082574792
 40
0.6435499734
 40
0.6781881005
 40
0.7120405794
 40
0.7449981432
 40
0.7769782844
 40
0.8079300704
 40
0.8378389579
 40
0.866731035
 40
0.8808217685
 40
0.8946884221
 40
0.9083468961
 40
0.9218158482
 40
0.9351165907
 40
0.948272993
 40
0.961310958
 40
0.974258202
 40
0.9871450414
 40
1.0
 40
1.0
 40
1.0
 40
1.0
 10
8.796016602
 20
9.8670608157
 30
0.0
 10
8.796016602
 20
9.8707043077
 30
0.0
 10
8.7962703231
 20
9.87800285
 30
0.0
 10
8.7974102254
 20
9.8889174583
 30
0.0
 10
8.7993070997
 20
9.8997793326
 30
0.0
 10
8.8019559449
 20
9.9105610517
 30
0.0
 10
8.8053501753
 20
9.9212368015
 30
0.0
 10
8.8094812902
 20
9.9317806005
 30
0.0
 10
8.8143390768
 20
9.9421669685
 30
0.0
 10
8.8199114555
 20
9.9523707994
 30
0.0
 10
8.8261849198
 20
9.9623678685
 30
0.0
 10
8.8355397994
 20
9.9754964943
 30
0.0
 10
8.8489576804
 20
9.9912663344
 30
0.0
 10
8.8674318503
 20
10.0088167706
 30
0.0
 10
8.8882366381
 20
10.0249943376
 30
0.0
 10
8.9111699592
 20
10.0396461002
 30
0.0
 10
8.9360121206
 20
10.0526358569
 30
0.0
 10
8.9625253928
 20
10.0638416295
 30
0.0
 10
8.9904564643
 20
10.0731580189
 30
0.0
 10
9.0195384659
 20
10.0804972155
 30
0.0
 10
9.0494935557
 20
10.0857897183
 30
0.0
 10
9.0800354315
 20
10.0889854304
 30
0.0
 10
9.1108721297
 20
10.0900540823
 30
0.0
 10
9.1417088279
 20
10.0889854304
 30
0.0
 10
9.1722507037
 20
10.0857897183
 30
0.0
 10
9.2022057935
 20
10.0804972155
 30
0.0
 10
9.231287795
 20
10.0731580189
 30
0.0
 10
9.2592188666
 20
10.0638416295
 30
0.0
 10
9.2857321388
 20
10.0526358569
 30
0.0
 10
9.3105743001
 20
10.0396461002
 30
0.0
 10
9.3335076213
 20
10.0249943376
 30
0.0
 10
9.354312409
 20
10.0088167706
 30
0.0
 10
9.3727865789
 20
9.9912663344
 30
0.0
 10
9.38620446
 20
9.9754964943
 30
0.0
 10
9.3955593395
 20
9.9623678685
 30
0.0
 10
9.4018328038
 20
9.9523707994
 30
0.0
 10
9.4074051826
 20
9.9421669685
 30
0.0
 10
9.4122629691
 20
9.9317806005
 30
0.0
 10
9.4163940841
 20
9.9212368015
 30
0.0
 10
9.4197883145
 20
9.9105610517
 30
0.0
 10
9.4224371597
 20
9.8997793326
 30
0.0
 10
9.4243340339
 20
9.8889174583
 30
0.0
 10
9.4254739363
 20
9.87800285
 30
0.0
 10
9.4257276573
 20
9.8707043077
 30
0.0
 10
9.4257276573
 20
9.8670608157
 30
0.0
  0
SPLINE
  5
44A
100
AcDbEntity
  8
0
100
AcDbSpline
 62
7
  6
CONTINUOUS
 70
0
 71
3
 72
15
 73
11
 74
0
 42
0.0000001
 43
0.0000001
 44
0.0000000001
 40
0.0
 40
0.0
 40
0.0
 40
0.0
 40
0.1329675504
 40
0.2639120055
 40
0.3925622979
 40
0.518774728
 40
0.6424965448
 40
0.7638068764
 40
0.8829183754
 40
1.0
 40
1.0
 40
1.0
 40
1.0
 10
10.1904104298
 20
9.0759095126
 30
0.0
 10
10.1918181784
 20
9.0755390501
 30
0.0
 10
10.1945841138
 20
9.0746914343
 30
0.0
 10
10.1985832018
 20
9.0731058119
 30
0.0
 10
10.2023772599
 20
9.0712395916
 30
0.0
 10
10.2059425492
 20
9.0691176212
 30
0.0
 10
10.2092627403
 20
9.0667663667
 30
0.0
 10
10.212332014
 20
9.0642164946
 30
0.0
 10
10.2151553001
 20
9.0615014773
 30
0.0
 10
10.2168928391
 20
9.0595834227
 30
0.0
 10
10.217721379
 20
9.0586054436
 30
0.0
  0
SPLINE
  5
44B
100
AcDbEntity
  8
0
100
AcDbSpline
 62
7
  6
CONTINUOUS
 70
0
 71
3
 72
13
 73
9
 74
0
 42
0.0000001
 43
0.0000001
 44
0.0000000001
 40
0.0
 40
0.0
 40
0.0
 40
0.0
 40
0.2731625875
 40
0.4044122657
 40
0.5316110779
 40
0.6546208514
 40
0.7735198124
 40
1.0
 40
1.0
 40
1.0
 40
1.0
 10
10.1904104298
 20
9.0428366985
 30
0.0
 10
10.1931806271
 20
9.0434297871
 30
0.0
 10
10.1972322091
 20
9.0445784292
 30
0.0
 10
10.2023546158
 20
9.0466260543
 30
0.0
 10
10.2059192414
 20
9.04835
 30
0.0
 10
10.2092401334
 20
9.0502611418
 30
0.0
 10
10.2132685435
 20
9.0529806687
 30
0.0
 10
10.2160273809
 20
9.055287847
 30
0.0
 10
10.2177215459
 20
9.0569147493
 30
0.0
  0
SPLINE
  5
44C
100
AcDbEntity
  8
0
100
AcDbSpline
 62
7
  6
CONTINUOUS
 70
0
 71
3
 72
12
 73
8
 74
0
 42
0.0000001
 43
0.0000001
 44
0.0000000001
 40
0.0
 40
0.0
 40
0.0
 40
0.0
 40
0.2667474403
 40
0.5226217699
 40
0.6461668784
 40
0.7667801443
 40
1.0
 40
1.0
 40
1.0
 40
1.0
 10
10.1904104298
 20
9.0428366985
 30
0.0
 10
10.1931948922
 20
9.042146331
 30
0.0
 10
10.1985576334
 20
9.0403810089
 30
0.0
 10
10.204776101
 20
9.0372153674
 30
0.0
 10
10.2092540928
 20
9.0342286455
 30
0.0
 10
10.2133005421
 20
9.0310631087
 30
0.0
 10
10.2160419366
 20
9.0284010414
 30
0.0
 10
10.2177190144
 20
9.0265359836
 30
0.0
  0
SPLINE
  5
44D
100
AcDbEntity
  8
0
100
AcDbSpline
 62
9
  6
CONTINUOUS
 70
0
 71
3
 72
49
 73
45
 74
0
 42
0.0000001
 43
0.0000001
 44
0.0000000001
 40
0.0
 40
0.0
 40
0.0
 40
0.0
 40
0.0128549586
 40
0.025741798
 40
0.038689042
 40
0.051727007
 40
0.0648834093
 40
0.0781841518
 40
0.0916531039
 40
0.1053115779
 40
0.1191782315
 40
0.133268965
 40
0.1621610421
 40
0.1920699296
 40
0.2230217156
 40
0.2550018568
 40
0.2879594206
 40
0.3218118995
 40
0.3564500266
 40
0.3917425208
 40
0.4275407673
 40
0.4636832639
 40
0.5
 40
0.5363167361
 40
0.5724592327
 40
0.6082574792
 40
0.6435499734
 40
0.6781881005
 40
0.7120405794
 40
0.7449981432
 40
0.7769782844
 40
0.8079300704
 40
0.8378389579
 40
0.866731035
 40
0.8808217685
 40
0.8946884221
 40
0.9083468961
 40
0.9218158482
 40
0.9351165907
 40
0.948272993
 40
0.961310958
 40
0.974258202
 40
0.9871450414
 40
1.0
 40
1.0
 40
1.0
 40
1.0
 10
8.796016602
 20
9.8670608157
 30
0.0
 10
8.796016602
 20
9.8634173237
 30
0.0
 10
8.7962703231
 20
9.8561187814
 30
0.0
 10
8.7974102254
 20
9.8452041732
 30
0.0
 10
8.7993070997
 20
9.8343422988
 30
0.0
 10
8.8019559449
 20
9.8235605797
 30
0.0
 10
8.8053501753
 20
9.8128848299
 30
0.0
 10
8.8094812902
 20
9.8023410309
 30
0.0
 10
8.8143390768
 20
9.7919546629
 30
0.0
 10
8.8199114555
 20
9.7817508321
 30
0.0
 10
8.8261849198
 20
9.7717537629
 30
0.0
 10
8.8355397994
 20
9.7586251371
 30
0.0
 10
8.8489576804
 20
9.7428552971
 30
0.0
 10
8.8674318503
 20
9.7253048608
 30
0.0
 10
8.8882366381
 20
9.7091272939
 30
0.0
 10
8.9111699592
 20
9.6944755313
 30
0.0
 10
8.9360121206
 20
9.6814857746
 30
0.0
 10
8.9625253928
 20
9.670280002
 30
0.0
 10
8.9904564643
 20
9.6609636126
 30
0.0
 10
9.0195384659
 20
9.6536244159
 30
0.0
 10
9.0494935557
 20
9.6483319132
 30
0.0
 10
9.0800354315
 20
9.645136201
 30
0.0
 10
9.1108721297
 20
9.6440675492
 30
0.0
 10
9.1417088279
 20
9.645136201
 30
0.0
 10
9.1722507037
 20
9.6483319132
 30
0.0
 10
9.2022057935
 20
9.6536244159
 30
0.0
 10
9.231287795
 20
9.6609636126
 30
0.0
 10
9.2592188666
 20
9.670280002
 30
0.0
 10
9.2857321388
 20
9.6814857746
 30
0.0
 10
9.3105743001
 20
9.6944755313
 30
0.0
 10
9.3335076213
 20
9.7091272939
 30
0.0
 10
9.354312409
 20
9.7253048608
 30
0.0
 10
9.3727865789
 20
9.7428552971
 30
0.0
 10
9.38620446
 20
9.7586251371
 30
0.0
 10
9.3955593395
 20
9.7717537629
 30
0.0
 10
9.4018328038
 20
9.7817508321
 30
0.0
 10
9.4074051826
 20
9.7919546629
 30
0.0
 10
9.4122629691
 20
9.8023410309
 30
0.0
 10
9.4163940841
 20
9.8128848299
 30
0.0
 10
9.4197883145
 20
9.8235605797
 30
0.0
 10
9.4224371597
 20
9.8343422988
 30
0.0
 10
9.4243340339
 20
9.8452041732
 30
0.0
 10
9.4254739363
 20
9.8561187814
 30
0.0
 10
9.4257276573
 20
9.8634173237
 30
0.0
 10
9.4257276573
 20
9.8670608157
 30
0.0
  0
SPLINE
  5
44E
100
AcDbEntity
  8
0
100
AcDbSpline
 62
7
  6
CONTINUOUS
 70
0
 71
3
 72
15
 73
11
 74
0
 42
0.0000001
 43
0.0000001
 44
0.0000000001
 40
0.0
 40
0.0
 40
0.0
 40
0.0
 40
0.1257046904
 40
0.2512323616
 40
0.3765439807
 40
0.5016423375
 40
0.6265223655
 40
0.7511902236
 40
0.8756904795
 40
1.0
 40
1.0
 40
1.0
 40
1.0
 10
10.1904104298
 20
8.593585817
 30
0.0
 10
10.1918266245
 20
8.5940562112
 30
0.0
 10
10.1946127269
 20
8.5951358065
 30
0.0
 10
10.1986142264
 20
8.5971418782
 30
0.0
 10
10.2024092316
 20
8.5995019261
 30
0.0
 10
10.2059736823
 20
8.6021839515
 30
0.0
 10
10.2092911925
 20
8.6051537482
 30
0.0
 10
10.212356576
 20
8.6083723039
 30
0.0
 10
10.2151760337
 20
8.6117983891
 30
0.0
 10
10.216898502
 20
8.6142007446
 30
0.0
 10
10.2177209351
 20
8.6154260303
 30
0.0
  0
SPLINE
  5
44F
100
AcDbEntity
  8
0
100
AcDbSpline
 62
9
  6
CONTINUOUS
 70
0
 71
3
 72
49
 73
45
 74
0
 42
0.0000001
 43
0.0000001
 44
0.0000000001
 40
0.0
 40
0.0
 40
0.0
 40
0.0
 40
0.0128549586
 40
0.025741798
 40
0.038689042
 40
0.051727007
 40
0.0648834093
 40
0.0781841518
 40
0.0916531039
 40
0.1053115779
 40
0.1191782315
 40
0.133268965
 40
0.1621610421
 40
0.1920699296
 40
0.2230217156
 40
0.2550018568
 40
0.2879594206
 40
0.3218118995
 40
0.3564500266
 40
0.3917425208
 40
0.4275407673
 40
0.4636832639
 40
0.5
 40
0.5363167361
 40
0.5724592327
 40
0.6082574792
 40
0.6435499734
 40
0.6781881005
 40
0.7120405794
 40
0.7449981432
 40
0.7769782844
 40
0.8079300704
 40
0.8378389579
 40
0.866731035
 40
0.8808217685
 40
0.8946884221
 40
0.9083468961
 40
0.9218158482
 40
0.9351165907
 40
0.948272993
 40
0.961310958
 40
0.974258202
 40
0.9871450414
 40
1.0
 40
1.0
 40
1.0
 40
1.0
 10
8.796016602
 20
8.1521571069
 30
0.0
 10
8.796016602
 20
8.155800599
 30
0.0
 10
8.7962703231
 20
8.1630991412
 30
0.0
 10
8.7974102254
 20
8.1740137495
 30
0.0
 10
8.7993070997
 20
8.1848756238
 30
0.0
 10
8.8019559449
 20
8.1956573429
 30
0.0
 10
8.8053501753
 20
8.2063330928
 30
0.0
 10
8.8094812902
 20
8.2168768918
 30
0.0
 10
8.8143390768
 20
8.2272632597
 30
0.0
 10
8.8199114555
 20
8.2374670906
 30
0.0
 10
8.8261849198
 20
8.2474641597
 30
0.0
 10
8.8355397994
 20
8.2605927856
 30
0.0
 10
8.8489576804
 20
8.2763626256
 30
0.0
 10
8.8674318503
 20
8.2939130619
 30
0.0
 10
8.8882366381
 20
8.3100906288
 30
0.0
 10
8.9111699592
 20
8.3247423914
 30
0.0
 10
8.9360121206
 20
8.3377321481
 30
0.0
 10
8.9625253928
 20
8.3489379207
 30
0.0
 10
8.9904564643
 20
8.3582543101
 30
0.0
 10
9.0195384659
 20
8.3655935067
 30
0.0
 10
9.0494935557
 20
8.3708860095
 30
0.0
 10
9.0800354315
 20
8.3740817217
 30
0.0
 10
9.1108721297
 20
8.3751503735
 30
0.0
 10
9.1417088279
 20
8.3740817217
 30
0.0
 10
9.1722507037
 20
8.3708860095
 30
0.0
 10
9.2022057935
 20
8.3655935067
 30
0.0
 10
9.231287795
 20
8.3582543101
 30
0.0
 10
9.2592188666
 20
8.3489379207
 30
0.0
 10
9.2857321388
 20
8.3377321481
 30
0.0
 10
9.3105743001
 20
8.3247423914
 30
0.0
 10
9.3335076213
 20
8.3100906288
 30
0.0
 10
9.354312409
 20
8.2939130619
 30
0.0
 10
9.3727865789
 20
8.2763626256
 30
0.0
 10
9.38620446
 20
8.2605927856
 30
0.0
 10
9.3955593395
 20
8.2474641597
 30
0.0
 10
9.4018328038
 20
8.2374670906
 30
0.0
 10
9.4074051826
 20
8.2272632597
 30
0.0
 10
9.4122629691
 20
8.2168768918
 30
0.0
 10
9.4163940841
 20
8.2063330928
 30
0.0
 10
9.4197883145
 20
8.1956573429
 30
0.0
 10
9.4224371597
 20
8.1848756238
 30
0.0
 10
9.4243340339
 20
8.1740137495
 30
0.0
 10
9.4254739363
 20
8.1630991412
 30
0.0
 10
9.4257276573
 20
8.155800599
 30
0.0
 10
9.4257276573
 20
8.1521571069
 30
0.0
  0
SPLINE
  5
450
100
AcDbEntity
  8
0
100
AcDbSpline
 62
7
  6
CONTINUOUS
 70
0
 71
3
 72
13
 73
9
 74
0
 42
0.0000001
 43
0.0000001
 44
0.0000000001
 40
0.0
 40
0.0
 40
0.0
 40
0.0
 40
0.2698312736
 40
0.4001635407
 40
0.527015017
 40
0.6502827897
 40
0.7700518467
 40
1.0
 40
1.0
 40
1.0
 40
1.0
 10
10.1904104298
 20
9.0096089613
 30
0.0
 10
10.1931876561
 20
9.010252044
 30
0.0
 10
10.19724776
 20
9.0114989055
 30
0.0
 10
10.2023612842
 20
9.0137105247
 30
0.0
 10
10.2059261017
 20
9.0155757804
 30
0.0
 10
10.2092466897
 20
9.017643293
 30
0.0
 10
10.2132844946
 20
9.0205923546
 30
0.0
 10
10.2160342351
 20
9.0230829357
 30
0.0
 10
10.2177192035
 20
9.0248329741
 30
0.0
  0
SPLINE
  5
451
100
AcDbEntity
  8
0
100
AcDbSpline
 62
7
  6
CONTINUOUS
 70
0
 71
3
 72
13
 73
9
 74
0
 42
0.0000001
 43
0.0000001
 44
0.0000000001
 40
0.0
 40
0.0
 40
0.0
 40
0.0
 40
0.2698324108
 40
0.4001647849
 40
0.5270160812
 40
0.6502833093
 40
0.7700514872
 40
1.0
 40
1.0
 40
1.0
 40
1.0
 10
10.1904104298
 20
9.0096089613
 30
0.0
 10
10.1931878708
 20
9.008965829
 30
0.0
 10
10.1972482805
 20
9.0077188502
 30
0.0
 10
10.2023621568
 20
9.0055069896
 30
0.0
 10
10.2059271916
 20
9.0036415284
 30
0.0
 10
10.2092479567
 20
9.0015737891
 30
0.0
 10
10.2132859308
 20
8.9986243586
 30
0.0
 10
10.216035834
 20
8.9961335735
 30
0.0
 10
10.2177209337
 20
8.9943834098
 30
0.0
  0
SPLINE
  5
452
100
AcDbEntity
  8
0
100
AcDbSpline
 62
7
  6
CONTINUOUS
 70
0
 71
3
 72
12
 73
8
 74
0
 42
0.0000001
 43
0.0000001
 44
0.0000000001
 40
0.0
 40
0.0
 40
0.0
 40
0.0
 40
0.2667487396
 40
0.5226230314
 40
0.6461676099
 40
0.7667800446
 40
1.0
 40
1.0
 40
1.0
 40
1.0
 10
10.1904104298
 20
8.9763812242
 30
0.0
 10
10.1931951664
 20
8.9770716596
 30
0.0
 10
10.1985584148
 20
8.9788371916
 30
0.0
 10
10.2047774032
 20
8.982003279
 30
0.0
 10
10.2092557016
 20
8.9849904243
 30
0.0
 10
10.2133023701
 20
8.9881564418
 30
0.0
 10
10.216043933
 20
8.9908188228
 30
0.0
 10
10.2177211745
 20
8.9926840506
 30
0.0
  0
SPLINE
  5
453
100
AcDbEntity
  8
0
100
AcDbSpline
 62
9
  6
CONTINUOUS
 70
0
 71
3
 72
49
 73
45
 74
0
 42
0.0000001
 43
0.0000001
 44
0.0000000001
 40
0.0
 40
0.0
 40
0.0
 40
0.0
 40
0.0128549586
 40
0.025741798
 40
0.038689042
 40
0.051727007
 40
0.0648834093
 40
0.0781841518
 40
0.0916531039
 40
0.1053115779
 40
0.1191782315
 40
0.133268965
 40
0.1621610421
 40
0.1920699296
 40
0.2230217156
 40
0.2550018568
 40
0.2879594206
 40
0.3218118995
 40
0.3564500266
 40
0.3917425208
 40
0.4275407673
 40
0.4636832639
 40
0.5
 40
0.5363167361
 40
0.5724592327
 40
0.6082574792
 40
0.6435499734
 40
0.6781881005
 40
0.7120405794
 40
0.7449981432
 40
0.7769782844
 40
0.8079300704
 40
0.8378389579
 40
0.866731035
 40
0.8808217685
 40
0.8946884221
 40
0.9083468961
 40
0.9218158482
 40
0.9351165907
 40
0.948272993
 40
0.961310958
 40
0.974258202
 40
0.9871450414
 40
1.0
 40
1.0
 40
1.0
 40
1.0
 10
8.796016602
 20
8.1521571069
 30
0.0
 10
8.796016602
 20
8.1485136149
 30
0.0
 10
8.7962703231
 20
8.1412150726
 30
0.0
 10
8.7974102254
 20
8.1303004644
 30
0.0
 10
8.7993070997
 20
8.11943859
 30
0.0
 10
8.8019559449
 20
8.1086568709
 30
0.0
 10
8.8053501753
 20
8.0979811211
 30
0.0
 10
8.8094812902
 20
8.0874373221
 30
0.0
 10
8.8143390768
 20
8.0770509541
 30
0.0
 10
8.8199114555
 20
8.0668471233
 30
0.0
 10
8.8261849198
 20
8.0568500542
 30
0.0
 10
8.8355397994
 20
8.0437214283
 30
0.0
 10
8.8489576804
 20
8.0279515883
 30
0.0
 10
8.8674318503
 20
8.010401152
 30
0.0
 10
8.8882366381
 20
7.9942235851
 30
0.0
 10
8.9111699592
 20
7.9795718225
 30
0.0
 10
8.9360121206
 20
7.9665820658
 30
0.0
 10
8.9625253928
 20
7.9553762932
 30
0.0
 10
8.9904564643
 20
7.9460599038
 30
0.0
 10
9.0195384659
 20
7.9387207071
 30
0.0
 10
9.0494935557
 20
7.9334282044
 30
0.0
 10
9.0800354315
 20
7.9302324922
 30
0.0
 10
9.1108721297
 20
7.9291638404
 30
0.0
 10
9.1417088279
 20
7.9302324922
 30
0.0
 10
9.1722507037
 20
7.9334282044
 30
0.0
 10
9.2022057935
 20
7.9387207071
 30
0.0
 10
9.231287795
 20
7.9460599038
 30
0.0
 10
9.2592188666
 20
7.9553762932
 30
0.0
 10
9.2857321388
 20
7.9665820658
 30
0.0
 10
9.3105743001
 20
7.9795718225
 30
0.0
 10
9.3335076213
 20
7.9942235851
 30
0.0
 10
9.354312409
 20
8.010401152
 30
0.0
 10
9.3727865789
 20
8.0279515883
 30
0.0
 10
9.38620446
 20
8.0437214283
 30
0.0
 10
9.3955593395
 20
8.0568500542
 30
0.0
 10
9.4018328038
 20
8.0668471233
 30
0.0
 10
9.4074051826
 20
8.0770509541
 30
0.0
 10
9.4122629691
 20
8.0874373221
 30
0.0
 10
9.4163940841
 20
8.0979811211
 30
0.0
 10
9.4197883145
 20
8.1086568709
 30
0.0
 10
9.4224371597
 20
8.11943859
 30
0.0
 10
9.4243340339
 20
8.1303004644
 30
0.0
 10
9.4254739363
 20
8.1412150726
 30
0.0
 10
9.4257276573
 20
8.1485136149
 30
0.0
 10
9.4257276573
 20
8.1521571069
 30
0.0
  0
SPLINE
  5
454
100
AcDbEntity
  8
0
100
AcDbSpline
 62
7
  6
CONTINUOUS
 70
0
 71
3
 72
13
 73
9
 74
0
 42
0.0000001
 43
0.0000001
 44
0.0000000001
 40
0.0
 40
0.0
 40
0.0
 40
0.0
 40
0.2731598345
 40
0.40440962
 40
0.5316083131
 40
0.6546178743
 40
0.7735179611
 40
1.0
 40
1.0
 40
1.0
 40
1.0
 10
10.1904104298
 20
8.9763812242
 30
0.0
 10
10.1931802683
 20
8.9757882123
 30
0.0
 10
10.1972313455
 20
8.974639751
 30
0.0
 10
10.202353158
 20
8.9725924944
 30
0.0
 10
10.2059174137
 20
8.9708688785
 30
0.0
 10
10.209238001
 20
8.9689581092
 30
0.0
 10
10.2132660973
 20
8.9662391076
 30
0.0
 10
10.2160247372
 20
8.9639322969
 30
0.0
 10
10.2177187068
 20
8.9623055684
 30
0.0
  0
SPLINE
  5
455
100
AcDbEntity
  8
0
100
AcDbSpline
 62
7
  6
CONTINUOUS
 70
0
 71
3
 72
13
 73
9
 74
0
 42
0.0000001
 43
0.0000001
 44
0.0000000001
 40
0.0
 40
0.0
 40
0.0
 40
0.0
 40
0.2664999745
 40
0.3959107189
 40
0.5224189455
 40
0.6459556042
 40
0.7666031309
 40
1.0
 40
1.0
 40
1.0
 40
1.0
 10
10.1907253236
 20
8.5227805698
 30
0.0
 10
10.1934614782
 20
8.5234754977
 30
0.0
 10
10.1974588587
 20
8.5248121101
 30
0.0
 10
10.2024768097
 20
8.5271541747
 30
0.0
 10
10.2059834337
 20
8.5291274257
 30
0.0
 10
10.2092523704
 20
8.5313101394
 30
0.0
 10
10.2132413212
 20
8.5344269514
 30
0.0
 10
10.2159483345
 20
8.5370446347
 30
0.0
 10
10.2176070051
 20
8.5388780461
 30
0.0
  0
LINE
  5
456
100
AcDbEntity
  8
0
100
AcDbLine
 62
7
  6
CONTINUOUS
 10
10.2176070051
 20
8.5388780461
 11
10.217719475
 21
8.5390027429
  0
SPLINE
  5
457
100
AcDbEntity
  8
0
100
AcDbSpline
 62
7
  6
CONTINUOUS
 70
0
 71
3
 72
15
 73
11
 74
0
 42
0.0000001
 43
0.0000001
 44
0.0000000001
 40
0.0
 40
0.0
 40
0.0
 40
0.0
 40
0.1262632669
 40
0.2522031058
 40
0.3777643166
 40
0.5029408744
 40
0.6277268879
 40
0.7521368162
 40
0.8762301897
 40
1.0
 40
1.0
 40
1.0
 40
1.0
 10
10.1904104298
 20
8.7566196829
 30
0.0
 10
10.191825915
 20
8.7570820781
 30
0.0
 10
10.1946103682
 20
8.7581430574
 30
0.0
 10
10.1986117558
 20
8.7601156672
 30
0.0
 10
10.2024067793
 20
8.7624364519
 30
0.0
 10
10.2059713898
 20
8.7650739867
 30
0.0
 10
10.2092891868
 20
8.7679946789
 30
0.0
 10
10.2123549206
 20
8.7711601654
 30
0.0
 10
10.2151747022
 20
8.774529808
 30
0.0
 10
10.2168982237
 20
8.7768937787
 30
0.0
 10
10.217721071
 20
8.7780994385
 30
0.0
  0
SPLINE
  5
458
100
AcDbEntity
  8
0
100
AcDbSpline
 62
7
  6
CONTINUOUS
 70
0
 71
3
 72
13
 73
9
 74
0
 42
0.0000001
 43
0.0000001
 44
0.0000000001
 40
0.0
 40
0.0
 40
0.0
 40
0.0
 40
0.2958394094
 40
0.4336220164
 40
0.5635624761
 40
0.7982284689
 40
0.9030911221
 40
1.0
 40
1.0
 40
1.0
 40
1.0
 10
10.1904104298
 20
8.7566196829
 30
0.0
 10
10.1931393767
 20
8.7564313246
 30
0.0
 10
10.1971344034
 20
8.7560695614
 30
0.0
 10
10.2023033078
 20
8.7554052836
 30
0.0
 10
10.2068937484
 20
8.7546914559
 30
0.0
 10
10.2111550353
 20
8.7538468487
 30
0.0
 10
10.2150695553
 20
8.7528637806
 30
0.0
 10
10.2168626837
 20
8.752346858
 30
0.0
 10
10.2177186558
 20
8.7520818556
 30
0.0
  0
SPLINE
  5
459
100
AcDbEntity
  8
0
100
AcDbSpline
 62
7
  6
CONTINUOUS
 70
0
 71
3
 72
15
 73
11
 74
0
 42
0.0000001
 43
0.0000001
 44
0.0000000001
 40
0.0
 40
0.0
 40
0.0
 40
0.0
 40
0.1249880857
 40
0.2499880927
 40
0.3749812822
 40
0.4999810823
 40
0.6249828463
 40
0.74998147
 40
0.8750018445
 40
1.0
 40
1.0
 40
1.0
 40
1.0
 10
10.1904104298
 20
8.6537595105
 30
0.0
 10
10.1918273994
 20
8.6542402166
 30
0.0
 10
10.1946153493
 20
8.6553438072
 30
0.0
 10
10.1986165734
 20
8.6573928968
 30
0.0
 10
10.2024111843
 20
8.6598033858
 30
0.0
 10
10.2059751132
 20
8.662542551
 30
0.0
 10
10.2092919989
 20
8.6655754027
 30
0.0
 10
10.2123567733
 20
8.6688620768
 30
0.0
 10
10.2151756212
 20
8.6723607047
 30
0.0
 10
10.2168965854
 20
8.6748124336
 30
0.0
 10
10.2177184064
 20
8.6760629742
 30
0.0
  0
SPLINE
  5
45A
100
AcDbEntity
  8
0
100
AcDbSpline
 62
7
  6
CONTINUOUS
 70
0
 71
3
 72
15
 73
11
 74
0
 42
0.0000001
 43
0.0000001
 44
0.0000000001
 40
0.0
 40
0.0
 40
0.0
 40
0.0
 40
0.1289039271
 40
0.2568024961
 40
0.3835600826
 40
0.5091232195
 40
0.6334757962
 40
0.7566656285
 40
0.8788181723
 40
1.0
 40
1.0
 40
1.0
 40
1.0
 10
10.1904104298
 20
8.5407573933
 30
0.0
 10
10.1918224925
 20
8.541182727
 30
0.0
 10
10.1945989682
 20
8.5421575376
 30
0.0
 10
10.1985990933
 20
8.5439745733
 30
0.0
 10
10.2023935047
 20
8.5461126908
 30
0.0
 10
10.205958245
 20
8.5485431448
 30
0.0
 10
10.2092768902
 20
8.5512352114
 30
0.0
 10
10.2123439589
 20
8.5541535471
 30
0.0
 10
10.215164951
 20
8.5572604745
 30
0.0
 10
10.216893436
 20
8.5594457498
 30
0.0
 10
10.2177182289
 20
8.5605601022
 30
0.0
  0
SPLINE
  5
45B
100
AcDbEntity
  8
0
100
AcDbSpline
 62
9
  6
CONTINUOUS
 70
0
 71
3
 72
28
 73
24
 74
0
 42
0.0000001
 43
0.0000001
 44
0.0000000001
 40
0.0
 40
0.0
 40
0.0
 40
0.0
 40
0.0653368296
 40
0.1323719752
 40
0.200661152
 40
0.2697085505
 40
0.3389883123
 40
0.4079655138
 40
0.476117063
 40
0.5429526569
 40
0.6080364858
 40
0.6710094467
 40
0.7316126057
 40
0.7609915201
 40
0.7897391866
 40
0.8178619158
 40
0.8453764109
 40
0.8723102436
 40
0.898702124
 40
0.9246017652
 40
0.9500696226
 40
0.975176202
 40
1.0
 40
1.0
 40
1.0
 40
1.0
 10
9.0147019234
 20
8.8540962401
 30
0.0
 10
9.0212777657
 20
8.8569594019
 30
0.0
 10
9.0349084935
 20
8.8620745613
 30
0.0
 10
9.0562072233
 20
8.8678092042
 30
0.0
 10
9.0783439382
 20
8.8716370671
 30
0.0
 10
9.1009774611
 20
8.87349911
 30
0.0
 10
9.1237624756
 20
8.8733676606
 30
0.0
 10
9.1463502971
 20
8.8712445125
 30
0.0
 10
9.1683956538
 20
8.8671618278
 30
0.0
 10
9.1895614407
 20
8.8611810883
 30
0.0
 10
9.2095249013
 20
8.8533917483
 30
0.0
 10
9.2279791493
 20
8.8439113219
 30
0.0
 10
9.2420133318
 20
8.8346199553
 30
0.0
 10
9.2521900322
 20
8.8264662628
 30
0.0
 10
9.2591991973
 20
8.8200916817
 30
0.0
 10
9.2656351524
 20
8.8134201354
 30
0.0
 10
9.2714730063
 20
8.8064769018
 30
0.0
 10
9.2766897914
 20
8.7992886074
 30
0.0
 10
9.2812649668
 20
8.7918828174
 30
0.0
 10
9.285180329
 20
8.7842881015
 30
0.0
 10
9.2884201751
 20
8.7765335722
 30
0.0
 10
9.290971119
 20
8.7686502208
 30
0.0
 10
9.2922116067
 20
8.7633033164
 30
0.0
 10
9.2927114317
 20
8.7606246016
 30
0.0
  0
SPLINE
  5
45C
100
AcDbEntity
  8
0
100
AcDbSpline
 62
7
  6
CONTINUOUS
 70
0
 71
3
 72
15
 73
11
 74
0
 42
0.0000001
 43
0.0000001
 44
0.0000000001
 40
0.0
 40
0.0
 40
0.0
 40
0.0
 40
0.1278636352
 40
0.2549879476
 40
0.3812702634
 40
0.5066780922
 40
0.6312004439
 40
0.7548714379
 40
0.877791473
 40
1.0
 40
1.0
 40
1.0
 40
1.0
 10
10.1904104298
 20
8.8156245162
 30
0.0
 10
10.1918239609
 20
8.8160643552
 30
0.0
 10
10.1946038119
 20
8.8170728811
 30
0.0
 10
10.1986048394
 20
8.8189509392
 30
0.0
 10
10.2023998596
 20
8.8211607412
 30
0.0
 10
10.2059648731
 20
8.823672508
 30
0.0
 10
10.2092834499
 20
8.8264543706
 30
0.0
 10
10.2123501887
 20
8.8294697639
 30
0.0
 10
10.2151708586
 20
8.8326798046
 30
0.0
 10
10.2168974944
 20
8.8349351683
 30
0.0
 10
10.2177215763
 20
8.8360853213
 30
0.0
  0
SPLINE
  5
45D
100
AcDbEntity
  8
0
100
AcDbSpline
 62
7
  6
CONTINUOUS
 70
0
 71
3
 72
15
 73
11
 74
0
 42
0.0000001
 43
0.0000001
 44
0.0000000001
 40
0.0
 40
0.0
 40
0.0
 40
0.0
 40
0.1479848051
 40
0.2904940663
 40
0.4266723597
 40
0.5558893409
 40
0.6777432566
 40
0.7921808401
 40
0.8994906224
 40
1.0
 40
1.0
 40
1.0
 40
1.0
 10
10.1904104298
 20
8.8156245162
 30
0.0
 10
10.1918051102
 20
8.8154660698
 30
0.0
 10
10.1945375552
 20
8.8151056001
 30
0.0
 10
10.1985278593
 20
8.8144246126
 30
0.0
 10
10.2023140593
 20
8.8136231423
 30
0.0
 10
10.2058734712
 20
8.8127116702
 30
0.0
 10
10.2091910746
 20
8.8117010162
 30
0.0
 10
10.212261298
 20
8.8106038169
 30
0.0
 10
10.2150868602
 20
8.8094348186
 30
0.0
 10
10.2168683959
 20
8.8085886723
 30
0.0
 10
10.2177178125
 20
8.8081558294
 30
0.0
  0
SPLINE
  5
45E
100
AcDbEntity
  8
0
100
AcDbSpline
 62
7
  6
CONTINUOUS
 70
0
 71
3
 72
15
 73
11
 74
0
 42
0.0000001
 43
0.0000001
 44
0.0000000001
 40
0.0
 40
0.0
 40
0.0
 40
0.0
 40
0.1289039201
 40
0.2568024848
 40
0.3835600705
 40
0.5091232091
 40
0.6334757911
 40
0.7566656318
 40
0.8788181774
 40
1.0
 40
1.0
 40
1.0
 40
1.0
 10
10.1904104298
 20
8.8465535947
 30
0.0
 10
10.1918224891
 20
8.8469789275
 30
0.0
 10
10.1945989583
 20
8.8479537354
 30
0.0
 10
10.1985990744
 20
8.8497707656
 30
0.0
 10
10.2023934781
 20
8.851908876
 30
0.0
 10
10.2059582118
 20
8.8543393219
 30
0.0
 10
10.2092768517
 20
8.8570313795
 30
0.0
 10
10.2123439168
 20
8.8599497047
 30
0.0
 10
10.2151649047
 20
8.863056623
 30
0.0
 10
10.2168933858
 20
8.8652418931
 30
0.0
 10
10.2177181766
 20
8.8663562428
 30
0.0
  0
SPLINE
  5
45F
100
AcDbEntity
  8
0
100
AcDbSpline
 62
7
  6
CONTINUOUS
 70
0
 71
3
 72
15
 73
11
 74
0
 42
0.0000001
 43
0.0000001
 44
0.0000000001
 40
0.0
 40
0.0
 40
0.0
 40
0.0
 40
0.1461688252
 40
0.2872549951
 40
0.4224784596
 40
0.551278567
 40
0.673312936
 40
0.7885674438
 40
0.8973504874
 40
1.0
 40
1.0
 40
1.0
 40
1.0
 10
10.1904104298
 20
8.8465535947
 30
0.0
 10
10.1918066393
 20
8.8463648868
 30
0.0
 10
10.1945429957
 20
8.8459352952
 30
0.0
 10
10.1985350478
 20
8.8451244828
 30
0.0
 10
10.2023229761
 20
8.8441701445
 30
0.0
 10
10.2058839897
 20
8.8430847579
 30
0.0
 10
10.2092028814
 20
8.8418812599
 30
0.0
 10
10.2122739724
 20
8.8405747419
 30
0.0
 10
10.2151002513
 20
8.8391827985
 30
0.0
 10
10.2168755035
 20
8.8381791293
 30
0.0
 10
10.2177215962
 20
8.8376662039
 30
0.0
  0
SPLINE
  5
460
100
AcDbEntity
  8
0
100
AcDbSpline
 62
7
  6
CONTINUOUS
 70
0
 71
3
 72
15
 73
11
 74
0
 42
0.0000001
 43
0.0000001
 44
0.0000000001
 40
0.0
 40
0.0
 40
0.0
 40
0.0
 40
0.126982355
 40
0.253454046
 40
0.3793384068
 40
0.5046172782
 40
0.6292833038
 40
0.7533614083
 40
0.8769292607
 40
1.0
 40
1.0
 40
1.0
 40
1.0
 10
10.1904104298
 20
8.7855998827
 30
0.0
 10
10.1918247851
 20
8.7860519975
 30
0.0
 10
10.1946066917
 20
8.7870890428
 30
0.0
 10
10.1986073048
 20
8.7890185012
 30
0.0
 10
10.2024017928
 20
8.7912886078
 30
0.0
 10
10.2059661312
 20
8.793868691
 30
0.0
 10
10.2092839183
 20
8.7967259579
 30
0.0
 10
10.2123498427
 20
8.7998228835
 30
0.0
 10
10.2151697778
 20
8.803119702
 30
0.0
 10
10.2168944414
 20
8.8054342079
 30
0.0
 10
10.2177176944
 20
8.8066145976
 30
0.0
  0
SPLINE
  5
461
100
AcDbEntity
  8
0
100
AcDbSpline
 62
7
  6
CONTINUOUS
 70
0
 71
3
 72
13
 73
9
 74
0
 42
0.0000001
 43
0.0000001
 44
0.0000000001
 40
0.0
 40
0.0
 40
0.0
 40
0.0
 40
0.2933972589
 40
0.4304528065
 40
0.56006514
 40
0.7954429148
 40
0.9014292136
 40
1.0
 40
1.0
 40
1.0
 40
1.0
 10
10.1904104298
 20
8.7855998827
 30
0.0
 10
10.1931433903
 20
8.7853497392
 30
0.0
 10
10.1971443666
 20
8.7848688759
 30
0.0
 10
10.2023094594
 20
8.7839883458
 30
0.0
 10
10.2069092856
 20
8.7830395865
 30
0.0
 10
10.2111749465
 20
8.781916732
 30
0.0
 10
10.2150799542
 20
8.7806156054
 30
0.0
 10
10.2168678427
 20
8.7799318083
 30
0.0
 10
10.2177207759
 20
8.7795816467
 30
0.0
  0
SPLINE
  5
462
100
AcDbEntity
  8
0
100
AcDbSpline
 62
7
  6
CONTINUOUS
 70
0
 71
3
 72
15
 73
11
 74
0
 42
0.0000001
 43
0.0000001
 44
0.0000000001
 40
0.0
 40
0.0
 40
0.0
 40
0.0
 40
0.1250676122
 40
0.2501261201
 40
0.3751545462
 40
0.5001652033
 40
0.6251533961
 40
0.7501153077
 40
0.8750780831
 40
1.0
 40
1.0
 40
1.0
 40
1.0
 10
10.1904104298
 20
8.6772687742
 30
0.0
 10
10.191827431
 20
8.6777483703
 30
0.0
 10
10.194615404
 20
8.6788493884
 30
0.0
 10
10.1986169713
 20
8.680893902
 30
0.0
 10
10.2024118986
 20
8.6832990455
 30
0.0
 10
10.2059761162
 20
8.6860321618
 30
0.0
 10
10.2092932586
 20
8.6890583422
 30
0.0
 10
10.2123582182
 20
8.6923378297
 30
0.0
 10
10.2151772818
 20
8.6958287329
 30
0.0
 10
10.2168985494
 20
8.6982751676
 30
0.0
 10
10.21772051
 20
8.6995229955
 30
0.0
  0
SPLINE
  5
463
100
AcDbEntity
  8
0
100
AcDbSpline
 62
7
  6
CONTINUOUS
 70
0
 71
3
 72
15
 73
11
 74
0
 42
0.0000001
 43
0.0000001
 44
0.0000000001
 40
0.0
 40
0.0
 40
0.0
 40
0.0
 40
0.1262631779
 40
0.2522029595
 40
0.3777641645
 40
0.50294073
 40
0.6277268113
 40
0.7521368565
 40
0.8762302361
 40
1.0
 40
1.0
 40
1.0
 40
1.0
 10
10.1904104298
 20
8.5772910641
 30
0.0
 10
10.191825782
 20
8.5777534158
 30
0.0
 10
10.1946099778
 20
8.5788142824
 30
0.0
 10
10.1986110151
 20
8.5807866551
 30
0.0
 10
10.2024057332
 20
8.5831071407
 30
0.0
 10
10.2059700854
 20
8.5857443297
 30
0.0
 10
10.2092876729
 20
8.588664637
 30
0.0
 10
10.2123532733
 20
8.5918296837
 30
0.0
 10
10.2151728886
 20
8.5951989361
 30
0.0
 10
10.2168962558
 20
8.5975626827
 30
0.0
 10
10.2177190222
 20
8.5987682323
 30
0.0
  0
SPLINE
  5
464
100
AcDbEntity
  8
0
100
AcDbSpline
 62
7
  6
CONTINUOUS
 70
0
 71
3
 72
15
 73
11
 74
0
 42
0.0000001
 43
0.0000001
 44
0.0000000001
 40
0.0
 40
0.0
 40
0.0
 40
0.0
 40
0.1250676166
 40
0.2501261299
 40
0.3751545549
 40
0.5001652216
 40
0.625153412
 40
0.7501153116
 40
0.875078096
 40
1.0
 40
1.0
 40
1.0
 40
1.0
 10
10.1904104298
 20
8.6319093813
 30
0.0
 10
10.1918274978
 20
8.632389
 30
0.0
 10
10.1946156002
 20
8.633490077
 30
0.0
 10
10.1986173432
 20
8.6355347137
 30
0.0
 10
10.2024124235
 20
8.6379400127
 30
0.0
 10
10.2059767706
 20
8.6406733087
 30
0.0
 10
10.209294018
 20
8.6436996891
 30
0.0
 10
10.2123590436
 20
8.6469794043
 30
0.0
 10
10.2151781906
 20
8.6504705098
 30
0.0
 10
10.216899536
 20
8.6529170614
 30
0.0
 10
10.2177215372
 20
8.6541649467
 30
0.0
  0
SPLINE
  5
465
100
AcDbEntity
  8
0
100
AcDbSpline
 62
7
  6
CONTINUOUS
 70
0
 71
3
 72
9
 73
5
 74
0
 42
0.0000001
 43
0.0000001
 44
0.0000000001
 40
0.0
 40
0.0
 40
0.0
 40
0.0
 40
0.5099366951
 40
1.0
 40
1.0
 40
1.0
 40
1.0
 10
8.904334724
 20
9.3145393406
 30
0.0
 10
8.9037818456
 20
9.317699292
 30
0.0
 10
8.9029381106
 20
9.3239412754
 30
0.0
 10
8.9026367738
 20
9.3302347922
 30
0.0
 10
8.9026367738
 20
9.3333177247
 30
0.0
  0
SPLINE
  5
466
100
AcDbEntity
  8
0
100
AcDbSpline
 62
7
  6
CONTINUOUS
 70
0
 71
3
 72
15
 73
11
 74
0
 42
0.0000001
 43
0.0000001
 44
0.0000000001
 40
0.0
 40
0.0
 40
0.0
 40
0.0
 40
0.1301048214
 40
0.2588995276
 40
0.386209809
 40
0.5119577273
 40
0.6361189047
 40
0.7587530526
 40
0.8800139625
 40
1.0
 40
1.0
 40
1.0
 40
1.0
 10
10.1904104298
 20
8.5328856583
 30
0.0
 10
10.1918213166
 20
8.5332946197
 30
0.0
 10
10.1945948792
 20
8.5342314455
 30
0.0
 10
10.1985951509
 20
8.5359796414
 30
0.0
 10
10.2023898798
 20
8.5380369293
 30
0.0
 10
10.2059551598
 20
8.5403757185
 30
0.0
 10
10.2092745764
 20
8.5429665502
 30
0.0
 10
10.2123425051
 20
8.5457754874
 30
0.0
 10
10.2151643967
 20
8.5487659697
 30
0.0
 10
10.2168956216
 20
8.5508718775
 30
0.0
 10
10.217721554
 20
8.5519456973
 30
0.0
  0
SPLINE
  5
467
100
AcDbEntity
  8
0
100
AcDbSpline
 62
7
  6
CONTINUOUS
 70
0
 71
3
 72
15
 73
11
 74
0
 42
0.0000001
 43
0.0000001
 44
0.0000000001
 40
0.0
 40
0.0
 40
0.0
 40
0.0
 40
0.1278630427
 40
0.2549875201
 40
0.3812702641
 40
0.5066776406
 40
0.6311988055
 40
0.7548696132
 40
0.8777906312
 40
1.0
 40
1.0
 40
1.0
 40
1.0
 10
10.1904104298
 20
8.5508151307
 30
0.0
 10
10.1918238802
 20
8.5512549446
 30
0.0
 10
10.1946035836
 20
8.5522634066
 30
0.0
 10
10.198604414
 20
8.5541413382
 30
0.0
 10
10.2023992599
 20
8.5563509835
 30
0.0
 10
10.20596412
 20
8.5588625449
 30
0.0
 10
10.2092825703
 20
8.5616441724
 30
0.0
 10
10.2123492029
 20
8.5646593451
 30
0.0
 10
10.2151698128
 20
8.5678691667
 30
0.0
 10
10.2168963706
 20
8.5701244309
 30
0.0
 10
10.2177204128
 20
8.571274533
 30
0.0
  0
SPLINE
  5
468
100
AcDbEntity
  8
0
100
AcDbSpline
 62
7
  6
CONTINUOUS
 70
0
 71
3
 72
15
 73
11
 74
0
 42
0.0000001
 43
0.0000001
 44
0.0000000001
 40
0.0
 40
0.0
 40
0.0
 40
0.0
 40
0.1329668118
 40
0.2639108154
 40
0.3925610049
 40
0.5187736137
 40
0.6424959757
 40
0.763807176
 40
0.8829189126
 40
1.0
 40
1.0
 40
1.0
 40
1.0
 10
10.1904104298
 20
8.9433084101
 30
0.0
 10
10.1918180131
 20
8.9436788291
 30
0.0
 10
10.1945836299
 20
8.9445263327
 30
0.0
 10
10.1985822784
 20
8.9461117166
 30
0.0
 10
10.202375952
 20
8.9479776349
 30
0.0
 10
10.2059409164
 20
8.9500992559
 30
0.0
 10
10.2092608435
 20
8.9524501224
 30
0.0
 10
10.2123299386
 20
8.9549995391
 30
0.0
 10
10.215153013
 20
8.9577141581
 30
0.0
 10
10.2168903624
 20
8.9596319916
 30
0.0
 10
10.2177188015
 20
8.9606098605
 30
0.0
  0
SPLINE
  5
469
100
AcDbEntity
  8
0
100
AcDbSpline
 62
7
  6
CONTINUOUS
 70
0
 71
3
 72
13
 73
9
 74
0
 42
0.0000001
 43
0.0000001
 44
0.0000000001
 40
0.0
 40
0.0
 40
0.0
 40
0.0
 40
0.2766361301
 40
0.4088555978
 40
0.5364317233
 40
0.6591842852
 40
0.7771806982
 40
1.0
 40
1.0
 40
1.0
 40
1.0
 10
10.1904104298
 20
8.9433084101
 30
0.0
 10
10.193173055
 20
8.9427679344
 30
0.0
 10
10.1972150209
 20
8.9417225011
 30
0.0
 10
10.2023452058
 20
8.9398495087
 30
0.0
 10
10.2059088229
 20
8.9382754221
 30
0.0
 10
10.2092292999
 20
8.936530219
 30
0.0
 10
10.2132466714
 20
8.9340532739
 30
0.0
 10
10.2160146864
 20
8.9319415779
 30
0.0
 10
10.2177189288
 20
8.93044608
 30
0.0
  0
SPLINE
  5
46A
100
AcDbEntity
  8
0
100
AcDbSpline
 62
7
  6
CONTINUOUS
 70
0
 71
3
 72
15
 73
11
 74
0
 42
0.0000001
 43
0.0000001
 44
0.0000000001
 40
0.0
 40
0.0
 40
0.0
 40
0.0
 40
0.130104611
 40
0.258899188
 40
0.3862094443
 40
0.5119574137
 40
0.6361187498
 40
0.7587531479
 40
0.8800141171
 40
1.0
 40
1.0
 40
1.0
 40
1.0
 10
10.1904104298
 20
8.8782429127
 30
0.0
 10
10.1918212405
 20
8.878651852
 30
0.0
 10
10.1945946562
 20
8.8795886208
 30
0.0
 10
10.1985947263
 20
8.881336696
 30
0.0
 10
10.202389279
 20
8.8833938312
 30
0.0
 10
10.2059544102
 20
8.8857324438
 30
0.0
 10
10.2092737059
 20
8.8883230793
 30
0.0
 10
10.212341555
 20
8.891131789
 30
0.0
 10
10.2151633505
 20
8.8941220709
 30
0.0
 10
10.2168944879
 20
8.8962278655
 30
0.0
 10
10.2177203739
 20
8.8973016294
 30
0.0
  0
SPLINE
  5
46B
100
AcDbEntity
  8
0
100
AcDbSpline
 62
7
  6
CONTINUOUS
 70
0
 71
3
 72
13
 73
9
 74
0
 42
0.0000001
 43
0.0000001
 44
0.0000000001
 40
0.0
 40
0.0
 40
0.0
 40
0.0
 40
0.2837562601
 40
0.417998308
 40
0.5463959706
 40
0.6686655113
 40
0.7848269321
 40
1.0
 40
1.0
 40
1.0
 40
1.0
 10
10.1904104298
 20
8.8782429127
 30
0.0
 10
10.193159241
 20
8.8778138871
 30
0.0
 10
10.1971828417
 20
8.8769861914
 30
0.0
 10
10.2023284834
 20
8.875488807
 30
0.0
 10
10.2058901138
 20
8.8742348323
 30
0.0
 10
10.2092095539
 20
8.8728443596
 30
0.0
 10
10.21320245
 20
8.8708821851
 30
0.0
 10
10.2159893757
 20
8.8691922724
 30
0.0
 10
10.217717626
 20
8.8679823796
 30
0.0
  0
SPLINE
  5
46C
100
AcDbEntity
  8
0
100
AcDbSpline
 62
7
  6
CONTINUOUS
 70
0
 71
3
 72
15
 73
11
 74
0
 42
0.0000001
 43
0.0000001
 44
0.0000000001
 40
0.0
 40
0.0
 40
0.0
 40
0.0
 40
0.1253063023
 40
0.2505404699
 40
0.3756748301
 40
0.5007181453
 40
0.6256657154
 40
0.750517516
 40
0.8753071515
 40
1.0
 40
1.0
 40
1.0
 40
1.0
 10
10.1904104298
 20
8.6118202619
 30
0.0
 10
10.1918269447
 20
8.6122963378
 30
0.0
 10
10.1946138613
 20
8.613389143
 30
0.0
 10
10.1986149259
 20
8.6154188783
 30
0.0
 10
10.2024094671
 20
8.6178066571
 30
0.0
 10
10.2059734212
 20
8.6205200917
 30
0.0
 10
10.2092904165
 20
8.6235245471
 30
0.0
 10
10.2123553551
 20
8.6267805259
 30
0.0
 10
10.2151743395
 20
8.6302465286
 30
0.0
 10
10.2168958428
 20
8.6326760872
 30
0.0
 10
10.2177178682
 20
8.6339152906
 30
0.0
  0
SPLINE
  5
46D
100
AcDbEntity
  8
0
100
AcDbSpline
 62
7
  6
CONTINUOUS
 70
0
 71
3
 72
15
 73
11
 74
0
 42
0.0000001
 43
0.0000001
 44
0.0000000001
 40
0.0
 40
0.0
 40
0.0
 40
0.0
 40
0.1257046359
 40
0.2512322696
 40
0.3765438867
 40
0.5016422384
 40
0.6265223071
 40
0.7511902432
 40
0.8756904932
 40
1.0
 40
1.0
 40
1.0
 40
1.0
 10
10.1904104298
 20
8.7288190359
 30
0.0
 10
10.1918264827
 20
8.729289383
 30
0.0
 10
10.1946123106
 20
8.730368856
 30
0.0
 10
10.1986134369
 20
8.7323746708
 30
0.0
 10
10.2024081168
 20
8.7347343947
 30
0.0
 10
10.2059722924
 20
8.7374160456
 30
0.0
 10
10.2092895794
 20
8.7403854253
 30
0.0
 10
10.2123548217
 20
8.7436035054
 30
0.0
 10
10.2151741022
 20
8.7470291682
 30
0.0
 10
10.2168964058
 20
8.7494312806
 30
0.0
 10
10.2177187526
 20
8.7506564467
 30
0.0
  0
SPLINE
  5
46E
100
AcDbEntity
  8
0
100
AcDbSpline
 62
7
  6
CONTINUOUS
 70
0
 71
3
 72
13
 73
9
 74
0
 42
0.0000001
 43
0.0000001
 44
0.0000000001
 40
0.0
 40
0.0
 40
0.0
 40
0.0
 40
0.2976931166
 40
0.4360308532
 40
0.5662250251
 40
0.8003576774
 40
0.9043644029
 40
1.0
 40
1.0
 40
1.0
 40
1.0
 10
10.1904104298
 20
8.7288190359
 30
0.0
 10
10.1931366412
 20
8.7286931001
 30
0.0
 10
10.197127542
 20
8.728451387
 30
0.0
 10
10.2022995889
 20
8.7280066328
 30
0.0
 10
10.2068831924
 20
8.7275296661
 30
0.0
 10
10.2111409795
 20
8.7269654755
 30
0.0
 10
10.215062953
 20
8.7263065149
 30
0.0
 10
10.2168603005
 20
8.7259598676
 30
0.0
 10
10.2177188102
 20
8.7257819842
 30
0.0
  0
ENDSEC
  0
SECTION
  2
OBJECTS
  0
DICTIONARY
  5
C
100
AcDbDictionary
280
0
281
1
  3
ACAD_GROUP
350
D
  3
ACAD_MLINESTYLE
350
17
  3
ACAD_LAYOUT
350
1A
  3
ACAD_PLOTSETTINGS
350
19
  3
ACAD_PLOTSTYLENAME
350
E
  0
DICTIONARY
  5
D
102
{ACAD_REACTORS
330
C
102
}
100
AcDbDictionary
280
0
281
1
  0
ACDBDICTIONARYWDFLT
  5
E
102
{ACAD_REACTORS
330
C
102
}
100
AcDbDictionary
281
1
  3
Normal
350
F
100
AcDbDictionaryWithDefault
340
F
  0
DICTIONARY
  5
17
102
{ACAD_REACTORS
330
C
102
}
100
AcDbDictionary
280
0
281
1
  3
Standard
350
18
  0
DICTIONARY
  5
19
102
{ACAD_REACTORS
330
C
102
}
100
AcDbDictionary
281
1
  0
DICTIONARY
  5
1A
102
{ACAD_REACTORS
330
C
102
}
100
AcDbDictionary
281
1
  3
Model
350
46F
  3
Layout1
350
470
  0
ACDBPLACEHOLDER
  5
F
102
{ACAD_REACTORS
330
E
102
}
  0
MLINESTYLE
  5
18
102
{ACAD_REACTORS
330
17
102
}
100
AcDbMlineStyle
  2
STANDARD
 70
0
  3

 62
256
 51
90.0
 52
90.0
 71
2
 49
0.5
 62
256
  6
BYLAYER
 49
-0.5
 62
256
  6
BYLAYER
  0
LAYOUT
  5
46F
102
{ACAD_REACTORS
330
1A
102
}
100
AcDbPlotSettings
  1

  2
none_device
  4
ANSI_C_(22.00_x_17.00_Inches)
  6

 40
0.0
 41
0.0
 42
0.0
 43
0.0
 44
558.8
 45
431.8
 46
0.0
 47
0.0
 48
0.0
 49
0.0
140
0.0
141
0.0
142
1.0
143
1.0
 70
1024
 72
0
 73
0
 74
0
  7

 75
0
147
1.0
148
0.0
149
0.0
100
AcDbLayout
  1
Model
 70
0
 71
0
 10
0.0
 20
0.0
 11
22.0
 21
17.0
 12
0.0
 22
0.0
 32
0.0
 14
0.0
 24
0.0
 34
0.0
 15
0.0
 25
0.0
 35
0.0
146
0.0
 13
0.0
 23
0.0
 33
0.0
 16
1.0
 26
0.0
 36
0.0
 17
0.0
 27
1.0
 37
0.0
 76
0
330
205
345
0
346
0
  0
LAYOUT
  5
470
102
{ACAD_REACTORS
330
1A
102
}
100
AcDbPlotSettings
  1

  2
none_device
  4
ANSI_C_(22.00_x_17.00_Inches)
  6

 40
0.0
 41
0.0
 42
0.0
 43
0.0
 44
558.8
 45
431.8
 46
0.0
 47
0.0
 48
0.0
 49
0.0
140
0.0
141
0.0
142
1.0
143
1.0
 70
0
 72
0
 73
0
 74
0
  7

 75
0
147
1.0
148
0.0
149
0.0
100
AcDbLayout
  1
Layout1
 70
0
 71
1
 10
0.0
 20
0.0
 11
22.0
 21
17.0
 12
0.0
 22
0.0
 32
0.0
 14
0.0
 24
0.0
 34
0.0
 15
0.0
 25
0.0
 35
0.0
146
0.0
 13
0.0
 23
0.0
 33
0.0
 16
1.0
 26
0.0
 36
0.0
 17
0.0
 27
1.0
 37
0.0
 76
0
330
206
345
0
346
0
  0
ENDSEC
  0
EOF
