999
DXF file: E:\BT Custom\CADOUTPUT\_TOP.dxf
999
Pro/ENGINEER 2018400 by Parametric Technology Corporation
  0
SECTION
  2
HEADER
  9
$ACADVER
  1
AC1018
  9
$DWGCODEPAGE
  3
ANSI_1252
  9
$EXTMAX
 10
22.0
 20
17.0
 30
0.0
  9
$EXTMIN
 10
0.0
 20
0.0
 30
0.0
  9
$LIMMIN
 10
0.0
 20
0.0
  9
$LIMMAX
 10
22.0
 20
17.0
  9
$VIEWCTR
 10
11.0
 20
8.5
  9
$VIEWSIZE
 40
17.0
  9
$CLAYER
  8
0
  9
$LTSCALE
 40
1.21
  9
$CELTYPE
  6
BYLAYER
  9
$DIMSCALE
 40
1.0
  9
$DIMASZ
 40
0.1
  9
$DIMEXO
 40
0.0625
  9
$DIMDLI
 40
0.836
  9
$DIMEXE
 40
0.125
  9
$DIMCEN
 40
0.198
  9
$DIMLFAC
 40
1.0
  9
$DIMBLK
  1
_FILLED
  9
$DIMALT
 70
1
  9
$DIMALTD
 70
2
  9
$DIMALTTD
 70
2
  9
$DIMALTF
 40
25.4
  9
$DIMTXT
 40
0.08
  9
$DIMTOL
 70
1
  9
$DIMLIM
 70
0
  9
$DIMTFAC
 40
1.0
  9
$DIMTP
 40
0.001
  9
$DIMTM
 40
0.001
  9
$DIMGAP
 40
0.09
  9
$DIMDSEP
 70
46
  9
$AUNITS
 70
0
  9
$PDMODE
 70
3
  9
$PDSIZE
 40
0.06
  9
$HANDSEED
  5
471
  9
$TILEMODE
 70
1
  9
$MEASUREMENT
 70
0
  9
$INSUNITS
 70
1
  0
ENDSEC
  0
SECTION
  2
CLASSES
  0
CLASS
  1
ACDBDICTIONARYWDFLT
  2
AcDbDictionaryWithDefault
  3
AutoCAD 2000
 90
0
 91
1
280
0
281
0
  0
CLASS
  1
ACDBPLACEHOLDER
  2
AcDbPlaceHolder
  3
AutoCAD 2000
 90
0
 91
1
280
0
281
0
  0
CLASS
  1
LAYOUT
  2
AcDbLayout
  3
AutoCAD 2000
 90
0
 91
0
280
0
281
0
  0
ENDSEC
  0
SECTION
  2
TABLES
  0
TABLE
  2
VPORT
  5
8
100
AcDbSymbolTable
 70
2
  0
VPORT
  5
1F4
100
AcDbSymbolTableRecord
100
AcDbViewportTableRecord
  2
*ACTIVE
 70
0
 10
0.0
 20
0.0
 11
1.0
 21
1.0
 12
11.0
 22
8.5
 13
0.0
 23
0.0
 14
1.0
 24
1.0
 15
0.0
 25
0.0
 16
0.0
 26
0.0
 36
1.0
 17
0.0
 27
0.0
 37
0.0
 40
17.0
 41
1.2941176471
 42
50.0
 43
0.0
 44
0.0
 50
0.0
 51
0.0
 71
0
 72
100
 73
1
 74
1
 75
0
 76
0
 77
0
 78
0
  0
ENDTAB
  0
TABLE
  2
LTYPE
  5
5
100
AcDbSymbolTable
 70
6
  0
LTYPE
  5
14
100
AcDbSymbolTableRecord
100
AcDbLinetypeTableRecord
  2
BYBLOCK
 70
0
  3

 72
65
 73
0
 40
0.0
  0
LTYPE
  5
15
100
AcDbSymbolTableRecord
100
AcDbLinetypeTableRecord
  2
BYLAYER
 70
0
  3

 72
65
 73
0
 40
0.0
  0
LTYPE
  5
16
100
AcDbSymbolTableRecord
100
AcDbLinetypeTableRecord
  2
CONTINUOUS
 70
64
  3
Solid line
 72
65
 73
0
 40
0.0
  0
LTYPE
  5
1F5
100
AcDbSymbolTableRecord
100
AcDbLinetypeTableRecord
  2
CENTER
 70
64
  3
____ _ ____ _ ____ _ ____ _ ____ _ ____ _ ____
 72
65
 73
4
 40
0.6
 49
0.375
 74
0
 49
-0.075
 74
0
 49
0.075
 74
0
 49
-0.075
 74
0
  0
LTYPE
  5
1F6
100
AcDbSymbolTableRecord
100
AcDbLinetypeTableRecord
  2
HIDDEN
 70
64
  3
- - - - - - - - - - - - - - - - - - - -
 72
65
 73
2
 40
0.2
 49
0.1
 74
0
 49
-0.1
 74
0
  0
LTYPE
  5
1F7
100
AcDbSymbolTableRecord
100
AcDbLinetypeTableRecord
  2
PHANTOM
 70
64
  3
_____ _ _ _____ _ _ _____ _ _ _____
 72
65
 73
6
 40
0.8
 49
0.45
 74
0
 49
-0.05
 74
0
 49
0.1
 74
0
 49
-0.05
 74
0
 49
0.1
 74
0
 49
-0.05
 74
0
  0
LTYPE
  5
1F8
100
AcDbSymbolTableRecord
100
AcDbLinetypeTableRecord
  2
DOT
 70
64
  3
. . . . . . . . . . . . . . . . . . . .
 72
65
 73
2
 40
0.2
 49
0.1
 74
0
 49
-0.1
 74
0
  0
LTYPE
  5
1F9
100
AcDbSymbolTableRecord
100
AcDbLinetypeTableRecord
  2
DASHED
 70
64
  3
- - - - - - - - - - - - - - - - - - - -
 72
65
 73
2
 40
0.2
 49
0.1
 74
0
 49
-0.1
 74
0
  0
ENDTAB
  0
TABLE
  2
LAYER
  5
2
100
AcDbSymbolTable
 70
36
  0
LAYER
  5
10
100
AcDbSymbolTableRecord
100
AcDbLayerTableRecord
  2
0
 70
0
 62
7
  6
CONTINUOUS
370
-3
390
F
  0
LAYER
  5
1FA
100
AcDbSymbolTableRecord
100
AcDbLayerTableRecord
  2
DEFAULT_1
 70
0
 62
7
  6
CENTER
370
-3
390
F
  0
LAYER
  5
1FB
100
AcDbSymbolTableRecord
100
AcDbLayerTableRecord
  2
DEFAULT_2
 70
0
 62
8
  6
HIDDEN
370
-3
390
F
  0
LAYER
  5
1FC
100
AcDbSymbolTableRecord
100
AcDbLayerTableRecord
  2
DEFAULT_3
 70
0
 62
7
  6
PHANTOM
370
-3
390
F
  0
LAYER
  5
1FD
100
AcDbSymbolTableRecord
100
AcDbLayerTableRecord
  2
ALL_FEATURES
 70
0
 62
7
  6
CONTINUOUS
370
-3
390
F
  0
LAYER
  5
1FE
100
AcDbSymbolTableRecord
100
AcDbLayerTableRecord
  2
AXES_FEATURES
 70
0
 62
7
  6
CONTINUOUS
370
-3
390
F
  0
LAYER
  5
1FF
100
AcDbSymbolTableRecord
100
AcDbLayerTableRecord
  2
DEFAULT_COORDINATE_SYSTEM
 70
0
 62
7
  6
CONTINUOUS
370
-3
390
F
  0
LAYER
  5
200
100
AcDbSymbolTableRecord
100
AcDbLayerTableRecord
  2
DEFAULT_DATUM_AXES
 70
0
 62
7
  6
CONTINUOUS
370
-3
390
F
  0
LAYER
  5
201
100
AcDbSymbolTableRecord
100
AcDbLayerTableRecord
  2
DEFAULT_DATUM_PLANES
 70
0
 62
7
  6
CONTINUOUS
370
-3
390
F
  0
LAYER
  5
202
100
AcDbSymbolTableRecord
100
AcDbLayerTableRecord
  2
DIMENSIONS
 70
0
 62
7
  6
CONTINUOUS
370
-3
390
F
  0
ENDTAB
  0
TABLE
  2
STYLE
  5
3
100
AcDbSymbolTable
 70
1
  0
STYLE
  5
11
100
AcDbSymbolTableRecord
100
AcDbTextStyleTableRecord
  2
STANDARD
 70
0
 40
0.0
 41
0.8
 50
0.0
 71
0
 42
0.2
  3
txt
  4

  0
STYLE
  5
203
100
AcDbSymbolTableRecord
100
AcDbTextStyleTableRecord
  2
TEXTSTYLE_1
 70
0
 40
0.0
 41
0.8
 50
0.0
 71
0
 42
0.2
  3
gdt
  4

  0
ENDTAB
  0
TABLE
  2
VIEW
  5
6
100
AcDbSymbolTable
 70
0
  0
ENDTAB
  0
TABLE
  2
UCS
  5
7
100
AcDbSymbolTable
 70
0
  0
ENDTAB
  0
TABLE
  2
APPID
  5
9
100
AcDbSymbolTable
 70
1
  0
APPID
  5
204
100
AcDbSymbolTableRecord
100
AcDbRegAppTableRecord
  2
ACAD
 70
0
  0
ENDTAB
  0
TABLE
  2
BLOCK_RECORD
  5
1
100
AcDbSymbolTable
 70
0
  0
BLOCK_RECORD
  5
205
100
AcDbSymbolTableRecord
100
AcDbBlockTableRecord
  2
*Model_Space
  0
BLOCK_RECORD
  5
206
100
AcDbSymbolTableRecord
100
AcDbBlockTableRecord
  2
*Paper_Space
  0
BLOCK_RECORD
  5
207
100
AcDbSymbolTableRecord
100
AcDbBlockTableRecord
  2
_FILLED
  0
ENDTAB
  0
TABLE
  2
DIMSTYLE
  5
A
100
AcDbSymbolTable
 70
1
100
AcDbDimStyleTable
 71
0
  0
DIMSTYLE
105
208
100
AcDbSymbolTableRecord
100
AcDbDimStyleTableRecord
  2
STANDARD
 70
0
  3

  4

 40
1.0
 41
0.1
 42
0.0625
 43
0.38
 44
0.125
 45
0.0
 46
0.0
 47
0.001
 48
0.001
140
0.08
141
0.09
142
0.0
143
25.4
144
1.0
145
0.0
146
1.0
147
0.09
 71
1.0
 72
0.0
 73
1
 74
1
 75
0
 76
0
 77
0
 78
4
 79
1
170
1
171
2
172
0
173
0
174
0
175
0
176
0
177
0
178
0
270
2
179
3
271
3
272
3
273
2
274
2
275
0
280
0
281
0
282
0
283
1
284
4
285
0
286
0
287
3
288
0
340
11
278
46
341
207
342
207
343
207
344
207
  0
ENDTAB
  0
ENDSEC
  0
SECTION
  2
BLOCKS
  0
BLOCK
  5
20
100
AcDbEntity
  8
0
100
AcDbBlockBegin
  2
*Model_Space
 70
0
 10
0.0
 20
0.0
 30
0.0
  3
*Model_Space
  1

  0
ENDBLK
  5
21
100
AcDbEntity
  8
0
100
AcDbBlockEnd
  0
BLOCK
  5
1C
100
AcDbEntity
  8
0
100
AcDbBlockBegin
  2
*Paper_Space
 70
0
 10
0.0
 20
0.0
 30
0.0
  3
*Paper_Space
  1

  0
ENDBLK
  5
1D
100
AcDbEntity
  8
0
100
AcDbBlockEnd
  0
BLOCK
  5
209
100
AcDbEntity
  8
0
100
AcDbBlockBegin
  2
_FILLED
 70
64
 10
0.0
 20
0.0
  3
_FILLED
  1

  0
SOLID
  5
20A
100
AcDbEntity
  8
0
  6
BYBLOCK
 62
0
100
AcDbTrace
 10
0.0
 20
0.0
 11
-1.0
 21
0.2
 12
-1.0
 22
-0.2
 13
-1.0
 23
-0.2
  0
ENDBLK
  5
20B
100
AcDbEntity
  8
0
  6
BYBLOCK
 62
0
100
AcDbBlockEnd
  0
ENDSEC
  0
SECTION
  2
ENTITIES
  0
LINE
  5
20C
100
AcDbEntity
  8
0
100
AcDbLine
 62
7
  6
CONTINUOUS
 10
7.2973183383
 20
9.3434432199
 11
7.2973183383
 21
9.5184432199
  0
LWPOLYLINE
  5
20D
100
AcDbEntity
  8
0
100
AcDbPolyline
 62
7
  6
CONTINUOUS
 90
20
 70
0
 10
11.5164933722
 20
5.4952601728
 10
11.5193467424
 20
5.4955861997
 10
11.5234247999
 20
5.4964812247
 10
11.5273653155
 20
5.4978558013
 10
11.5311125696
 20
5.4996912362
 10
11.53460721
 20
5.5019695584
 10
11.5377853134
 20
5.5046696169
 10
11.5405968615
 20
5.507752033
 10
11.5430101045
 20
5.5111564331
 10
11.5449983484
 20
5.5148255733
 10
11.5465346285
 20
5.5187038714
 10
11.5475911322
 20
5.5227379526
 10
11.5481374986
 20
5.5268693067
 10
11.5481529419
 20
5.5310373364
 10
11.5476511318
 20
5.5351763669
 10
11.5466537874
 20
5.5392260785
 10
11.5451814615
 20
5.5431279386
 10
11.5432525212
 20
5.5468248755
 10
11.5408869734
 20
5.5502541967
 10
11.5391035665
 20
5.552333301
  0
LINE
  5
20E
100
AcDbEntity
  8
0
100
AcDbLine
 62
9
  6
CONTINUOUS
 10
10.7228702963
 20
5.476452968
 11
11.3712006948
 21
5.476452968
  0
LINE
  5
20F
100
AcDbEntity
  8
0
100
AcDbLine
 62
9
  6
CONTINUOUS
 10
10.577577619
 20
5.4952601728
 11
11.5164933722
 21
5.4952601728
  0
LINE
  5
210
100
AcDbEntity
  8
0
100
AcDbLine
 62
7
  6
CONTINUOUS
 10
9.3130915785
 20
8.7684432199
 11
9.3103283474
 21
8.8739667588
  0
LINE
  5
211
100
AcDbEntity
  8
0
100
AcDbLine
 62
7
  6
CONTINUOUS
 10
10.3737012169
 20
5.6222011213
 11
10.7980511359
 21
5.7013811988
  0
LINE
  5
212
100
AcDbEntity
  8
0
100
AcDbLine
 62
9
  6
CONTINUOUS
 10
11.5391035738
 20
5.5523332932
 11
10.5549674173
 21
5.5523332932
  0
LINE
  5
213
100
AcDbEntity
  8
0
100
AcDbLine
 62
9
  6
CONTINUOUS
 10
11.5124840265
 20
5.6128488094
 11
10.5815869646
 21
5.6128488094
  0
LINE
  5
214
100
AcDbEntity
  8
0
100
AcDbLine
 62
9
  6
CONTINUOUS
 10
11.2708750843
 20
5.7149103968
 11
10.8231959068
 21
5.7149103968
  0
LINE
  5
215
100
AcDbEntity
  8
0
100
AcDbLine
 62
7
  6
CONTINUOUS
 10
11.7204166489
 20
5.6221923749
 11
11.2960198553
 21
5.7013811988
  0
LINE
  5
216
100
AcDbEntity
  8
0
100
AcDbLine
 62
7
  6
CONTINUOUS
 10
11.7203697742
 20
6.1442398806
 11
11.2960198553
 21
6.0650598031
  0
LINE
  5
217
100
AcDbEntity
  8
0
100
AcDbLine
 62
7
  6
CONTINUOUS
 10
10.3736543423
 20
6.144248627
 11
10.7980511359
 21
6.0650598031
  0
LWPOLYLINE
  5
218
100
AcDbEntity
  8
0
100
AcDbPolyline
 62
7
  6
CONTINUOUS
 90
18
 70
0
 10
10.7249464861
 20
6.3202205009
 10
10.7210128004
 20
6.319975217
 10
10.7170850293
 20
6.3192423014
 10
10.71323849
 20
6.3180335637
 10
10.7095460379
 20
6.3163683932
 10
10.7060787966
 20
6.3142724616
 10
10.7029055933
 20
6.3117773733
 10
10.7000818857
 20
6.3089116844
 10
10.6976370565
 20
6.3057098964
 10
10.6955901838
 20
6.302217368
 10
10.6939698126
 20
6.2984900126
 10
10.6928074342
 20
6.2945969423
 10
10.6921285324
 20
6.2906078134
 10
10.6919530327
 20
6.2865804689
 10
10.692289325
 20
6.2825676676
 10
10.693117959
 20
6.2786206922
 10
10.6944200894
 20
6.2747853351
 10
10.6955687657
 20
6.2722658744
  0
LINE
  5
219
100
AcDbEntity
  8
0
100
AcDbLine
 62
9
  6
CONTINUOUS
 10
10.7043075581
 20
6.2070090815
 11
11.3897634331
 21
6.2070090815
  0
LINE
  5
21A
100
AcDbEntity
  8
0
100
AcDbLine
 62
9
  6
CONTINUOUS
 10
10.6955687764
 20
6.2722658533
 11
11.3985022148
 21
6.2722658533
  0
LINE
  5
21B
100
AcDbEntity
  8
0
100
AcDbLine
 62
7
  6
CONTINUOUS
 10
11.3691245047
 20
6.3202205009
 11
10.7249464864
 21
6.3202205009
  0
LINE
  5
21C
100
AcDbEntity
  8
0
100
AcDbLine
 62
7
  6
CONTINUOUS
 10
10.4754160213
 20
8.2244205009
 11
10.4754160213
 21
7.9733434772
  0
LINE
  5
21D
100
AcDbEntity
  8
0
100
AcDbLine
 62
7
  6
CONTINUOUS
 10
12.0451617661
 20
8.5405569343
 11
11.9772635193
 21
8.508531568
  0
LWPOLYLINE
  5
21E
100
AcDbEntity
  8
0
100
AcDbPolyline
 62
7
  6
CONTINUOUS
 90
7
 70
0
 10
11.4794289504
 20
6.8932365838
 10
11.4853989544
 20
6.8935509014
 10
11.4912198764
 20
6.8944668227
 10
11.4968569831
 20
6.8959534922
 10
11.5022767545
 20
6.8979920123
 10
11.5074406525
 20
6.9005725436
 10
11.5123042325
 20
6.9036914158
  0
LINE
  5
21F
100
AcDbEntity
  8
0
100
AcDbLine
 62
7
  6
CONTINUOUS
 10
11.3527953891
 20
6.7044205375
 11
10.741275602
 21
6.7044205375
  0
LINE
  5
220
100
AcDbEntity
  8
0
100
AcDbLine
 62
9
  6
CONTINUOUS
 10
11.3900354956
 20
6.7416605375
 11
10.7040354956
 21
6.7416605375
  0
LINE
  5
221
100
AcDbEntity
  8
0
100
AcDbLine
 62
7
  6
CONTINUOUS
 10
10.6146420408
 20
6.8932365838
 11
11.4794289504
 21
6.8932365838
  0
LWPOLYLINE
  5
222
100
AcDbEntity
  8
0
100
AcDbPolyline
 62
7
  6
CONTINUOUS
 90
8
 70
0
 10
10.5772557568
 20
6.9073203359
 10
10.5817667586
 20
6.9036914158
 10
10.5866303386
 20
6.9005725436
 10
10.5917942366
 20
6.8979920123
 10
10.5972140081
 20
6.8959534922
 10
10.6028511148
 20
6.8944668227
 10
10.6086720367
 20
6.8935509014
 10
10.6146420408
 20
6.8932365838
  0
LINE
  5
223
100
AcDbEntity
  8
0
100
AcDbLine
 62
7
  6
CONTINUOUS
 10
10.5771837398
 20
6.907391818
 11
10.5772557568
 21
6.9073203359
  0
LINE
  5
224
100
AcDbEntity
  8
0
100
AcDbLine
 62
7
  6
CONTINUOUS
 10
10.5601280797
 20
6.9353958298
 11
10.5602215915
 21
6.9350837398
  0
LWPOLYLINE
  5
225
100
AcDbEntity
  8
0
100
AcDbPolyline
 62
7
  6
CONTINUOUS
 90
10
 70
0
 10
10.5994630859
 20
7.0536849291
 10
10.599943559
 20
7.0478281791
 10
10.599894964
 20
7.0405250874
 10
10.5991313454
 20
7.0332618647
 10
10.5976600456
 20
7.0261083476
 10
10.595495211
 20
7.0191333181
 10
10.5926576567
 20
7.012403842
 10
10.5891746659
 20
7.005984624
 10
10.5850797277
 20
6.9999373859
 10
10.5804122154
 20
6.9943202729
  0
LINE
  5
226
100
AcDbEntity
  8
0
100
AcDbLine
 62
7
  6
CONTINUOUS
 10
10.5570354956
 20
8.2244205009
 11
10.5570354956
 21
8.2344205009
  0
LINE
  5
227
100
AcDbEntity
  8
0
100
AcDbLine
 62
7
  6
CONTINUOUS
 10
10.5601280797
 20
6.9627588011
 11
10.5601280797
 21
6.9353958298
  0
LINE
  5
228
100
AcDbEntity
  8
0
100
AcDbLine
 62
7
  6
CONTINUOUS
 10
10.5612631733
 20
6.9627588011
 11
10.5612631733
 21
6.9353958298
  0
LINE
  5
229
100
AcDbEntity
  8
0
100
AcDbLine
 62
7
  6
CONTINUOUS
 10
10.5646631616
 20
6.9627588011
 11
10.5646631616
 21
6.9353958298
  0
LINE
  5
22A
100
AcDbEntity
  8
0
100
AcDbLine
 62
7
  6
CONTINUOUS
 10
10.5703121925
 20
6.9627588011
 11
10.5703121925
 21
6.9353958298
  0
LINE
  5
22B
100
AcDbEntity
  8
0
100
AcDbLine
 62
7
  6
CONTINUOUS
 10
10.5781839275
 20
6.9627588011
 11
10.5781839275
 21
6.9353958298
  0
LINE
  5
22C
100
AcDbEntity
  8
0
100
AcDbLine
 62
7
  6
CONTINUOUS
 10
10.5882416649
 20
6.9627588011
 11
10.5882416649
 21
6.9353958298
  0
LINE
  5
22D
100
AcDbEntity
  8
0
100
AcDbLine
 62
7
  6
CONTINUOUS
 10
10.6004385109
 20
6.9627588011
 11
10.6004385109
 21
6.9353958298
  0
LINE
  5
22E
100
AcDbEntity
  8
0
100
AcDbLine
 62
7
  6
CONTINUOUS
 10
10.6147175983
 20
6.9627588011
 11
10.6147175983
 21
6.9353958298
  0
LINE
  5
22F
100
AcDbEntity
  8
0
100
AcDbLine
 62
7
  6
CONTINUOUS
 10
10.6285809978
 20
8.2244205009
 11
10.6285809978
 21
7.9733434772
  0
LINE
  5
230
100
AcDbEntity
  8
0
100
AcDbLine
 62
7
  6
CONTINUOUS
 10
10.6310123512
 20
6.9627588011
 11
10.6310123512
 21
6.9353958298
  0
LINE
  5
231
100
AcDbEntity
  8
0
100
AcDbLine
 62
7
  6
CONTINUOUS
 10
10.6492467961
 20
6.9627588011
 11
10.6492467961
 21
6.9353958298
  0
LINE
  5
232
100
AcDbEntity
  8
0
100
AcDbLine
 62
7
  6
CONTINUOUS
 10
10.6693359156
 20
6.9627588011
 11
10.6693359156
 21
6.9353958298
  0
LINE
  5
233
100
AcDbEntity
  8
0
100
AcDbLine
 62
7
  6
CONTINUOUS
 10
10.6911860448
 20
6.9627588011
 11
10.6911860448
 21
6.9353958298
  0
LINE
  5
234
100
AcDbEntity
  8
0
100
AcDbLine
 62
7
  6
CONTINUOUS
 10
10.7040354956
 20
6.7416605375
 11
10.7040354956
 21
6.8932365838
  0
LINE
  5
235
100
AcDbEntity
  8
0
100
AcDbLine
 62
7
  6
CONTINUOUS
 10
10.7146953084
 20
6.9075185143
 11
10.7146953084
 21
6.990870938
  0
LINE
  5
236
100
AcDbEntity
  8
0
100
AcDbLine
 62
7
  6
CONTINUOUS
 10
10.7381497665
 20
6.9075185143
 11
10.7381497665
 21
6.9908714371
  0
LINE
  5
237
100
AcDbEntity
  8
0
100
AcDbLine
 62
7
  6
CONTINUOUS
 10
10.7397540954
 20
6.9627588011
 11
10.7397540954
 21
6.9353958298
  0
LINE
  5
238
100
AcDbEntity
  8
0
100
AcDbLine
 62
7
  6
CONTINUOUS
 10
10.7630443925
 20
6.9075185143
 11
10.7630443925
 21
6.9908708687
  0
LINE
  5
239
100
AcDbEntity
  8
0
100
AcDbLine
 62
7
  6
CONTINUOUS
 10
10.7662455701
 20
6.9627588011
 11
10.7662455701
 21
6.9353958298
  0
LINE
  5
23A
100
AcDbEntity
  8
0
100
AcDbLine
 62
7
  6
CONTINUOUS
 10
10.7820354956
 20
6.3202205009
 11
10.7820354956
 21
6.7044205375
  0
LINE
  5
23B
100
AcDbEntity
  8
0
100
AcDbLine
 62
7
  6
CONTINUOUS
 10
10.7892631161
 20
6.9075185143
 11
10.7892631161
 21
6.9908713216
  0
LINE
  5
23C
100
AcDbEntity
  8
0
100
AcDbLine
 62
7
  6
CONTINUOUS
 10
10.7940462171
 20
6.9627588011
 11
10.7940462171
 21
6.9353958298
  0
LINE
  5
23D
100
AcDbEntity
  8
0
100
AcDbLine
 62
7
  6
CONTINUOUS
 10
10.5602162061
 20
6.9630625533
 11
10.5601280797
 21
6.9627588011
  0
LINE
  5
23E
100
AcDbEntity
  8
0
100
AcDbLine
 62
9
  6
CONTINUOUS
 10
11.5108943124
 20
6.9900701031
 11
11.5046987136
 21
6.9900699666
  0
LINE
  5
23F
100
AcDbEntity
  8
0
100
AcDbLine
 62
9
  6
CONTINUOUS
 10
10.6087024912
 20
6.9900699679
 11
10.5985047445
 21
6.9900701811
  0
LINE
  5
240
100
AcDbEntity
  8
0
100
AcDbLine
 62
9
  6
CONTINUOUS
 10
11.5175815173
 20
6.9900701111
 11
11.5155035167
 21
6.9900699737
  0
LINE
  5
241
100
AcDbEntity
  8
0
100
AcDbLine
 62
9
  6
CONTINUOUS
 10
10.5893723668
 20
6.9900700287
 11
10.5831766767
 21
6.9900701005
  0
LINE
  5
242
100
AcDbEntity
  8
0
100
AcDbLine
 62
9
  6
CONTINUOUS
 10
10.6361980973
 20
6.9900700133
 11
10.6221880292
 21
6.990070182
  0
LINE
  5
243
100
AcDbEntity
  8
0
100
AcDbLine
 62
9
  6
CONTINUOUS
 10
10.5828880366
 20
6.9900701158
 11
10.5787414055
 21
6.990070142
  0
LINE
  5
244
100
AcDbEntity
  8
0
100
AcDbLine
 62
9
  6
CONTINUOUS
 10
10.7369509521
 20
6.9900699682
 11
10.7146952253
 21
6.9900701667
  0
LINE
  5
245
100
AcDbEntity
  8
0
100
AcDbLine
 62
9
  6
CONTINUOUS
 10
11.4955663268
 20
6.9900700271
 11
11.4853684726
 21
6.9900699849
  0
LINE
  5
246
100
AcDbEntity
  8
0
100
AcDbLine
 62
9
  6
CONTINUOUS
 10
10.7880867424
 20
6.9900700232
 11
10.763207855
 21
6.9900702003
  0
LINE
  5
247
100
AcDbEntity
  8
0
100
AcDbLine
 62
9
  6
CONTINUOUS
 10
10.6915916602
 20
6.9900700212
 11
10.6723734522
 21
6.990070107
  0
LINE
  5
248
100
AcDbEntity
  8
0
100
AcDbLine
 62
9
  6
CONTINUOUS
 10
10.9347295338
 20
6.9900699679
 11
10.9054062132
 21
6.9900701778
  0
LINE
  5
249
100
AcDbEntity
  8
0
100
AcDbLine
 62
9
  6
CONTINUOUS
 10
11.4570401049
 20
6.9900699992
 11
11.4412175575
 21
6.9900699788
  0
LINE
  5
24A
100
AcDbEntity
  8
0
100
AcDbLine
 62
9
  6
CONTINUOUS
 10
10.8735119907
 20
6.9900700265
 11
10.8455805404
 21
6.990070096
  0
LINE
  5
24B
100
AcDbEntity
  8
0
100
AcDbLine
 62
9
  6
CONTINUOUS
 10
10.6713469568
 20
6.9900701224
 11
10.6537854185
 21
6.990070145
  0
LINE
  5
24C
100
AcDbEntity
  8
0
100
AcDbLine
 62
9
  6
CONTINUOUS
 10
11.4402855703
 20
6.9900699818
 11
11.4227243216
 21
6.9900699682
  0
LINE
  5
24D
100
AcDbEntity
  8
0
100
AcDbLine
 62
9
  6
CONTINUOUS
 10
11.2770631367
 20
6.9900700016
 11
11.2500249461
 21
6.9900699697
  0
LINE
  5
24E
100
AcDbEntity
  8
0
100
AcDbLine
 62
9
  6
CONTINUOUS
 10
10.998039342
 20
6.9900700266
 11
10.9678702221
 21
6.9900702015
  0
LINE
  5
24F
100
AcDbEntity
  8
0
100
AcDbLine
 62
9
  6
CONTINUOUS
 10
11.4847450807
 20
6.9900699896
 11
11.4726128286
 21
6.990069984
  0
LINE
  5
250
100
AcDbEntity
  8
0
100
AcDbLine
 62
9
  6
CONTINUOUS
 10
11.3793756851
 20
6.9900699726
 11
11.3571200393
 21
6.9900699681
  0
LINE
  5
251
100
AcDbEntity
  8
0
100
AcDbLine
 62
9
  6
CONTINUOUS
 10
11.3558392239
 20
6.990069969
 11
11.3322170244
 21
6.9900699672
  0
LINE
  5
252
100
AcDbEntity
  8
0
100
AcDbLine
 62
9
  6
CONTINUOUS
 10
11.1886645783
 20
6.9900700197
 11
11.1593413953
 21
6.990070001
  0
LINE
  5
253
100
AcDbEntity
  8
0
100
AcDbLine
 62
9
  6
CONTINUOUS
 10
11.1262006021
 20
6.9900700871
 11
11.0960315986
 21
6.9900700551
  0
LINE
  5
254
100
AcDbEntity
  8
0
100
AcDbLine
 62
9
  6
CONTINUOUS
 10
10.8440463218
 20
6.9900701105
 11
10.8170077373
 21
6.9900701282
  0
LINE
  5
255
100
AcDbEntity
  8
0
100
AcDbLine
 62
9
  6
CONTINUOUS
 10
11.4216975179
 20
6.9900699673
 11
11.4024794294
 21
6.9900699695
  0
LINE
  5
256
100
AcDbEntity
  8
0
100
AcDbLine
 62
9
  6
CONTINUOUS
 10
11.4013626188
 20
6.9900699685
 11
11.3805772911
 21
6.9900699717
  0
LINE
  5
257
100
AcDbEntity
  8
0
100
AcDbLine
 62
9
  6
CONTINUOUS
 10
11.2189782968
 20
6.9900700056
 11
11.1902841461
 21
6.9900700127
  0
LINE
  5
258
100
AcDbEntity
  8
0
100
AcDbLine
 62
9
  6
CONTINUOUS
 10
11.0943414362
 20
6.9900700429
 11
11.0639598624
 21
6.9900700497
  0
LINE
  5
259
100
AcDbEntity
  8
0
100
AcDbLine
 62
9
  6
CONTINUOUS
 10
11.0622618046
 20
6.9900700625
 11
11.0318091255
 21
6.9900701
  0
LINE
  5
25A
100
AcDbEntity
  8
0
100
AcDbLine
 62
9
  6
CONTINUOUS
 10
11.3045634139
 20
6.9900699863
 11
11.2785442918
 21
6.9900699997
  0
LINE
  5
25B
100
AcDbEntity
  8
0
100
AcDbLine
 62
9
  6
CONTINUOUS
 10
11.0301111957
 20
6.9900700891
 11
10.9997296028
 21
6.990070012
  0
LINE
  5
25C
100
AcDbEntity
  8
0
100
AcDbLine
 62
9
  6
CONTINUOUS
 10
11.3308629781
 20
6.9900699672
 11
11.3059843159
 21
6.9900699893
  0
LINE
  5
25D
100
AcDbEntity
  8
0
100
AcDbLine
 62
9
  6
CONTINUOUS
 10
11.2484903221
 20
6.9900699727
 11
11.2205590326
 21
6.9900700099
  0
LINE
  5
25E
100
AcDbEntity
  8
0
100
AcDbLine
 62
9
  6
CONTINUOUS
 10
11.1576904679
 20
6.9900699937
 11
11.1278748629
 21
6.9900700763
  0
LINE
  5
25F
100
AcDbEntity
  8
0
100
AcDbLine
 62
9
  6
CONTINUOUS
 10
11.4718830136
 20
6.9900699794
 11
11.4578729181
 21
6.9900699995
  0
LINE
  5
260
100
AcDbEntity
  8
0
100
AcDbLine
 62
9
  6
CONTINUOUS
 10
10.9661963475
 20
6.9900701965
 11
10.9363805549
 21
6.9900699705
  0
LINE
  5
261
100
AcDbEntity
  8
0
100
AcDbLine
 62
9
  6
CONTINUOUS
 10
10.9037871745
 20
6.9900701848
 11
10.8750926528
 21
6.9900700415
  0
LINE
  5
262
100
AcDbEntity
  8
0
100
AcDbLine
 62
9
  6
CONTINUOUS
 10
10.8155269273
 20
6.9900701148
 11
10.789507559
 21
6.990070009
  0
LINE
  5
263
100
AcDbEntity
  8
0
100
AcDbLine
 62
9
  6
CONTINUOUS
 10
10.7134940908
 20
6.9900701735
 11
10.6927083532
 21
6.9900700355
  0
LINE
  5
264
100
AcDbEntity
  8
0
100
AcDbLine
 62
9
  6
CONTINUOUS
 10
10.7618544187
 20
6.9900701957
 11
10.7382317657
 21
6.9900699715
  0
LINE
  5
265
100
AcDbEntity
  8
0
100
AcDbLine
 62
9
  6
CONTINUOUS
 10
10.6528537096
 20
6.990070131
 11
10.6370308864
 21
6.9900700005
  0
LINE
  5
266
100
AcDbEntity
  8
0
100
AcDbLine
 62
9
  6
CONTINUOUS
 10
11.5042963675
 20
6.9900699688
 11
11.4960803374
 21
6.9900700306
  0
LINE
  5
267
100
AcDbEntity
  8
0
100
AcDbLine
 62
9
  6
CONTINUOUS
 10
10.6214584895
 20
6.9900701779
 11
10.6093259029
 21
6.9900699702
  0
LINE
  5
268
100
AcDbEntity
  8
0
100
AcDbLine
 62
9
  6
CONTINUOUS
 10
10.5979908947
 20
6.9900701882
 11
10.5897746725
 21
6.990070044
  0
LINE
  5
269
100
AcDbEntity
  8
0
100
AcDbLine
 62
9
  6
CONTINUOUS
 10
11.5153297314
 20
6.9900699799
 11
11.5111829676
 21
6.9900701061
  0
LINE
  5
26A
100
AcDbEntity
  8
0
100
AcDbLine
 62
9
  6
CONTINUOUS
 10
10.578567666
 20
6.9900701282
 11
10.5764893548
 21
6.9900699941
  0
LINE
  5
26B
100
AcDbEntity
  8
0
100
AcDbLine
 62
9
  6
CONTINUOUS
 10
11.4946083537
 20
7.0536848936
 11
10.5994626375
 21
7.0536848936
  0
LINE
  5
26C
100
AcDbEntity
  8
0
100
AcDbLine
 62
9
  6
CONTINUOUS
 10
11.5178857884
 20
6.9900701022
 11
11.5176395118
 21
6.9900701169
  0
LINE
  5
26D
100
AcDbEntity
  8
0
100
AcDbLine
 62
9
  6
CONTINUOUS
 10
10.5764313522
 20
6.9900700046
 11
10.5762125599
 21
6.9900700744
  0
LINE
  5
26E
100
AcDbEntity
  8
0
100
AcDbLine
 62
7
  6
CONTINUOUS
 10
10.8166836935
 20
6.9075185143
 11
10.8166836935
 21
6.990871059
  0
LINE
  5
26F
100
AcDbEntity
  8
0
100
AcDbLine
 62
7
  6
CONTINUOUS
 10
10.8230264169
 20
6.9627588011
 11
10.8230264169
 21
6.9353958298
  0
LINE
  5
270
100
AcDbEntity
  8
0
100
AcDbLine
 62
7
  6
CONTINUOUS
 10
10.8451782773
 20
6.9075185143
 11
10.8451782773
 21
6.9908711044
  0
LINE
  5
271
100
AcDbEntity
  8
0
100
AcDbLine
 62
7
  6
CONTINUOUS
 10
10.8530510504
 20
6.9627588011
 11
10.8530510504
 21
6.9353958298
  0
LINE
  5
272
100
AcDbEntity
  8
0
100
AcDbLine
 62
7
  6
CONTINUOUS
 10
10.8746140127
 20
6.9075185143
 11
10.8746140127
 21
6.9908712769
  0
LINE
  5
273
100
AcDbEntity
  8
0
100
AcDbLine
 62
7
  6
CONTINUOUS
 10
10.883980129
 20
6.9627588011
 11
10.883980129
 21
6.9353958298
  0
LINE
  5
274
100
AcDbEntity
  8
0
100
AcDbLine
 62
7
  6
CONTINUOUS
 10
10.9048536567
 20
6.9075185143
 11
10.9048536567
 21
6.9908709102
  0
LINE
  5
275
100
AcDbEntity
  8
0
100
AcDbLine
 62
7
  6
CONTINUOUS
 10
10.9156694469
 20
6.9627588011
 11
10.9156694469
 21
6.9353958298
  0
LINE
  5
276
100
AcDbEntity
  8
0
100
AcDbLine
 62
7
  6
CONTINUOUS
 10
10.935756218
 20
6.9075185143
 11
10.935756218
 21
6.9908714388
  0
LINE
  5
277
100
AcDbEntity
  8
0
100
AcDbLine
 62
7
  6
CONTINUOUS
 10
10.947971254
 20
6.9627588011
 11
10.947971254
 21
6.9353958298
  0
LINE
  5
278
100
AcDbEntity
  8
0
100
AcDbLine
 62
7
  6
CONTINUOUS
 10
10.9671776146
 20
6.9075185143
 11
10.9671776146
 21
6.9908708662
  0
LINE
  5
279
100
AcDbEntity
  8
0
100
AcDbLine
 62
7
  6
CONTINUOUS
 10
10.9807349443
 20
6.9627588011
 11
10.9807349443
 21
6.9353958298
  0
LINE
  5
27A
100
AcDbEntity
  8
0
100
AcDbLine
 62
7
  6
CONTINUOUS
 10
10.9989713456
 20
6.9075185143
 11
10.9989713456
 21
6.9908713137
  0
LINE
  5
27B
100
AcDbEntity
  8
0
100
AcDbLine
 62
7
  6
CONTINUOUS
 10
11.0138077584
 20
6.9627588011
 11
11.0138077584
 21
6.9353958298
  0
LINE
  5
27C
100
AcDbEntity
  8
0
100
AcDbLine
 62
7
  6
CONTINUOUS
 10
11.0309891738
 20
6.9075185143
 11
11.0309891738
 21
6.990871126
  0
LINE
  5
27D
100
AcDbEntity
  8
0
100
AcDbLine
 62
7
  6
CONTINUOUS
 10
11.0470354956
 20
6.9627588011
 11
11.0470354956
 21
6.9353958298
  0
LINE
  5
27E
100
AcDbEntity
  8
0
100
AcDbLine
 62
7
  6
CONTINUOUS
 10
11.0630818174
 20
6.9075185143
 11
11.0630818174
 21
6.9908712217
  0
LINE
  5
27F
100
AcDbEntity
  8
0
100
AcDbLine
 62
7
  6
CONTINUOUS
 10
11.0802632327
 20
6.9627588011
 11
11.0802632327
 21
6.9353958298
  0
LINE
  5
280
100
AcDbEntity
  8
0
100
AcDbLine
 62
7
  6
CONTINUOUS
 10
10.5804122154
 20
6.9943202729
 11
10.5761853633
 21
6.9900699305
  0
LINE
  5
281
100
AcDbEntity
  8
0
100
AcDbLine
 62
9
  6
CONTINUOUS
 10
10.5874604063
 20
7.3495397132
 11
11.5066105849
 21
7.3495397132
  0
LWPOLYLINE
  5
282
100
AcDbEntity
  8
0
100
AcDbPolyline
 62
7
  6
CONTINUOUS
 90
11
 70
0
 10
11.5178856278
 20
6.9900699305
 10
11.5136587757
 20
6.9943202729
 10
11.5089912634
 20
6.9999373859
 10
11.5048963253
 20
7.005984624
 10
11.5014133344
 20
7.012403842
 10
11.4985757801
 20
7.0191333181
 10
11.4964109456
 20
7.0261083476
 10
11.4949396457
 20
7.0332618647
 10
11.4941760272
 20
7.0405250874
 10
11.4941274321
 20
7.0478281791
 10
11.4946079052
 20
7.0536849291
  0
LINE
  5
283
100
AcDbEntity
  8
0
100
AcDbLine
 62
7
  6
CONTINUOUS
 10
11.0950996456
 20
6.9075185143
 11
11.0950996456
 21
6.9908712393
  0
LINE
  5
284
100
AcDbEntity
  8
0
100
AcDbLine
 62
7
  6
CONTINUOUS
 10
11.1133360468
 20
6.9627588011
 11
11.1133360468
 21
6.9353958298
  0
LINE
  5
285
100
AcDbEntity
  8
0
100
AcDbLine
 62
7
  6
CONTINUOUS
 10
11.1268933765
 20
6.9075185143
 11
11.1268933765
 21
6.9908711579
  0
LINE
  5
286
100
AcDbEntity
  8
0
100
AcDbLine
 62
7
  6
CONTINUOUS
 10
11.1460997371
 20
6.9627588011
 11
11.1460997371
 21
6.9353958298
  0
LINE
  5
287
100
AcDbEntity
  8
0
100
AcDbLine
 62
7
  6
CONTINUOUS
 10
11.1583147732
 20
6.9075185143
 11
11.1583147732
 21
6.9908713678
  0
LINE
  5
288
100
AcDbEntity
  8
0
100
AcDbLine
 62
7
  6
CONTINUOUS
 10
11.1784015442
 20
6.9627588011
 11
11.1784015442
 21
6.9353958298
  0
LINE
  5
289
100
AcDbEntity
  8
0
100
AcDbLine
 62
7
  6
CONTINUOUS
 10
11.1892173345
 20
6.9075185143
 11
11.1892173345
 21
6.9908713209
  0
LINE
  5
28A
100
AcDbEntity
  8
0
100
AcDbLine
 62
7
  6
CONTINUOUS
 10
11.2002004721
 20
8.2244205009
 11
11.2002004721
 21
7.9733434772
  0
LINE
  5
28B
100
AcDbEntity
  8
0
100
AcDbLine
 62
7
  6
CONTINUOUS
 10
11.2100908622
 20
6.9627588011
 11
11.2100908622
 21
6.9353958298
  0
LINE
  5
28C
100
AcDbEntity
  8
0
100
AcDbLine
 62
7
  6
CONTINUOUS
 10
11.2194569784
 20
6.9075185143
 11
11.2194569784
 21
6.9908713417
  0
LINE
  5
28D
100
AcDbEntity
  8
0
100
AcDbLine
 62
7
  6
CONTINUOUS
 10
11.2410199407
 20
6.9627588011
 11
11.2410199407
 21
6.9353958298
  0
LINE
  5
28E
100
AcDbEntity
  8
0
100
AcDbLine
 62
7
  6
CONTINUOUS
 10
11.2488927138
 20
6.9075185143
 11
11.2488927138
 21
6.990871433
  0
LINE
  5
28F
100
AcDbEntity
  8
0
100
AcDbLine
 62
7
  6
CONTINUOUS
 10
11.2710445742
 20
6.9627588011
 11
11.2710445742
 21
6.9353958298
  0
LINE
  5
290
100
AcDbEntity
  8
0
100
AcDbLine
 62
7
  6
CONTINUOUS
 10
11.2773872976
 20
6.9075185143
 11
11.2773872976
 21
6.9908713595
  0
LINE
  5
291
100
AcDbEntity
  8
0
100
AcDbLine
 62
7
  6
CONTINUOUS
 10
11.300024774
 20
6.9627588011
 11
11.300024774
 21
6.9353958298
  0
LINE
  5
292
100
AcDbEntity
  8
0
100
AcDbLine
 62
7
  6
CONTINUOUS
 10
11.3048078751
 20
6.9075185143
 11
11.3048078751
 21
6.9908713912
  0
LINE
  5
293
100
AcDbEntity
  8
0
100
AcDbLine
 62
7
  6
CONTINUOUS
 10
11.3120354956
 20
6.3202205009
 11
11.3120354956
 21
6.7044205375
  0
LINE
  5
294
100
AcDbEntity
  8
0
100
AcDbLine
 62
7
  6
CONTINUOUS
 10
11.327825421
 20
6.9627588011
 11
11.327825421
 21
6.9353958298
  0
LINE
  5
295
100
AcDbEntity
  8
0
100
AcDbLine
 62
7
  6
CONTINUOUS
 10
11.3310265986
 20
6.9075185143
 11
11.3310265986
 21
6.9908714431
  0
LINE
  5
296
100
AcDbEntity
  8
0
100
AcDbLine
 62
7
  6
CONTINUOUS
 10
11.3543168957
 20
6.9627588011
 11
11.3543168957
 21
6.9353958298
  0
LINE
  5
297
100
AcDbEntity
  8
0
100
AcDbLine
 62
7
  6
CONTINUOUS
 10
11.3559212246
 20
6.9075185143
 11
11.3559212246
 21
6.9908714401
  0
LINE
  5
298
100
AcDbEntity
  8
0
100
AcDbLine
 62
9
  6
CONTINUOUS
 10
10.6164374215
 20
7.6474484797
 11
11.4776335696
 21
7.6474484797
  0
LINE
  5
299
100
AcDbEntity
  8
0
100
AcDbLine
 62
9
  6
CONTINUOUS
 10
10.6357331455
 20
7.8046698141
 11
11.4583378456
 21
7.8046698141
  0
LINE
  5
29A
100
AcDbEntity
  8
0
100
AcDbLine
 62
7
  6
CONTINUOUS
 10
11.5339429114
 20
6.9627588011
 11
11.5338547851
 21
6.9630625533
  0
LINE
  5
29B
100
AcDbEntity
  8
0
100
AcDbLine
 62
7
  6
CONTINUOUS
 10
11.3793756827
 20
6.9075185143
 11
11.3793756827
 21
6.9908714297
  0
LINE
  5
29C
100
AcDbEntity
  8
0
100
AcDbLine
 62
7
  6
CONTINUOUS
 10
11.3900354956
 20
6.7416605375
 11
11.3900354956
 21
6.8932365838
  0
LINE
  5
29D
100
AcDbEntity
  8
0
100
AcDbLine
 62
7
  6
CONTINUOUS
 10
11.4028849464
 20
6.9627588011
 11
11.4028849464
 21
6.9353958298
  0
LINE
  5
29E
100
AcDbEntity
  8
0
100
AcDbLine
 62
7
  6
CONTINUOUS
 10
11.4247350756
 20
6.9627588011
 11
11.4247350756
 21
6.9353958298
  0
LINE
  5
29F
100
AcDbEntity
  8
0
100
AcDbLine
 62
7
  6
CONTINUOUS
 10
11.444824195
 20
6.9627588011
 11
11.444824195
 21
6.9353958298
  0
LINE
  5
2A0
100
AcDbEntity
  8
0
100
AcDbLine
 62
7
  6
CONTINUOUS
 10
11.4630586399
 20
6.9627588011
 11
11.4630586399
 21
6.9353958298
  0
LINE
  5
2A1
100
AcDbEntity
  8
0
100
AcDbLine
 62
7
  6
CONTINUOUS
 10
11.4793533929
 20
6.9627588011
 11
11.4793533929
 21
6.9353958298
  0
LINE
  5
2A2
100
AcDbEntity
  8
0
100
AcDbLine
 62
7
  6
CONTINUOUS
 10
11.4936324802
 20
6.9627588011
 11
11.4936324802
 21
6.9353958298
  0
LINE
  5
2A3
100
AcDbEntity
  8
0
100
AcDbLine
 62
7
  6
CONTINUOUS
 10
11.5058293262
 20
6.9627588011
 11
11.5058293262
 21
6.9353958298
  0
LINE
  5
2A4
100
AcDbEntity
  8
0
100
AcDbLine
 62
7
  6
CONTINUOUS
 10
11.5158870636
 20
6.9627588011
 11
11.5158870636
 21
6.9353958298
  0
LINE
  5
2A5
100
AcDbEntity
  8
0
100
AcDbLine
 62
7
  6
CONTINUOUS
 10
11.5237587986
 20
6.9627588011
 11
11.5237587986
 21
6.9353958298
  0
LINE
  5
2A6
100
AcDbEntity
  8
0
100
AcDbLine
 62
7
  6
CONTINUOUS
 10
11.5294078295
 20
6.9627588011
 11
11.5294078295
 21
6.9353958298
  0
LINE
  5
2A7
100
AcDbEntity
  8
0
100
AcDbLine
 62
7
  6
CONTINUOUS
 10
11.5328078179
 20
6.9627588011
 11
11.5328078179
 21
6.9353958298
  0
LINE
  5
2A8
100
AcDbEntity
  8
0
100
AcDbLine
 62
7
  6
CONTINUOUS
 10
11.5339429114
 20
6.9627588011
 11
11.5339429114
 21
6.9353958298
  0
LINE
  5
2A9
100
AcDbEntity
  8
0
100
AcDbLine
 62
7
  6
CONTINUOUS
 10
11.5370354956
 20
8.2244205009
 11
11.5370354956
 21
8.2344205009
  0
LINE
  5
2AA
100
AcDbEntity
  8
0
100
AcDbLine
 62
7
  6
CONTINUOUS
 10
11.6186549698
 20
8.2244205009
 11
11.6186549698
 21
7.9733434772
  0
LINE
  5
2AB
100
AcDbEntity
  8
0
100
AcDbLine
 62
7
  6
CONTINUOUS
 10
11.577614538
 20
7.9644103614
 11
11.5556114468
 21
7.9589275397
  0
LINE
  5
2AC
100
AcDbEntity
  8
0
100
AcDbLine
 62
9
  6
CONTINUOUS
 10
10.6325174587
 20
7.8868345623
 11
11.4615535324
 21
7.8868345623
  0
LINE
  5
2AD
100
AcDbEntity
  8
0
100
AcDbLine
 62
9
  6
CONTINUOUS
 10
10.6059418658
 20
7.9279058823
 11
11.4881291254
 21
7.9279058823
  0
LINE
  5
2AE
100
AcDbEntity
  8
0
100
AcDbLine
 62
9
  6
CONTINUOUS
 10
10.5384595443
 20
7.9589275397
 11
11.5556114468
 21
7.9589275397
  0
LINE
  5
2AF
100
AcDbEntity
  8
0
100
AcDbLine
 62
7
  6
CONTINUOUS
 10
10.5164564531
 20
7.9644103614
 11
10.5384595443
 21
7.9589275397
  0
LINE
  5
2B0
100
AcDbEntity
  8
0
100
AcDbLine
 62
7
  6
CONTINUOUS
 10
10.0489092251
 20
8.5405569343
 11
10.1168074719
 21
8.508531568
  0
LINE
  5
2B1
100
AcDbEntity
  8
0
100
AcDbLine
 62
7
  6
CONTINUOUS
 10
11.5338493997
 20
6.9350837398
 11
11.5339429114
 21
6.9353958298
  0
LWPOLYLINE
  5
2B2
100
AcDbEntity
  8
0
100
AcDbPolyline
 62
7
  6
CONTINUOUS
 90
18
 70
0
 10
11.3985022255
 20
6.2722658744
 10
11.3996509017
 20
6.2747853351
 10
11.4009530321
 20
6.2786206922
 10
11.4017816661
 20
6.2825676676
 10
11.4021179585
 20
6.2865804689
 10
11.4019424587
 20
6.2906078134
 10
11.4012635569
 20
6.2945969423
 10
11.4001011786
 20
6.2984900126
 10
11.3984808073
 20
6.302217368
 10
11.3964339347
 20
6.3057098964
 10
11.3939891054
 20
6.3089116844
 10
11.3911653978
 20
6.3117773733
 10
11.3879921945
 20
6.3142724616
 10
11.3845249532
 20
6.3163683932
 10
11.3808325011
 20
6.3180335637
 10
11.3769859618
 20
6.3192423014
 10
11.3730581907
 20
6.319975217
 10
11.369124505
 20
6.3202205009
  0
LWPOLYLINE
  5
2B3
100
AcDbEntity
  8
0
100
AcDbPolyline
 62
7
  6
CONTINUOUS
 90
20
 70
0
 10
10.5549674246
 20
5.552333301
 10
10.5531840177
 20
5.5502541967
 10
10.5508184699
 20
5.5468248755
 10
10.5488895296
 20
5.5431279386
 10
10.5474172038
 20
5.5392260785
 10
10.5464198593
 20
5.5351763669
 10
10.5459180492
 20
5.5310373364
 10
10.5459334925
 20
5.5268693067
 10
10.5464798589
 20
5.5227379526
 10
10.5475363627
 20
5.5187038714
 10
10.5490726427
 20
5.5148255733
 10
10.5510608867
 20
5.5111564331
 10
10.5534741297
 20
5.507752033
 10
10.5562856777
 20
5.5046696169
 10
10.5594637811
 20
5.5019695584
 10
10.5629584215
 20
5.4996912362
 10
10.5667056756
 20
5.4978558013
 10
10.5706461913
 20
5.4964812247
 10
10.5747242487
 20
5.4955861997
 10
10.577577619
 20
5.4952601728
  0
LINE
  5
2B4
100
AcDbEntity
  8
0
100
AcDbLine
 62
7
  6
CONTINUOUS
 10
11.5168152343
 20
6.9073203359
 11
11.5168872513
 21
6.907391818
  0
LINE
  5
2B5
100
AcDbEntity
  8
0
100
AcDbLine
 62
7
  6
CONTINUOUS
 10
11.5123042325
 20
6.9036914158
 11
11.5168152343
 21
6.9073203359
  0
LINE
  5
2B6
100
AcDbEntity
  8
0
100
AcDbLine
 62
7
  6
CONTINUOUS
 10
10.4754160213
 20
8.2244205009
 11
11.6186549698
 21
8.2244205009
  0
LINE
  5
2B7
100
AcDbEntity
  8
0
100
AcDbLine
 62
7
  6
CONTINUOUS
 10
10.355315133
 20
8.2344205009
 11
11.7387558582
 21
8.2344205009
  0
LINE
  5
2B8
100
AcDbEntity
  8
0
100
AcDbLine
 62
9
  6
CONTINUOUS
 10
10.2853869645
 20
8.3739849795
 11
11.8086840266
 21
8.3739849795
  0
LINE
  5
2B9
100
AcDbEntity
  8
0
100
AcDbLine
 62
9
  6
CONTINUOUS
 10
10.1168074719
 20
8.508531568
 11
11.9772635193
 21
8.508531568
  0
LINE
  5
2BA
100
AcDbEntity
  8
0
100
AcDbLine
 62
9
  6
CONTINUOUS
 10
10.0489092251
 20
8.5405569343
 11
12.0451617661
 21
8.5405569343
  0
LINE
  5
2BB
100
AcDbEntity
  8
0
100
AcDbLine
 62
9
  6
CONTINUOUS
 10
9.978341431
 20
8.5829123841
 11
12.1157295602
 21
8.5829123841
  0
LINE
  5
2BC
100
AcDbEntity
  8
0
100
AcDbLine
 62
9
  6
CONTINUOUS
 10
9.9451403905
 20
8.6277710503
 11
12.1489306007
 21
8.6277710503
  0
LINE
  5
2BD
100
AcDbEntity
  8
0
100
AcDbLine
 62
7
  6
CONTINUOUS
 10
9.3130915785
 20
8.7684432199
 11
12.7815450981
 21
8.7684432199
  0
LINE
  5
2BE
100
AcDbEntity
  8
0
100
AcDbLine
 62
9
  6
CONTINUOUS
 10
12.7843083292
 20
8.8739667588
 11
9.3103283474
 21
8.8739667588
  0
LINE
  5
2BF
100
AcDbEntity
  8
0
100
AcDbLine
 62
7
  6
CONTINUOUS
 10
7.8143183383
 20
8.8934432199
 11
14.2803183383
 21
8.8934432199
  0
LINE
  5
2C0
100
AcDbEntity
  8
0
100
AcDbLine
 62
7
  6
CONTINUOUS
 10
12.7815450981
 20
8.7684432199
 11
12.7843083292
 21
8.8739667588
  0
LINE
  5
2C1
100
AcDbEntity
  8
0
100
AcDbLine
 62
9
  6
CONTINUOUS
 10
7.7371205526
 20
8.9524550832
 11
14.357516124
 21
8.9524550832
  0
LINE
  5
2C2
100
AcDbEntity
  8
0
100
AcDbLine
 62
9
  6
CONTINUOUS
 10
7.3693482753
 20
9.2638412218
 11
14.7252884012
 21
9.2638412218
  0
LINE
  5
2C3
100
AcDbEntity
  8
0
100
AcDbLine
 62
9
  6
CONTINUOUS
 10
7.2973183383
 20
9.3434432199
 11
14.7973183383
 21
9.3434432199
  0
LINE
  5
2C4
100
AcDbEntity
  8
0
100
AcDbLine
 62
7
  6
CONTINUOUS
 10
7.2973185581
 20
9.5184432199
 11
14.7973181185
 21
9.5184432199
  0
LINE
  5
2C5
100
AcDbEntity
  8
0
100
AcDbLine
 62
7
  6
CONTINUOUS
 10
14.7973183383
 20
9.3434432199
 11
14.7973183383
 21
9.5184432199
  0
ARC
  5
2C6
100
AcDbEntity
  8
0
100
AcDbCircle
 62
7
  6
CONTINUOUS
 10
8.8697450787
 20
7.2434205072
 40
2.6389999968
100
AcDbArc
 50
2.3045935724
 51
8.8065547675
  0
ARC
  5
2C7
100
AcDbEntity
  8
0
100
AcDbCircle
 62
7
  6
CONTINUOUS
 10
9.6730947838
 20
7.2757508754
 40
1.8349999961
100
AcDbArc
 50
353.0492059368
 51
2.3045935724
  0
ARC
  5
2C8
100
AcDbEntity
  8
0
100
AcDbCircle
 62
7
  6
CONTINUOUS
 10
10.486176972
 20
4.2185276984
 40
1.2799999528
100
AcDbArc
 50
79.343725538
 51
85.9052092667
  0
ARC
  5
2C9
100
AcDbEntity
  8
0
100
AcDbCircle
 62
7
  6
CONTINUOUS
 10
10.8197922267
 20
5.5590487865
 40
0.69477793
100
AcDbArc
 50
4.4411357874
 51
8.5302360543
  0
ARC
  5
2CA
100
AcDbEntity
  8
0
100
AcDbCircle
 62
9
  6
CONTINUOUS
 10
10.6486014544
 20
4.8422597672
 40
0.6563775638
100
AcDbArc
 50
75.0604700851
 51
84.1871631964
  0
ARC
  5
2CB
100
AcDbEntity
  8
0
100
AcDbCircle
 62
7
  6
CONTINUOUS
 10
10.4818878396
 20
5.6205922462
 40
0.0999998909
100
AcDbArc
 50
316.9534325849
 51
355.5588642118
  0
ARC
  5
2CC
100
AcDbEntity
  8
0
100
AcDbCircle
 62
7
  6
CONTINUOUS
 10
10.6063474734
 20
6.2271043823
 40
0.0999999992
100
AcDbArc
 50
348.4072896731
 51
26.8473438259
  0
ARC
  5
2CD
100
AcDbEntity
  8
0
100
AcDbCircle
 62
7
  6
CONTINUOUS
 10
10.4248884766
 20
7.0178762307
 40
0.2692595276
100
AcDbArc
 50
354.072300609
 51
354.2439369664
  0
ARC
  5
2CE
100
AcDbEntity
  8
0
100
AcDbCircle
 62
7
  6
CONTINUOUS
 10
10.5343668173
 20
7.0186632651
 40
0.1409376845
100
AcDbArc
 50
348.2941337305
 51
348.6270292845
  0
ARC
  5
2CF
100
AcDbEntity
  8
0
100
AcDbCircle
 62
7
  6
CONTINUOUS
 10
10.556946959
 20
7.020047665
 40
0.10137245
100
AcDbArc
 50
342.7976974961
 51
343.2727317009
  0
ARC
  5
2D0
100
AcDbEntity
  8
0
100
AcDbCircle
 62
7
  6
CONTINUOUS
 10
10.5642560813
 20
7.0720896645
 40
0.0999969126
100
AcDbArc
 50
304.8891575909
 51
305.4220867441
  0
ARC
  5
2D1
100
AcDbEntity
  8
0
100
AcDbCircle
 62
7
  6
CONTINUOUS
 10
10.5647096586
 20
7.0714409945
 40
0.0992054175
100
AcDbArc
 50
305.4257507014
 51
305.6930756459
  0
ARC
  5
2D2
100
AcDbEntity
  8
0
100
AcDbCircle
 62
7
  6
CONTINUOUS
 10
10.5522940079
 20
7.0687989853
 40
0.0968513045
100
AcDbArc
 50
305.621184999
 51
306.1594548922
  0
ARC
  5
2D3
100
AcDbEntity
  8
0
100
AcDbCircle
 62
7
  6
CONTINUOUS
 10
10.5525863825
 20
7.0683982585
 40
0.0963552553
100
AcDbArc
 50
306.1596843232
 51
306.4289772164
  0
ARC
  5
2D4
100
AcDbEntity
  8
0
100
AcDbCircle
 62
7
  6
CONTINUOUS
 10
10.5418046024
 20
7.0659822029
 40
0.0944436535
100
AcDbArc
 50
306.5030323831
 51
307.0458615014
  0
ARC
  5
2D5
100
AcDbEntity
  8
0
100
AcDbCircle
 62
7
  6
CONTINUOUS
 10
10.5421884062
 20
7.0654632632
 40
0.093798236
100
AcDbArc
 50
307.0497115928
 51
307.3218159739
  0
ARC
  5
2D6
100
AcDbEntity
  8
0
100
AcDbCircle
 62
7
  6
CONTINUOUS
 10
10.5339700521
 20
7.0621027607
 40
0.0908743615
100
AcDbArc
 50
307.5637413009
 51
308.1126097344
  0
ARC
  5
2D7
100
AcDbEntity
  8
0
100
AcDbCircle
 62
7
  6
CONTINUOUS
 10
10.5342115014
 20
7.0617919413
 40
0.0904807845
100
AcDbArc
 50
308.1137928842
 51
308.3883038766
  0
ARC
  5
2D8
100
AcDbEntity
  8
0
100
AcDbCircle
 62
7
  6
CONTINUOUS
 10
10.5279139615
 20
7.0584104792
 40
0.0877074554
100
AcDbArc
 50
308.8110190121
 51
309.3652519304
  0
ARC
  5
2D9
100
AcDbEntity
  8
0
100
AcDbCircle
 62
7
  6
CONTINUOUS
 10
10.5281513304
 20
7.058114838
 40
0.0873283359
100
AcDbArc
 50
309.3678760938
 51
309.6451577687
  0
ARC
  5
2DA
100
AcDbEntity
  8
0
100
AcDbCircle
 62
7
  6
CONTINUOUS
 10
10.5240698854
 20
7.0543996939
 40
0.0843110084
100
AcDbArc
 50
310.2671233479
 51
310.8264483399
  0
ARC
  5
2DB
100
AcDbEntity
  8
0
100
AcDbCircle
 62
7
  6
CONTINUOUS
 10
10.5592002799
 20
7.022019254
 40
0.084133015
100
AcDbArc
 50
337.6815817454
 51
338.2706786104
  0
ARC
  5
2DC
100
AcDbEntity
  8
0
100
AcDbCircle
 62
7
  6
CONTINUOUS
 10
10.5242509478
 20
7.0541838249
 40
0.0840292888
100
AcDbArc
 50
310.8292575469
 51
311.1089154541
  0
ARC
  5
2DD
100
AcDbEntity
  8
0
100
AcDbCircle
 62
7
  6
CONTINUOUS
 10
10.5225996839
 20
7.0499354352
 40
0.0805091799
100
AcDbArc
 50
311.9615378007
 51
312.8082924725
  0
ARC
  5
2DE
100
AcDbEntity
  8
0
100
AcDbCircle
 62
7
  6
CONTINUOUS
 10
10.5228035161
 20
7.0458296337
 40
0.0774035738
100
AcDbArc
 50
313.9140289386
 51
314.7632628447
  0
ARC
  5
2DF
100
AcDbEntity
  8
0
100
AcDbCircle
 62
7
  6
CONTINUOUS
 10
10.554982011
 20
7.0243154923
 40
0.0754283119
100
AcDbArc
 50
332.9951493876
 51
333.6792671198
  0
ARC
  5
2E0
100
AcDbEntity
  8
0
100
AcDbCircle
 62
7
  6
CONTINUOUS
 10
10.525068939
 20
7.0416137761
 40
0.0744145205
100
AcDbArc
 50
316.1561384705
 51
317.008242684
  0
ARC
  5
2E1
100
AcDbEntity
  8
0
100
AcDbCircle
 62
7
  6
CONTINUOUS
 10
10.5289684003
 20
7.0376416107
 40
0.0721222197
100
AcDbArc
 50
318.7295960522
 51
319.5721699024
  0
ARC
  5
2E2
100
AcDbEntity
  8
0
100
AcDbCircle
 62
7
  6
CONTINUOUS
 10
10.5480058075
 20
7.0272404244
 40
0.0717063261
100
AcDbArc
 50
328.776958319
 51
329.5229271937
  0
ARC
  5
2E3
100
AcDbEntity
  8
0
100
AcDbCircle
 62
7
  6
CONTINUOUS
 10
10.5343007236
 20
7.0339274444
 40
0.0707166641
100
AcDbArc
 50
321.6690275024
 51
322.4932637493
  0
ARC
  5
2E4
100
AcDbEntity
  8
0
100
AcDbCircle
 62
7
  6
CONTINUOUS
 10
10.541019006
 20
7.0303152582
 40
0.0701734909
100
AcDbArc
 50
325.0011468041
 51
325.7990094017
  0
ARC
  5
2E5
100
AcDbEntity
  8
0
100
AcDbCircle
 62
7
  6
CONTINUOUS
 10
10.7196778443
 20
6.9696673835
 40
0.0689786985
100
AcDbArc
 50
162.7981009734
 51
162.9904214554
  0
ARC
  5
2E6
100
AcDbEntity
  8
0
100
AcDbCircle
 62
7
  6
CONTINUOUS
 10
10.6900959093
 20
6.9682846996
 40
0.0573628087
100
AcDbArc
 50
157.6804889809
 51
157.9529617577
  0
ARC
  5
2E7
100
AcDbEntity
  8
0
100
AcDbCircle
 62
7
  6
CONTINUOUS
 10
10.6155478343
 20
6.9490182715
 40
0.0570977351
100
AcDbArc
 50
165.749347493
 51
166.075134665
  0
ARC
  5
2E8
100
AcDbEntity
  8
0
100
AcDbCircle
 62
7
  6
CONTINUOUS
 10
10.615330218
 20
6.9490755995
 40
0.0568727032
100
AcDbArc
 50
161.234731866
 51
165.7513568329
  0
ARC
  5
2E9
100
AcDbEntity
  8
0
100
AcDbCircle
 62
7
  6
CONTINUOUS
 10
10.6135892441
 20
6.9487459245
 40
0.0555732111
100
AcDbArc
 50
131.9623350057
 51
132.1375510695
  0
ARC
  5
2EA
100
AcDbEntity
  8
0
100
AcDbCircle
 62
7
  6
CONTINUOUS
 10
10.6118413068
 20
6.9486560349
 40
0.0533862426
100
AcDbArc
 50
194.3818139253
 51
194.7415044386
  0
ARC
  5
2EB
100
AcDbEntity
  8
0
100
AcDbCircle
 62
7
  6
CONTINUOUS
 10
10.6134789756
 20
6.9516512964
 40
0.0533312653
100
AcDbArc
 50
133.914954281
 51
134.1325676517
  0
ARC
  5
2EC
100
AcDbEntity
  8
0
100
AcDbCircle
 62
7
  6
CONTINUOUS
 10
10.6681261826
 20
6.9666564707
 40
0.0515605314
100
AcDbArc
 50
152.9980000692
 51
153.3199589218
  0
ARC
  5
2ED
100
AcDbEntity
  8
0
100
AcDbCircle
 62
7
  6
CONTINUOUS
 10
10.6158187754
 20
6.9544603978
 40
0.0514077533
100
AcDbArc
 50
136.2801256049
 51
137.7661324504
  0
ARC
  5
2EE
100
AcDbEntity
  8
0
100
AcDbCircle
 62
7
  6
CONTINUOUS
 10
10.6205103106
 20
6.9573073069
 40
0.0496707263
100
AcDbArc
 50
138.7326187653
 51
138.9358318653
  0
ARC
  5
2EF
100
AcDbEntity
  8
0
100
AcDbCircle
 62
7
  6
CONTINUOUS
 10
10.6512192091
 20
6.964673285
 40
0.0489902074
100
AcDbArc
 50
148.7748220733
 51
149.108578835
  0
ARC
  5
2F0
100
AcDbEntity
  8
0
100
AcDbCircle
 62
7
  6
CONTINUOUS
 10
10.6278282564
 20
6.9599818219
 40
0.0485114974
100
AcDbArc
 50
141.6691194297
 51
141.9331790376
  0
ARC
  5
2F1
100
AcDbEntity
  8
0
100
AcDbCircle
 62
7
  6
CONTINUOUS
 10
10.6379505656
 20
6.9624504417
 40
0.0481538542
100
AcDbArc
 50
145.0055337822
 51
145.3206682136
  0
ARC
  5
2F2
100
AcDbEntity
  8
0
100
AcDbCircle
 62
7
  6
CONTINUOUS
 10
10.6550629225
 20
7.0789836006
 40
0.1063948804
100
AcDbArc
 50
303.3081257459
 51
303.8471949957
  0
ARC
  5
2F3
100
AcDbEntity
  8
0
100
AcDbCircle
 62
7
  6
CONTINUOUS
 10
10.6334414847
 20
7.0783516595
 40
0.1057123891
100
AcDbArc
 50
303.3715435025
 51
303.8940391002
  0
ARC
  5
2F4
100
AcDbEntity
  8
0
100
AcDbCircle
 62
7
  6
CONTINUOUS
 10
10.6556418806
 20
7.0781088026
 40
0.1053458701
100
AcDbArc
 50
303.8506786677
 51
304.095024845
  0
ARC
  5
2F5
100
AcDbEntity
  8
0
100
AcDbCircle
 62
7
  6
CONTINUOUS
 10
10.6790103341
 20
7.078033132
 40
0.1053310663
100
AcDbArc
 50
303.3725644084
 51
304.1569923183
  0
ARC
  5
2F6
100
AcDbEntity
  8
0
100
AcDbCircle
 62
7
  6
CONTINUOUS
 10
10.6132044017
 20
7.0777192377
 40
0.1051806933
100
AcDbArc
 50
303.5558526825
 51
304.07949806
  0
ARC
  5
2F7
100
AcDbEntity
  8
0
100
AcDbCircle
 62
7
  6
CONTINUOUS
 10
10.7037752826
 20
7.0776251626
 40
0.1050672874
100
AcDbArc
 50
303.5541265763
 51
304.3402483215
  0
ARC
  5
2F8
100
AcDbEntity
  8
0
100
AcDbCircle
 62
7
  6
CONTINUOUS
 10
10.6338722195
 20
7.0777067676
 40
0.1049368804
100
AcDbArc
 50
303.8951799456
 51
304.1570202429
  0
ARC
  5
2F9
100
AcDbEntity
  8
0
100
AcDbCircle
 62
7
  6
CONTINUOUS
 10
10.6136889126
 20
7.0769941205
 40
0.104308615
100
AcDbArc
 50
304.0822514575
 51
304.3449334365
  0
ARC
  5
2FA
100
AcDbEntity
  8
0
100
AcDbCircle
 62
7
  6
CONTINUOUS
 10
10.5949482851
 20
7.0763433553
 40
0.1039045918
100
AcDbArc
 50
303.8661323883
 51
304.3920136127
  0
ARC
  5
2FB
100
AcDbEntity
  8
0
100
AcDbCircle
 62
7
  6
CONTINUOUS
 10
10.7304793165
 20
7.0758954679
 40
0.103366535
100
AcDbArc
 50
303.869175015
 51
304.659117804
  0
ARC
  5
2FC
100
AcDbEntity
  8
0
100
AcDbCircle
 62
7
  6
CONTINUOUS
 10
10.595422839
 20
7.0756408614
 40
0.1030568466
100
AcDbArc
 50
304.39490845
 51
304.6586961524
  0
ARC
  5
2FD
100
AcDbEntity
  8
0
100
AcDbCircle
 62
7
  6
CONTINUOUS
 10
10.5788142467
 20
7.0741500564
 40
0.101795754
100
AcDbArc
 50
304.3123726862
 51
304.8418658739
  0
ARC
  5
2FE
100
AcDbEntity
  8
0
100
AcDbCircle
 62
7
  6
CONTINUOUS
 10
10.5791948959
 20
7.0736001395
 40
0.1011269496
100
AcDbArc
 50
304.842865236
 51
305.1080691774
  0
ARC
  5
2FF
100
AcDbEntity
  8
0
100
AcDbCircle
 62
7
  6
CONTINUOUS
 10
10.7778633024
 20
5.8094642335
 40
0.1099522215
100
AcDbArc
 50
280.5798412984
 51
284.9864549765
  0
ARC
  5
300
100
AcDbEntity
  8
0
100
AcDbCircle
 62
7
  6
CONTINUOUS
 10
10.8005179344
 20
5.7912574258
 40
0.1031274601
100
AcDbArc
 50
249.1526394557
 51
259.6823947103
  0
ARC
  5
301
100
AcDbEntity
  8
0
100
AcDbCircle
 62
7
  6
CONTINUOUS
 10
10.7995314459
 20
5.9803300347
 40
0.0978907987
100
AcDbArc
 50
83.9537559513
 51
87.6960452905
  0
ARC
  5
302
100
AcDbEntity
  8
0
100
AcDbCircle
 62
7
  6
CONTINUOUS
 10
10.7995477211
 20
5.9807281587
 40
0.0974923423
100
AcDbArc
 50
87.6961963918
 51
89.9997642965
  0
ARC
  5
303
100
AcDbEntity
  8
0
100
AcDbCircle
 62
9
  6
CONTINUOUS
 10
10.780465894
 20
5.7954424154
 40
0.0956909253
100
AcDbArc
 50
280.5895025931
 51
285.8322708334
  0
ARC
  5
304
100
AcDbEntity
  8
0
100
AcDbCircle
 62
7
  6
CONTINUOUS
 10
11.0063430781
 20
7.0179060417
 40
0.269552448
100
AcDbArc
 50
185.7561243371
 51
185.9273858739
  0
ARC
  5
305
100
AcDbEntity
  8
0
100
AcDbCircle
 62
7
  6
CONTINUOUS
 10
10.9011141448
 20
7.0186422917
 40
0.1408350398
100
AcDbArc
 50
191.3727528002
 51
191.7068532955
  0
ARC
  5
306
100
AcDbEntity
  8
0
100
AcDbCircle
 62
7
  6
CONTINUOUS
 10
10.758137166
 20
7.074162233
 40
0.1018092115
100
AcDbArc
 50
304.3094888587
 51
305.1039183114
  0
ARC
  5
307
100
AcDbEntity
  8
0
100
AcDbCircle
 62
7
  6
CONTINUOUS
 10
10.8865626914
 20
7.0201139697
 40
0.1015989165
100
AcDbArc
 50
196.7277513463
 51
197.2006174043
  0
ARC
  5
308
100
AcDbEntity
  8
0
100
AcDbCircle
 62
7
  6
CONTINUOUS
 10
10.7870749508
 20
7.0717545972
 40
0.0995898387
100
AcDbArc
 50
304.8914567787
 51
305.6918897117
  0
ARC
  5
309
100
AcDbEntity
  8
0
100
AcDbCircle
 62
7
  6
CONTINUOUS
 10
10.8171273613
 20
7.0687680655
 40
0.0968123172
100
AcDbArc
 50
305.6193258532
 51
306.4267643681
  0
ARC
  5
30A
100
AcDbEntity
  8
0
100
AcDbCircle
 62
7
  6
CONTINUOUS
 10
10.8482551981
 20
7.0651065674
 40
0.0933505132
100
AcDbArc
 50
306.4999394289
 51
307.3224797618
  0
ARC
  5
30B
100
AcDbEntity
  8
0
100
AcDbCircle
 62
7
  6
CONTINUOUS
 10
10.8794465107
 20
7.0619458316
 40
0.0906771881
100
AcDbArc
 50
307.565534305
 51
308.38853024
  0
ARC
  5
30C
100
AcDbEntity
  8
0
100
AcDbCircle
 62
7
  6
CONTINUOUS
 10
10.9117597432
 20
7.0577529041
 40
0.0868582033
100
AcDbArc
 50
308.8050951561
 51
309.6448483546
  0
ARC
  5
30D
100
AcDbEntity
  8
0
100
AcDbCircle
 62
7
  6
CONTINUOUS
 10
10.8946753301
 20
7.0219530643
 40
0.0839570511
100
AcDbArc
 50
201.728764092
 51
202.3203968397
  0
ARC
  5
30E
100
AcDbEntity
  8
0
100
AcDbCircle
 62
7
  6
CONTINUOUS
 10
10.9438604325
 20
7.054021837
 40
0.0838164741
100
AcDbArc
 50
310.269596311
 51
311.1109208278
  0
ARC
  5
30F
100
AcDbEntity
  8
0
100
AcDbCircle
 62
7
  6
CONTINUOUS
 10
10.9763902696
 20
7.0498172817
 40
0.0803473061
100
AcDbArc
 50
311.9575516711
 51
312.8074117137
  0
ARC
  5
310
100
AcDbEntity
  8
0
100
AcDbCircle
 62
7
  6
CONTINUOUS
 10
11.0087038473
 20
7.0456976805
 40
0.0772198434
100
AcDbArc
 50
313.9122229349
 51
314.7646947716
  0
ARC
  5
311
100
AcDbEntity
  8
0
100
AcDbCircle
 62
7
  6
CONTINUOUS
 10
10.9128067994
 20
7.0243262365
 40
0.0754510626
100
AcDbArc
 50
206.3211274997
 51
207.0028232289
  0
ARC
  5
312
100
AcDbEntity
  8
0
100
AcDbCircle
 62
7
  6
CONTINUOUS
 10
11.0406722618
 20
7.0416112054
 40
0.074410243
100
AcDbArc
 50
316.1572587867
 51
317.0081037966
  0
ARC
  5
313
100
AcDbEntity
  8
0
100
AcDbCircle
 62
7
  6
CONTINUOUS
 10
11.0220320629
 20
7.0376007218
 40
0.0720603213
100
AcDbArc
 50
220.4272845953
 51
221.2730916051
  0
ARC
  5
314
100
AcDbEntity
  8
0
100
AcDbCircle
 62
7
  6
CONTINUOUS
 10
10.9363401927
 20
7.0271970551
 40
0.0716218086
100
AcDbArc
 50
210.4767570131
 51
211.2245437705
  0
ARC
  5
315
100
AcDbEntity
  8
0
100
AcDbCircle
 62
7
  6
CONTINUOUS
 10
10.9919229204
 20
7.0339806893
 40
0.0708032905
100
AcDbArc
 50
217.5070773795
 51
218.3292589434
  0
ARC
  5
316
100
AcDbEntity
  8
0
100
AcDbCircle
 62
7
  6
CONTINUOUS
 10
10.9628950621
 20
7.0303172538
 40
0.070177053
100
AcDbArc
 50
214.2009758429
 51
214.998753797
  0
ARC
  5
317
100
AcDbEntity
  8
0
100
AcDbCircle
 62
7
  6
CONTINUOUS
 10
10.7412754956
 20
6.7416605375
 40
0.03724
100
AcDbArc
 50
180.0
 51
270.0
  0
ARC
  5
318
100
AcDbEntity
  8
0
100
AcDbCircle
 62
7
  6
CONTINUOUS
 10
-9.9144445914
 20
10.436697271
 40
21.0481163619
100
AcDbArc
 50
348.0741511495
 51
348.407289674
  0
ARC
  5
319
100
AcDbEntity
  8
0
100
AcDbCircle
 62
7
  6
CONTINUOUS
 10
8.1380045492
 20
8.0314204983
 40
2.5080000028
100
AcDbArc
 50
351.1934452325
 51
354.8127503334
  0
ARC
  5
31A
100
AcDbEntity
  8
0
100
AcDbCircle
 62
7
  6
CONTINUOUS
 10
10.5152167608
 20
8.8386822346
 40
0.6078409296
100
AcDbArc
 50
186.6356334607
 51
200.3029644135
  0
ARC
  5
31B
100
AcDbEntity
  8
0
100
AcDbCircle
 62
7
  6
CONTINUOUS
 10
9.9036712882
 20
8.0685999036
 40
0.4888424103
100
AcDbArc
 50
38.6609554855
 51
64.1509412145
  0
ARC
  5
31C
100
AcDbEntity
  8
0
100
AcDbCircle
 62
7
  6
CONTINUOUS
 10
7.327007316
 20
8.840955607
 40
0.425
100
AcDbArc
 50
15.2096500848
 51
84.2823779725
  0
ARC
  5
31D
100
AcDbEntity
  8
0
100
AcDbCircle
 62
7
  6
CONTINUOUS
 10
9.9933984448
 20
8.1403845754
 40
0.3739337434
100
AcDbArc
 50
14.56496067
 51
38.6609554855
  0
ARC
  5
31E
100
AcDbEntity
  8
0
100
AcDbCircle
 62
7
  6
CONTINUOUS
 10
10.204893145
 20
8.880403166
 40
0.3739337434
100
AcDbArc
 50
232.7092061085
 51
245.3456430447
  0
ARC
  5
31F
100
AcDbEntity
  8
0
100
AcDbCircle
 62
7
  6
CONTINUOUS
 10
10.3190354982
 20
7.8334204992
 40
0.3180000027
100
AcDbArc
 50
354.8127503334
 51
9.669738862
  0
ARC
  5
320
100
AcDbEntity
  8
0
100
AcDbCircle
 62
7
  6
CONTINUOUS
 10
10.4761250409
 20
7.7344205004
 40
0.2330000021
100
AcDbArc
 50
56.140811797
 51
74.4826565545
  0
ARC
  5
321
100
AcDbEntity
  8
0
100
AcDbCircle
 62
7
  6
CONTINUOUS
 10
10.0389274888
 20
8.6624694679
 40
0.1
100
AcDbArc
 50
200.3029644135
 51
232.7092061085
  0
ARC
  5
322
100
AcDbEntity
  8
0
100
AcDbCircle
 62
7
  6
CONTINUOUS
 10
7.8143183383
 20
8.9734432199
 40
0.08
100
AcDbArc
 50
195.2096500848
 51
270.0
  0
ARC
  5
323
100
AcDbEntity
  8
0
100
AcDbCircle
 62
7
  6
CONTINUOUS
 10
7.3773183383
 20
9.3434432199
 40
0.08
100
AcDbArc
 50
180.0
 51
264.2823779725
  0
ARC
  5
324
100
AcDbEntity
  8
0
100
AcDbCircle
 62
7
  6
CONTINUOUS
 10
10.5713983313
 20
7.8764204991
 40
0.0620000037
100
AcDbArc
 50
9.669738862
 51
56.140811797
  0
ARC
  5
325
100
AcDbEntity
  8
0
100
AcDbCircle
 62
7
  6
CONTINUOUS
 10
9.2903352009
 20
8.8734432199
 40
0.02
100
AcDbArc
 50
1.5
 51
90.0
  0
ARC
  5
326
100
AcDbEntity
  8
0
100
AcDbCircle
 62
7
  6
CONTINUOUS
 10
11.6078940191
 20
4.2185276984
 40
1.2799999528
100
AcDbArc
 50
94.0947907333
 51
100.656274462
  0
ARC
  5
327
100
AcDbEntity
  8
0
100
AcDbCircle
 62
7
  6
CONTINUOUS
 10
11.2742787644
 20
5.5590487865
 40
0.69477793
100
AcDbArc
 50
171.4697639457
 51
175.5588642126
  0
ARC
  5
328
100
AcDbEntity
  8
0
100
AcDbCircle
 62
7
  6
CONTINUOUS
 10
11.6121831516
 20
5.6205922462
 40
0.0999998909
100
AcDbArc
 50
184.4411357882
 51
223.0465674151
  0
ARC
  5
329
100
AcDbEntity
  8
0
100
AcDbCircle
 62
7
  6
CONTINUOUS
 10
11.3161303439
 20
5.8091234574
 40
0.1096030385
100
AcDbArc
 50
255.0051205886
 51
259.4271958449
  0
ARC
  5
32A
100
AcDbEntity
  8
0
100
AcDbCircle
 62
7
  6
CONTINUOUS
 10
11.2935530568
 20
5.7912574256
 40
0.1031274599
100
AcDbArc
 50
280.3176048072
 51
290.84736055
  0
ARC
  5
32B
100
AcDbEntity
  8
0
100
AcDbCircle
 62
7
  6
CONTINUOUS
 10
11.2945395448
 20
5.9803300428
 40
0.0978907906
100
AcDbArc
 50
92.3039565427
 51
96.0461280077
  0
ARC
  5
32C
100
AcDbEntity
  8
0
100
AcDbCircle
 62
7
  6
CONTINUOUS
 10
11.2945232701
 20
5.9807281586
 40
0.0974923424
100
AcDbArc
 50
90.0002357039
 51
92.3038055053
  0
ARC
  5
32D
100
AcDbEntity
  8
0
100
AcDbCircle
 62
9
  6
CONTINUOUS
 10
11.313490052
 20
5.7949523366
 40
0.0951880538
100
AcDbArc
 50
254.153870848
 51
259.4243557339
  0
ARC
  5
32E
100
AcDbEntity
  8
0
100
AcDbCircle
 62
7
  6
CONTINUOUS
 10
11.0470354956
 20
7.1992543875
 40
1.7530338866
100
AcDbArc
 50
259.3437255378
 51
280.6562744622
  0
ARC
  5
32F
100
AcDbEntity
  8
0
100
AcDbCircle
 62
7
  6
CONTINUOUS
 10
11.089829133
 20
7.0176911768
 40
0.2674402727
100
AcDbArc
 50
354.0719224913
 51
354.2445277761
  0
ARC
  5
330
100
AcDbEntity
  8
0
100
AcDbCircle
 62
7
  6
CONTINUOUS
 10
11.1934529329
 20
7.0185395308
 40
0.1403283172
100
AcDbArc
 50
348.2946832156
 51
348.6286690607
  0
ARC
  5
331
100
AcDbEntity
  8
0
100
AcDbCircle
 62
7
  6
CONTINUOUS
 10
11.3357622018
 20
7.0739104395
 40
0.101504277
100
AcDbArc
 50
234.8935062894
 51
235.6882188932
  0
ARC
  5
332
100
AcDbEntity
  8
0
100
AcDbCircle
 62
7
  6
CONTINUOUS
 10
11.2081455248
 20
7.0199189236
 40
0.1009324978
100
AcDbArc
 50
342.7983729421
 51
343.2742071961
  0
ARC
  5
333
100
AcDbEntity
  8
0
100
AcDbCircle
 62
7
  6
CONTINUOUS
 10
11.3068138798
 20
7.0714961974
 40
0.0992734311
100
AcDbArc
 50
234.3063763265
 51
235.1070310616
  0
ARC
  5
334
100
AcDbEntity
  8
0
100
AcDbCircle
 62
7
  6
CONTINUOUS
 10
11.2769122558
 20
7.068722311
 40
0.0967568206
100
AcDbArc
 50
233.5720730761
 51
234.379634534
  0
ARC
  5
335
100
AcDbEntity
  8
0
100
AcDbCircle
 62
7
  6
CONTINUOUS
 10
11.2459744305
 20
7.0653160053
 40
0.093612921
100
AcDbArc
 50
232.6778746987
 51
233.4948933163
  0
ARC
  5
336
100
AcDbEntity
  8
0
100
AcDbCircle
 62
7
  6
CONTINUOUS
 10
11.2145222834
 20
7.0618146223
 40
0.0905109362
100
AcDbArc
 50
231.6106266326
 51
232.43561132
  0
ARC
  5
337
100
AcDbEntity
  8
0
100
AcDbCircle
 62
7
  6
CONTINUOUS
 10
11.1824743436
 20
7.0579511449
 40
0.0871146862
100
AcDbArc
 50
230.3556192178
 51
231.1906969936
  0
ARC
  5
338
100
AcDbEntity
  8
0
100
AcDbCircle
 62
7
  6
CONTINUOUS
 10
11.1501843137
 20
7.0539921792
 40
0.0837769283
100
AcDbArc
 50
228.8892995906
 51
229.7313123667
  0
ARC
  5
339
100
AcDbEntity
  8
0
100
AcDbCircle
 62
7
  6
CONTINUOUS
 10
11.1997212639
 20
7.0218208521
 40
0.0836055255
100
AcDbArc
 50
337.6801021554
 51
338.2729867359
  0
ARC
  5
33A
100
AcDbEntity
  8
0
100
AcDbCircle
 62
7
  6
CONTINUOUS
 10
11.1177412953
 20
7.0498835984
 40
0.0804370508
100
AcDbArc
 50
227.1929872633
 51
228.0404266356
  0
ARC
  5
33B
100
AcDbEntity
  8
0
100
AcDbCircle
 62
7
  6
CONTINUOUS
 10
11.0854024488
 20
7.0457346819
 40
0.0772710442
100
AcDbArc
 50
225.2360889131
 51
226.0883441088
  0
ARC
  5
33C
100
AcDbEntity
  8
0
100
AcDbCircle
 62
7
  6
CONTINUOUS
 10
11.1814218785
 20
7.0242447351
 40
0.0752734409
100
AcDbArc
 50
332.9987792536
 51
333.6814814221
  0
ARC
  5
33D
100
AcDbEntity
  8
0
100
AcDbCircle
 62
7
  6
CONTINUOUS
 10
11.0535160567
 20
7.0417219971
 40
0.0745715598
100
AcDbArc
 50
222.9926485976
 51
223.8410432431
  0
ARC
  5
33E
100
AcDbEntity
  8
0
100
AcDbCircle
 62
7
  6
CONTINUOUS
 10
11.0721359025
 20
7.0375149965
 40
0.0719307211
100
AcDbArc
 50
318.7293115405
 51
319.5747805148
  0
ARC
  5
33F
100
AcDbEntity
  8
0
100
AcDbCircle
 62
7
  6
CONTINUOUS
 10
11.1579687904
 20
7.0270556249
 40
0.071344934
100
AcDbArc
 50
328.7739562841
 51
329.5242375739
  0
ARC
  5
340
100
AcDbEntity
  8
0
100
AcDbCircle
 62
7
  6
CONTINUOUS
 10
11.1023180224
 20
7.0338492734
 40
0.070588501
100
AcDbArc
 50
321.6684479993
 51
322.4935041005
  0
ARC
  5
341
100
AcDbEntity
  8
0
100
AcDbCircle
 62
7
  6
CONTINUOUS
 10
11.1312446491
 20
7.0302672052
 40
0.0700918537
100
AcDbArc
 50
325.0048530013
 51
325.8015631062
  0
ARC
  5
342
100
AcDbEntity
  8
0
100
AcDbCircle
 62
7
  6
CONTINUOUS
 10
11.3527954956
 20
6.7416605375
 40
0.03724
100
AcDbArc
 50
270.0
 51
360.0
  0
ARC
  5
343
100
AcDbEntity
  8
0
100
AcDbCircle
 62
7
  6
CONTINUOUS
 10
11.4877235177
 20
6.2271043823
 40
0.0999999992
100
AcDbArc
 50
153.1526561741
 51
191.5927103269
  0
ARC
  5
344
100
AcDbEntity
  8
0
100
AcDbCircle
 62
7
  6
CONTINUOUS
 10
11.3743609302
 20
6.9696604055
 40
0.0690116446
100
AcDbArc
 50
17.0071284881
 51
17.2017468229
  0
ARC
  5
345
100
AcDbEntity
  8
0
100
AcDbCircle
 62
7
  6
CONTINUOUS
 10
11.4040429947
 20
6.9683123543
 40
0.0572894824
100
AcDbArc
 50
22.0473100618
 51
22.3196766136
  0
ARC
  5
346
100
AcDbEntity
  8
0
100
AcDbCircle
 62
7
  6
CONTINUOUS
 10
11.4785231049
 20
6.9490182586
 40
0.0570977886
100
AcDbArc
 50
13.9248653313
 51
14.250649221
  0
ARC
  5
347
100
AcDbEntity
  8
0
100
AcDbCircle
 62
7
  6
CONTINUOUS
 10
11.4799667426
 20
6.9494509531
 40
0.0557878459
100
AcDbArc
 50
311.2662091973
 51
336.6403292476
  0
ARC
  5
348
100
AcDbEntity
  8
0
100
AcDbCircle
 62
7
  6
CONTINUOUS
 10
11.4806731589
 20
6.9491480072
 40
0.0550195806
100
AcDbArc
 50
336.6382665716
 51
340.6642318113
  0
ARC
  5
349
100
AcDbEntity
  8
0
100
AcDbCircle
 62
7
  6
CONTINUOUS
 10
11.481424143
 20
6.9488805411
 40
0.0542223973
100
AcDbArc
 50
340.6681690816
 51
345.2456641651
  0
ARC
  5
34A
100
AcDbEntity
  8
0
100
AcDbCircle
 62
7
  6
CONTINUOUS
 10
11.4822297088
 20
6.9486560287
 40
0.0533862173
100
AcDbArc
 50
345.2584913255
 51
345.6181860702
  0
ARC
  5
34B
100
AcDbEntity
  8
0
100
AcDbCircle
 62
7
  6
CONTINUOUS
 10
11.4806135493
 20
6.9516692051
 40
0.0533032406
100
AcDbArc
 50
45.8705917416
 51
46.0852308161
  0
ARC
  5
34C
100
AcDbEntity
  8
0
100
AcDbCircle
 62
7
  6
CONTINUOUS
 10
11.4259039668
 20
6.9666404532
 40
0.0516043986
100
AcDbArc
 50
26.6810657176
 51
27.0017430931
  0
ARC
  5
34D
100
AcDbEntity
  8
0
100
AcDbCircle
 62
7
  6
CONTINUOUS
 10
11.4782342541
 20
6.9544481242
 40
0.0514294588
100
AcDbArc
 50
42.2307241128
 51
43.715656884
  0
ARC
  5
34E
100
AcDbEntity
  8
0
100
AcDbCircle
 62
7
  6
CONTINUOUS
 10
11.4735632663
 20
6.9573093895
 40
0.049667405
100
AcDbArc
 50
41.0659548701
 51
41.2673857372
  0
ARC
  5
34F
100
AcDbEntity
  8
0
100
AcDbCircle
 62
7
  6
CONTINUOUS
 10
11.4428550321
 20
6.9646747324
 40
0.0489866553
100
AcDbArc
 50
30.8919111634
 51
31.2252061083
  0
ARC
  5
350
100
AcDbEntity
  8
0
100
AcDbCircle
 62
7
  6
CONTINUOUS
 10
11.4662344424
 20
6.9599772464
 40
0.0485209433
100
AcDbArc
 50
38.0650014218
 51
38.3307635226
  0
ARC
  5
351
100
AcDbEntity
  8
0
100
AcDbCircle
 62
7
  6
CONTINUOUS
 10
11.456108799
 20
6.9624458716
 40
0.0481661947
100
AcDbArc
 50
34.6818950651
 51
34.9942391834
  0
ARC
  5
352
100
AcDbEntity
  8
0
100
AcDbCircle
 62
7
  6
CONTINUOUS
 10
11.4388611503
 20
7.0787578642
 40
0.1061251722
100
AcDbArc
 50
236.4271251424
 51
236.6879791575
  0
ARC
  5
353
100
AcDbEntity
  8
0
100
AcDbCircle
 62
7
  6
CONTINUOUS
 10
11.4606861885
 20
7.0784341895
 40
0.1058123937
100
AcDbArc
 50
236.3653829918
 51
236.6265608205
  0
ARC
  5
354
100
AcDbEntity
  8
0
100
AcDbCircle
 62
7
  6
CONTINUOUS
 10
11.4384202272
 20
7.0780941584
 40
0.1053283544
100
AcDbArc
 50
235.9043607488
 51
236.4273113726
  0
ARC
  5
355
100
AcDbEntity
  8
0
100
AcDbCircle
 62
7
  6
CONTINUOUS
 10
11.4150555951
 20
7.0780253109
 40
0.1053217498
100
AcDbArc
 50
235.8428965708
 51
236.6273896447
  0
ARC
  5
356
100
AcDbEntity
  8
0
100
AcDbCircle
 62
7
  6
CONTINUOUS
 10
11.4602790754
 20
7.0778231119
 40
0.1050781208
100
AcDbArc
 50
235.84231916
 51
236.3656470968
  0
ARC
  5
357
100
AcDbEntity
  8
0
100
AcDbCircle
 62
7
  6
CONTINUOUS
 10
11.4807675833
 20
7.0775692005
 40
0.1050006476
100
AcDbArc
 50
236.1794949211
 51
236.441406039
  0
ARC
  5
358
100
AcDbEntity
  8
0
100
AcDbCircle
 62
7
  6
CONTINUOUS
 10
11.3900004188
 20
7.077180135
 40
0.1045327784
100
AcDbArc
 50
235.6556159547
 51
236.4422010119
  0
ARC
  5
359
100
AcDbEntity
  8
0
100
AcDbCircle
 62
7
  6
CONTINUOUS
 10
11.4803783082
 20
7.0769890811
 40
0.1043020253
100
AcDbArc
 50
235.6551015191
 51
236.1797770749
  0
ARC
  5
35A
100
AcDbEntity
  8
0
100
AcDbCircle
 62
7
  6
CONTINUOUS
 10
11.4990665925
 20
7.0762560329
 40
0.1038005322
100
AcDbArc
 50
235.8673132312
 51
236.1301407188
  0
ARC
  5
35B
100
AcDbEntity
  8
0
100
AcDbCircle
 62
7
  6
CONTINUOUS
 10
11.3635439017
 20
7.0758260667
 40
0.1032822235
100
AcDbArc
 50
235.3407646069
 51
236.1307768093
  0
ARC
  5
35C
100
AcDbEntity
  8
0
100
AcDbCircle
 62
7
  6
CONTINUOUS
 10
11.4986052743
 20
7.075575514
 40
0.1029783884
100
AcDbArc
 50
235.3401266422
 51
235.8673159188
  0
ARC
  5
35D
100
AcDbEntity
  8
0
100
AcDbCircle
 62
7
  6
CONTINUOUS
 10
11.5148951515
 20
7.0736284913
 40
0.101161088
100
AcDbArc
 50
234.8923305483
 51
235.423165211
  0
ARC
  5
35E
100
AcDbEntity
  8
0
100
AcDbCircle
 62
7
  6
CONTINUOUS
 10
11.6673760399
 20
7.0176915909
 40
0.2674436285
100
AcDbArc
 50
185.7554891909
 51
185.9280902813
  0
ARC
  5
35F
100
AcDbEntity
  8
0
100
AcDbCircle
 62
7
  6
CONTINUOUS
 10
11.5591072587
 20
7.0185395089
 40
0.1403280141
100
AcDbArc
 50
191.3713473311
 51
191.7053344056
  0
ARC
  5
360
100
AcDbEntity
  8
0
100
AcDbCircle
 62
7
  6
CONTINUOUS
 10
11.5155286237
 20
7.0745490667
 40
0.1022785608
100
AcDbArc
 50
235.4236454366
 51
235.68753818
  0
ARC
  5
361
100
AcDbEntity
  8
0
100
AcDbCircle
 62
7
  6
CONTINUOUS
 10
11.5367144656
 20
7.0199219792
 40
0.1009439269
100
AcDbArc
 50
196.725643273
 51
197.2013863205
  0
ARC
  5
362
100
AcDbEntity
  8
0
100
AcDbCircle
 62
7
  6
CONTINUOUS
 10
11.5297258612
 20
7.0719580681
 40
0.0998376794
100
AcDbArc
 50
234.8400079831
 51
235.1063198645
  0
ARC
  5
363
100
AcDbEntity
  8
0
100
AcDbCircle
 62
7
  6
CONTINUOUS
 10
11.5292589595
 20
7.0712948082
 40
0.0990265624
100
AcDbArc
 50
234.3055146561
 51
234.8398738666
  0
ARC
  5
364
100
AcDbEntity
  8
0
100
AcDbCircle
 62
7
  6
CONTINUOUS
 10
11.5419875905
 20
7.0690928686
 40
0.0972128912
100
AcDbArc
 50
234.1103922992
 51
234.3790454616
  0
ARC
  5
365
100
AcDbEntity
  8
0
100
AcDbCircle
 62
7
  6
CONTINUOUS
 10
11.5415476113
 20
7.0684843123
 40
0.0964619436
100
AcDbArc
 50
233.5712823062
 51
234.1102123419
  0
ARC
  5
366
100
AcDbEntity
  8
0
100
AcDbCircle
 62
7
  6
CONTINUOUS
 10
11.5525051913
 20
7.0663040615
 40
0.0948441408
100
AcDbArc
 50
233.2444832483
 51
233.4934230639
  0
ARC
  5
367
100
AcDbEntity
  8
0
100
AcDbCircle
 62
7
  6
CONTINUOUS
 10
11.5516323829
 20
7.0651317617
 40
0.0933826086
100
AcDbArc
 50
232.6768035859
 51
233.2431239261
  0
ARC
  5
368
100
AcDbEntity
  8
0
100
AcDbCircle
 62
7
  6
CONTINUOUS
 10
11.560083451
 20
7.0620775784
 40
0.0908436289
100
AcDbArc
 50
232.2335303314
 51
232.4342543287
  0
ARC
  5
369
100
AcDbEntity
  8
0
100
AcDbCircle
 62
7
  6
CONTINUOUS
 10
11.5598981421
 20
7.0618391152
 40
0.0905416291
100
AcDbArc
 50
231.6109949193
 51
232.2338111207
  0
ARC
  5
36A
100
AcDbEntity
  8
0
100
AcDbCircle
 62
7
  6
CONTINUOUS
 10
11.5657262804
 20
7.0578820742
 40
0.087025716
100
AcDbArc
 50
230.3550982663
 51
231.0424696864
  0
ARC
  5
36B
100
AcDbEntity
  8
0
100
AcDbCircle
 62
7
  6
CONTINUOUS
 10
11.5697188347
 20
7.0540655099
 40
0.083873302
100
AcDbArc
 50
228.8898592606
 51
229.639457374
  0
ARC
  5
36C
100
AcDbEntity
  8
0
100
AcDbCircle
 62
7
  6
CONTINUOUS
 10
11.5343866978
 20
7.0218228634
 40
0.0836106791
100
AcDbArc
 50
201.7270872317
 51
202.3199054155
  0
ARC
  5
36D
100
AcDbEntity
  8
0
100
AcDbCircle
 62
7
  6
CONTINUOUS
 10
11.5713875346
 20
7.049846113
 40
0.0803869324
100
AcDbArc
 50
227.192387248
 51
228.0419911527
  0
ARC
  5
36E
100
AcDbEntity
  8
0
100
AcDbCircle
 62
7
  6
CONTINUOUS
 10
11.5714365524
 20
7.0460010619
 40
0.0776445553
100
AcDbArc
 50
225.2373780661
 51
225.5197905339
  0
ARC
  5
36F
100
AcDbEntity
  8
0
100
AcDbCircle
 62
7
  6
CONTINUOUS
 10
11.5712961449
 20
7.0458611573
 40
0.0774463562
100
AcDbArc
 50
225.5213839531
 51
226.0890262397
  0
ARC
  5
370
100
AcDbEntity
  8
0
100
AcDbCircle
 62
7
  6
CONTINUOUS
 10
11.5393340614
 20
7.0244364321
 40
0.0757013901
100
AcDbArc
 50
206.3201966889
 51
206.7731187124
  0
ARC
  5
371
100
AcDbEntity
  8
0
100
AcDbCircle
 62
7
  6
CONTINUOUS
 10
11.5385549512
 20
7.0240439636
 40
0.0748290119
100
AcDbArc
 50
206.7735491667
 51
207.0021865355
  0
ARC
  5
372
100
AcDbEntity
  8
0
100
AcDbCircle
 62
7
  6
CONTINUOUS
 10
11.5692423105
 20
7.0418382181
 40
0.0747430345
100
AcDbArc
 50
222.9917953003
 51
223.2734545778
  0
ARC
  5
373
100
AcDbEntity
  8
0
100
AcDbCircle
 62
7
  6
CONTINUOUS
 10
11.5690583119
 20
7.0416648196
 40
0.0744902054
100
AcDbArc
 50
223.2733605976
 51
223.8396376597
  0
ARC
  5
374
100
AcDbEntity
  8
0
100
AcDbCircle
 62
7
  6
CONTINUOUS
 10
11.5655236737
 20
7.038000727
 40
0.0726756356
100
AcDbArc
 50
220.4280613641
 51
220.7065998442
  0
ARC
  5
375
100
AcDbEntity
  8
0
100
AcDbCircle
 62
7
  6
CONTINUOUS
 10
11.5649623655
 20
7.0375191459
 40
0.0719360505
100
AcDbArc
 50
220.7074044355
 51
221.2708704161
  0
ARC
  5
376
100
AcDbEntity
  8
0
100
AcDbCircle
 62
7
  6
CONTINUOUS
 10
11.5460716762
 20
7.0272435939
 40
0.0717135526
100
AcDbArc
 50
210.476656197
 51
210.9742860363
  0
ARC
  5
377
100
AcDbEntity
  8
0
100
AcDbCircle
 62
7
  6
CONTINUOUS
 10
11.5456071351
 20
7.0269657306
 40
0.0711722526
100
AcDbArc
 50
210.974960744
 51
211.2254214338
  0
ARC
  5
378
100
AcDbEntity
  8
0
100
AcDbCircle
 62
7
  6
CONTINUOUS
 10
11.5600404365
 20
7.0341361306
 40
0.0710579399
100
AcDbArc
 50
217.5074763714
 51
217.7804653972
  0
ARC
  5
379
100
AcDbEntity
  8
0
100
AcDbCircle
 62
7
  6
CONTINUOUS
 10
11.5535778273
 20
7.0306731089
 40
0.070809329
100
AcDbArc
 50
214.2010496663
 51
214.4640303186
  0
ARC
  5
37A
100
AcDbEntity
  8
0
100
AcDbCircle
 62
7
  6
CONTINUOUS
 10
11.559595092
 20
7.0337900864
 40
0.0704939559
100
AcDbArc
 50
217.7799240341
 51
218.3305177436
  0
ARC
  5
37B
100
AcDbEntity
  8
0
100
AcDbCircle
 62
7
  6
CONTINUOUS
 10
11.5529273314
 20
7.0302265413
 40
0.0700202995
100
AcDbArc
 50
214.463966078
 51
214.9956535486
  0
ARC
  5
37C
100
AcDbEntity
  8
0
100
AcDbCircle
 62
7
  6
CONTINUOUS
 10
13.2243259124
 20
7.2434205072
 40
2.6389999968
100
AcDbArc
 50
171.1934452325
 51
177.6954064276
  0
ARC
  5
37D
100
AcDbEntity
  8
0
100
AcDbCircle
 62
7
  6
CONTINUOUS
 10
12.4209762074
 20
7.2757508754
 40
1.8349999961
100
AcDbArc
 50
177.6954064276
 51
186.9507940632
  0
ARC
  5
37E
100
AcDbEntity
  8
0
100
AcDbCircle
 62
7
  6
CONTINUOUS
 10
32.0085155826
 20
10.436697271
 40
21.0481163619
100
AcDbArc
 50
191.592710326
 51
191.9258488505
  0
ARC
  5
37F
100
AcDbEntity
  8
0
100
AcDbCircle
 62
7
  6
CONTINUOUS
 10
13.956066442
 20
8.0314204983
 40
2.5080000028
100
AcDbArc
 50
185.1872496666
 51
188.8065547675
  0
ARC
  5
380
100
AcDbEntity
  8
0
100
AcDbCircle
 62
7
  6
CONTINUOUS
 10
11.5788542304
 20
8.8386822346
 40
0.6078409296
100
AcDbArc
 50
339.6970355865
 51
353.3643665393
  0
ARC
  5
381
100
AcDbEntity
  8
0
100
AcDbCircle
 62
7
  6
CONTINUOUS
 10
12.1903997029
 20
8.0685999036
 40
0.4888424103
100
AcDbArc
 50
115.8490587855
 51
141.3390445145
  0
ARC
  5
382
100
AcDbEntity
  8
0
100
AcDbCircle
 62
7
  6
CONTINUOUS
 10
14.7676293606
 20
8.840955607
 40
0.425
100
AcDbArc
 50
95.7176220275
 51
164.7903499152
  0
ARC
  5
383
100
AcDbEntity
  8
0
100
AcDbCircle
 62
7
  6
CONTINUOUS
 10
12.1006725464
 20
8.1403845754
 40
0.3739337434
100
AcDbArc
 50
141.3390445145
 51
165.43503933
  0
ARC
  5
384
100
AcDbEntity
  8
0
100
AcDbCircle
 62
7
  6
CONTINUOUS
 10
11.8891778462
 20
8.880403166
 40
0.3739337434
100
AcDbArc
 50
294.6543569553
 51
307.2907938915
  0
ARC
  5
385
100
AcDbEntity
  8
0
100
AcDbCircle
 62
7
  6
CONTINUOUS
 10
11.7750354929
 20
7.8334204992
 40
0.3180000027
100
AcDbArc
 50
170.330261138
 51
185.1872496666
  0
ARC
  5
386
100
AcDbEntity
  8
0
100
AcDbCircle
 62
7
  6
CONTINUOUS
 10
11.6179459502
 20
7.7344205004
 40
0.2330000021
100
AcDbArc
 50
105.5173434455
 51
123.859188203
  0
ARC
  5
387
100
AcDbEntity
  8
0
100
AcDbCircle
 62
7
  6
CONTINUOUS
 10
12.0551435024
 20
8.6624694679
 40
0.1
100
AcDbArc
 50
307.2907938915
 51
339.6970355865
  0
ARC
  5
388
100
AcDbEntity
  8
0
100
AcDbCircle
 62
7
  6
CONTINUOUS
 10
14.2803183383
 20
8.9734432199
 40
0.08
100
AcDbArc
 50
270.0
 51
344.7903499152
  0
ARC
  5
389
100
AcDbEntity
  8
0
100
AcDbCircle
 62
7
  6
CONTINUOUS
 10
14.7173183383
 20
9.3434432199
 40
0.08
100
AcDbArc
 50
275.7176220275
 51
360.0
  0
ARC
  5
38A
100
AcDbEntity
  8
0
100
AcDbCircle
 62
7
  6
CONTINUOUS
 10
11.5226726599
 20
7.8764204991
 40
0.0620000037
100
AcDbArc
 50
123.859188203
 51
170.330261138
  0
ARC
  5
38B
100
AcDbEntity
  8
0
100
AcDbCircle
 62
7
  6
CONTINUOUS
 10
12.8043014757
 20
8.8734432199
 40
0.02
100
AcDbArc
 50
90.0
 51
178.5
  0
SPLINE
  5
38C
100
AcDbEntity
  8
0
100
AcDbSpline
 62
7
  6
CONTINUOUS
 70
0
 71
3
 72
27
 73
23
 74
0
 42
0.0000001
 43
0.0000001
 44
0.0000000001
 40
0.0
 40
0.0
 40
0.0
 40
0.0
 40
0.0274656366
 40
0.0550427969
 40
0.0827698402
 40
0.1106788659
 40
0.1388042955
 40
0.1671788481
 40
0.1958330479
 40
0.2247944731
 40
0.2837036655
 40
0.3440705175
 40
0.4059431173
 40
0.4692776172
 40
0.5339413008
 40
0.599722114
 40
0.6663432487
 40
0.7334802932
 40
0.8007801781
 40
0.834385285
 40
0.8678957979
 40
1.0
 40
1.0
 40
1.0
 40
1.0
 10
10.7980511359
 20
6.0650598031
 30
0.0
 10
10.8008175999
 20
6.0645436045
 30
0.0
 10
10.8063238861
 20
6.0632932998
 30
0.0
 10
10.8144340843
 20
6.0607873576
 30
0.0
 10
10.8223766885
 20
6.0576653159
 30
0.0
 10
10.8301202227
 20
6.0539473244
 30
0.0
 10
10.8376374067
 20
6.0496558912
 30
0.0
 10
10.8449043038
 20
6.044814792
 30
0.0
 10
10.8519002954
 20
6.0394480948
 30
0.0
 10
10.8608915823
 20
6.0315822276
 30
0.0
 10
10.8713656387
 20
6.0205270353
 30
0.0
 10
10.8825179078
 20
6.0056438102
 30
0.0
 10
10.8922434893
 20
5.9892648326
 30
0.0
 10
10.9004637743
 20
5.9715983414
 30
0.0
 10
10.9071117928
 20
5.9528593217
 30
0.0
 10
10.9121299389
 20
5.933273826
 30
0.0
 10
10.915472651
 20
5.9130781501
 30
0.0
 10
10.9171085004
 20
5.8925183142
 30
0.0
 10
10.9170361239
 20
5.8752790131
 30
0.0
 10
10.9161133542
 20
5.8615329058
 30
0.0
 10
10.9138902286
 20
5.8412420218
 30
0.0
 10
10.9102614714
 20
5.8245415585
 30
0.0
 10
10.9061920094
 20
5.8116319839
 30
0.0
  0
SPLINE
  5
38D
100
AcDbEntity
  8
0
100
AcDbSpline
 62
7
  6
CONTINUOUS
 70
0
 71
3
 72
51
 73
47
 74
0
 42
0.0000001
 43
0.0000001
 44
0.0000000001
 40
0.0
 40
0.0
 40
0.0
 40
0.0
 40
0.01354978
 40
0.0271188371
 40
0.0407276817
 40
0.0543951503
 40
0.0681402883
 40
0.0819814784
 40
0.0959362268
 40
0.1100210714
 40
0.1242514068
 40
0.1386411566
 40
0.1532025987
 40
0.1679463206
 40
0.1980032867
 40
0.2288676583
 40
0.2605506907
 40
0.2930305947
 40
0.3262548405
 40
0.3601431737
 40
0.3945917588
 40
0.4294775238
 40
0.4646628671
 40
0.5000004292
 40
0.5353379844
 40
0.5705233063
 40
0.6054090399
 40
0.6398575799
 40
0.6737458545
 40
0.7069700381
 40
0.7394498664
 40
0.7711328177
 40
0.8019971076
 40
0.8320539908
 40
0.8467976705
 40
0.8613590743
 40
0.8757487857
 40
0.8899790841
 40
0.904063896
 40
0.9180186142
 40
0.9318597764
 40
0.9456048924
 40
0.9592723425
 40
0.9728811711
 40
0.9864502261
 40
1.0
 40
1.0
 40
1.0
 40
1.0
 10
10.2107313537
 20
6.2257205009
 30
0.0
 10
10.2149687011
 20
6.2257205009
 30
0.0
 10
10.2234522665
 20
6.2254307163
 30
0.0
 10
10.2361314875
 20
6.2241290001
 30
0.0
 10
10.2487303768
 20
6.2219664484
 30
0.0
 10
10.261209434
 20
6.2189525999
 30
0.0
 10
10.2735317226
 20
6.215100775
 30
0.0
 10
10.2856623755
 20
6.2104272125
 30
0.0
 10
10.2975688567
 20
6.2049504142
 30
0.0
 10
10.3092210127
 20
6.1986908793
 30
0.0
 10
10.3205911427
 20
6.1916707345
 30
0.0
 10
10.3316535824
 20
6.1839132941
 30
0.0
 10
10.3423849203
 20
6.1754423818
 30
0.0
 10
10.3563095165
 20
6.1631535639
 30
0.0
 10
10.3727726191
 20
6.1460932936
 30
0.0
 10
10.3907426371
 20
6.1233284531
 30
0.0
 10
10.4069304765
 20
6.0983585665
 30
0.0
 10
10.4212172235
 20
6.071420702
 30
0.0
 10
10.4334981658
 20
6.0427623884
 30
0.0
 10
10.4436805453
 20
6.0126449385
 30
0.0
 10
10.4516857048
 20
5.9813423125
 30
0.0
 10
10.4574502551
 20
5.9491398494
 30
0.0
 10
10.4609278622
 20
5.9163321166
 30
0.0
 10
10.462090251
 20
5.8832200998
 30
0.0
 10
10.4609278116
 20
5.850108091
 30
0.0
 10
10.4574501385
 20
5.8173003842
 30
0.0
 10
10.4516855495
 20
5.7850979594
 30
0.0
 10
10.4436803475
 20
5.7537953874
 30
0.0
 10
10.4334979262
 20
5.7236780069
 30
0.0
 10
10.4212169716
 20
5.6950197656
 30
0.0
 10
10.4069302114
 20
5.6680819853
 30
0.0
 10
10.3907423716
 20
5.6431121886
 30
0.0
 10
10.3727723776
 20
5.620347427
 30
0.0
 10
10.356309294
 20
5.6032872287
 30
0.0
 10
10.3423847269
 20
5.5909984551
 30
0.0
 10
10.331653407
 20
5.58252758
 30
0.0
 10
10.3205909904
 20
5.574770169
 30
0.0
 10
10.3092208858
 20
5.5677500474
 30
0.0
 10
10.2975687525
 20
5.5614905363
 30
0.0
 10
10.285662294
 20
5.556013757
 30
0.0
 10
10.2735316637
 20
5.5513402054
 30
0.0
 10
10.2612093943
 20
5.5474883908
 30
0.0
 10
10.2487303536
 20
5.5444745498
 30
0.0
 10
10.2361314757
 20
5.5423119993
 30
0.0
 10
10.2234522619
 20
5.5410102861
 30
0.0
 10
10.2149686992
 20
5.5407205009
 30
0.0
 10
10.2107313537
 20
5.5407205009
 30
0.0
  0
SPLINE
  5
38E
100
AcDbEntity
  8
0
100
AcDbSpline
 62
7
  6
CONTINUOUS
 70
0
 71
3
 72
51
 73
47
 74
0
 42
0.0000001
 43
0.0000001
 44
0.0000000001
 40
0.0
 40
0.0
 40
0.0
 40
0.0
 40
0.01354978
 40
0.0271188371
 40
0.0407276817
 40
0.0543951503
 40
0.0681402883
 40
0.0819814784
 40
0.0959362268
 40
0.1100210714
 40
0.1242514068
 40
0.1386411566
 40
0.1532025987
 40
0.1679463206
 40
0.1980032867
 40
0.2288676583
 40
0.2605506907
 40
0.2930305947
 40
0.3262548405
 40
0.3601431737
 40
0.3945917588
 40
0.4294775238
 40
0.4646628671
 40
0.5000004292
 40
0.5353379844
 40
0.5705233063
 40
0.6054090399
 40
0.6398575799
 40
0.6737458545
 40
0.7069700381
 40
0.7394498664
 40
0.7711328177
 40
0.8019971076
 40
0.8320539908
 40
0.8467976705
 40
0.8613590743
 40
0.8757487857
 40
0.8899790841
 40
0.904063896
 40
0.9180186142
 40
0.9318597764
 40
0.9456048924
 40
0.9592723425
 40
0.9728811711
 40
0.9864502261
 40
1.0
 40
1.0
 40
1.0
 40
1.0
 10
10.2107313537
 20
5.5407205009
 30
0.0
 10
10.2064940063
 20
5.5407205009
 30
0.0
 10
10.1980104409
 20
5.5410102856
 30
0.0
 10
10.1853312199
 20
5.5423120018
 30
0.0
 10
10.1727323306
 20
5.5444745535
 30
0.0
 10
10.1602532734
 20
5.547488402
 30
0.0
 10
10.1479309848
 20
5.5513402269
 30
0.0
 10
10.1358003318
 20
5.5560137894
 30
0.0
 10
10.1238938507
 20
5.5614905877
 30
0.0
 10
10.1122416947
 20
5.5677501226
 30
0.0
 10
10.1008715647
 20
5.5747702674
 30
0.0
 10
10.089809125
 20
5.5825277078
 30
0.0
 10
10.0790777871
 20
5.5909986201
 30
0.0
 10
10.0651531909
 20
5.603287438
 30
0.0
 10
10.0486900883
 20
5.6203477083
 30
0.0
 10
10.0307200703
 20
5.6431125488
 30
0.0
 10
10.0145322309
 20
5.6680824354
 30
0.0
 10
10.0002454839
 20
5.6950202999
 30
0.0
 10
9.9879645416
 20
5.7236786135
 30
0.0
 10
9.9777821621
 20
5.7537960633
 30
0.0
 10
9.9697770026
 20
5.7850986893
 30
0.0
 10
9.9640124523
 20
5.8173011525
 30
0.0
 10
9.9605348452
 20
5.8501088853
 30
0.0
 10
9.9593724564
 20
5.8832209021
 30
0.0
 10
9.9605348958
 20
5.9163329109
 30
0.0
 10
9.9640125689
 20
5.9491406177
 30
0.0
 10
9.9697771579
 20
5.9813430425
 30
0.0
 10
9.9777823599
 20
6.0126456145
 30
0.0
 10
9.9879647812
 20
6.042762995
 30
0.0
 10
10.0002457358
 20
6.0714212363
 30
0.0
 10
10.014532496
 20
6.0983590166
 30
0.0
 10
10.0307203358
 20
6.1233288133
 30
0.0
 10
10.0486903298
 20
6.1460935749
 30
0.0
 10
10.0651534134
 20
6.1631537732
 30
0.0
 10
10.0790779805
 20
6.1754425468
 30
0.0
 10
10.0898093004
 20
6.1839134219
 30
0.0
 10
10.100871717
 20
6.1916708329
 30
0.0
 10
10.1122418216
 20
6.1986909545
 30
0.0
 10
10.1238939549
 20
6.2049504656
 30
0.0
 10
10.1358004134
 20
6.2104272449
 30
0.0
 10
10.1479310437
 20
6.2151007965
 30
0.0
 10
10.1602533131
 20
6.2189526111
 30
0.0
 10
10.1727323538
 20
6.2219664521
 30
0.0
 10
10.1853312317
 20
6.2241290026
 30
0.0
 10
10.1980104454
 20
6.2254307158
 30
0.0
 10
10.2064940082
 20
6.2257205009
 30
0.0
 10
10.2107313537
 20
6.2257205009
 30
0.0
  0
SPLINE
  5
38F
100
AcDbEntity
  8
0
100
AcDbSpline
 62
7
  6
CONTINUOUS
 70
0
 71
3
 72
27
 73
23
 74
0
 42
0.0000001
 43
0.0000001
 44
0.0000000001
 40
0.0
 40
0.0
 40
0.0
 40
0.0
 40
0.1320958377
 40
0.1656051966
 40
0.1992094869
 40
0.2665086915
 40
0.3336461601
 40
0.4002685777
 40
0.4660512461
 40
0.5307170301
 40
0.5940536379
 40
0.6559280746
 40
0.7162963289
 40
0.7752063589
 40
0.8041680228
 40
0.8328223064
 40
0.8611968118
 40
0.8893221259
 40
0.9172309504
 40
0.9449576871
 40
0.9725347005
 40
1.0
 40
1.0
 40
1.0
 40
1.0
 10
11.1879059697
 20
5.8115464379
 30
0.0
 10
11.1838303495
 20
5.8244573075
 30
0.0
 10
11.1801946818
 20
5.8411604614
 30
0.0
 10
11.1779644388
 20
5.8614554819
 30
0.0
 10
11.1770371657
 20
5.8752050413
 30
0.0
 10
11.1769597348
 20
5.8924492465
 30
0.0
 10
11.1785905502
 20
5.9130156304
 30
0.0
 10
11.1819292546
 20
5.9332183963
 30
0.0
 10
11.1869444105
 20
5.9528113053
 30
0.0
 10
11.1935905032
 20
5.971557827
 30
0.0
 10
11.2018098566
 20
5.989231709
 30
0.0
 10
11.2115354814
 20
6.005617769
 30
0.0
 10
11.2226887289
 20
6.0205075714
 30
0.0
 10
11.2331643509
 20
6.0315677659
 30
0.0
 10
11.2421573177
 20
6.0394371859
 30
0.0
 10
11.2491547339
 20
6.0448062984
 30
0.0
 10
11.2564232381
 20
6.0496495663
 30
0.0
 10
11.263942207
 20
6.053942893
 30
0.0
 10
11.2716876817
 20
6.0576624869
 30
0.0
 10
11.2796323762
 20
6.060785838
 30
0.0
 10
11.2877447876
 20
6.0632927374
 30
0.0
 10
11.2932526189
 20
6.0645434604
 30
0.0
 10
11.2960198553
 20
6.0650598031
 30
0.0
  0
SPLINE
  5
390
100
AcDbEntity
  8
0
100
AcDbSpline
 62
7
  6
CONTINUOUS
 70
0
 71
3
 72
51
 73
47
 74
0
 42
0.0000001
 43
0.0000001
 44
0.0000000001
 40
0.0
 40
0.0
 40
0.0
 40
0.0
 40
0.01354978
 40
0.0271188371
 40
0.0407276817
 40
0.0543951503
 40
0.0681402883
 40
0.0819814784
 40
0.0959362268
 40
0.1100210714
 40
0.1242514068
 40
0.1386411566
 40
0.1532025987
 40
0.1679463206
 40
0.1980032867
 40
0.2288676583
 40
0.2605506907
 40
0.2930305947
 40
0.3262548405
 40
0.3601431737
 40
0.3945917588
 40
0.4294775238
 40
0.4646628671
 40
0.5000004292
 40
0.5353379844
 40
0.5705233063
 40
0.6054090399
 40
0.6398575799
 40
0.6737458545
 40
0.7069700381
 40
0.7394498664
 40
0.7711328177
 40
0.8019971076
 40
0.8320539908
 40
0.8467976705
 40
0.8613590743
 40
0.8757487857
 40
0.8899790841
 40
0.904063896
 40
0.9180186142
 40
0.9318597764
 40
0.9456048924
 40
0.9592723425
 40
0.9728811711
 40
0.9864502261
 40
1.0
 40
1.0
 40
1.0
 40
1.0
 10
11.8833396374
 20
6.2257205009
 30
0.0
 10
11.8875769848
 20
6.2257205009
 30
0.0
 10
11.8960605502
 20
6.2254307163
 30
0.0
 10
11.9087397713
 20
6.2241290001
 30
0.0
 10
11.9213386606
 20
6.2219664484
 30
0.0
 10
11.9338177178
 20
6.2189525999
 30
0.0
 10
11.9461400064
 20
6.215100775
 30
0.0
 10
11.9582706593
 20
6.2104272125
 30
0.0
 10
11.9701771404
 20
6.2049504142
 30
0.0
 10
11.9818292965
 20
6.1986908793
 30
0.0
 10
11.9931994264
 20
6.1916707345
 30
0.0
 10
12.0042618661
 20
6.1839132941
 30
0.0
 10
12.014993204
 20
6.1754423818
 30
0.0
 10
12.0289178002
 20
6.1631535639
 30
0.0
 10
12.0453809028
 20
6.1460932936
 30
0.0
 10
12.0633509209
 20
6.1233284531
 30
0.0
 10
12.0795387602
 20
6.0983585665
 30
0.0
 10
12.0938255072
 20
6.071420702
 30
0.0
 10
12.1061064495
 20
6.0427623884
 30
0.0
 10
12.1162888291
 20
6.0126449385
 30
0.0
 10
12.1242939886
 20
5.9813423125
 30
0.0
 10
12.1300585389
 20
5.9491398494
 30
0.0
 10
12.1335361459
 20
5.9163321166
 30
0.0
 10
12.1346985348
 20
5.8832200998
 30
0.0
 10
12.1335360953
 20
5.850108091
 30
0.0
 10
12.1300584222
 20
5.8173003842
 30
0.0
 10
12.1242938333
 20
5.7850979594
 30
0.0
 10
12.1162886312
 20
5.7537953874
 30
0.0
 10
12.1061062099
 20
5.7236780069
 30
0.0
 10
12.0938252554
 20
5.6950197656
 30
0.0
 10
12.0795384951
 20
5.6680819853
 30
0.0
 10
12.0633506554
 20
5.6431121886
 30
0.0
 10
12.0453806614
 20
5.620347427
 30
0.0
 10
12.0289175778
 20
5.6032872287
 30
0.0
 10
12.0149930107
 20
5.5909984551
 30
0.0
 10
12.0042616907
 20
5.58252758
 30
0.0
 10
11.9931992741
 20
5.574770169
 30
0.0
 10
11.9818291696
 20
5.5677500474
 30
0.0
 10
11.9701770362
 20
5.5614905363
 30
0.0
 10
11.9582705778
 20
5.556013757
 30
0.0
 10
11.9461399475
 20
5.5513402054
 30
0.0
 10
11.9338176781
 20
5.5474883908
 30
0.0
 10
11.9213386373
 20
5.5444745498
 30
0.0
 10
11.9087397595
 20
5.5423119993
 30
0.0
 10
11.8960605457
 20
5.5410102861
 30
0.0
 10
11.8875769829
 20
5.5407205009
 30
0.0
 10
11.8833396374
 20
5.5407205009
 30
0.0
  0
SPLINE
  5
391
100
AcDbEntity
  8
0
100
AcDbSpline
 62
7
  6
CONTINUOUS
 70
0
 71
3
 72
51
 73
47
 74
0
 42
0.0000001
 43
0.0000001
 44
0.0000000001
 40
0.0
 40
0.0
 40
0.0
 40
0.0
 40
0.01354978
 40
0.0271188371
 40
0.0407276817
 40
0.0543951503
 40
0.0681402883
 40
0.0819814784
 40
0.0959362268
 40
0.1100210714
 40
0.1242514068
 40
0.1386411566
 40
0.1532025987
 40
0.1679463206
 40
0.1980032867
 40
0.2288676583
 40
0.2605506907
 40
0.2930305947
 40
0.3262548405
 40
0.3601431737
 40
0.3945917588
 40
0.4294775238
 40
0.4646628671
 40
0.5000004292
 40
0.5353379844
 40
0.5705233063
 40
0.6054090399
 40
0.6398575799
 40
0.6737458545
 40
0.7069700381
 40
0.7394498664
 40
0.7711328177
 40
0.8019971076
 40
0.8320539908
 40
0.8467976705
 40
0.8613590743
 40
0.8757487857
 40
0.8899790841
 40
0.904063896
 40
0.9180186142
 40
0.9318597764
 40
0.9456048924
 40
0.9592723425
 40
0.9728811711
 40
0.9864502261
 40
1.0
 40
1.0
 40
1.0
 40
1.0
 10
11.8833396374
 20
5.5407205009
 30
0.0
 10
11.87910229
 20
5.5407205009
 30
0.0
 10
11.8706187246
 20
5.5410102856
 30
0.0
 10
11.8579395036
 20
5.5423120018
 30
0.0
 10
11.8453406143
 20
5.5444745535
 30
0.0
 10
11.8328615571
 20
5.547488402
 30
0.0
 10
11.8205392685
 20
5.5513402269
 30
0.0
 10
11.8084086156
 20
5.5560137894
 30
0.0
 10
11.7965021345
 20
5.5614905877
 30
0.0
 10
11.7848499784
 20
5.5677501226
 30
0.0
 10
11.7734798484
 20
5.5747702674
 30
0.0
 10
11.7624174088
 20
5.5825277078
 30
0.0
 10
11.7516860709
 20
5.5909986201
 30
0.0
 10
11.7377614746
 20
5.603287438
 30
0.0
 10
11.721298372
 20
5.6203477083
 30
0.0
 10
11.703328354
 20
5.6431125488
 30
0.0
 10
11.6871405147
 20
5.6680824354
 30
0.0
 10
11.6728537676
 20
5.6950202999
 30
0.0
 10
11.6605728254
 20
5.7236786135
 30
0.0
 10
11.6503904458
 20
5.7537960633
 30
0.0
 10
11.6423852863
 20
5.7850986893
 30
0.0
 10
11.636620736
 20
5.8173011525
 30
0.0
 10
11.633143129
 20
5.8501088853
 30
0.0
 10
11.6319807401
 20
5.8832209021
 30
0.0
 10
11.6331431795
 20
5.9163329109
 30
0.0
 10
11.6366208527
 20
5.9491406177
 30
0.0
 10
11.6423854416
 20
5.9813430425
 30
0.0
 10
11.6503906436
 20
6.0126456145
 30
0.0
 10
11.660573065
 20
6.042762995
 30
0.0
 10
11.6728540195
 20
6.0714212363
 30
0.0
 10
11.6871407798
 20
6.0983590166
 30
0.0
 10
11.7033286195
 20
6.1233288133
 30
0.0
 10
11.7212986135
 20
6.1460935749
 30
0.0
 10
11.7377616971
 20
6.1631537732
 30
0.0
 10
11.7516862642
 20
6.1754425468
 30
0.0
 10
11.7624175841
 20
6.1839134219
 30
0.0
 10
11.7734800008
 20
6.1916708329
 30
0.0
 10
11.7848501053
 20
6.1986909545
 30
0.0
 10
11.7965022387
 20
6.2049504656
 30
0.0
 10
11.8084086971
 20
6.2104272449
 30
0.0
 10
11.8205393274
 20
6.2151007965
 30
0.0
 10
11.8328615968
 20
6.2189526111
 30
0.0
 10
11.8453406376
 20
6.2219664521
 30
0.0
 10
11.8579395154
 20
6.2241290026
 30
0.0
 10
11.8706187292
 20
6.2254307158
 30
0.0
 10
11.879102292
 20
6.2257205009
 30
0.0
 10
11.8833396374
 20
6.2257205009
 30
0.0
  0
SPLINE
  5
392
100
AcDbEntity
  8
0
100
AcDbSpline
 62
7
  6
CONTINUOUS
 70
0
 71
3
 72
15
 73
11
 74
0
 42
0.0000001
 43
0.0000001
 44
0.0000000001
 40
0.0
 40
0.0
 40
0.0
 40
0.0
 40
0.1117749242
 40
0.2278125737
 40
0.3479566003
 40
0.4719655156
 40
0.5995347849
 40
0.7303131714
 40
0.8639334435
 40
1.0
 40
1.0
 40
1.0
 40
1.0
 10
11.3519658748
 20
5.6766830953
 30
0.0
 10
11.3486469915
 20
5.6772637812
 30
0.0
 10
11.3419287266
 20
5.6787241704
 30
0.0
 10
11.3318623978
 20
5.6816989912
 30
0.0
 10
11.3216727031
 20
5.6854699065
 30
0.0
 10
11.3114175163
 20
5.6900008373
 30
0.0
 10
11.3011509713
 20
5.6952514786
 30
0.0
 10
11.2909237781
 20
5.7011782358
 30
0.0
 10
11.2807833803
 20
5.7077353833
 30
0.0
 10
11.2741627239
 20
5.7124580437
 30
0.0
 10
11.2708750843
 20
5.7149103968
 30
0.0
  0
SPLINE
  5
393
100
AcDbEntity
  8
0
100
AcDbSpline
 62
7
  6
CONTINUOUS
 70
0
 71
3
 72
39
 73
35
 74
0
 42
0.0000001
 43
0.0000001
 44
0.0000000001
 40
0.0
 40
0.0
 40
0.0
 40
0.0
 40
0.0250263462
 40
0.0508365922
 40
0.0774364054
 40
0.1048017656
 40
0.1328869656
 40
0.1616329819
 40
0.1909741854
 40
0.220843615
 40
0.2511767599
 40
0.2819140747
 40
0.3130025209
 40
0.3443963678
 40
0.3760573518
 40
0.4079544077
 40
0.4400628769
 40
0.4723634001
 40
0.504840479
 40
0.5374811273
 40
0.5702733206
 40
0.6032047998
 40
0.6362618471
 40
0.6694282717
 40
0.7026845048
 40
0.7360067738
 40
0.7693663184
 40
0.802728496
 40
0.8360518467
 40
0.869286759
 40
0.9023746036
 40
0.9352453754
 40
0.9678190904
 40
1.0
 40
1.0
 40
1.0
 40
1.0
 10
10.8035213977
 20
6.0790120484
 30
0.0
 10
10.8073047143
 20
6.0783500938
 30
0.0
 10
10.8149233121
 20
6.0765966819
 30
0.0
 10
10.8262044265
 20
6.0728061877
 30
0.0
 10
10.837418124
 20
6.0678511278
 30
0.0
 10
10.8484640755
 20
6.0617741543
 30
0.0
 10
10.8592429265
 20
6.0546219844
 30
0.0
 10
10.869654044
 20
6.0464446417
 30
0.0
 10
10.8795965793
 20
6.0372944213
 30
0.0
 10
10.8889693153
 20
6.0272258181
 30
0.0
 10
10.8976708927
 20
6.0162961483
 30
0.0
 10
10.9056003926
 20
6.0045668765
 30
0.0
 10
10.9126587615
 20
5.9921054258
 30
0.0
 10
10.9187513071
 20
5.97898708
 30
0.0
 10
10.9237913926
 20
5.9652964616
 30
0.0
 10
10.9277050218
 20
5.9511279644
 30
0.0
 10
10.9304357182
 20
5.9365846404
 30
0.0
 10
10.9319486317
 20
5.9217753557
 30
0.0
 10
10.9322329164
 20
5.9068105169
 30
0.0
 10
10.931301599
 20
5.8917972201
 30
0.0
 10
10.9291890278
 20
5.8768348266
 30
0.0
 10
10.9259464355
 20
5.8620118867
 30
0.0
 10
10.9216367536
 20
5.8474047663
 30
0.0
 10
10.9163295623
 20
5.833077931
 30
0.0
 10
10.9100969385
 20
5.8190854263
 30
0.0
 10
10.903010445
 20
5.8054730599
 30
0.0
 10
10.8951393227
 20
5.7922808375
 30
0.0
 10
10.8865496765
 20
5.7795453589
 30
0.0
 10
10.8773044391
 20
5.7673020956
 30
0.0
 10
10.8674639806
 20
5.7555872767
 30
0.0
 10
10.8570872244
 20
5.7444397676
 30
0.0
 10
10.8462328249
 20
5.7339018544
 30
0.0
 10
10.8349615008
 20
5.7240215601
 30
0.0
 10
10.8271546648
 20
5.7178633582
 30
0.0
 10
10.8231959068
 20
5.7149103968
 30
0.0
  0
SPLINE
  5
394
100
AcDbEntity
  8
0
100
AcDbSpline
 62
7
  6
CONTINUOUS
 70
0
 71
3
 72
11
 73
7
 74
0
 42
0.0000001
 43
0.0000001
 44
0.0000000001
 40
0.0
 40
0.0
 40
0.0
 40
0.0
 40
0.2507316776
 40
0.5018758192
 40
0.7520025181
 40
1.0
 40
1.0
 40
1.0
 40
1.0
 10
10.5164564533
 20
7.9644103802
 30
0.0
 10
10.5130277781
 20
7.9651684913
 30
0.0
 10
10.5061896169
 20
7.9667967394
 30
0.0
 10
10.4959635677
 20
7.9693153812
 30
0.0
 10
10.4857286653
 20
7.9716355131
 30
0.0
 10
10.4788557397
 20
7.9728624112
 30
0.0
 10
10.4754160213
 20
7.9733434772
 30
0.0
  0
SPLINE
  5
395
100
AcDbEntity
  8
0
100
AcDbSpline
 62
7
  6
CONTINUOUS
 70
0
 71
3
 72
11
 73
7
 74
0
 42
0.0000001
 43
0.0000001
 44
0.0000000001
 40
0.0
 40
0.0
 40
0.0
 40
0.0
 40
0.2507316776
 40
0.5018758192
 40
0.7520025181
 40
1.0
 40
1.0
 40
1.0
 40
1.0
 10
11.5776145378
 20
7.9644103802
 30
0.0
 10
11.5810432131
 20
7.9651684913
 30
0.0
 10
11.5878813742
 20
7.9667967394
 30
0.0
 10
11.5981074235
 20
7.9693153812
 30
0.0
 10
11.6083423259
 20
7.9716355131
 30
0.0
 10
11.6152152514
 20
7.9728624112
 30
0.0
 10
11.6186549698
 20
7.9733434772
 30
0.0
  0
SPLINE
  5
396
100
AcDbEntity
  8
0
100
AcDbSpline
 62
7
  6
CONTINUOUS
 70
0
 71
3
 72
11
 73
7
 74
0
 42
0.0000001
 43
0.0000001
 44
0.0000000001
 40
0.0
 40
0.0
 40
0.0
 40
0.0
 40
0.1978699166
 40
0.4314070708
 40
0.6998728862
 40
1.0
 40
1.0
 40
1.0
 40
1.0
 10
10.6927903737
 20
6.9075185143
 30
0.0
 10
10.692594938
 20
6.9093502959
 30
0.0
 10
10.692231791
 20
6.9133508053
 30
0.0
 10
10.6917883603
 20
6.9198519423
 30
0.0
 10
10.6914218316
 20
6.9273112113
 30
0.0
 10
10.6912529274
 20
6.9326024335
 30
0.0
 10
10.6911860448
 20
6.9353958298
 30
0.0
  0
SPLINE
  5
397
100
AcDbEntity
  8
0
100
AcDbSpline
 62
7
  6
CONTINUOUS
 70
0
 71
3
 72
13
 73
9
 74
0
 42
0.0000001
 43
0.0000001
 44
0.0000000001
 40
0.0
 40
0.0
 40
0.0
 40
0.0
 40
0.0953093761
 40
0.1992559377
 40
0.3118666354
 40
0.4331463284
 40
0.7010915123
 40
1.0
 40
1.0
 40
1.0
 40
1.0
 10
10.6725370932
 20
6.9075185143
 30
0.0
 10
10.6723512916
 20
6.9083912904
 30
0.0
 10
10.6719899254
 20
6.9102217619
 30
0.0
 10
10.6714960755
 20
6.9130997992
 30
0.0
 10
10.6710311425
 20
6.9162286951
 30
0.0
 10
10.6704359562
 20
6.9208895618
 30
0.0
 10
10.6698070936
 20
6.9273029489
 30
0.0
 10
10.669469462
 20
6.9326004866
 30
0.0
 10
10.6693359156
 20
6.9353958298
 30
0.0
  0
SPLINE
  5
398
100
AcDbEntity
  8
0
100
AcDbSpline
 62
7
  6
CONTINUOUS
 70
0
 71
3
 72
14
 73
10
 74
0
 42
0.0000001
 43
0.0000001
 44
0.0000000001
 40
0.0
 40
0.0
 40
0.0
 40
0.0
 40
0.0966265863
 40
0.2014482259
 40
0.3145276324
 40
0.4359017761
 40
0.5654873826
 40
0.7030426087
 40
1.0
 40
1.0
 40
1.0
 40
1.0
 10
10.6540298972
 20
6.9075185143
 30
0.0
 10
10.653753169
 20
6.9083884901
 30
0.0
 10
10.6532143242
 20
6.9102144778
 30
0.0
 10
10.6524759316
 20
6.9130934827
 30
0.0
 10
10.6517808956
 20
6.9162232381
 30
0.0
 10
10.6511358986
 20
6.9196021321
 30
0.0
 10
10.6505486011
 20
6.9232260211
 30
0.0
 10
10.6498359509
 20
6.928508195
 30
0.0
 10
10.6494465646
 20
6.9325972992
 30
0.0
 10
10.6492467961
 20
6.9353958298
 30
0.0
  0
SPLINE
  5
399
100
AcDbEntity
  8
0
100
AcDbSpline
 62
7
  6
CONTINUOUS
 70
0
 71
3
 72
14
 73
10
 74
0
 42
0.0000001
 43
0.0000001
 44
0.0000000001
 40
0.0
 40
0.0
 40
0.0
 40
0.0
 40
0.0983415743
 40
0.2043126266
 40
0.3180151647
 40
0.439523191
 40
0.5687888897
 40
0.705607577
 40
1.0
 40
1.0
 40
1.0
 40
1.0
 10
10.6373550747
 20
6.9075185143
 30
0.0
 10
10.6369895592
 20
6.9083850636
 30
0.0
 10
10.6362768793
 20
6.9102053365
 30
0.0
 10
10.635296955
 20
6.9130853905
 30
0.0
 10
10.6343746735
 20
6.9162161252
 30
0.0
 10
10.633518878
 20
6.9195958939
 30
0.0
 10
10.6327396888
 20
6.9232206347
 30
0.0
 10
10.6317953294
 20
6.9284976284
 30
0.0
 10
10.6312776693
 20
6.9325929553
 30
0.0
 10
10.6310123512
 20
6.9353958298
 30
0.0
  0
SPLINE
  5
39A
100
AcDbEntity
  8
0
100
AcDbSpline
 62
7
  6
CONTINUOUS
 70
0
 71
3
 72
14
 73
10
 74
0
 42
0.0000001
 43
0.0000001
 44
0.0000000001
 40
0.0
 40
0.0
 40
0.0
 40
0.0
 40
0.1003497973
 40
0.2076800949
 40
0.3221290832
 40
0.443807389
 40
0.572704256
 40
0.7086558015
 40
1.0
 40
1.0
 40
1.0
 40
1.0
 10
10.6225903714
 20
6.9075185143
 30
0.0
 10
10.6221386344
 20
6.9083813363
 30
0.0
 10
10.6212566941
 20
6.9101950984
 30
0.0
 10
10.6200394059
 20
6.9130760998
 30
0.0
 10
10.6188938237
 20
6.9162077853
 30
0.0
 10
10.617830915
 20
6.9195884533
 30
0.0
 10
10.6168632035
 20
6.9232141207
 30
0.0
 10
10.615692068
 20
6.9284846887
 30
0.0
 10
10.6150475519
 20
6.9325875665
 30
0.0
 10
10.6147175983
 20
6.9353958298
 30
0.0
  0
SPLINE
  5
39B
100
AcDbEntity
  8
0
100
AcDbSpline
 62
7
  6
CONTINUOUS
 70
0
 71
3
 72
14
 73
10
 74
0
 42
0.0000001
 43
0.0000001
 44
0.0000000001
 40
0.0
 40
0.0
 40
0.0
 40
0.0
 40
0.1025470324
 40
0.2113804445
 40
0.3266666934
 40
0.4485482583
 40
0.5770491869
 40
0.7120466256
 40
1.0
 40
1.0
 40
1.0
 40
1.0
 10
10.6098046272
 20
6.9075185143
 30
0.0
 10
10.6092695449
 20
6.908377576
 30
0.0
 10
10.6082236866
 20
6.9101844493
 30
0.0
 10
10.6067744082
 20
6.9130661688
 30
0.0
 10
10.6054105686
 20
6.9161986586
 30
0.0
 10
10.6041452232
 20
6.9195801496
 30
0.0
 10
10.6029932427
 20
6.9232067338
 30
0.0
 10
10.6016014069
 20
6.9284697966
 30
0.0
 10
10.6008319321
 20
6.9325812676
 30
0.0
 10
10.6004385109
 20
6.9353958298
 30
0.0
  0
SPLINE
  5
39C
100
AcDbEntity
  8
0
100
AcDbSpline
 62
7
  6
CONTINUOUS
 70
0
 71
3
 72
13
 73
9
 74
0
 42
0.0000001
 43
0.0000001
 44
0.0000000001
 40
0.0
 40
0.0
 40
0.0
 40
0.0
 40
0.2151718786
 40
0.3313663117
 40
0.4534920878
 40
0.5816029897
 40
0.7156144305
 40
1.0
 40
1.0
 40
1.0
 40
1.0
 10
10.5990574552
 20
6.9075185143
 30
0.0
 10
10.5977947187
 20
6.9092740827
 30
0.0
 10
10.5960365051
 20
6.9121160899
 30
0.0
 10
10.5939878027
 20
6.9161889495
 30
0.0
 10
10.5925255706
 20
6.9195713756
 30
0.0
 10
10.5911944989
 20
6.92319872
 30
0.0
 10
10.5895891095
 20
6.9284534164
 30
0.0
 10
10.5886971183
 20
6.9325742112
 30
0.0
 10
10.5882416649
 20
6.9353958298
 30
0.0
  0
SPLINE
  5
39D
100
AcDbEntity
  8
0
100
AcDbSpline
 62
7
  6
CONTINUOUS
 70
0
 71
3
 72
11
 73
7
 74
0
 42
0.0000001
 43
0.0000001
 44
0.0000000001
 40
0.0
 40
0.0
 40
0.0
 40
0.0
 40
0.219130316
 40
0.458570068
 40
0.7192295606
 40
1.0
 40
1.0
 40
1.0
 40
1.0
 10
10.5903989636
 20
6.9075185143
 30
0.0
 10
10.5889837638
 20
6.9092606672
 30
0.0
 10
10.5862806586
 20
6.9131218888
 30
0.0
 10
10.5828522559
 20
6.9196629297
 30
0.0
 10
10.5800226381
 20
6.9271641303
 30
0.0
 10
10.5786996976
 20
6.9325665618
 30
0.0
 10
10.5781839275
 20
6.9353958298
 30
0.0
  0
SPLINE
  5
39E
100
AcDbEntity
  8
0
100
AcDbSpline
 62
7
  6
CONTINUOUS
 70
0
 71
3
 72
12
 73
8
 74
0
 42
0.0000001
 43
0.0000001
 44
0.0000000001
 40
0.0
 40
0.0
 40
0.0
 40
0.0
 40
0.2229477133
 40
0.4635435625
 40
0.5909004695
 40
0.7229267792
 40
1.0
 40
1.0
 40
1.0
 40
1.0
 10
10.5838695222
 20
6.9075185143
 30
0.0
 10
10.5823097559
 20
6.9092485245
 30
0.0
 10
10.5793239927
 20
6.9130839391
 30
0.0
 10
10.5762064388
 20
6.9184336941
 30
0.0
 10
10.5740206008
 20
6.9231817936
 30
0.0
 10
10.57201356
 20
6.9284180361
 30
0.0
 10
10.5708862731
 20
6.9325584902
 30
0.0
 10
10.5703121925
 20
6.9353958298
 30
0.0
  0
SPLINE
  5
39F
100
AcDbEntity
  8
0
100
AcDbSpline
 62
7
  6
CONTINUOUS
 70
0
 71
3
 72
11
 73
7
 74
0
 42
0.0000001
 43
0.0000001
 44
0.0000000001
 40
0.0
 40
0.0
 40
0.0
 40
0.0
 40
0.2266769696
 40
0.4684840578
 40
0.7264505542
 40
1.0
 40
1.0
 40
1.0
 40
1.0
 10
10.5794995745
 20
6.9075185143
 30
0.0
 10
10.5778032992
 20
6.9092377314
 30
0.0
 10
10.5745508037
 20
6.9130490644
 30
0.0
 10
10.5703715864
 20
6.9195917641
 30
0.0
 10
10.5669194791
 20
6.9271011545
 30
0.0
 10
10.5652932473
 20
6.9325501678
 30
0.0
 10
10.5646631616
 20
6.9353958298
 30
0.0
  0
SPLINE
  5
3A0
100
AcDbEntity
  8
0
100
AcDbSpline
 62
7
  6
CONTINUOUS
 70
0
 71
3
 72
13
 73
9
 74
0
 42
0.0000001
 43
0.0000001
 44
0.0000000001
 40
0.0
 40
0.0
 40
0.0
 40
0.0
 40
0.1136021804
 40
0.2302384241
 40
0.3500675527
 40
0.4732685863
 40
0.7299321524
 40
1.0
 40
1.0
 40
1.0
 40
1.0
 10
10.5773094951
 20
6.9075185143
 30
0.0
 10
10.5764087118
 20
6.9083626419
 30
0.0
 10
10.5746431526
 20
6.9101387808
 30
0.0
 10
10.5721548977
 20
6.9130201318
 30
0.0
 10
10.569812783
 20
6.9161533166
 30
0.0
 10
10.5668757258
 20
6.9207251946
 30
0.0
 10
10.563715668
 20
6.927070334
 30
0.0
 10
10.561946655
 20
6.9325417632
 30
0.0
 10
10.5612631733
 20
6.9353958298
 30
0.0
  0
SPLINE
  5
3A1
100
AcDbEntity
  8
0
100
AcDbSpline
 62
7
  6
CONTINUOUS
 70
0
 71
3
 72
13
 73
9
 74
0
 42
0.0000001
 43
0.0000001
 44
0.0000000001
 40
0.0
 40
0.0
 40
0.0
 40
0.0
 40
0.2764309109
 40
0.4086002207
 40
0.5361679667
 40
0.6589504667
 40
0.7770053821
 40
1.0
 40
1.0
 40
1.0
 40
1.0
 10
10.5703121925
 20
6.9627588011
 30
0.0
 10
10.5708491904
 20
6.9655036495
 30
0.0
 10
10.571886434
 20
6.9695202858
 30
0.0
 10
10.5737424163
 20
6.9746206679
 30
0.0
 10
10.5753019142
 20
6.9781660968
 30
0.0
 10
10.5770308356
 20
6.9814718446
 30
0.0
 10
10.5794850667
 20
6.9854747238
 30
0.0
 10
10.5815777337
 20
6.9882350639
 30
0.0
 10
10.5830598567
 20
6.9899361983
 30
0.0
  0
SPLINE
  5
3A2
100
AcDbEntity
  8
0
100
AcDbSpline
 62
7
  6
CONTINUOUS
 70
0
 71
3
 72
13
 73
9
 74
0
 42
0.0000001
 43
0.0000001
 44
0.0000000001
 40
0.0
 40
0.0
 40
0.0
 40
0.0
 40
0.297115354
 40
0.435299241
 40
0.5654487992
 40
0.7998046114
 40
0.9040478702
 40
1.0
 40
1.0
 40
1.0
 40
1.0
 10
10.6693359156
 20
6.9627588011
 30
0.0
 10
10.6694608013
 20
6.9654622812
 30
0.0
 10
10.6697001025
 20
6.9694209601
 30
0.0
 10
10.6701395229
 20
6.9745529671
 30
0.0
 10
10.6706109006
 20
6.9791076771
 30
0.0
 10
10.6711682684
 20
6.9833423764
 30
0.0
 10
10.6718191482
 20
6.9872470189
 30
0.0
 10
10.6721616122
 20
6.9890383457
 30
0.0
 10
10.6723373487
 20
6.9898945041
 30
0.0
  0
LINE
  5
3A3
100
AcDbEntity
  8
0
100
AcDbLine
 62
7
  6
CONTINUOUS
 10
10.6723373487
 20
6.9898945041
 11
10.6723732859
 21
6.9900687632
  0
SPLINE
  5
3A4
100
AcDbEntity
  8
0
100
AcDbSpline
 62
7
  6
CONTINUOUS
 70
0
 71
3
 72
13
 73
9
 74
0
 42
0.0000001
 43
0.0000001
 44
0.0000000001
 40
0.0
 40
0.0
 40
0.0
 40
0.0
 40
0.2696781713
 40
0.3999742605
 40
0.5268206608
 40
0.6501109488
 40
0.769922575
 40
1.0
 40
1.0
 40
1.0
 40
1.0
 10
10.5612631733
 20
6.9627588011
 30
0.0
 10
10.5619018437
 20
6.9655169729
 30
0.0
 10
10.5631382415
 20
6.9695499362
 30
0.0
 10
10.5653286238
 20
6.9746321344
 30
0.0
 10
10.5671755283
 20
6.9781776654
 30
0.0
 10
10.5692225566
 20
6.9814826629
 30
0.0
 10
10.572142958
 20
6.9855048717
 30
0.0
 10
10.5746096876
 20
6.9882468766
 30
0.0
 10
10.5763433022
 20
6.9899287783
 30
0.0
  0
SPLINE
  5
3A5
100
AcDbEntity
  8
0
100
AcDbSpline
 62
7
  6
CONTINUOUS
 70
0
 71
3
 72
13
 73
9
 74
0
 42
0.0000001
 43
0.0000001
 44
0.0000000001
 40
0.0
 40
0.0
 40
0.0
 40
0.0
 40
0.2926575126
 40
0.4295202969
 40
0.5590804835
 40
0.7947494039
 40
0.9010366525
 40
1.0
 40
1.0
 40
1.0
 40
1.0
 10
10.6310123512
 20
6.9627588011
 30
0.0
 10
10.6312594426
 20
6.9654584157
 30
0.0
 10
10.6317332629
 20
6.969412053
 30
0.0
 10
10.632598417
 20
6.9745189014
 30
0.0
 10
10.6335308651
 20
6.9790759668
 30
0.0
 10
10.634633812
 20
6.9833075893
 30
0.0
 10
10.6359117479
 20
6.9871877752
 30
0.0
 10
10.6365835959
 20
6.988967175
 30
0.0
 10
10.6369276986
 20
6.9898168428
 30
0.0
  0
SPLINE
  5
3A6
100
AcDbEntity
  8
0
100
AcDbSpline
 62
7
  6
CONTINUOUS
 70
0
 71
3
 72
14
 73
10
 74
0
 42
0.0000001
 43
0.0000001
 44
0.0000000001
 40
0.0
 40
0.0
 40
0.0
 40
0.0
 40
0.2866205211
 40
0.4217054569
 40
0.5504804187
 40
0.6725978836
 40
0.7880248577
 40
0.8970474344
 40
1.0
 40
1.0
 40
1.0
 40
1.0
 10
10.6004385109
 20
6.9627588011
 30
0.0
 10
10.6008048695
 20
6.9654694097
 30
0.0
 10
10.6015090323
 20
6.9694388682
 30
0.0
 10
10.6027853386
 20
6.9745362515
 30
0.0
 10
10.6038521224
 20
6.9780635086
 30
0.0
 10
10.6050347776
 20
6.981354896
 30
0.0
 10
10.606318802
 20
6.9844045922
 30
0.0
 10
10.6076874334
 20
6.9872149887
 30
0.0
 10
10.6086742388
 20
6.9889823706
 30
0.0
 10
10.6091786649
 20
6.9898254831
 30
0.0
  0
SPLINE
  5
3A7
100
AcDbEntity
  8
0
100
AcDbSpline
 62
7
  6
CONTINUOUS
 70
0
 71
3
 72
14
 73
10
 74
0
 42
0.0000001
 43
0.0000001
 44
0.0000000001
 40
0.0
 40
0.0
 40
0.0
 40
0.0
 40
0.2832712345
 40
0.4173858549
 40
0.5457459204
 40
0.668062629
 40
0.7843405909
 40
0.8948762832
 40
1.0
 40
1.0
 40
1.0
 40
1.0
 10
10.5882416649
 20
6.9627588011
 30
0.0
 10
10.5886661569
 20
6.9654785654
 30
0.0
 10
10.589483273
 20
6.9694608315
 30
0.0
 10
10.5909581871
 20
6.9745568237
 30
0.0
 10
10.5921930404
 20
6.978088462
 30
0.0
 10
10.5935619978
 20
6.9813832774
 30
0.0
 10
10.5950481394
 20
6.9844354216
 30
0.0
 10
10.5966320667
 20
6.9872474589
 30
0.0
 10
10.5977700336
 20
6.9890091001
 30
0.0
 10
10.5983512753
 20
6.9898491621
 30
0.0
  0
SPLINE
  5
3A8
100
AcDbEntity
  8
0
100
AcDbSpline
 62
7
  6
CONTINUOUS
 70
0
 71
3
 72
14
 73
10
 74
0
 42
0.0000001
 43
0.0000001
 44
0.0000000001
 40
0.0
 40
0.0
 40
0.0
 40
0.0
 40
0.2897671711
 40
0.4257751996
 40
0.5549536568
 40
0.6768967004
 40
0.7915324483
 40
0.8991265525
 40
1.0
 40
1.0
 40
1.0
 40
1.0
 10
10.6147175983
 20
6.9627588011
 30
0.0
 10
10.6150246752
 20
6.9654617601
 30
0.0
 10
10.6156141009
 20
6.9694203492
 30
0.0
 10
10.6166864878
 20
6.9745197869
 30
0.0
 10
10.6175814474
 20
6.9780434774
 30
0.0
 10
10.618573588
 20
6.9813319894
 30
0.0
 10
10.6196508413
 20
6.9843795525
 30
0.0
 10
10.6207991389
 20
6.9871883473
 30
0.0
 10
10.6216301944
 20
6.9889613777
 30
0.0
 10
10.6220554116
 20
6.9898075497
 30
0.0
  0
SPLINE
  5
3A9
100
AcDbEntity
  8
0
100
AcDbSpline
 62
7
  6
CONTINUOUS
 70
0
 71
3
 72
11
 73
7
 74
0
 42
0.0000001
 43
0.0000001
 44
0.0000000001
 40
0.0
 40
0.0
 40
0.0
 40
0.0
 40
0.2985241271
 40
0.5674498882
 40
0.8013782979
 40
1.0
 40
1.0
 40
1.0
 40
1.0
 10
10.6911860448
 20
6.9627588011
 30
0.0
 10
10.6912488333
 20
6.9654709068
 30
0.0
 10
10.6914052247
 20
6.9706254619
 30
0.0
 10
10.6917448723
 20
6.9779004341
 30
0.0
 10
10.692165612
 20
6.9842616035
 30
0.0
 10
10.6925128615
 20
6.9881775055
 30
0.0
 10
10.6926983364
 20
6.9899729217
 30
0.0
  0
SPLINE
  5
3AA
100
AcDbEntity
  8
0
100
AcDbSpline
 62
7
  6
CONTINUOUS
 70
0
 71
3
 72
8
 73
4
 74
0
 42
0.0000001
 43
0.0000001
 44
0.0000000001
 40
0.0
 40
0.0
 40
0.0
 40
0.0
 40
1.0
 40
1.0
 40
1.0
 40
1.0
 10
10.6926983364
 20
6.9899729217
 30
0.0
 10
10.6927016494
 20
6.9900049082
 30
0.0
 10
10.6927049623
 20
6.9900368947
 30
0.0
 10
10.6927082752
 20
6.9900688812
 30
0.0
  0
SPLINE
  5
3AB
100
AcDbEntity
  8
0
100
AcDbSpline
 62
7
  6
CONTINUOUS
 70
0
 71
3
 72
39
 73
35
 74
0
 42
0.0000001
 43
0.0000001
 44
0.0000000001
 40
0.0
 40
0.0
 40
0.0
 40
0.0
 40
0.0321809017
 40
0.0647546163
 40
0.0976253894
 40
0.1307132358
 40
0.1639481512
 40
0.197271501
 40
0.2306336822
 40
0.2639932278
 40
0.2973154971
 40
0.3305717303
 40
0.3637381547
 40
0.3967952022
 40
0.4297266813
 40
0.4625188745
 40
0.4951595246
 40
0.5276366066
 40
0.559937131
 40
0.5920455999
 40
0.6239426535
 40
0.6556036366
 40
0.6869974838
 40
0.7180859303
 40
0.748823246
 40
0.7791563908
 40
0.8090258198
 40
0.8383670228
 40
0.8671130358
 40
0.8951982328
 40
0.9225635901
 40
0.9491634005
 40
0.9749736502
 40
1.0
 40
1.0
 40
1.0
 40
1.0
 10
11.2708750843
 20
5.7149103968
 30
0.0
 10
11.2669163274
 20
5.7178633574
 30
0.0
 10
11.2591094922
 20
5.7240215585
 30
0.0
 10
11.247838169
 20
5.7339018521
 30
0.0
 10
11.2369837689
 20
5.7444397652
 30
0.0
 10
11.226607012
 20
5.7555872751
 30
0.0
 10
11.216766553
 20
5.7673020944
 30
0.0
 10
11.2075213151
 20
5.7795453583
 30
0.0
 10
11.1989316685
 20
5.7922808374
 30
0.0
 10
11.1910605458
 20
5.8054730604
 30
0.0
 10
11.1839740523
 20
5.819085427
 30
0.0
 10
11.1777414285
 20
5.8330779318
 30
0.0
 10
11.1724342373
 20
5.8474047671
 30
0.0
 10
11.1681245555
 20
5.8620118875
 30
0.0
 10
11.1648819631
 20
5.8768348275
 30
0.0
 10
11.162769392
 20
5.8917972212
 30
0.0
 10
11.1618380747
 20
5.9068105187
 30
0.0
 10
11.1621223595
 20
5.9217753585
 30
0.0
 10
11.1636352733
 20
5.9365846438
 30
0.0
 10
11.16636597
 20
5.9511279675
 30
0.0
 10
11.1702795993
 20
5.9652964642
 30
0.0
 10
11.1753196849
 20
5.978987082
 30
0.0
 10
11.1814122306
 20
5.9921054277
 30
0.0
 10
11.1884705998
 20
6.0045668785
 30
0.0
 10
11.1964000999
 20
6.0162961504
 30
0.0
 10
11.2051016775
 20
6.0272258201
 30
0.0
 10
11.2144744136
 20
6.037294423
 30
0.0
 10
11.2244169485
 20
6.0464446428
 30
0.0
 10
11.2348280652
 20
6.0546219849
 30
0.0
 10
11.2456069151
 20
6.0617741538
 30
0.0
 10
11.2566528652
 20
6.067851127
 30
0.0
 10
11.2678665624
 20
6.0728061867
 30
0.0
 10
11.2791476774
 20
6.0765966815
 30
0.0
 10
11.2867662763
 20
6.0783500937
 30
0.0
 10
11.2905495934
 20
6.0790120484
 30
0.0
  0
SPLINE
  5
3AC
100
AcDbEntity
  8
0
100
AcDbSpline
 62
7
  6
CONTINUOUS
 70
0
 71
3
 72
14
 73
10
 74
0
 42
0.0000001
 43
0.0000001
 44
0.0000000001
 40
0.0
 40
0.0
 40
0.0
 40
0.0
 40
0.271757024
 40
0.4026606366
 40
0.5297875203
 40
0.6529759628
 40
0.7722529954
 40
0.8878400315
 40
1.0
 40
1.0
 40
1.0
 40
1.0
 10
10.5646631616
 20
6.9627588011
 30
0.0
 10
10.5652259264
 20
6.9653873615
 30
0.0
 10
10.5663034689
 20
6.9692369407
 30
0.0
 10
10.5682058175
 20
6.9741227685
 30
0.0
 10
10.5698046378
 20
6.9775412984
 30
0.0
 10
10.571575742
 20
6.9807426968
 30
0.0
 10
10.5734982852
 20
6.9837204675
 30
0.0
 10
10.575549699
 20
6.9864756232
 30
0.0
 10
10.5770103652
 20
6.9881931085
 30
0.0
 10
10.5777560938
 20
6.9890145491
 30
0.0
  0
LINE
  5
3AD
100
AcDbEntity
  8
0
100
AcDbLine
 62
7
  6
CONTINUOUS
 10
10.5786649807
 20
6.9899900002
 11
10.5787389356
 21
6.9900671728
  0
SPLINE
  5
3AE
100
AcDbEntity
  8
0
100
AcDbSpline
 62
7
  6
CONTINUOUS
 70
0
 71
3
 72
15
 73
11
 74
0
 42
0.0000001
 43
0.0000001
 44
0.0000000001
 40
0.0
 40
0.0
 40
0.0
 40
0.0
 40
0.1360665562
 40
0.2696868281
 40
0.4004652146
 40
0.5280344838
 40
0.6520433993
 40
0.7721874261
 40
0.8882250755
 40
1.0
 40
1.0
 40
1.0
 40
1.0
 10
10.8231959068
 20
5.7149103968
 30
0.0
 10
10.8199082672
 20
5.7124580437
 30
0.0
 10
10.8132876109
 20
5.7077353833
 30
0.0
 10
10.803147213
 20
5.7011782358
 30
0.0
 10
10.7929200199
 20
5.6952514786
 30
0.0
 10
10.7826534749
 20
5.6900008373
 30
0.0
 10
10.772398288
 20
5.6854699065
 30
0.0
 10
10.7622085933
 20
5.6816989912
 30
0.0
 10
10.7521422645
 20
5.6787241704
 30
0.0
 10
10.7454239996
 20
5.6772637812
 30
0.0
 10
10.7421051163
 20
5.6766830953
 30
0.0
  0
SPLINE
  5
3AF
100
AcDbEntity
  8
0
100
AcDbSpline
 62
7
  6
CONTINUOUS
 70
0
 71
3
 72
13
 73
9
 74
0
 42
0.0000001
 43
0.0000001
 44
0.0000000001
 40
0.0
 40
0.0
 40
0.0
 40
0.0
 40
0.2798762069
 40
0.4130220401
 40
0.5409849648
 40
0.6635313328
 40
0.7806966421
 40
1.0
 40
1.0
 40
1.0
 40
1.0
 10
10.5781839275
 20
6.9627588011
 30
0.0
 10
10.5786655136
 20
6.9654909175
 30
0.0
 10
10.5795941288
 20
6.9694902536
 30
0.0
 10
10.5812632011
 20
6.9745887456
 30
0.0
 10
10.5826630638
 20
6.9781273432
 30
0.0
 10
10.5842150786
 20
6.981427865
 30
0.0
 10
10.5864123353
 20
6.9854143193
 30
0.0
 10
10.588295199
 20
6.988181618
 30
0.0
 10
10.5896355326
 20
6.9898930443
 30
0.0
  0
SPLINE
  5
3B0
100
AcDbEntity
  8
0
100
AcDbSpline
 62
7
  6
CONTINUOUS
 70
0
 71
3
 72
13
 73
9
 74
0
 42
0.0000001
 43
0.0000001
 44
0.0000000001
 40
0.0
 40
0.0
 40
0.0
 40
0.0
 40
0.2951400819
 40
0.4327386194
 40
0.5626270181
 40
0.7975644291
 40
0.9027137575
 40
1.0
 40
1.0
 40
1.0
 40
1.0
 10
10.6492467961
 20
6.9627588011
 30
0.0
 10
10.6494331419
 20
6.9654585908
 30
0.0
 10
10.6497902734
 20
6.9694122618
 30
0.0
 10
10.6504443694
 20
6.9745299884
 30
0.0
 10
10.6511474619
 20
6.9790832033
 30
0.0
 10
10.6519789789
 20
6.9833147803
 30
0.0
 10
10.652946633
 20
6.9872072778
 30
0.0
 10
10.6534556054
 20
6.9889928115
 30
0.0
 10
10.6537165593
 20
6.9898458307
 30
0.0
  0
SPLINE
  5
3B1
100
AcDbEntity
  8
0
100
AcDbSpline
 62
7
  6
CONTINUOUS
 70
0
 71
3
 72
13
 73
9
 74
0
 42
0.0000001
 43
0.0000001
 44
0.0000000001
 40
0.0
 40
0.0
 40
0.0
 40
0.0
 40
0.2700678439
 40
0.5267314097
 40
0.6499324502
 40
0.769761579
 40
0.8863978202
 40
1.0
 40
1.0
 40
1.0
 40
1.0
 10
11.5328078179
 20
6.9353958298
 30
0.0
 10
11.5321243361
 20
6.9325417632
 30
0.0
 10
11.5303553231
 20
6.9270703341
 30
0.0
 10
11.5271952654
 20
6.9207251947
 30
0.0
 10
11.5242582081
 20
6.9161533166
 30
0.0
 10
11.5219160934
 20
6.9130201318
 30
0.0
 10
11.5194278385
 20
6.9101387808
 30
0.0
 10
11.5176622793
 20
6.9083626419
 30
0.0
 10
11.5167614961
 20
6.9075185143
 30
0.0
  0
SPLINE
  5
3B2
100
AcDbEntity
  8
0
100
AcDbSpline
 62
7
  6
CONTINUOUS
 70
0
 71
3
 72
11
 73
7
 74
0
 42
0.0000001
 43
0.0000001
 44
0.0000000001
 40
0.0
 40
0.0
 40
0.0
 40
0.0
 40
0.2735494421
 40
0.5315159382
 40
0.7733230335
 40
1.0
 40
1.0
 40
1.0
 40
1.0
 10
11.5294078295
 20
6.9353958298
 30
0.0
 10
11.5287777439
 20
6.9325501679
 30
0.0
 10
11.527151512
 20
6.9271011546
 30
0.0
 10
11.5236994047
 20
6.9195917641
 30
0.0
 10
11.5195201875
 20
6.9130490644
 30
0.0
 10
11.516267692
 20
6.9092377314
 30
0.0
 10
11.5145714166
 20
6.9075185143
 30
0.0
  0
SPLINE
  5
3B3
100
AcDbEntity
  8
0
100
AcDbSpline
 62
7
  6
CONTINUOUS
 70
0
 71
3
 72
12
 73
8
 74
0
 42
0.0000001
 43
0.0000001
 44
0.0000000001
 40
0.0
 40
0.0
 40
0.0
 40
0.0
 40
0.2770732201
 40
0.409099526
 40
0.5364564296
 40
0.7770522828
 40
1.0
 40
1.0
 40
1.0
 40
1.0
 10
11.5237587986
 20
6.9353958298
 30
0.0
 10
11.5231847181
 20
6.9325584902
 30
0.0
 10
11.5220574311
 20
6.9284180361
 30
0.0
 10
11.5200503904
 20
6.9231817938
 30
0.0
 10
11.5178645524
 20
6.9184336943
 30
0.0
 10
11.5147469986
 20
6.9130839392
 30
0.0
 10
11.5117612353
 20
6.9092485245
 30
0.0
 10
11.5102014689
 20
6.9075185143
 30
0.0
  0
SPLINE
  5
3B4
100
AcDbEntity
  8
0
100
AcDbSpline
 62
7
  6
CONTINUOUS
 70
0
 71
3
 72
11
 73
7
 74
0
 42
0.0000001
 43
0.0000001
 44
0.0000000001
 40
0.0
 40
0.0
 40
0.0
 40
0.0
 40
0.2807704356
 40
0.541429928
 40
0.780869687
 40
1.0
 40
1.0
 40
1.0
 40
1.0
 10
11.5158870636
 20
6.9353958298
 30
0.0
 10
11.5153712935
 20
6.9325665618
 30
0.0
 10
11.5140483531
 20
6.9271641304
 30
0.0
 10
11.5112187353
 20
6.9196629297
 30
0.0
 10
11.5077903326
 20
6.9131218888
 30
0.0
 10
11.5050872273
 20
6.9092606672
 30
0.0
 10
11.5036720276
 20
6.9075185143
 30
0.0
  0
SPLINE
  5
3B5
100
AcDbEntity
  8
0
100
AcDbSpline
 62
7
  6
CONTINUOUS
 70
0
 71
3
 72
13
 73
9
 74
0
 42
0.0000001
 43
0.0000001
 44
0.0000000001
 40
0.0
 40
0.0
 40
0.0
 40
0.0
 40
0.2843855656
 40
0.4183970099
 40
0.5465079082
 40
0.6686336912
 40
0.7848281244
 40
1.0
 40
1.0
 40
1.0
 40
1.0
 10
11.5058293262
 20
6.9353958298
 30
0.0
 10
11.5053738729
 20
6.9325742112
 30
0.0
 10
11.5044818816
 20
6.9284534165
 30
0.0
 10
11.5028764923
 20
6.9231987201
 30
0.0
 10
11.5015454205
 20
6.9195713756
 30
0.0
 10
11.5000831884
 20
6.9161889495
 30
0.0
 10
11.4980344861
 20
6.9121160899
 30
0.0
 10
11.4962762725
 20
6.9092740827
 30
0.0
 10
11.495013536
 20
6.9075185143
 30
0.0
  0
SPLINE
  5
3B6
100
AcDbEntity
  8
0
100
AcDbSpline
 62
7
  6
CONTINUOUS
 70
0
 71
3
 72
14
 73
10
 74
0
 42
0.0000001
 43
0.0000001
 44
0.0000000001
 40
0.0
 40
0.0
 40
0.0
 40
0.0
 40
0.2879533801
 40
0.4229508075
 40
0.551451736
 40
0.6733333007
 40
0.7886195456
 40
0.8974529616
 40
1.0
 40
1.0
 40
1.0
 40
1.0
 10
11.4936324802
 20
6.9353958298
 30
0.0
 10
11.493239059
 20
6.9325812676
 30
0.0
 10
11.4924695843
 20
6.9284697966
 30
0.0
 10
11.4910777485
 20
6.9232067339
 30
0.0
 10
11.489925768
 20
6.9195801497
 30
0.0
 10
11.4886604227
 20
6.9161986588
 30
0.0
 10
11.4872965831
 20
6.913066169
 30
0.0
 10
11.4858473046
 20
6.9101844494
 30
0.0
 10
11.4848014463
 20
6.908377576
 30
0.0
 10
11.4842663639
 20
6.9075185143
 30
0.0
  0
SPLINE
  5
3B7
100
AcDbEntity
  8
0
100
AcDbSpline
 62
7
  6
CONTINUOUS
 70
0
 71
3
 72
14
 73
10
 74
0
 42
0.0000001
 43
0.0000001
 44
0.0000000001
 40
0.0
 40
0.0
 40
0.0
 40
0.0
 40
0.2913441935
 40
0.4272957437
 40
0.5561926061
 40
0.6778709206
 40
0.7923199091
 40
0.8996502035
 40
1.0
 40
1.0
 40
1.0
 40
1.0
 10
11.4793533929
 20
6.9353958298
 30
0.0
 10
11.4790234392
 20
6.9325875665
 30
0.0
 10
11.4783789231
 20
6.9284846887
 30
0.0
 10
11.4772077877
 20
6.9232141207
 30
0.0
 10
11.4762400762
 20
6.9195884534
 30
0.0
 10
11.4751771675
 20
6.9162077853
 30
0.0
 10
11.4740315852
 20
6.9130760998
 30
0.0
 10
11.472814297
 20
6.9101950983
 30
0.0
 10
11.4719323568
 20
6.9083813363
 30
0.0
 10
11.4714806198
 20
6.9075185143
 30
0.0
  0
SPLINE
  5
3B8
100
AcDbEntity
  8
0
100
AcDbSpline
 62
7
  6
CONTINUOUS
 70
0
 71
3
 72
14
 73
10
 74
0
 42
0.0000001
 43
0.0000001
 44
0.0000000001
 40
0.0
 40
0.0
 40
0.0
 40
0.0
 40
0.2943924189
 40
0.43121111
 40
0.5604768049
 40
0.6819848382
 40
0.7956873764
 40
0.9016584263
 40
1.0
 40
1.0
 40
1.0
 40
1.0
 10
11.4630586399
 20
6.9353958298
 30
0.0
 10
11.4627933219
 20
6.9325929554
 30
0.0
 10
11.4622756617
 20
6.9284976285
 30
0.0
 10
11.4613313024
 20
6.9232206347
 30
0.0
 10
11.4605521131
 20
6.9195958939
 30
0.0
 10
11.4596963177
 20
6.9162161252
 30
0.0
 10
11.4587740361
 20
6.9130853905
 30
0.0
 10
11.4577941118
 20
6.9102053365
 30
0.0
 10
11.457081432
 20
6.9083850636
 30
0.0
 10
11.4567159165
 20
6.9075185143
 30
0.0
  0
SPLINE
  5
3B9
100
AcDbEntity
  8
0
100
AcDbSpline
 62
7
  6
CONTINUOUS
 70
0
 71
3
 72
14
 73
10
 74
0
 42
0.0000001
 43
0.0000001
 44
0.0000000001
 40
0.0
 40
0.0
 40
0.0
 40
0.0
 40
0.2969573872
 40
0.4345126171
 40
0.5640982198
 40
0.6854723705
 40
0.7985517771
 40
0.9033734143
 40
1.0
 40
1.0
 40
1.0
 40
1.0
 10
11.444824195
 20
6.9353958298
 30
0.0
 10
11.4446244266
 20
6.9325972993
 30
0.0
 10
11.4442350402
 20
6.9285081951
 30
0.0
 10
11.4435223901
 20
6.9232260212
 30
0.0
 10
11.4429350926
 20
6.9196021321
 30
0.0
 10
11.4422900956
 20
6.916223238
 30
0.0
 10
11.4415950595
 20
6.9130934826
 30
0.0
 10
11.4408566669
 20
6.9102144778
 30
0.0
 10
11.4403178222
 20
6.9083884901
 30
0.0
 10
11.440041094
 20
6.9075185143
 30
0.0
  0
SPLINE
  5
3BA
100
AcDbEntity
  8
0
100
AcDbSpline
 62
7
  6
CONTINUOUS
 70
0
 71
3
 72
13
 73
9
 74
0
 42
0.0000001
 43
0.0000001
 44
0.0000000001
 40
0.0
 40
0.0
 40
0.0
 40
0.0
 40
0.2989084936
 40
0.5668536659
 40
0.6881333589
 40
0.8007440527
 40
0.9046906182
 40
1.0
 40
1.0
 40
1.0
 40
1.0
 10
11.4247350756
 20
6.9353958298
 30
0.0
 10
11.4246015292
 20
6.9326004866
 30
0.0
 10
11.4242638975
 20
6.9273029489
 30
0.0
 10
11.4236350349
 20
6.9208895619
 30
0.0
 10
11.4230398486
 20
6.9162286953
 30
0.0
 10
11.4225749157
 20
6.9130997994
 30
0.0
 10
11.4220810658
 20
6.9102217621
 30
0.0
 10
11.4217196995
 20
6.9083912905
 30
0.0
 10
11.4215338979
 20
6.9075185143
 30
0.0
  0
SPLINE
  5
3BB
100
AcDbEntity
  8
0
100
AcDbSpline
 62
7
  6
CONTINUOUS
 70
0
 71
3
 72
11
 73
7
 74
0
 42
0.0000001
 43
0.0000001
 44
0.0000000001
 40
0.0
 40
0.0
 40
0.0
 40
0.0
 40
0.3001271096
 40
0.5685929251
 40
0.8021300863
 40
1.0
 40
1.0
 40
1.0
 40
1.0
 10
11.4028849464
 20
6.9353958298
 30
0.0
 10
11.4028180637
 20
6.9326024335
 30
0.0
 10
11.4026491596
 20
6.9273112114
 30
0.0
 10
11.4022826309
 20
6.9198519423
 30
0.0
 10
11.4018392002
 20
6.9133508053
 30
0.0
 10
11.4014760531
 20
6.9093502958
 30
0.0
 10
11.4012806175
 20
6.9075185143
 30
0.0
  0
SPLINE
  5
3BC
100
AcDbEntity
  8
0
100
AcDbSpline
 62
7
  6
CONTINUOUS
 70
0
 71
3
 72
13
 73
9
 74
0
 42
0.0000001
 43
0.0000001
 44
0.0000000001
 40
0.0
 40
0.0
 40
0.0
 40
0.0
 40
0.2971241076
 40
0.4353104227
 40
0.5654597473
 40
0.7998072042
 40
0.9040488354
 40
1.0
 40
1.0
 40
1.0
 40
1.0
 10
11.4247350756
 20
6.9627588011
 30
0.0
 10
11.4246101697
 20
6.9654627166
 30
0.0
 10
11.4243708234
 20
6.969422018
 30
0.0
 10
11.4239312972
 20
6.9745547962
 30
0.0
 10
11.4234598224
 20
6.9791100457
 30
0.0
 10
11.4229022998
 20
6.9833451979
 30
0.0
 10
11.4222512799
 20
6.9872502436
 30
0.0
 10
11.4219087538
 20
6.9890417789
 30
0.0
 10
11.421732977
 20
6.9898980375
 30
0.0
  0
LINE
  5
3BD
100
AcDbEntity
  8
0
100
AcDbLine
 62
7
  6
CONTINUOUS
 10
11.421732977
 20
6.9898980375
 11
11.4216975163
 21
6.9900699771
  0
SPLINE
  5
3BE
100
AcDbEntity
  8
0
100
AcDbSpline
 62
7
  6
CONTINUOUS
 70
0
 71
3
 72
11
 73
7
 74
0
 42
0.0000001
 43
0.0000001
 44
0.0000000001
 40
0.0
 40
0.0
 40
0.0
 40
0.0
 40
0.298526353
 40
0.5674523231
 40
0.8013784374
 40
1.0
 40
1.0
 40
1.0
 40
1.0
 10
11.4028849464
 20
6.9627588011
 30
0.0
 10
11.402822155
 20
6.9654710317
 30
0.0
 10
11.4026657547
 20
6.9706258076
 30
0.0
 10
11.4023260871
 20
6.9779010614
 30
0.0
 10
11.4019053125
 20
6.9842624548
 30
0.0
 10
11.4015580425
 20
6.9881784848
 30
0.0
 10
11.4013725614
 20
6.9899739691
 30
0.0
  0
SPLINE
  5
3BF
100
AcDbEntity
  8
0
100
AcDbSpline
 62
7
  6
CONTINUOUS
 70
0
 71
3
 72
8
 73
4
 74
0
 42
0.0000001
 43
0.0000001
 44
0.0000000001
 40
0.0
 40
0.0
 40
0.0
 40
0.0
 40
1.0
 40
1.0
 40
1.0
 40
1.0
 10
11.4013725614
 20
6.9899739691
 30
0.0
 10
11.4013692474
 20
6.9900059663
 30
0.0
 10
11.4013659333
 20
6.9900379636
 30
0.0
 10
11.4013626193
 20
6.9900699608
 30
0.0
  0
SPLINE
  5
3C0
100
AcDbEntity
  8
0
100
AcDbSpline
 62
7
  6
CONTINUOUS
 70
0
 71
3
 72
13
 73
9
 74
0
 42
0.0000001
 43
0.0000001
 44
0.0000000001
 40
0.0
 40
0.0
 40
0.0
 40
0.0
 40
0.2951366544
 40
0.4327338044
 40
0.5626212197
 40
0.7975568135
 40
0.9027078863
 40
1.0
 40
1.0
 40
1.0
 40
1.0
 10
11.444824195
 20
6.9627588011
 30
0.0
 10
11.4446378528
 20
6.9654585401
 30
0.0
 10
11.4442807301
 20
6.969412139
 30
0.0
 10
11.4436266498
 20
6.9745297766
 30
0.0
 10
11.4429235814
 20
6.9790829231
 30
0.0
 10
11.4420920667
 20
6.9833144589
 30
0.0
 10
11.4411244429
 20
6.9872069883
 30
0.0
 10
11.4406155147
 20
6.9889925928
 30
0.0
 10
11.4403545833
 20
6.9898456685
 30
0.0
  0
SPLINE
  5
3C1
100
AcDbEntity
  8
0
100
AcDbSpline
 62
7
  6
CONTINUOUS
 70
0
 71
3
 72
13
 73
9
 74
0
 42
0.0000001
 43
0.0000001
 44
0.0000000001
 40
0.0
 40
0.0
 40
0.0
 40
0.0
 40
0.292658593
 40
0.4295216544
 40
0.5590819166
 40
0.7947503792
 40
0.9010372224
 40
1.0
 40
1.0
 40
1.0
 40
1.0
 10
11.4630586399
 20
6.9627588011
 30
0.0
 10
11.462811544
 20
6.9654584657
 30
0.0
 10
11.4623377131
 20
6.969412174
 30
0.0
 10
11.4614725361
 20
6.9745191098
 30
0.0
 10
11.4605400637
 20
6.9790762396
 30
0.0
 10
11.4594370861
 20
6.9833079138
 30
0.0
 10
11.4581591163
 20
6.9871881384
 30
0.0
 10
11.4574872512
 20
6.9889675522
 30
0.0
 10
11.457143139
 20
6.9898172251
 30
0.0
  0
SPLINE
  5
3C2
100
AcDbEntity
  8
0
100
AcDbSpline
 62
7
  6
CONTINUOUS
 70
0
 71
3
 72
14
 73
10
 74
0
 42
0.0000001
 43
0.0000001
 44
0.0000000001
 40
0.0
 40
0.0
 40
0.0
 40
0.0
 40
0.2897760973
 40
0.4257859579
 40
0.5549644688
 40
0.6769053183
 40
0.791536491
 40
0.8991268185
 40
1.0
 40
1.0
 40
1.0
 40
1.0
 10
11.4793533929
 20
6.9627588011
 30
0.0
 10
11.4790462524
 20
6.9654623187
 30
0.0
 10
11.4784566806
 20
6.9694217021
 30
0.0
 10
11.4773839752
 20
6.9745221135
 30
0.0
 10
11.4764887472
 20
6.978046393
 30
0.0
 10
11.4754963068
 20
6.9813353805
 30
0.0
 10
11.4744187088
 20
6.9843833201
 30
0.0
 10
11.4732700722
 20
6.9871924646
 30
0.0
 10
11.4724388259
 20
6.9889657425
 30
0.0
 10
11.47201352
 20
6.9898120536
 30
0.0
  0
SPLINE
  5
3C3
100
AcDbEntity
  8
0
100
AcDbSpline
 62
7
  6
CONTINUOUS
 70
0
 71
3
 72
14
 73
10
 74
0
 42
0.0000001
 43
0.0000001
 44
0.0000000001
 40
0.0
 40
0.0
 40
0.0
 40
0.0
 40
0.2866204372
 40
0.4217059563
 40
0.5504806678
 40
0.6725971819
 40
0.7880235462
 40
0.8970470628
 40
1.0
 40
1.0
 40
1.0
 40
1.0
 10
11.4936324802
 20
6.9627588011
 30
0.0
 10
11.4932661218
 20
6.9654694081
 30
0.0
 10
11.4925619591
 20
6.9694388704
 30
0.0
 10
11.4912856501
 20
6.974536254
 30
0.0
 10
11.4902188708
 20
6.9780635049
 30
0.0
 10
11.4890362328
 20
6.9813548794
 30
0.0
 10
11.4877521933
 20
6.9844045617
 30
0.0
 10
11.4863835714
 20
6.9872149692
 30
0.0
 10
11.4853967479
 20
6.9889823552
 30
0.0
 10
11.4848923129
 20
6.9898254662
 30
0.0
  0
SPLINE
  5
3C4
100
AcDbEntity
  8
0
100
AcDbSpline
 62
7
  6
CONTINUOUS
 70
0
 71
3
 72
14
 73
10
 74
0
 42
0.0000001
 43
0.0000001
 44
0.0000000001
 40
0.0
 40
0.0
 40
0.0
 40
0.0
 40
0.2832782665
 40
0.4173943102
 40
0.5457542805
 40
0.6680692756
 40
0.7843439638
 40
0.8948771947
 40
1.0
 40
1.0
 40
1.0
 40
1.0
 10
11.5058293262
 20
6.9627588011
 30
0.0
 10
11.5054047506
 20
6.9654791008
 30
0.0
 10
11.5045874405
 20
6.9694621291
 30
0.0
 10
11.5031121123
 20
6.9745590372
 30
0.0
 10
11.501876908
 20
6.9780912313
 30
0.0
 10
11.5005075632
 20
6.9813864986
 30
0.0
 10
11.4990209685
 20
6.9844389919
 30
0.0
 10
11.497436612
 20
6.987251349
 30
0.0
 10
11.4962983857
 20
6.9890132123
 30
0.0
 10
11.4957170115
 20
6.9898533855
 30
0.0
  0
SPLINE
  5
3C5
100
AcDbEntity
  8
0
100
AcDbSpline
 62
7
  6
CONTINUOUS
 70
0
 71
3
 72
13
 73
9
 74
0
 42
0.0000001
 43
0.0000001
 44
0.0000000001
 40
0.0
 40
0.0
 40
0.0
 40
0.0
 40
0.2798754759
 40
0.4130209784
 40
0.5409836531
 40
0.663529763
 40
0.7806947159
 40
1.0
 40
1.0
 40
1.0
 40
1.0
 10
11.5158870636
 20
6.9627588011
 30
0.0
 10
11.5154054792
 20
6.9654909082
 30
0.0
 10
11.5144768683
 20
6.9694902308
 30
0.0
 10
11.5128078033
 20
6.9745887069
 30
0.0
 10
11.511407948
 20
6.978127295
 30
0.0
 10
11.5098559442
 20
6.9814278094
 30
0.0
 10
11.5076586698
 20
6.9854142648
 30
0.0
 10
11.5057758429
 20
6.9881815974
 30
0.0
 10
11.5044355529
 20
6.98989308
 30
0.0
  0
SPLINE
  5
3C6
100
AcDbEntity
  8
0
100
AcDbSpline
 62
7
  6
CONTINUOUS
 70
0
 71
3
 72
13
 73
9
 74
0
 42
0.0000001
 43
0.0000001
 44
0.0000000001
 40
0.0
 40
0.0
 40
0.0
 40
0.0
 40
0.2764326048
 40
0.4086023468
 40
0.5361701984
 40
0.6589524616
 40
0.7770069115
 40
1.0
 40
1.0
 40
1.0
 40
1.0
 10
11.5237587986
 20
6.9627588011
 30
0.0
 10
11.5232217724
 20
6.9655037946
 30
0.0
 10
11.5221844621
 20
6.9695206378
 30
0.0
 10
11.5203283409
 20
6.9746212636
 30
0.0
 10
11.5187687243
 20
6.9781668416
 30
0.0
 10
11.5170396694
 20
6.9814727099
 30
0.0
 10
11.5145852541
 20
6.9854757071
 30
0.0
 10
11.5124924337
 20
6.9882361108
 30
0.0
 10
11.5110101986
 20
6.9899372668
 30
0.0
  0
SPLINE
  5
3C7
100
AcDbEntity
  8
0
100
AcDbSpline
 62
7
  6
CONTINUOUS
 70
0
 71
3
 72
14
 73
10
 74
0
 42
0.0000001
 43
0.0000001
 44
0.0000000001
 40
0.0
 40
0.0
 40
0.0
 40
0.0
 40
0.2717564863
 40
0.4026597936
 40
0.5297864189
 40
0.6529745937
 40
0.7722510436
 40
0.8878382413
 40
1.0
 40
1.0
 40
1.0
 40
1.0
 10
11.5294078295
 20
6.9627588011
 30
0.0
 10
11.5288450626
 20
6.9653873713
 30
0.0
 10
11.5277675159
 20
6.9692369644
 30
0.0
 10
11.5258651563
 20
6.9741228084
 30
0.0
 10
11.5242663272
 20
6.9775413486
 30
0.0
 10
11.5224952219
 20
6.9807427583
 30
0.0
 10
11.5205726446
 20
6.9837205234
 30
0.0
 10
11.5185212168
 20
6.9864757073
 30
0.0
 10
11.5170606028
 20
6.9881932765
 30
0.0
 10
11.5163149032
 20
6.9890147758
 30
0.0
  0
LINE
  5
3C8
100
AcDbEntity
  8
0
100
AcDbLine
 62
7
  6
CONTINUOUS
 10
11.5154063522
 20
6.9899899918
 11
11.5153299252
 21
6.9900697503
  0
SPLINE
  5
3C9
100
AcDbEntity
  8
0
100
AcDbSpline
 62
7
  6
CONTINUOUS
 70
0
 71
3
 72
13
 73
9
 74
0
 42
0.0000001
 43
0.0000001
 44
0.0000000001
 40
0.0
 40
0.0
 40
0.0
 40
0.0
 40
0.2696787447
 40
0.3999751257
 40
0.5268217729
 40
0.6501123471
 40
0.7699243582
 40
1.0
 40
1.0
 40
1.0
 40
1.0
 10
11.5328078179
 20
6.9627588011
 30
0.0
 10
11.5321691472
 20
6.9655169738
 30
0.0
 10
11.5309327483
 20
6.9695499382
 30
0.0
 10
11.5287423664
 20
6.9746321384
 30
0.0
 10
11.5268954595
 20
6.9781776699
 30
0.0
 10
11.5248484264
 20
6.9814826672
 30
0.0
 10
11.5219280623
 20
6.9855048762
 30
0.0
 10
11.5194612896
 20
6.9882468294
 30
0.0
 10
11.5177275988
 20
6.9899286194
 30
0.0
  0
SPLINE
  5
3CA
100
AcDbEntity
  8
0
100
AcDbSpline
 62
7
  6
CONTINUOUS
 70
0
 71
3
 72
11
 73
7
 74
0
 42
0.0000001
 43
0.0000001
 44
0.0000000001
 40
0.0
 40
0.0
 40
0.0
 40
0.0
 40
0.2363609038
 40
0.4814117601
 40
0.7360004163
 40
1.0
 40
1.0
 40
1.0
 40
1.0
 10
11.0950996456
 20
6.9075185143
 30
0.0
 10
11.0971546021
 20
6.9092129566
 30
0.0
 10
11.1011037423
 20
6.91296255
 30
0.0
 10
11.1062569038
 20
6.9194981901
 30
0.0
 10
11.1105215438
 20
6.927010664
 30
0.0
 10
11.1125548105
 20
6.9325253403
 30
0.0
 10
11.1133360468
 20
6.9353958298
 30
0.0
  0
SPLINE
  5
3CB
100
AcDbEntity
  8
0
100
AcDbSpline
 62
7
  6
CONTINUOUS
 70
0
 71
3
 72
11
 73
7
 74
0
 42
0.0000001
 43
0.0000001
 44
0.0000000001
 40
0.0
 40
0.0
 40
0.0
 40
0.0
 40
0.2735494421
 40
0.5315159382
 40
0.7733230335
 40
1.0
 40
1.0
 40
1.0
 40
1.0
 10
11.0802632327
 20
6.9353958298
 30
0.0
 10
11.0808933183
 20
6.9325501679
 30
0.0
 10
11.0825195502
 20
6.9271011546
 30
0.0
 10
11.0859716575
 20
6.9195917641
 30
0.0
 10
11.0901508747
 20
6.9130490644
 30
0.0
 10
11.0934033703
 20
6.9092377314
 30
0.0
 10
11.0950996456
 20
6.9075185143
 30
0.0
  0
SPLINE
  5
3CC
100
AcDbEntity
  8
0
100
AcDbSpline
 62
7
  6
CONTINUOUS
 70
0
 71
3
 72
11
 73
7
 74
0
 42
0.0000001
 43
0.0000001
 44
0.0000000001
 40
0.0
 40
0.0
 40
0.0
 40
0.0
 40
0.2334011812
 40
0.4774362188
 40
0.7330470991
 40
1.0
 40
1.0
 40
1.0
 40
1.0
 10
11.0630818174
 20
6.9075185143
 30
0.0
 10
11.0650259871
 20
6.90922004
 30
0.0
 10
11.0687606343
 20
6.9129881633
 30
0.0
 10
11.0736118539
 20
6.9195270099
 30
0.0
 10
11.0776239686
 20
6.9270395425
 30
0.0
 10
11.0795292675
 20
6.9325334372
 30
0.0
 10
11.0802632327
 20
6.9353958298
 30
0.0
  0
SPLINE
  5
3CD
100
AcDbEntity
  8
0
100
AcDbSpline
 62
7
  6
CONTINUOUS
 70
0
 71
3
 72
13
 73
9
 74
0
 42
0.0000001
 43
0.0000001
 44
0.0000000001
 40
0.0
 40
0.0
 40
0.0
 40
0.0
 40
0.2700678439
 40
0.5267314097
 40
0.6499324502
 40
0.769761579
 40
0.8863978202
 40
1.0
 40
1.0
 40
1.0
 40
1.0
 10
11.0470354956
 20
6.9353958298
 30
0.0
 10
11.0477189773
 20
6.9325417632
 30
0.0
 10
11.0494879903
 20
6.9270703341
 30
0.0
 10
11.0526480481
 20
6.9207251947
 30
0.0
 10
11.0555851053
 20
6.9161533166
 30
0.0
 10
11.0579272201
 20
6.9130201318
 30
0.0
 10
11.060415475
 20
6.9101387808
 30
0.0
 10
11.0621810341
 20
6.9083626419
 30
0.0
 10
11.0630818174
 20
6.9075185143
 30
0.0
  0
SPLINE
  5
3CE
100
AcDbEntity
  8
0
100
AcDbSpline
 62
7
  6
CONTINUOUS
 70
0
 71
3
 72
13
 73
9
 74
0
 42
0.0000001
 43
0.0000001
 44
0.0000000001
 40
0.0
 40
0.0
 40
0.0
 40
0.0
 40
0.1136021804
 40
0.2302384241
 40
0.3500675527
 40
0.4732685863
 40
0.7299321524
 40
1.0
 40
1.0
 40
1.0
 40
1.0
 10
11.0309891738
 20
6.9075185143
 30
0.0
 10
11.0318899571
 20
6.9083626419
 30
0.0
 10
11.0336555162
 20
6.9101387808
 30
0.0
 10
11.0361437711
 20
6.9130201318
 30
0.0
 10
11.0384858859
 20
6.9161533166
 30
0.0
 10
11.041422943
 20
6.9207251946
 30
0.0
 10
11.0445830008
 20
6.927070334
 30
0.0
 10
11.0463520138
 20
6.9325417632
 30
0.0
 10
11.0470354956
 20
6.9353958298
 30
0.0
  0
SPLINE
  5
3CF
100
AcDbEntity
  8
0
100
AcDbSpline
 62
7
  6
CONTINUOUS
 70
0
 71
3
 72
11
 73
7
 74
0
 42
0.0000001
 43
0.0000001
 44
0.0000000001
 40
0.0
 40
0.0
 40
0.0
 40
0.0
 40
0.2669529062
 40
0.5225637755
 40
0.7665988083
 40
1.0
 40
1.0
 40
1.0
 40
1.0
 10
11.0138077584
 20
6.9353958298
 30
0.0
 10
11.0145417236
 20
6.9325334372
 30
0.0
 10
11.0164470225
 20
6.9270395425
 30
0.0
 10
11.0204591372
 20
6.91952701
 30
0.0
 10
11.0253103568
 20
6.9129881634
 30
0.0
 10
11.029045004
 20
6.9092200401
 30
0.0
 10
11.0309891738
 20
6.9075185143
 30
0.0
  0
SPLINE
  5
3D0
100
AcDbEntity
  8
0
100
AcDbSpline
 62
7
  6
CONTINUOUS
 70
0
 71
3
 72
11
 73
7
 74
0
 42
0.0000001
 43
0.0000001
 44
0.0000000001
 40
0.0
 40
0.0
 40
0.0
 40
0.0
 40
0.2266769696
 40
0.4684840578
 40
0.7264505542
 40
1.0
 40
1.0
 40
1.0
 40
1.0
 10
10.9989713456
 20
6.9075185143
 30
0.0
 10
11.0006676209
 20
6.9092377314
 30
0.0
 10
11.0039201164
 20
6.9130490644
 30
0.0
 10
11.0080993336
 20
6.9195917641
 30
0.0
 10
11.011551441
 20
6.9271011545
 30
0.0
 10
11.0131776728
 20
6.9325501678
 30
0.0
 10
11.0138077584
 20
6.9353958298
 30
0.0
  0
SPLINE
  5
3D1
100
AcDbEntity
  8
0
100
AcDbSpline
 62
7
  6
CONTINUOUS
 70
0
 71
3
 72
11
 73
7
 74
0
 42
0.0000001
 43
0.0000001
 44
0.0000000001
 40
0.0
 40
0.0
 40
0.0
 40
0.0
 40
0.2639995802
 40
0.518588236
 40
0.7636390993
 40
1.0
 40
1.0
 40
1.0
 40
1.0
 10
10.9807349443
 20
6.9353958298
 30
0.0
 10
10.9815161807
 20
6.9325253403
 30
0.0
 10
10.9835494474
 20
6.9270106641
 30
0.0
 10
10.9878140874
 20
6.9194981902
 30
0.0
 10
10.9929672489
 20
6.91296255
 30
0.0
 10
10.996916389
 20
6.9092129566
 30
0.0
 10
10.9989713456
 20
6.9075185143
 30
0.0
  0
SPLINE
  5
3D2
100
AcDbEntity
  8
0
100
AcDbSpline
 62
7
  6
CONTINUOUS
 70
0
 71
3
 72
12
 73
8
 74
0
 42
0.0000001
 43
0.0000001
 44
0.0000000001
 40
0.0
 40
0.0
 40
0.0
 40
0.0
 40
0.2229477266
 40
0.4635435642
 40
0.5909004747
 40
0.7229267699
 40
1.0
 40
1.0
 40
1.0
 40
1.0
 10
10.9671776146
 20
6.9075185143
 30
0.0
 10
10.968737381
 20
6.9092485246
 30
0.0
 10
10.9717231443
 20
6.9130839392
 30
0.0
 10
10.9748406981
 20
6.9184336943
 30
0.0
 10
10.977026536
 20
6.9231817936
 30
0.0
 10
10.9790335769
 20
6.928418036
 30
0.0
 10
10.9801608638
 20
6.9325584901
 30
0.0
 10
10.9807349443
 20
6.9353958298
 30
0.0
  0
SPLINE
  5
3D3
100
AcDbEntity
  8
0
100
AcDbSpline
 62
7
  6
CONTINUOUS
 70
0
 71
3
 72
13
 73
9
 74
0
 42
0.0000001
 43
0.0000001
 44
0.0000000001
 40
0.0
 40
0.0
 40
0.0
 40
0.0
 40
0.1316259982
 40
0.261445357
 40
0.3893121536
 40
0.5152091008
 40
0.7610806378
 40
1.0
 40
1.0
 40
1.0
 40
1.0
 10
10.947971254
 20
6.9353958298
 30
0.0
 10
10.9483870144
 20
6.9339453532
 30
0.0
 10
10.9493468047
 20
6.9311009334
 30
0.0
 10
10.9511440115
 20
6.9270102741
 30
0.0
 10
10.9532478952
 20
6.9231431412
 30
0.0
 10
10.9563834279
 20
6.9183440045
 30
0.0
 10
10.9608762192
 20
6.9129396104
 30
0.0
 10
10.9650210937
 20
6.9092069008
 30
0.0
 10
10.9671776146
 20
6.9075185143
 30
0.0
  0
SPLINE
  5
3D4
100
AcDbEntity
  8
0
100
AcDbSpline
 62
7
  6
CONTINUOUS
 70
0
 71
3
 72
11
 73
7
 74
0
 42
0.0000001
 43
0.0000001
 44
0.0000000001
 40
0.0
 40
0.0
 40
0.0
 40
0.0
 40
0.219130316
 40
0.458570068
 40
0.7192295606
 40
1.0
 40
1.0
 40
1.0
 40
1.0
 10
10.935756218
 20
6.9075185143
 30
0.0
 10
10.9371714177
 20
6.9092606672
 30
0.0
 10
10.939874523
 20
6.9131218888
 30
0.0
 10
10.9433029256
 20
6.9196629297
 30
0.0
 10
10.9461325434
 20
6.9271641303
 30
0.0
 10
10.9474554839
 20
6.9325665618
 30
0.0
 10
10.947971254
 20
6.9353958298
 30
0.0
  0
SPLINE
  5
3D5
100
AcDbEntity
  8
0
100
AcDbSpline
 62
7
  6
CONTINUOUS
 70
0
 71
3
 72
12
 73
8
 74
0
 42
0.0000001
 43
0.0000001
 44
0.0000000001
 40
0.0
 40
0.0
 40
0.0
 40
0.0
 40
0.1302656721
 40
0.2590982301
 40
0.5118996085
 40
0.7586630974
 40
1.0
 40
1.0
 40
1.0
 40
1.0
 10
10.9156694469
 20
6.9353958298
 30
0.0
 10
10.9161047907
 20
6.9339436016
 30
0.0
 10
10.9171105069
 20
6.9310949511
 30
0.0
 10
10.9196010981
 20
6.9256759424
 30
0.0
 10
10.9235041723
 20
6.9194473116
 30
0.0
 10
10.9291852138
 20
6.9129209849
 30
0.0
 10
10.9335077034
 20
6.9092017652
 30
0.0
 10
10.935756218
 20
6.9075185143
 30
0.0
  0
SPLINE
  5
3D6
100
AcDbEntity
  8
0
100
AcDbSpline
 62
7
  6
CONTINUOUS
 70
0
 71
3
 72
13
 73
9
 74
0
 42
0.0000001
 43
0.0000001
 44
0.0000000001
 40
0.0
 40
0.0
 40
0.0
 40
0.0
 40
0.2151718786
 40
0.3313663117
 40
0.4534920878
 40
0.5816029897
 40
0.7156144305
 40
1.0
 40
1.0
 40
1.0
 40
1.0
 10
10.9048536567
 20
6.9075185143
 30
0.0
 10
10.9061163932
 20
6.9092740827
 30
0.0
 10
10.9078746068
 20
6.9121160899
 30
0.0
 10
10.9099233091
 20
6.9161889495
 30
0.0
 10
10.9113855412
 20
6.9195713756
 30
0.0
 10
10.9127166129
 20
6.92319872
 30
0.0
 10
10.9143220023
 20
6.9284534164
 30
0.0
 10
10.9152139936
 20
6.9325742112
 30
0.0
 10
10.9156694469
 20
6.9353958298
 30
0.0
  0
SPLINE
  5
3D7
100
AcDbEntity
  8
0
100
AcDbSpline
 62
7
  6
CONTINUOUS
 70
0
 71
3
 72
12
 73
8
 74
0
 42
0.0000001
 43
0.0000001
 44
0.0000000001
 40
0.0
 40
0.0
 40
0.0
 40
0.0
 40
0.1290397914
 40
0.2569806262
 40
0.5090800303
 40
0.7565908776
 40
1.0
 40
1.0
 40
1.0
 40
1.0
 10
10.883980129
 20
6.9353958298
 30
0.0
 10
10.8844330251
 20
6.9339419938
 30
0.0
 10
10.8854798535
 20
6.931089645
 30
0.0
 10
10.8880724635
 20
6.9256630039
 30
0.0
 10
10.8921376451
 20
6.9194267469
 30
0.0
 10
10.8980428661
 20
6.9129043443
 30
0.0
 10
10.9025230597
 20
6.9091974521
 30
0.0
 10
10.9048536567
 20
6.9075185143
 30
0.0
  0
SPLINE
  5
3D8
100
AcDbEntity
  8
0
100
AcDbSpline
 62
7
  6
CONTINUOUS
 70
0
 71
3
 72
14
 73
10
 74
0
 42
0.0000001
 43
0.0000001
 44
0.0000000001
 40
0.0
 40
0.0
 40
0.0
 40
0.0
 40
0.102547039
 40
0.2113804575
 40
0.3266667022
 40
0.44854826
 40
0.5770491922
 40
0.712046616
 40
1.0
 40
1.0
 40
1.0
 40
1.0
 10
10.8746140127
 20
6.9075185143
 30
0.0
 10
10.8751490951
 20
6.908377576
 30
0.0
 10
10.8761949534
 20
6.9101844494
 30
0.0
 10
10.8776442319
 20
6.913066169
 30
0.0
 10
10.8790080714
 20
6.9161986588
 30
0.0
 10
10.8802734168
 20
6.9195801497
 30
0.0
 10
10.8814253972
 20
6.9232067338
 30
0.0
 10
10.8828172331
 20
6.9284697966
 30
0.0
 10
10.8835867078
 20
6.9325812676
 30
0.0
 10
10.883980129
 20
6.9353958298
 30
0.0
  0
SPLINE
  5
3D9
100
AcDbEntity
  8
0
100
AcDbSpline
 62
7
  6
CONTINUOUS
 70
0
 71
3
 72
13
 73
9
 74
0
 42
0.0000001
 43
0.0000001
 44
0.0000000001
 40
0.0
 40
0.0
 40
0.0
 40
0.0
 40
0.1279492222
 40
0.2550919995
 40
0.3813604632
 40
0.5067617005
 40
0.7548667134
 40
1.0
 40
1.0
 40
1.0
 40
1.0
 10
10.8530510504
 20
6.9353958298
 30
0.0
 10
10.8535193687
 20
6.9339405538
 30
0.0
 10
10.8546022386
 20
6.9310850753
 30
0.0
 10
10.8566221746
 20
6.9269938002
 30
0.0
 10
10.8589860072
 20
6.9231269255
 30
0.0
 10
10.8625231308
 20
6.9183084808
 30
0.0
 10
10.8675942288
 20
6.9128893421
 30
0.0
 10
10.8722115658
 20
6.9091938763
 30
0.0
 10
10.8746140127
 20
6.9075185143
 30
0.0
  0
SPLINE
  5
3DA
100
AcDbEntity
  8
0
100
AcDbSpline
 62
7
  6
CONTINUOUS
 70
0
 71
3
 72
14
 73
10
 74
0
 42
0.0000001
 43
0.0000001
 44
0.0000000001
 40
0.0
 40
0.0
 40
0.0
 40
0.0
 40
0.1003497906
 40
0.2076800811
 40
0.3221290736
 40
0.4438073882
 40
0.5727042506
 40
0.7086558122
 40
1.0
 40
1.0
 40
1.0
 40
1.0
 10
10.8451782773
 20
6.9075185143
 30
0.0
 10
10.8456300143
 20
6.9083813363
 30
0.0
 10
10.8465119546
 20
6.9101950982
 30
0.0
 10
10.8477292428
 20
6.9130760996
 30
0.0
 10
10.848874825
 20
6.9162077851
 30
0.0
 10
10.8499377337
 20
6.9195884532
 30
0.0
 10
10.8509054453
 20
6.9232141207
 30
0.0
 10
10.8520765806
 20
6.9284846887
 30
0.0
 10
10.8527210968
 20
6.9325875666
 30
0.0
 10
10.8530510504
 20
6.9353958298
 30
0.0
  0
SPLINE
  5
3DB
100
AcDbEntity
  8
0
100
AcDbSpline
 62
7
  6
CONTINUOUS
 70
0
 71
3
 72
13
 73
9
 74
0
 42
0.0000001
 43
0.0000001
 44
0.0000000001
 40
0.0
 40
0.0
 40
0.0
 40
0.0
 40
0.1270522819
 40
0.253546665
 40
0.3794326837
 40
0.5047207462
 40
0.7533761079
 40
1.0
 40
1.0
 40
1.0
 40
1.0
 10
10.8230264169
 20
6.9353958298
 30
0.0
 10
10.8235079393
 20
6.9339393013
 30
0.0
 10
10.8246217818
 20
6.9310810038
 30
0.0
 10
10.8266974163
 20
6.9269896612
 30
0.0
 10
10.8291262087
 20
6.9231229434
 30
0.0
 10
10.8327640546
 20
6.918299938
 30
0.0
 10
10.8379798071
 20
6.9128777588
 30
0.0
 10
10.8427145053
 20
6.9091909661
 30
0.0
 10
10.8451782773
 20
6.9075185143
 30
0.0
  0
SPLINE
  5
3DC
100
AcDbEntity
  8
0
100
AcDbSpline
 62
7
  6
CONTINUOUS
 70
0
 71
3
 72
14
 73
10
 74
0
 42
0.0000001
 43
0.0000001
 44
0.0000000001
 40
0.0
 40
0.0
 40
0.0
 40
0.0
 40
0.0983415743
 40
0.2043126266
 40
0.3180151647
 40
0.439523191
 40
0.5687888897
 40
0.705607577
 40
1.0
 40
1.0
 40
1.0
 40
1.0
 10
10.8166836935
 20
6.9075185143
 30
0.0
 10
10.817049209
 20
6.9083850636
 30
0.0
 10
10.8177618889
 20
6.9102053365
 30
0.0
 10
10.8187418132
 20
6.9130853905
 30
0.0
 10
10.8196640947
 20
6.9162161252
 30
0.0
 10
10.8205198901
 20
6.9195958939
 30
0.0
 10
10.8212990794
 20
6.9232206347
 30
0.0
 10
10.8222434387
 20
6.9284976284
 30
0.0
 10
10.8227610989
 20
6.9325929553
 30
0.0
 10
10.8230264169
 20
6.9353958298
 30
0.0
  0
SPLINE
  5
3DD
100
AcDbEntity
  8
0
100
AcDbSpline
 62
7
  6
CONTINUOUS
 70
0
 71
3
 72
13
 73
9
 74
0
 42
0.0000001
 43
0.0000001
 44
0.0000000001
 40
0.0
 40
0.0
 40
0.0
 40
0.0
 40
0.1263201701
 40
0.2522875417
 40
0.3778641306
 40
0.5030619851
 40
0.7521669382
 40
1.0
 40
1.0
 40
1.0
 40
1.0
 10
10.7940462171
 20
6.9353958298
 30
0.0
 10
10.794538649
 20
6.933938255
 30
0.0
 10
10.7956780987
 20
6.9310776125
 30
0.0
 10
10.7977996817
 20
6.9269862297
 30
0.0
 10
10.8002820462
 20
6.9231196557
 30
0.0
 10
10.8040030483
 20
6.9182929836
 30
0.0
 10
10.809338093
 20
6.9128684858
 30
0.0
 10
10.8141693802
 20
6.9091886612
 30
0.0
 10
10.8166836935
 20
6.9075185143
 30
0.0
  0
SPLINE
  5
3DE
100
AcDbEntity
  8
0
100
AcDbSpline
 62
7
  6
CONTINUOUS
 70
0
 71
3
 72
14
 73
10
 74
0
 42
0.0000001
 43
0.0000001
 44
0.0000000001
 40
0.0
 40
0.0
 40
0.0
 40
0.0
 40
0.0966265863
 40
0.2014482259
 40
0.3145276324
 40
0.4359017761
 40
0.5654873826
 40
0.7030426087
 40
1.0
 40
1.0
 40
1.0
 40
1.0
 10
10.7892631161
 20
6.9075185143
 30
0.0
 10
10.7895398443
 20
6.9083884901
 30
0.0
 10
10.790078689
 20
6.9102144778
 30
0.0
 10
10.7908170816
 20
6.9130934827
 30
0.0
 10
10.7915121177
 20
6.9162232381
 30
0.0
 10
10.7921571147
 20
6.9196021321
 30
0.0
 10
10.7927444122
 20
6.9232260211
 30
0.0
 10
10.7934570624
 20
6.928508195
 30
0.0
 10
10.7938464487
 20
6.9325972992
 30
0.0
 10
10.7940462171
 20
6.9353958298
 30
0.0
  0
SPLINE
  5
3DF
100
AcDbEntity
  8
0
100
AcDbSpline
 62
9
  6
CONTINUOUS
 70
0
 71
3
 72
28
 73
24
 74
0
 42
0.0000001
 43
0.0000001
 44
0.0000000001
 40
0.0
 40
0.0
 40
0.0
 40
0.0
 40
0.0653368387
 40
0.1323719912
 40
0.2006611726
 40
0.2697085734
 40
0.3389883358
 40
0.4079655361
 40
0.4761170829
 40
0.5429526737
 40
0.6080364989
 40
0.6710094561
 40
0.7316126116
 40
0.7609915246
 40
0.7897391898
 40
0.8178619179
 40
0.8453764121
 40
0.8723102441
 40
0.8987021241
 40
0.9246017651
 40
0.9500696223
 40
0.9751762019
 40
1.0
 40
1.0
 40
1.0
 40
1.0
 10
11.2025481774
 20
5.787050385
 30
0.0
 10
11.1996850193
 20
5.7936262276
 30
0.0
 10
11.1945698668
 20
5.8072569552
 30
0.0
 10
11.1888352334
 20
5.8285556831
 30
0.0
 10
11.1850073792
 20
5.8506923942
 30
0.0
 10
11.1831453441
 20
5.8733259117
 30
0.0
 10
11.1832768001
 20
5.8961109196
 30
0.0
 10
11.1853999537
 20
5.9186987334
 30
0.0
 10
11.1894826425
 20
5.9407440817
 30
0.0
 10
11.1954633849
 20
5.9619098599
 30
0.0
 10
11.2032527265
 20
5.9818733118
 30
0.0
 10
11.2127331531
 20
6.0003275513
 30
0.0
 10
11.222024519
 20
6.0143617271
 30
0.0
 10
11.2301782104
 20
6.0245384225
 30
0.0
 10
11.2365527905
 20
6.0315475842
 30
0.0
 10
11.2432243354
 20
6.0379835361
 30
0.0
 10
11.2501675675
 20
6.0438213872
 30
0.0
 10
11.2573558602
 20
6.0490381698
 30
0.0
 10
11.2647616483
 20
6.053613343
 30
0.0
 10
11.2723563622
 20
6.0575287034
 30
0.0
 10
11.2801108893
 20
6.060768548
 30
0.0
 10
11.2879942384
 20
6.0633194909
 30
0.0
 10
11.2933411413
 20
6.0645599781
 30
0.0
 10
11.2960198553
 20
6.065059803
 30
0.0
  0
SPLINE
  5
3E0
100
AcDbEntity
  8
0
100
AcDbSpline
 62
7
  6
CONTINUOUS
 70
0
 71
3
 72
13
 73
9
 74
0
 42
0.0000001
 43
0.0000001
 44
0.0000000001
 40
0.0
 40
0.0
 40
0.0
 40
0.0
 40
0.1257522448
 40
0.251311395
 40
0.3766491506
 40
0.5017784175
 40
0.7512333184
 40
1.0
 40
1.0
 40
1.0
 40
1.0
 10
10.7662455701
 20
6.9353958298
 30
0.0
 10
10.7667465542
 20
6.9339374269
 30
0.0
 10
10.7679060852
 20
6.9310749448
 30
0.0
 10
10.7700636324
 20
6.9269835511
 30
0.0
 10
10.7725879204
 20
6.9231171102
 30
0.0
 10
10.7763740616
 20
6.9182876186
 30
0.0
 10
10.7818024798
 20
6.9128614105
 30
0.0
 10
10.7867092609
 20
6.9091869156
 30
0.0
 10
10.7892631161
 20
6.9075185143
 30
0.0
  0
SPLINE
  5
3E1
100
AcDbEntity
  8
0
100
AcDbSpline
 62
7
  6
CONTINUOUS
 70
0
 71
3
 72
13
 73
9
 74
0
 42
0.0000001
 43
0.0000001
 44
0.0000000001
 40
0.0
 40
0.0
 40
0.0
 40
0.0
 40
0.0953093823
 40
0.1992559503
 40
0.311866644
 40
0.43314633
 40
0.7010915023
 40
1.0
 40
1.0
 40
1.0
 40
1.0
 10
10.7630443925
 20
6.9075185143
 30
0.0
 10
10.7632301941
 20
6.9083912905
 30
0.0
 10
10.7635915603
 20
6.9102217621
 30
0.0
 10
10.7640854102
 20
6.9130997994
 30
0.0
 10
10.7645503432
 20
6.9162286953
 30
0.0
 10
10.7651455295
 20
6.9208895618
 30
0.0
 10
10.7657743921
 20
6.9273029488
 30
0.0
 10
10.7661120237
 20
6.9326004865
 30
0.0
 10
10.7662455701
 20
6.9353958298
 30
0.0
  0
SPLINE
  5
3E2
100
AcDbEntity
  8
0
100
AcDbSpline
 62
7
  6
CONTINUOUS
 70
0
 71
3
 72
13
 73
9
 74
0
 42
0.0000001
 43
0.0000001
 44
0.0000000001
 40
0.0
 40
0.0
 40
0.0
 40
0.0
 40
0.1253474902
 40
0.2506162004
 40
0.3757844924
 40
0.5008656043
 40
0.7505703138
 40
1.0
 40
1.0
 40
1.0
 40
1.0
 10
10.7397540954
 20
6.9353958298
 30
0.0
 10
10.7402612241
 20
6.933936828
 30
0.0
 10
10.7414351881
 20
6.9310730224
 30
0.0
 10
10.7436185472
 20
6.9269816298
 30
0.0
 10
10.7461729197
 20
6.9231152927
 30
0.0
 10
10.7500058365
 20
6.9182838072
 30
0.0
 10
10.7555012635
 20
6.9128564285
 30
0.0
 10
10.7604621678
 20
6.9091856935
 30
0.0
 10
10.7630443925
 20
6.9075185143
 30
0.0
  0
SPLINE
  5
3E3
100
AcDbEntity
  8
0
100
AcDbSpline
 62
7
  6
CONTINUOUS
 70
0
 71
3
 72
11
 73
7
 74
0
 42
0.0000001
 43
0.0000001
 44
0.0000000001
 40
0.0
 40
0.0
 40
0.0
 40
0.0
 40
0.1978699166
 40
0.4314070708
 40
0.6998728862
 40
1.0
 40
1.0
 40
1.0
 40
1.0
 10
10.7381497665
 20
6.9075185143
 30
0.0
 10
10.7383452022
 20
6.9093502959
 30
0.0
 10
10.7387083492
 20
6.9133508053
 30
0.0
 10
10.7391517799
 20
6.9198519423
 30
0.0
 10
10.7395183086
 20
6.9273112113
 30
0.0
 10
10.7396872128
 20
6.9326024335
 30
0.0
 10
10.7397540954
 20
6.9353958298
 30
0.0
  0
SPLINE
  5
3E4
100
AcDbEntity
  8
0
100
AcDbSpline
 62
7
  6
CONTINUOUS
 70
0
 71
3
 72
13
 73
9
 74
0
 42
0.0000001
 43
0.0000001
 44
0.0000000001
 40
0.0
 40
0.0
 40
0.0
 40
0.0
 40
0.1251050349
 40
0.2501999646
 40
0.3752670444
 40
0.5003195995
 40
0.7501741062
 40
1.0
 40
1.0
 40
1.0
 40
1.0
 10
10.7146953084
 20
6.9353958298
 30
0.0
 10
10.7152061384
 20
6.9339364657
 30
0.0
 10
10.7163887979
 20
6.9310718623
 30
0.0
 10
10.7185876936
 20
6.9269804739
 30
0.0
 10
10.7211601724
 20
6.9231142027
 30
0.0
 10
10.7250212535
 20
6.9182815291
 30
0.0
 10
10.730557011
 20
6.9128534681
 30
0.0
 10
10.7355504695
 20
6.90918497
 30
0.0
 10
10.7381497665
 20
6.9075185143
 30
0.0
  0
SPLINE
  5
3E5
100
AcDbEntity
  8
0
100
AcDbSpline
 62
7
  6
CONTINUOUS
 70
0
 71
3
 72
13
 73
9
 74
0
 42
0.0000001
 43
0.0000001
 44
0.0000000001
 40
0.0
 40
0.0
 40
0.0
 40
0.0
 40
0.1250242861
 40
0.250061372
 40
0.3750947934
 40
0.5001378858
 40
0.7500423076
 40
1.0
 40
1.0
 40
1.0
 40
1.0
 10
10.6911860448
 20
6.9353958298
 30
0.0
 10
10.691698111
 20
6.9339363445
 30
0.0
 10
10.692883675
 20
6.9310714745
 30
0.0
 10
10.6950877577
 20
6.9269800881
 30
0.0
 10
10.6976662812
 20
6.9231138395
 30
0.0
 10
10.7015367669
 20
6.9182807712
 30
0.0
 10
10.7070859887
 20
6.9128524861
 30
0.0
 10
10.7120903122
 20
6.9091847305
 30
0.0
 10
10.7146953084
 20
6.9075185143
 30
0.0
  0
SPLINE
  5
3E6
100
AcDbEntity
  8
0
100
AcDbSpline
 62
7
  6
CONTINUOUS
 70
0
 71
3
 72
13
 73
9
 74
0
 42
0.0000001
 43
0.0000001
 44
0.0000000001
 40
0.0
 40
0.0
 40
0.0
 40
0.0
 40
0.1251050349
 40
0.2501999646
 40
0.3752670444
 40
0.5003195995
 40
0.7501741062
 40
1.0
 40
1.0
 40
1.0
 40
1.0
 10
10.6693359156
 20
6.9353958298
 30
0.0
 10
10.6698467455
 20
6.9339364657
 30
0.0
 10
10.671029405
 20
6.9310718623
 30
0.0
 10
10.6732283007
 20
6.9269804739
 30
0.0
 10
10.6758007796
 20
6.9231142027
 30
0.0
 10
10.6796618606
 20
6.9182815291
 30
0.0
 10
10.6851976181
 20
6.9128534681
 30
0.0
 10
10.6901910767
 20
6.90918497
 30
0.0
 10
10.6927903737
 20
6.9075185143
 30
0.0
  0
SPLINE
  5
3E7
100
AcDbEntity
  8
0
100
AcDbSpline
 62
7
  6
CONTINUOUS
 70
0
 71
3
 72
13
 73
9
 74
0
 42
0.0000001
 43
0.0000001
 44
0.0000000001
 40
0.0
 40
0.0
 40
0.0
 40
0.0
 40
0.1253474902
 40
0.2506162004
 40
0.3757844924
 40
0.5008656043
 40
0.7505703138
 40
1.0
 40
1.0
 40
1.0
 40
1.0
 10
10.6492467961
 20
6.9353958298
 30
0.0
 10
10.6497539248
 20
6.933936828
 30
0.0
 10
10.6509278888
 20
6.9310730224
 30
0.0
 10
10.6531112479
 20
6.9269816298
 30
0.0
 10
10.6556656204
 20
6.9231152927
 30
0.0
 10
10.6594985372
 20
6.9182838072
 30
0.0
 10
10.6649939643
 20
6.9128564285
 30
0.0
 10
10.6699548685
 20
6.9091856935
 30
0.0
 10
10.6725370932
 20
6.9075185143
 30
0.0
  0
SPLINE
  5
3E8
100
AcDbEntity
  8
0
100
AcDbSpline
 62
7
  6
CONTINUOUS
 70
0
 71
3
 72
13
 73
9
 74
0
 42
0.0000001
 43
0.0000001
 44
0.0000000001
 40
0.0
 40
0.0
 40
0.0
 40
0.0
 40
0.1257522448
 40
0.251311395
 40
0.3766491506
 40
0.5017784175
 40
0.7512333184
 40
1.0
 40
1.0
 40
1.0
 40
1.0
 10
10.6310123512
 20
6.9353958298
 30
0.0
 10
10.6315133352
 20
6.9339374269
 30
0.0
 10
10.6326728662
 20
6.9310749448
 30
0.0
 10
10.6348304134
 20
6.9269835511
 30
0.0
 10
10.6373547015
 20
6.9231171102
 30
0.0
 10
10.6411408427
 20
6.9182876186
 30
0.0
 10
10.6465692609
 20
6.9128614105
 30
0.0
 10
10.651476042
 20
6.9091869156
 30
0.0
 10
10.6540298972
 20
6.9075185143
 30
0.0
  0
SPLINE
  5
3E9
100
AcDbEntity
  8
0
100
AcDbSpline
 62
7
  6
CONTINUOUS
 70
0
 71
3
 72
11
 73
7
 74
0
 42
0.0000001
 43
0.0000001
 44
0.0000000001
 40
0.0
 40
0.0
 40
0.0
 40
0.0
 40
0.2668331634
 40
0.5223802845
 40
0.7664567214
 40
1.0
 40
1.0
 40
1.0
 40
1.0
 10
10.5602123429
 20
6.9350714487
 30
0.0
 10
10.5609563625
 20
6.9322437468
 30
0.0
 10
10.5628700939
 20
6.9268176849
 30
0.0
 10
10.5668669774
 20
6.9193967287
 30
0.0
 10
10.5716829965
 20
6.9129328342
 30
0.0
 10
10.5753837181
 20
6.9092039428
 30
0.0
 10
10.5773094951
 20
6.9075185143
 30
0.0
  0
SPLINE
  5
3EA
100
AcDbEntity
  8
0
100
AcDbSpline
 62
7
  6
CONTINUOUS
 70
0
 71
3
 72
13
 73
9
 74
0
 42
0.0000001
 43
0.0000001
 44
0.0000000001
 40
0.0
 40
0.0
 40
0.0
 40
0.0
 40
0.1263201706
 40
0.252287542
 40
0.3778641296
 40
0.5030619836
 40
0.7521669368
 40
1.0
 40
1.0
 40
1.0
 40
1.0
 10
10.6147175983
 20
6.9353958298
 30
0.0
 10
10.6152100302
 20
6.933938255
 30
0.0
 10
10.6163494798
 20
6.9310776125
 30
0.0
 10
10.6184710628
 20
6.9269862297
 30
0.0
 10
10.6209534274
 20
6.9231196557
 30
0.0
 10
10.6246744295
 20
6.9182929836
 30
0.0
 10
10.6300094741
 20
6.9128684859
 30
0.0
 10
10.6348407613
 20
6.9091886612
 30
0.0
 10
10.6373550747
 20
6.9075185143
 30
0.0
  0
SPLINE
  5
3EB
100
AcDbEntity
  8
0
100
AcDbSpline
 62
7
  6
CONTINUOUS
 70
0
 71
3
 72
13
 73
9
 74
0
 42
0.0000001
 43
0.0000001
 44
0.0000000001
 40
0.0
 40
0.0
 40
0.0
 40
0.0
 40
0.1270522331
 40
0.2535469957
 40
0.3794332539
 40
0.5047212821
 40
0.7533761569
 40
1.0
 40
1.0
 40
1.0
 40
1.0
 10
10.6004385109
 20
6.9353958298
 30
0.0
 10
10.6009200332
 20
6.9339393019
 30
0.0
 10
10.6020338767
 20
6.9310810005
 30
0.0
 10
10.6041095156
 20
6.9269896524
 30
0.0
 10
10.6065383118
 20
6.9231229285
 30
0.0
 10
10.6101761589
 20
6.9182999282
 30
0.0
 10
10.6153919064
 20
6.9128777542
 30
0.0
 10
10.6201265998
 20
6.9091909657
 30
0.0
 10
10.6225903714
 20
6.9075185143
 30
0.0
  0
SPLINE
  5
3EC
100
AcDbEntity
  8
0
100
AcDbSpline
 62
7
  6
CONTINUOUS
 70
0
 71
3
 72
13
 73
9
 74
0
 42
0.0000001
 43
0.0000001
 44
0.0000000001
 40
0.0
 40
0.0
 40
0.0
 40
0.0
 40
0.1279492222
 40
0.2550919995
 40
0.3813604632
 40
0.5067617005
 40
0.7548667134
 40
1.0
 40
1.0
 40
1.0
 40
1.0
 10
10.5882416649
 20
6.9353958298
 30
0.0
 10
10.5887099832
 20
6.9339405538
 30
0.0
 10
10.5897928531
 20
6.9310850753
 30
0.0
 10
10.591812789
 20
6.9269938002
 30
0.0
 10
10.5941766217
 20
6.9231269255
 30
0.0
 10
10.5977137453
 20
6.9183084808
 30
0.0
 10
10.6027848433
 20
6.9128893421
 30
0.0
 10
10.6074021803
 20
6.9091938763
 30
0.0
 10
10.6098046272
 20
6.9075185143
 30
0.0
  0
SPLINE
  5
3ED
100
AcDbEntity
  8
0
100
AcDbSpline
 62
7
  6
CONTINUOUS
 70
0
 71
3
 72
12
 73
8
 74
0
 42
0.0000001
 43
0.0000001
 44
0.0000000001
 40
0.0
 40
0.0
 40
0.0
 40
0.0
 40
0.1290397914
 40
0.2569806262
 40
0.5090800303
 40
0.7565908776
 40
1.0
 40
1.0
 40
1.0
 40
1.0
 10
10.5781839275
 20
6.9353958298
 30
0.0
 10
10.5786368236
 20
6.9339419938
 30
0.0
 10
10.5796836521
 20
6.931089645
 30
0.0
 10
10.582276262
 20
6.9256630039
 30
0.0
 10
10.5863414436
 20
6.9194267469
 30
0.0
 10
10.5922466647
 20
6.9129043443
 30
0.0
 10
10.5967268582
 20
6.9091974521
 30
0.0
 10
10.5990574552
 20
6.9075185143
 30
0.0
  0
SPLINE
  5
3EE
100
AcDbEntity
  8
0
100
AcDbSpline
 62
7
  6
CONTINUOUS
 70
0
 71
3
 72
12
 73
8
 74
0
 42
0.0000001
 43
0.0000001
 44
0.0000000001
 40
0.0
 40
0.0
 40
0.0
 40
0.0
 40
0.1302656721
 40
0.2590982301
 40
0.5118996085
 40
0.7586630974
 40
1.0
 40
1.0
 40
1.0
 40
1.0
 10
10.5703121925
 20
6.9353958298
 30
0.0
 10
10.5707475363
 20
6.9339436016
 30
0.0
 10
10.5717532525
 20
6.9310949511
 30
0.0
 10
10.5742438437
 20
6.9256759424
 30
0.0
 10
10.5781469179
 20
6.9194473116
 30
0.0
 10
10.5838279594
 20
6.9129209849
 30
0.0
 10
10.588150449
 20
6.9092017652
 30
0.0
 10
10.5903989636
 20
6.9075185143
 30
0.0
  0
SPLINE
  5
3EF
100
AcDbEntity
  8
0
100
AcDbSpline
 62
7
  6
CONTINUOUS
 70
0
 71
3
 72
13
 73
9
 74
0
 42
0.0000001
 43
0.0000001
 44
0.0000000001
 40
0.0
 40
0.0
 40
0.0
 40
0.0
 40
0.1316259982
 40
0.261445357
 40
0.3893121536
 40
0.5152091008
 40
0.7610806378
 40
1.0
 40
1.0
 40
1.0
 40
1.0
 10
10.5646631616
 20
6.9353958298
 30
0.0
 10
10.5650789221
 20
6.9339453532
 30
0.0
 10
10.5660387123
 20
6.9311009334
 30
0.0
 10
10.5678359191
 20
6.9270102741
 30
0.0
 10
10.5699398029
 20
6.9231431412
 30
0.0
 10
10.5730753355
 20
6.9183440045
 30
0.0
 10
10.5775681268
 20
6.9129396104
 30
0.0
 10
10.5817130013
 20
6.9092069008
 30
0.0
 10
10.5838695222
 20
6.9075185143
 30
0.0
  0
SPLINE
  5
3F0
100
AcDbEntity
  8
0
100
AcDbSpline
 62
7
  6
CONTINUOUS
 70
0
 71
3
 72
11
 73
7
 74
0
 42
0.0000001
 43
0.0000001
 44
0.0000000001
 40
0.0
 40
0.0
 40
0.0
 40
0.0
 40
0.2639995802
 40
0.518588236
 40
0.7636390993
 40
1.0
 40
1.0
 40
1.0
 40
1.0
 10
10.5612631733
 20
6.9353958298
 30
0.0
 10
10.5620444096
 20
6.9325253403
 30
0.0
 10
10.5640776763
 20
6.9270106641
 30
0.0
 10
10.5683423163
 20
6.9194981902
 30
0.0
 10
10.5734954778
 20
6.91296255
 30
0.0
 10
10.577444618
 20
6.9092129566
 30
0.0
 10
10.5794995745
 20
6.9075185143
 30
0.0
  0
SPLINE
  5
3F1
100
AcDbEntity
  8
0
100
AcDbSpline
 62
7
  6
CONTINUOUS
 70
0
 71
3
 72
9
 73
5
 74
0
 42
0.0000001
 43
0.0000001
 44
0.0000000001
 40
0.0
 40
0.0
 40
0.0
 40
0.0
 40
0.505534981
 40
1.0
 40
1.0
 40
1.0
 40
1.0
 10
11.2905495934
 20
6.0790120484
 30
0.0
 10
11.2934617281
 20
6.0795215752
 30
0.0
 10
11.299266218
 20
6.0802947072
 30
0.0
 10
11.3051168512
 20
6.0805621922
 30
0.0
 10
11.3080084878
 20
6.0805621922
 30
0.0
  0
SPLINE
  5
3F2
100
AcDbEntity
  8
0
100
AcDbSpline
 62
9
  6
CONTINUOUS
 70
0
 71
3
 72
17
 73
13
 74
0
 42
0.0000001
 43
0.0000001
 44
0.0000000001
 40
0.0
 40
0.0
 40
0.0
 40
0.0
 40
0.1378450979
 40
0.2711559244
 40
0.3361676572
 40
0.4001361873
 40
0.4631305288
 40
0.5252229978
 40
0.6469785504
 40
0.7661571982
 40
0.8835440401
 40
1.0
 40
1.0
 40
1.0
 40
1.0
 10
11.3793756827
 20
6.9075185143
 30
0.0
 10
11.3784913596
 20
6.9063872469
 30
0.0
 10
11.3766527781
 20
6.9042367838
 30
0.0
 10
11.374119466
 20
6.9018095272
 30
0.0
 10
11.3719995172
 20
6.9000840387
 30
0.0
 10
11.3703809827
 20
6.8989078414
 30
0.0
 10
11.368725334
 20
6.8978395088
 30
0.0
 10
11.3664889633
 20
6.8965683671
 30
0.0
 10
11.3636148233
 20
6.8952448336
 30
0.0
 10
11.3600550841
 20
6.8940928312
 30
0.0
 10
11.3564355433
 20
6.8933942053
 30
0.0
 10
11.3539969294
 20
6.8932365926
 30
0.0
 10
11.3527838396
 20
6.8932365836
 30
0.0
  0
SPLINE
  5
3F3
100
AcDbEntity
  8
0
100
AcDbSpline
 62
7
  6
CONTINUOUS
 70
0
 71
3
 72
15
 73
11
 74
0
 42
0.0000001
 43
0.0000001
 44
0.0000000001
 40
0.0
 40
0.0
 40
0.0
 40
0.0
 40
0.1253063471
 40
0.2505405509
 40
0.3756749098
 40
0.5007182502
 40
0.6256657887
 40
0.7505175121
 40
0.875307172
 40
1.0
 40
1.0
 40
1.0
 40
1.0
 10
11.3543168957
 20
6.9627588011
 30
0.0
 10
11.3538407381
 20
6.9641755593
 30
0.0
 10
11.3527477205
 20
6.9669629466
 30
0.0
 10
11.3507175398
 20
6.9709646508
 30
0.0
 10
11.3483291988
 20
6.9747597493
 30
0.0
 10
11.3456151147
 20
6.9783241747
 30
0.0
 10
11.3426099361
 20
6.9816415526
 30
0.0
 10
11.3393531337
 20
6.9847067324
 30
0.0
 10
11.3358863991
 20
6.9875260202
 30
0.0
 10
11.3334564182
 20
6.9892478062
 30
0.0
 10
11.3322170076
 20
6.9900699797
 30
0.0
  0
SPLINE
  5
3F4
100
AcDbEntity
  8
0
100
AcDbSpline
 62
7
  6
CONTINUOUS
 70
0
 71
3
 72
11
 73
7
 74
0
 42
0.0000001
 43
0.0000001
 44
0.0000000001
 40
0.0
 40
0.0
 40
0.0
 40
0.0
 40
0.2988592071
 40
0.5679001652
 40
0.8016997177
 40
1.0
 40
1.0
 40
1.0
 40
1.0
 10
11.3543168957
 20
6.9627588011
 30
0.0
 10
11.3543799796
 20
6.9654836655
 30
0.0
 10
11.3545372253
 20
6.9706607647
 30
0.0
 10
11.354879109
 20
6.9779646577
 30
0.0
 10
11.3553027414
 20
6.9843454368
 30
0.0
 10
11.3556524297
 20
6.9882711273
 30
0.0
 10
11.355839222
 20
6.9900699525
 30
0.0
  0
SPLINE
  5
3F5
100
AcDbEntity
  8
0
100
AcDbSpline
 62
7
  6
CONTINUOUS
 70
0
 71
3
 72
15
 73
11
 74
0
 42
0.0000001
 43
0.0000001
 44
0.0000000001
 40
0.0
 40
0.0
 40
0.0
 40
0.0
 40
0.1250676169
 40
0.2501261304
 40
0.3751545554
 40
0.5001652227
 40
0.6251534129
 40
0.7501153118
 40
0.8750780967
 40
1.0
 40
1.0
 40
1.0
 40
1.0
 10
11.3793756827
 20
6.9627588011
 30
0.0
 10
11.3788960627
 20
6.964175873
 30
0.0
 10
11.3777949824
 20
6.9669639828
 30
0.0
 10
11.3757503385
 20
6.9709657359
 30
0.0
 10
11.3733450306
 20
6.974760825
 30
0.0
 10
11.3706117242
 20
6.9783251796
 30
0.0
 10
11.3675853323
 20
6.981642433
 30
0.0
 10
11.364305604
 20
6.9847074624
 30
0.0
 10
11.3608144868
 20
6.9875266142
 30
0.0
 10
11.3583679285
 20
6.9892479641
 30
0.0
 10
11.3571200399
 20
6.9900699676
 30
0.0
  0
SPLINE
  5
3F6
100
AcDbEntity
  8
0
100
AcDbSpline
 62
7
  6
CONTINUOUS
 70
0
 71
3
 72
9
 73
5
 74
0
 42
0.0000001
 43
0.0000001
 44
0.0000000001
 40
0.0
 40
0.0
 40
0.0
 40
0.0
 40
0.5099366951
 40
1.0
 40
1.0
 40
1.0
 40
1.0
 10
10.7421051163
 20
5.6766830953
 30
0.0
 10
10.7389451649
 20
5.6761302169
 30
0.0
 10
10.7327031815
 20
5.6752864818
 30
0.0
 10
10.7264096647
 20
5.6749851451
 30
0.0
 10
10.7233267322
 20
5.6749851451
 30
0.0
  0
SPLINE
  5
3F7
100
AcDbEntity
  8
0
100
AcDbSpline
 62
7
  6
CONTINUOUS
 70
0
 71
3
 72
15
 73
11
 74
0
 42
0.0000001
 43
0.0000001
 44
0.0000000001
 40
0.0
 40
0.0
 40
0.0
 40
0.0
 40
0.1249777719
 40
0.250031496
 40
0.37512733
 40
0.500218698
 40
0.6252631525
 40
0.7502362347
 40
0.8751394475
 40
1.0
 40
1.0
 40
1.0
 40
1.0
 10
11.6186549698
 20
7.9733434772
 30
0.0
 10
11.6099298667
 20
7.972896831
 30
0.0
 10
11.5924858161
 20
7.9717753876
 30
0.0
 10
11.5663487521
 20
7.9696465058
 30
0.0
 10
11.5402220552
 20
7.9673082466
 30
0.0
 10
11.5140938793
 20
7.9649936262
 30
0.0
 10
11.4879532987
 20
7.9629216651
 30
0.0
 10
11.4617939876
 20
7.9612853234
 30
0.0
 10
11.4356165961
 20
7.9602374044
 30
0.0
 10
11.4181560545
 20
7.9599969044
 30
0.0
 10
11.4094277209
 20
7.9599969044
 30
0.0
  0
SPLINE
  5
3F8
100
AcDbEntity
  8
0
100
AcDbSpline
 62
7
  6
CONTINUOUS
 70
0
 71
3
 72
15
 73
11
 74
0
 42
0.0000001
 43
0.0000001
 44
0.0000000001
 40
0.0
 40
0.0
 40
0.0
 40
0.0
 40
0.1248605525
 40
0.2497637654
 40
0.3747368476
 40
0.4997813021
 40
0.62487267
 40
0.749968504
 40
0.8750222282
 40
1.0
 40
1.0
 40
1.0
 40
1.0
 10
11.4094277209
 20
7.9599969044
 30
0.0
 10
11.4006993874
 20
7.9599969044
 30
0.0
 10
11.3832388457
 20
7.9602374044
 30
0.0
 10
11.3570614542
 20
7.9612853234
 30
0.0
 10
11.3309021432
 20
7.9629216651
 30
0.0
 10
11.3047615625
 20
7.9649936262
 30
0.0
 10
11.2786333867
 20
7.9673082466
 30
0.0
 10
11.2525066898
 20
7.9696465058
 30
0.0
 10
11.2263696257
 20
7.9717753876
 30
0.0
 10
11.2089255752
 20
7.972896831
 30
0.0
 10
11.2002004721
 20
7.9733434772
 30
0.0
  0
SPLINE
  5
3F9
100
AcDbEntity
  8
0
100
AcDbSpline
 62
7
  6
CONTINUOUS
 70
0
 71
3
 72
15
 73
11
 74
0
 42
0.0000001
 43
0.0000001
 44
0.0000000001
 40
0.0
 40
0.0
 40
0.0
 40
0.0
 40
0.1257046983
 40
0.2512323749
 40
0.3765439943
 40
0.5016423518
 40
0.6265223739
 40
0.7511902208
 40
0.8756904775
 40
1.0
 40
1.0
 40
1.0
 40
1.0
 10
11.327825421
 20
6.9627588011
 30
0.0
 10
11.3273550199
 20
6.9641750163
 30
0.0
 10
11.326275407
 20
6.9669611583
 30
0.0
 10
11.3242692983
 20
6.9709627117
 30
0.0
 10
11.3219092035
 20
6.9747577639
 30
0.0
 10
11.319227124
 20
6.9783222543
 30
0.0
 10
11.3162572671
 20
6.9816397967
 30
0.0
 10
11.3130386427
 20
6.9847052006
 30
0.0
 10
11.3096124965
 20
6.9875246839
 30
0.0
 10
11.3072101058
 20
6.989247176
 30
0.0
 10
11.305984803
 20
6.9900696217
 30
0.0
  0
SPLINE
  5
3FA
100
AcDbEntity
  8
0
100
AcDbSpline
 62
7
  6
CONTINUOUS
 70
0
 71
3
 72
22
 73
18
 74
0
 42
0.0000001
 43
0.0000001
 44
0.0000000001
 40
0.0
 40
0.0
 40
0.0
 40
0.0
 40
0.1252113446
 40
0.1883431026
 40
0.2516399233
 40
0.3149311063
 40
0.3780539392
 40
0.4408816254
 40
0.5033456609
 40
0.5654489497
 40
0.6272663573
 40
0.6889309463
 40
0.7506073979
 40
0.8124579427
 40
0.8746088366
 40
0.9371253433
 40
1.0
 40
1.0
 40
1.0
 40
1.0
 10
10.6285809978
 20
7.9733434772
 30
0.0
 10
10.6238776325
 20
7.9726856823
 30
0.0
 10
10.6168540578
 20
7.9713321613
 30
0.0
 10
10.6075555315
 20
7.9691832833
 30
0.0
 10
10.6005638956
 20
7.9674798396
 30
0.0
 10
10.5935720894
 20
7.9657799123
 30
0.0
 10
10.5865767931
 20
7.9641701262
 30
0.0
 10
10.5795757802
 20
7.9627312918
 30
0.0
 10
10.5725676376
 20
7.9615354649
 30
0.0
 10
10.5655522738
 20
7.9606430438
 30
0.0
 10
10.5585310466
 20
7.9600996899
 30
0.0
 10
10.551506626
 20
7.9599335755
 30
0.0
 10
10.5444824512
 20
7.9601534569
 30
0.0
 10
10.5374619125
 20
7.9607478415
 30
0.0
 10
10.5304475047
 20
7.9616859003
 30
0.0
 10
10.5234404375
 20
7.9629197383
 30
0.0
 10
10.5187849853
 20
7.9638955207
 30
0.0
 10
10.5164564533
 20
7.9644103802
 30
0.0
  0
SPLINE
  5
3FB
100
AcDbEntity
  8
0
100
AcDbSpline
 62
7
  6
CONTINUOUS
 70
0
 71
3
 72
23
 73
19
 74
0
 42
0.0000001
 43
0.0000001
 44
0.0000000001
 40
0.0
 40
0.0
 40
0.0
 40
0.0
 40
0.0624992126
 40
0.1250011768
 40
0.1875047189
 40
0.2500080884
 40
0.3125097294
 40
0.3750087297
 40
0.437505152
 40
0.5000000001
 40
0.5624948483
 40
0.6249912706
 40
0.687490271
 40
0.7499919119
 40
0.8124952814
 40
0.8749988235
 40
0.9375007876
 40
1.0
 40
1.0
 40
1.0
 40
1.0
 10
11.2002004721
 20
7.9733434772
 30
0.0
 10
11.1882853905
 20
7.9728969671
 30
0.0
 10
11.1644630919
 20
7.9717759579
 30
0.0
 10
11.1287544722
 20
7.9696468723
 30
0.0
 10
11.0930584954
 20
7.9673082033
 30
0.0
 10
11.0573610208
 20
7.9649932218
 30
0.0
 10
11.0216490027
 20
7.9629211524
 30
0.0
 10
10.9859149719
 20
7.9612849719
 30
0.0
 10
10.9501594383
 20
7.9602373119
 30
0.0
 10
10.9143907349
 20
7.9598767022
 30
0.0
 10
10.8786220315
 20
7.9602373117
 30
0.0
 10
10.8428664979
 20
7.9612849718
 30
0.0
 10
10.807132467
 20
7.9629211524
 30
0.0
 10
10.7714204489
 20
7.9649932218
 30
0.0
 10
10.7357229743
 20
7.9673082033
 30
0.0
 10
10.7000269976
 20
7.9696468723
 30
0.0
 10
10.6643183779
 20
7.9717759579
 30
0.0
 10
10.6404960794
 20
7.9728969671
 30
0.0
 10
10.6285809978
 20
7.9733434772
 30
0.0
  0
SPLINE
  5
3FC
100
AcDbEntity
  8
0
100
AcDbSpline
 62
7
  6
CONTINUOUS
 70
0
 71
3
 72
13
 73
9
 74
0
 42
0.0000001
 43
0.0000001
 44
0.0000000001
 40
0.0
 40
0.0
 40
0.0
 40
0.0
 40
0.2976992957
 40
0.4360381493
 40
0.566231988
 40
0.8003589631
 40
0.9043633713
 40
1.0
 40
1.0
 40
1.0
 40
1.0
 10
11.327825421
 20
6.9627588011
 30
0.0
 10
11.3279513725
 20
6.965485351
 30
0.0
 10
11.328193121
 20
6.9694767311
 30
0.0
 10
11.328637956
 20
6.974649374
 30
0.0
 10
11.3291150027
 20
6.9792334032
 30
0.0
 10
11.3296793083
 20
6.9834915464
 30
0.0
 10
11.3303383881
 20
6.9874138521
 30
0.0
 10
11.3306850785
 20
6.9892113717
 30
0.0
 10
11.3308629807
 20
6.9900699798
 30
0.0
  0
SPLINE
  5
3FD
100
AcDbEntity
  8
0
100
AcDbSpline
 62
7
  6
CONTINUOUS
 70
0
 71
3
 72
15
 73
11
 74
0
 42
0.0000001
 43
0.0000001
 44
0.0000000001
 40
0.0
 40
0.0
 40
0.0
 40
0.0
 40
0.126263756
 40
0.2522033713
 40
0.3777641496
 40
0.5029411917
 40
0.6277284883
 40
0.7521387264
 40
0.8762311225
 40
1.0
 40
1.0
 40
1.0
 40
1.0
 10
11.300024774
 20
6.9627588011
 30
0.0
 10
11.2995623712
 20
6.9641743093
 30
0.0
 10
11.2985013738
 20
6.9669587986
 30
0.0
 10
11.296528734
 20
6.9709602307
 30
0.0
 10
11.2942079152
 20
6.9747552959
 30
0.0
 10
11.2915703148
 20
6.9783199469
 30
0.0
 10
11.2886495426
 20
6.9816377776
 30
0.0
 10
11.285484022
 20
6.9847035658
 30
0.0
 10
11.2821143106
 20
6.987523322
 30
0.0
 10
11.2797503228
 20
6.9892468413
 30
0.0
 10
11.2785446571
 20
6.9900696927
 30
0.0
  0
SPLINE
  5
3FE
100
AcDbEntity
  8
0
100
AcDbSpline
 62
7
  6
CONTINUOUS
 70
0
 71
3
 72
13
 73
9
 74
0
 42
0.0000001
 43
0.0000001
 44
0.0000000001
 40
0.0
 40
0.0
 40
0.0
 40
0.0
 40
0.2958448653
 40
0.4336284421
 40
0.5635685856
 40
0.7982295245
 40
0.9030901578
 40
1.0
 40
1.0
 40
1.0
 40
1.0
 10
11.300024774
 20
6.9627588011
 30
0.0
 10
11.3002131541
 20
6.9654880639
 30
0.0
 10
11.3005749669
 20
6.9694835385
 30
0.0
 10
11.3012393571
 20
6.974652997
 30
0.0
 10
11.3019532967
 20
6.9792438369
 30
0.0
 10
11.3027980642
 20
6.9835054543
 30
0.0
 10
11.303781297
 20
6.9874202793
 30
0.0
 10
11.3042982794
 20
6.9892135689
 30
0.0
 10
11.3045633083
 20
6.9900696335
 30
0.0
  0
SPLINE
  5
3FF
100
AcDbEntity
  8
0
100
AcDbSpline
 62
7
  6
CONTINUOUS
 70
0
 71
3
 72
15
 73
11
 74
0
 42
0.0000001
 43
0.0000001
 44
0.0000000001
 40
0.0
 40
0.0
 40
0.0
 40
0.0
 40
0.1269826728
 40
0.2534544652
 40
0.3793388995
 40
0.5046179783
 40
0.6292840447
 40
0.753361624
 40
0.8769291153
 40
1.0
 40
1.0
 40
1.0
 40
1.0
 10
11.2710445742
 20
6.9627588011
 30
0.0
 10
11.2705923781
 20
6.9641734108
 30
0.0
 10
11.2695551223
 20
6.9669558081
 30
0.0
 10
11.2676252206
 20
6.9709570907
 30
0.0
 10
11.2653545548
 20
6.9747521656
 30
0.0
 10
11.2627738195
 20
6.9783170021
 30
0.0
 10
11.2599158236
 20
6.9816351852
 30
0.0
 10
11.2568180936
 20
6.9847013818
 30
0.0
 10
11.2535205238
 20
6.987521603
 30
0.0
 10
11.2512055836
 20
6.9892465307
 30
0.0
 10
11.2500249877
 20
6.9900699372
 30
0.0
  0
SPLINE
  5
400
100
AcDbEntity
  8
0
100
AcDbSpline
 62
7
  6
CONTINUOUS
 70
0
 71
3
 72
13
 73
9
 74
0
 42
0.0000001
 43
0.0000001
 44
0.0000000001
 40
0.0
 40
0.0
 40
0.0
 40
0.0
 40
0.2933976734
 40
0.4304532935
 40
0.5600656001
 40
0.7954429873
 40
0.9014291355
 40
1.0
 40
1.0
 40
1.0
 40
1.0
 10
11.2710445742
 20
6.9627588011
 30
0.0
 10
11.27129472
 20
6.9654917874
 30
0.0
 10
11.2717755888
 20
6.9694928003
 30
0.0
 10
11.272656131
 20
6.9746579381
 30
0.0
 10
11.2736049024
 20
6.979257797
 30
0.0
 10
11.2747277742
 20
6.9835234847
 30
0.0
 10
11.2760289184
 20
6.9874285167
 30
0.0
 10
11.276712722
 20
6.9892164184
 30
0.0
 10
11.2770628865
 20
6.9900693591
 30
0.0
  0
SPLINE
  5
401
100
AcDbEntity
  8
0
100
AcDbSpline
 62
7
  6
CONTINUOUS
 70
0
 71
3
 72
15
 73
11
 74
0
 42
0.0000001
 43
0.0000001
 44
0.0000000001
 40
0.0
 40
0.0
 40
0.0
 40
0.0
 40
0.1289048298
 40
0.2568034256
 40
0.3835606357
 40
0.5091241536
 40
0.6334777086
 40
0.7566674363
 40
0.8788188403
 40
1.0
 40
1.0
 40
1.0
 40
1.0
 10
11.2100908622
 20
6.9627588011
 30
0.0
 10
11.2096654682
 20
6.9641710636
 30
0.0
 10
11.208690503
 20
6.9669479173
 30
0.0
 10
11.206873148
 20
6.9709485549
 30
0.0
 10
11.2047346313
 20
6.9747434161
 30
0.0
 10
11.2023036908
 20
6.9783085428
 30
0.0
 10
11.1996110751
 20
6.9816275026
 30
0.0
 10
11.1966921666
 20
6.9846948088
 30
0.0
 10
11.1935846862
 20
6.9875159955
 30
0.0
 10
11.1913991176
 20
6.9892446756
 30
0.0
 10
11.1902846251
 20
6.9900695798
 30
0.0
  0
SPLINE
  5
402
100
AcDbEntity
  8
0
100
AcDbSpline
 62
7
  6
CONTINUOUS
 70
0
 71
3
 72
15
 73
11
 74
0
 42
0.0000001
 43
0.0000001
 44
0.0000000001
 40
0.0
 40
0.0
 40
0.0
 40
0.0
 40
0.1461681772
 40
0.2872539099
 40
0.4224771992
 40
0.5512773914
 40
0.6733121417
 40
0.7885673062
 40
0.8973507278
 40
1.0
 40
1.0
 40
1.0
 40
1.0
 10
11.2100908622
 20
6.9627588011
 30
0.0
 10
11.2102795642
 20
6.9641549671
 30
0.0
 10
11.2107091409
 20
6.9668912405
 30
0.0
 10
11.2115199209
 20
6.9708831758
 30
0.0
 10
11.2124742183
 20
6.9746710017
 30
0.0
 10
11.2135595572
 20
6.9782319288
 30
0.0
 10
11.2147630026
 20
6.9815507508
 30
0.0
 10
11.2160694571
 20
6.9846217869
 30
0.0
 10
11.2174613419
 20
6.9874480099
 30
0.0
 10
11.2184649801
 20
6.989223219
 30
0.0
 10
11.2189778914
 20
6.9900692867
 30
0.0
  0
SPLINE
  5
403
100
AcDbEntity
  8
0
100
AcDbSpline
 62
7
  6
CONTINUOUS
 70
0
 71
3
 72
15
 73
11
 74
0
 42
0.0000001
 43
0.0000001
 44
0.0000000001
 40
0.0
 40
0.0
 40
0.0
 40
0.0
 40
0.1278630924
 40
0.2549876005
 40
0.3812703492
 40
0.5066777152
 40
0.631198842
 40
0.7548695889
 40
0.8777905963
 40
1.0
 40
1.0
 40
1.0
 40
1.0
 10
11.2410199407
 20
6.9627588011
 30
0.0
 10
11.2405801165
 20
6.9641722843
 30
0.0
 10
11.2395716281
 20
6.9669520512
 30
0.0
 10
11.2376936406
 20
6.9709529685
 30
0.0
 10
11.2354839247
 20
6.9747478901
 30
0.0
 10
11.2329722817
 20
6.9783128142
 30
0.0
 10
11.2301905635
 20
6.9816313165
 30
0.0
 10
11.2271752865
 20
6.9846979825
 30
0.0
 10
11.2239653726
 20
6.9875186337
 30
0.0
 10
11.2217100558
 20
6.9892452295
 30
0.0
 10
11.2205599277
 20
6.9900692917
 30
0.0
  0
SPLINE
  5
404
100
AcDbEntity
  8
0
100
AcDbSpline
 62
7
  6
CONTINUOUS
 70
0
 71
3
 72
15
 73
11
 74
0
 42
0.0000001
 43
0.0000001
 44
0.0000000001
 40
0.0
 40
0.0
 40
0.0
 40
0.0
 40
0.147988712
 40
0.2905006309
 40
0.4266800249
 40
0.5558965429
 40
0.6777482035
 40
0.7921818429
 40
0.899489282
 40
1.0
 40
1.0
 40
1.0
 40
1.0
 10
11.2410199407
 20
6.9627588011
 30
0.0
 10
11.2411784139
 20
6.9641537167
 30
0.0
 10
11.2415389514
 20
6.9668866112
 30
0.0
 10
11.2422200864
 20
6.9708775484
 30
0.0
 10
11.2430217434
 20
6.974664304
 30
0.0
 10
11.2439334322
 20
6.9782241844
 30
0.0
 10
11.2449443258
 20
6.9815421654
 30
0.0
 10
11.2460418157
 20
6.9846126916
 30
0.0
 10
11.2472110836
 20
6.9874385611
 30
0.0
 10
11.248057371
 20
6.9892203282
 30
0.0
 10
11.2484902773
 20
6.990069879
 30
0.0
  0
SPLINE
  5
405
100
AcDbEntity
  8
0
100
AcDbSpline
 62
7
  6
CONTINUOUS
 70
0
 71
3
 72
15
 73
11
 74
0
 42
0.0000001
 43
0.0000001
 44
0.0000000001
 40
0.0
 40
0.0
 40
0.0
 40
0.0
 40
0.130104734
 40
0.2588993864
 40
0.3862096574
 40
0.5119575969
 40
0.6361188403
 40
0.7587530922
 40
0.8800140268
 40
1.0
 40
1.0
 40
1.0
 40
1.0
 10
11.1784015442
 20
6.9627588011
 30
0.0
 10
11.177992592
 20
6.9641696562
 30
0.0
 10
11.1770557899
 20
6.9669431578
 30
0.0
 10
11.1753076442
 20
6.9709433457
 30
0.0
 10
11.1732504198
 20
6.9747380013
 30
0.0
 10
11.170911704
 20
6.9783032194
 30
0.0
 10
11.1683209538
 20
6.9816225858
 30
0.0
 10
11.1655121112
 20
6.9846904814
 30
0.0
 10
11.1625217123
 20
6.987512333
 30
0.0
 10
11.1604158515
 20
6.9892435215
 30
0.0
 10
11.1593420549
 20
6.9900694347
 30
0.0
  0
SPLINE
  5
406
100
AcDbEntity
  8
0
100
AcDbSpline
 62
7
  6
CONTINUOUS
 70
0
 71
3
 72
14
 73
10
 74
0
 42
0.0000001
 43
0.0000001
 44
0.0000000001
 40
0.0
 40
0.0
 40
0.0
 40
0.0
 40
0.2837317132
 40
0.4179608012
 40
0.5463450669
 40
0.6686006634
 40
0.7847476917
 40
0.8951022591
 40
1.0
 40
1.0
 40
1.0
 40
1.0
 10
11.1784015442
 20
6.9627588011
 30
0.0
 10
11.1788306282
 20
6.9655079862
 30
0.0
 10
11.1796584642
 20
6.9695321282
 30
0.0
 10
11.1811561285
 20
6.9746783842
 30
0.0
 10
11.1824103814
 20
6.9782404657
 30
0.0
 10
11.1838010121
 20
6.98155999
 30
0.0
 10
11.1853105431
 20
6.9846313505
 30
0.0
 10
11.186918703
 20
6.9874576858
 30
0.0
 10
11.1880739841
 20
6.9892263138
 30
0.0
 10
11.1886639394
 20
6.9900690329
 30
0.0
  0
SPLINE
  5
407
100
AcDbEntity
  8
0
100
AcDbSpline
 62
7
  6
CONTINUOUS
 70
0
 71
3
 72
12
 73
8
 74
0
 42
0.0000001
 43
0.0000001
 44
0.0000000001
 40
0.0
 40
0.0
 40
0.0
 40
0.0
 40
0.2667490269
 40
0.5226234452
 40
0.6461693952
 40
0.7667825003
 40
1.0
 40
1.0
 40
1.0
 40
1.0
 10
11.0802632327
 20
6.9627588011
 30
0.0
 10
11.0795728037
 20
6.9655435117
 30
0.0
 10
11.0778072929
 20
6.9709067086
 30
0.0
 10
11.0746412443
 20
6.9771256592
 30
0.0
 10
11.0716541123
 20
6.9816039247
 30
0.0
 10
11.0684882024
 20
6.9856506064
 30
0.0
 10
11.0658257843
 20
6.9883920555
 30
0.0
 10
11.063960593
 20
6.990069259
 30
0.0
  0
SPLINE
  5
408
100
AcDbEntity
  8
0
100
AcDbSpline
 62
7
  6
CONTINUOUS
 70
0
 71
3
 72
13
 73
9
 74
0
 42
0.0000001
 43
0.0000001
 44
0.0000000001
 40
0.0
 40
0.0
 40
0.0
 40
0.0
 40
0.2731611701
 40
0.4044111328
 40
0.5316096705
 40
0.6546187003
 40
0.7735179291
 40
1.0
 40
1.0
 40
1.0
 40
1.0
 10
11.0802632327
 20
6.9627588011
 30
0.0
 10
11.0808562858
 20
6.965528832
 30
0.0
 10
11.082004844
 20
6.9695801832
 30
0.0
 10
11.0840523019
 20
6.9747023146
 30
0.0
 10
11.0857760891
 20
6.9782667661
 30
0.0
 10
11.0876870483
 20
6.9815875118
 30
0.0
 10
11.0904063488
 20
6.9856157692
 30
0.0
 10
11.0927133514
 20
6.9883745314
 30
0.0
 10
11.0943401812
 20
6.9900686144
 30
0.0
  0
SPLINE
  5
409
100
AcDbEntity
  8
0
100
AcDbSpline
 62
7
  6
CONTINUOUS
 70
0
 71
3
 72
15
 73
11
 74
0
 42
0.0000001
 43
0.0000001
 44
0.0000000001
 40
0.0
 40
0.0
 40
0.0
 40
0.0
 40
0.1314608043
 40
0.2612715058
 40
0.3892127653
 40
0.5151766904
 40
0.6391270641
 40
0.7611343608
 40
0.8813810943
 40
1.0
 40
1.0
 40
1.0
 40
1.0
 10
11.1460997371
 20
6.9627588011
 30
0.0
 10
11.1457091505
 20
6.9641680648
 30
0.0
 10
11.1448149377
 20
6.9669377558
 30
0.0
 10
11.1431442859
 20
6.9709372153
 30
0.0
 10
11.14117813
 20
6.9747314225
 30
0.0
 10
11.1389427394
 20
6.978296548
 30
0.0
 10
11.1364661404
 20
6.9816162084
 30
0.0
 10
11.1337807362
 20
6.9846846948
 30
0.0
 10
11.1309215501
 20
6.9875071329
 30
0.0
 10
11.1289050956
 20
6.9892411606
 30
0.0
 10
11.1278769264
 20
6.9900682266
 30
0.0
  0
SPLINE
  5
40A
100
AcDbEntity
  8
0
100
AcDbSpline
 62
7
  6
CONTINUOUS
 70
0
 71
3
 72
13
 73
9
 74
0
 42
0.0000001
 43
0.0000001
 44
0.0000000001
 40
0.0
 40
0.0
 40
0.0
 40
0.0
 40
0.2801984479
 40
0.4134233263
 40
0.5414016225
 40
0.6639041027
 40
0.7809783891
 40
1.0
 40
1.0
 40
1.0
 40
1.0
 10
11.1460997371
 20
6.9627588011
 30
0.0
 10
11.1465855127
 20
6.9655146846
 30
0.0
 10
11.1475239509
 20
6.9695478673
 30
0.0
 10
11.1492136474
 20
6.974686592
 30
0.0
 10
11.1506311537
 20
6.9782496532
 30
0.0
 10
11.152202887
 20
6.981570014
 30
0.0
 10
11.154427437
 20
6.9855758668
 30
0.0
 10
11.1563334859
 20
6.9883536199
 30
0.0
 10
11.1576901095
 20
6.9900695013
 30
0.0
  0
SPLINE
  5
40B
100
AcDbEntity
  8
0
100
AcDbSpline
 62
7
  6
CONTINUOUS
 70
0
 71
3
 72
13
 73
9
 74
0
 42
0.0000001
 43
0.0000001
 44
0.0000000001
 40
0.0
 40
0.0
 40
0.0
 40
0.0
 40
0.2731617737
 40
0.4044118291
 40
0.5316103081
 40
0.6546191233
 40
0.7735180123
 40
1.0
 40
1.0
 40
1.0
 40
1.0
 10
11.0138077584
 20
6.9627588011
 30
0.0
 10
11.0132146879
 20
6.9655289137
 30
0.0
 10
11.0120660884
 20
6.9695803814
 30
0.0
 10
11.0100185451
 20
6.9747026481
 30
0.0
 10
11.0082946853
 20
6.9782671826
 30
0.0
 10
11.0063836449
 20
6.9815879951
 30
0.0
 10
11.0036642213
 20
6.9856163221
 30
0.0
 10
11.00135713
 20
6.9883751289
 30
0.0
 10
10.9997302579
 20
6.9900692589
 30
0.0
  0
SPLINE
  5
40C
100
AcDbEntity
  8
0
100
AcDbSpline
 62
7
  6
CONTINUOUS
 70
0
 71
3
 72
12
 73
8
 74
0
 42
0.0000001
 43
0.0000001
 44
0.0000000001
 40
0.0
 40
0.0
 40
0.0
 40
0.0
 40
0.266747675
 40
0.522621996
 40
0.6461670071
 40
0.766780119
 40
1.0
 40
1.0
 40
1.0
 40
1.0
 10
11.0138077584
 20
6.9627588011
 30
0.0
 10
11.0144981383
 20
6.9655433137
 30
0.0
 10
11.0162634989
 20
6.9709061478
 30
0.0
 10
11.0194292222
 20
6.9771247109
 30
0.0
 10
11.0224160216
 20
6.9816027589
 30
0.0
 10
11.0255816469
 20
6.9856492482
 30
0.0
 10
11.0282437709
 20
6.9883906745
 30
0.0
 10
11.0301088599
 20
6.9900677824
 30
0.0
  0
SPLINE
  5
40D
100
AcDbEntity
  8
0
100
AcDbSpline
 62
7
  6
CONTINUOUS
 70
0
 71
3
 72
15
 73
11
 74
0
 42
0.0000001
 43
0.0000001
 44
0.0000000001
 40
0.0
 40
0.0
 40
0.0
 40
0.0
 40
0.1479887095
 40
0.2905001237
 40
0.4266792186
 40
0.5558964968
 40
0.6777502358
 40
0.7921861238
 40
0.8994918163
 40
1.0
 40
1.0
 40
1.0
 40
1.0
 10
10.8530510504
 20
6.9627588011
 30
0.0
 10
10.8528925834
 20
6.9641536633
 30
0.0
 10
10.8525320616
 20
6.9668864487
 30
0.0
 10
10.8518509632
 20
6.9708772271
 30
0.0
 10
10.8510493562
 20
6.9746638414
 30
0.0
 10
10.8501377142
 20
6.9782236138
 30
0.0
 10
10.8491268617
 20
6.9815415181
 30
0.0
 10
10.8480294805
 20
6.984611977
 30
0.0
 10
10.8468602492
 20
6.9874377161
 30
0.0
 10
10.8460139794
 20
6.9892193626
 30
0.0
 10
10.8455810982
 20
6.9900688583
 30
0.0
  0
SPLINE
  5
40E
100
AcDbEntity
  8
0
100
AcDbSpline
 62
7
  6
CONTINUOUS
 70
0
 71
3
 72
15
 73
11
 74
0
 42
0.0000001
 43
0.0000001
 44
0.0000000001
 40
0.0
 40
0.0
 40
0.0
 40
0.0
 40
0.1278630491
 40
0.2549875236
 40
0.3812702616
 40
0.5066776381
 40
0.6311987933
 40
0.7548695782
 40
0.877790615
 40
1.0
 40
1.0
 40
1.0
 40
1.0
 10
10.8530510504
 20
6.9627588011
 30
0.0
 10
10.8534908667
 20
6.9641722589
 30
0.0
 10
10.8544993347
 20
6.9669519766
 30
0.0
 10
10.8563772787
 20
6.9709528266
 30
0.0
 10
10.8585869402
 20
6.9747476895
 30
0.0
 10
10.8610985199
 20
6.9783125642
 30
0.0
 10
10.8638801674
 20
6.981631027
 30
0.0
 10
10.8668953669
 20
6.9846976642
 30
0.0
 10
10.870105204
 20
6.9875182896
 30
0.0
 10
10.8723604755
 20
6.9892448631
 30
0.0
 10
10.8735105834
 20
6.9900689103
 30
0.0
  0
SPLINE
  5
40F
100
AcDbEntity
  8
0
100
AcDbSpline
 62
7
  6
CONTINUOUS
 70
0
 71
3
 72
15
 73
11
 74
0
 42
0.0000001
 43
0.0000001
 44
0.0000000001
 40
0.0
 40
0.0
 40
0.0
 40
0.0
 40
0.1301046227
 40
0.2588991987
 40
0.3862094465
 40
0.5119574103
 40
0.636118726
 40
0.7587530841
 40
0.8800140804
 40
1.0
 40
1.0
 40
1.0
 40
1.0
 10
10.5703121925
 20
6.9627588011
 30
0.0
 10
10.570721134
 20
6.9641696191
 30
0.0
 10
10.5716579083
 20
6.966943049
 30
0.0
 10
10.573405995
 20
6.9709431385
 30
0.0
 10
10.5754631451
 20
6.9747377082
 30
0.0
 10
10.5778017748
 20
6.9783028539
 30
0.0
 10
10.5803924287
 20
6.981622162
 30
0.0
 10
10.5832011639
 20
6.984690016
 30
0.0
 10
10.5861914597
 20
6.987511827
 30
0.0
 10
10.5882972605
 20
6.9892429802
 30
0.0
 10
10.58937103
 20
6.9900688712
 30
0.0
  0
SPLINE
  5
410
100
AcDbEntity
  8
0
100
AcDbSpline
 62
7
  6
CONTINUOUS
 70
0
 71
3
 72
15
 73
11
 74
0
 42
0.0000001
 43
0.0000001
 44
0.0000000001
 40
0.0
 40
0.0
 40
0.0
 40
0.0
 40
0.1250676119
 40
0.2501261145
 40
0.3751545377
 40
0.5001652015
 40
0.6251533974
 40
0.7501153062
 40
0.8750780904
 40
1.0
 40
1.0
 40
1.0
 40
1.0
 10
10.6693359156
 20
6.9627588011
 30
0.0
 10
10.6698155142
 20
6.9641758097
 30
0.0
 10
10.6709165389
 20
6.9669637971
 30
0.0
 10
10.672961066
 20
6.970965384
 30
0.0
 10
10.6753662271
 20
6.9747603283
 30
0.0
 10
10.6780993634
 20
6.9783245605
 30
0.0
 10
10.6811255657
 20
6.9816417153
 30
0.0
 10
10.6844050815
 20
6.9847066792
 30
0.0
 10
10.6878960021
 20
6.9875257581
 30
0.0
 10
10.6903424454
 20
6.989247041
 30
0.0
 10
10.6915902796
 20
6.9900690063
 30
0.0
  0
SPLINE
  5
411
100
AcDbEntity
  8
0
100
AcDbSpline
 62
7
  6
CONTINUOUS
 70
0
 71
3
 72
13
 73
9
 74
0
 42
0.0000001
 43
0.0000001
 44
0.0000000001
 40
0.0
 40
0.0
 40
0.0
 40
0.0
 40
0.2958442712
 40
0.4336277644
 40
0.5635679691
 40
0.7982296033
 40
0.9030903891
 40
1.0
 40
1.0
 40
1.0
 40
1.0
 10
10.7940462171
 20
6.9627588011
 30
0.0
 10
10.7938578397
 20
6.9654880252
 30
0.0
 10
10.793496033
 20
6.9694834448
 30
0.0
 10
10.7928316567
 20
6.9746528354
 30
0.0
 10
10.7921177305
 20
6.9792436263
 30
0.0
 10
10.7912729841
 20
6.9835052024
 30
0.0
 10
10.7902897703
 20
6.9874199875
 30
0.0
 10
10.789772794
 20
6.9892132544
 30
0.0
 10
10.7895077686
 20
6.9900693064
 30
0.0
  0
SPLINE
  5
412
100
AcDbEntity
  8
0
100
AcDbSpline
 62
7
  6
CONTINUOUS
 70
0
 71
3
 72
15
 73
11
 74
0
 42
0.0000001
 43
0.0000001
 44
0.0000000001
 40
0.0
 40
0.0
 40
0.0
 40
0.0
 40
0.1262631682
 40
0.2522029373
 40
0.3777641328
 40
0.5029407041
 40
0.6277267852
 40
0.752136819
 40
0.8762302351
 40
1.0
 40
1.0
 40
1.0
 40
1.0
 10
10.7940462171
 20
6.9627588011
 30
0.0
 10
10.7945085668
 20
6.9641741466
 30
0.0
 10
10.7955694277
 20
6.9669583295
 30
0.0
 10
10.7975417883
 20
6.9709593494
 30
0.0
 10
10.7998622595
 20
6.974754052
 30
0.0
 10
10.8024994308
 20
6.9783183917
 30
0.0
 10
10.8054197177
 20
6.9816359701
 30
0.0
 10
10.8085847504
 20
6.984701556
 30
0.0
 10
10.8119539693
 20
6.9875211791
 30
0.0
 10
10.8143176928
 20
6.9892445567
 30
0.0
 10
10.8155232366
 20
6.9900673196
 30
0.0
  0
SPLINE
  5
413
100
AcDbEntity
  8
0
100
AcDbSpline
 62
7
  6
CONTINUOUS
 70
0
 71
3
 72
13
 73
9
 74
0
 42
0.0000001
 43
0.0000001
 44
0.0000000001
 40
0.0
 40
0.0
 40
0.0
 40
0.0
 40
0.2648704434
 40
0.3936652788
 40
0.5198466462
 40
0.6434352461
 40
0.7645562165
 40
1.0
 40
1.0
 40
1.0
 40
1.0
 10
10.5614806152
 20
6.9673710812
 30
0.0
 10
10.5622564407
 20
6.9696532964
 30
0.0
 10
10.5636301234
 20
6.9729768113
 30
0.0
 10
10.5658635338
 20
6.9771500759
 30
0.0
 10
10.567688358
 20
6.9800754134
 30
0.0
 10
10.5696598489
 20
6.9828181935
 30
0.0
 10
10.5724325144
 20
6.9861981556
 30
0.0
 10
10.5747155937
 20
6.9885179261
 30
0.0
 10
10.5763044678
 20
6.9899554773
 30
0.0
  0
SPLINE
  5
414
100
AcDbEntity
  8
0
100
AcDbSpline
 62
7
  6
CONTINUOUS
 70
0
 71
3
 72
15
 73
11
 74
0
 42
0.0000001
 43
0.0000001
 44
0.0000000001
 40
0.0
 40
0.0
 40
0.0
 40
0.0
 40
0.1329667405
 40
0.2639106831
 40
0.392560828
 40
0.5187734274
 40
0.6424957816
 40
0.763806956
 40
0.882918831
 40
1.0
 40
1.0
 40
1.0
 40
1.0
 10
10.5612631733
 20
6.9627588011
 30
0.0
 10
10.5616335902
 20
6.9641663763
 30
0.0
 10
10.5624810883
 20
6.9669319775
 30
0.0
 10
10.5640664603
 20
6.9709306045
 30
0.0
 10
10.5659323644
 20
6.9747242592
 30
0.0
 10
10.5680539678
 20
6.978289208
 30
0.0
 10
10.5704048139
 20
6.9816091234
 30
0.0
 10
10.5729542176
 20
6.9846782036
 30
0.0
 10
10.5756688036
 20
6.9875012833
 30
0.0
 10
10.5775866143
 20
6.9892386423
 30
0.0
 10
10.5785644785
 20
6.990067078
 30
0.0
  0
SPLINE
  5
415
100
AcDbEntity
  8
0
100
AcDbSpline
 62
7
  6
CONTINUOUS
 70
0
 71
3
 72
15
 73
11
 74
0
 42
0.0000001
 43
0.0000001
 44
0.0000000001
 40
0.0
 40
0.0
 40
0.0
 40
0.0
 40
0.1329672131
 40
0.2639114657
 40
0.3925617133
 40
0.5187742245
 40
0.6424962904
 40
0.763807022
 40
0.8829186252
 40
1.0
 40
1.0
 40
1.0
 40
1.0
 10
11.1133360468
 20
6.9627588011
 30
0.0
 10
11.1129656043
 20
6.9641664738
 30
0.0
 10
11.11211804
 20
6.966932263
 30
0.0
 10
11.1105325271
 20
6.9709311493
 30
0.0
 10
11.1086664453
 20
6.9747250309
 30
0.0
 10
11.1065446354
 20
6.9782901711
 30
0.0
 10
11.1041935589
 20
6.9816102409
 30
0.0
 10
11.1016438962
 20
6.9846794328
 30
0.0
 10
11.0989290612
 20
6.9875026211
 30
0.0
 10
11.0970111076
 20
6.9892400723
 30
0.0
 10
11.0960331791
 20
6.9900685659
 30
0.0
  0
SPLINE
  5
416
100
AcDbEntity
  8
0
100
AcDbSpline
 62
7
  6
CONTINUOUS
 70
0
 71
3
 72
13
 73
9
 74
0
 42
0.0000001
 43
0.0000001
 44
0.0000000001
 40
0.0
 40
0.0
 40
0.0
 40
0.0
 40
0.2766374251
 40
0.4088567057
 40
0.5364329596
 40
0.6591854767
 40
0.777181401
 40
1.0
 40
1.0
 40
1.0
 40
1.0
 10
11.1133360468
 20
6.9627588011
 30
0.0
 10
11.1138765468
 20
6.9655215504
 30
0.0
 10
11.1149220349
 20
6.9695636889
 30
0.0
 10
11.1167951457
 20
6.9746940784
 30
0.0
 10
11.118369335
 20
6.9782578209
 30
0.0
 10
11.1201146527
 20
6.9815784034
 30
0.0
 10
11.1225917564
 20
6.9855958877
 30
0.0
 10
11.1247036014
 20
6.9883639454
 30
0.0
 10
11.1261991534
 20
6.9900682522
 30
0.0
  0
SPLINE
  5
417
100
AcDbEntity
  8
0
100
AcDbSpline
 62
7
  6
CONTINUOUS
 70
0
 71
3
 72
15
 73
11
 74
0
 42
0.0000001
 43
0.0000001
 44
0.0000000001
 40
0.0
 40
0.0
 40
0.0
 40
0.0
 40
0.1257046291
 40
0.2512322527
 40
0.376543862
 40
0.5016422208
 40
0.6265222898
 40
0.7511902151
 40
0.8756904981
 40
1.0
 40
1.0
 40
1.0
 40
1.0
 10
10.6310123512
 20
6.9627588011
 30
0.0
 10
10.6314826956
 20
6.9641748456
 30
0.0
 10
10.6325621614
 20
6.9669606573
 30
0.0
 10
10.6345679608
 20
6.9709617617
 30
0.0
 10
10.6369276662
 20
6.9747564222
 30
0.0
 10
10.6396092945
 20
6.9783205821
 30
0.0
 10
10.6425786483
 20
6.9816378575
 30
0.0
 10
10.6457967092
 20
6.9847030825
 30
0.0
 10
10.6492223315
 20
6.9875223706
 30
0.0
 10
10.6516244163
 20
6.9892446847
 30
0.0
 10
10.652849575
 20
6.9900670271
 30
0.0
  0
LINE
  5
418
100
AcDbEntity
  8
0
100
AcDbLine
 62
7
  6
CONTINUOUS
 10
11.5154028781
 20
6.990155357
 11
11.5155035688
 21
6.9900699172
  0
LINE
  5
419
100
AcDbEntity
  8
0
100
AcDbLine
 62
7
  6
CONTINUOUS
 10
11.5110093689
 20
6.9902098137
 11
11.5111849037
 21
6.9900682569
  0
SPLINE
  5
41A
100
AcDbEntity
  8
0
100
AcDbSpline
 62
7
  6
CONTINUOUS
 70
0
 71
3
 72
15
 73
11
 74
0
 42
0.0000001
 43
0.0000001
 44
0.0000000001
 40
0.0
 40
0.0
 40
0.0
 40
0.0
 40
0.1329672953
 40
0.263911589
 40
0.3925618349
 40
0.5187743184
 40
0.6424963044
 40
0.7638069015
 40
0.8829185189
 40
1.0
 40
1.0
 40
1.0
 40
1.0
 10
10.9807349443
 20
6.9627588011
 30
0.0
 10
10.9811053925
 20
6.9641664951
 30
0.0
 10
10.9819529712
 20
6.9669323252
 30
0.0
 10
10.9835385147
 20
6.970931268
 30
0.0
 10
10.9854046354
 20
6.974725199
 30
0.0
 10
10.9875264902
 20
6.978290381
 30
0.0
 10
10.989877616
 20
6.9816104853
 30
0.0
 10
10.9924273406
 20
6.984679698
 30
0.0
 10
10.995142222
 20
6.9875029191
 30
0.0
 10
10.9970601998
 20
6.9892404015
 30
0.0
 10
10.9980381427
 20
6.9900689086
 30
0.0
  0
SPLINE
  5
41B
100
AcDbEntity
  8
0
100
AcDbSpline
 62
7
  6
CONTINUOUS
 70
0
 71
3
 72
13
 73
9
 74
0
 42
0.0000001
 43
0.0000001
 44
0.0000000001
 40
0.0
 40
0.0
 40
0.0
 40
0.0
 40
0.2766352497
 40
0.4088546667
 40
0.5364309722
 40
0.6591840433
 40
0.7771813002
 40
1.0
 40
1.0
 40
1.0
 40
1.0
 10
10.9807349443
 20
6.9627588011
 30
0.0
 10
10.980194494
 20
6.9655212967
 30
0.0
 10
10.9791491198
 20
6.969563078
 30
0.0
 10
10.9772762529
 20
6.9746930459
 30
0.0
 10
10.9757022719
 20
6.9782565306
 30
0.0
 10
10.9739571835
 20
6.981576899
 30
0.0
 10
10.9714804434
 20
6.9855941642
 30
0.0
 10
10.9693688304
 20
6.9883620596
 30
0.0
 10
10.967873398
 20
6.9900662194
 30
0.0
  0
SPLINE
  5
41C
100
AcDbEntity
  8
0
100
AcDbSpline
 62
7
  6
CONTINUOUS
 70
0
 71
3
 72
13
 73
9
 74
0
 42
0.0000001
 43
0.0000001
 44
0.0000000001
 40
0.0
 40
0.0
 40
0.0
 40
0.0
 40
0.2698314575
 40
0.4001637437
 40
0.5270151925
 40
0.6502828806
 40
0.7700518022
 40
1.0
 40
1.0
 40
1.0
 40
1.0
 10
11.0470354956
 20
6.9627588011
 30
0.0
 10
11.0463924051
 20
6.9655360612
 30
0.0
 10
11.0451455251
 20
6.9695962133
 30
0.0
 10
11.0429338679
 20
6.974709793
 30
0.0
 10
11.0410685798
 20
6.9782746447
 30
0.0
 10
11.0390010314
 20
6.9815952605
 30
0.0
 10
11.0360519123
 20
6.9856330923
 30
0.0
 10
11.0335612979
 20
6.9883828573
 30
0.0
 10
11.0318112399
 20
6.9900678462
 30
0.0
  0
SPLINE
  5
41D
100
AcDbEntity
  8
0
100
AcDbSpline
 62
7
  6
CONTINUOUS
 70
0
 71
3
 72
13
 73
9
 74
0
 42
0.0000001
 43
0.0000001
 44
0.0000000001
 40
0.0
 40
0.0
 40
0.0
 40
0.0
 40
0.2698316584
 40
0.4001639382
 40
0.5270153288
 40
0.6502828652
 40
0.7700515342
 40
1.0
 40
1.0
 40
1.0
 40
1.0
 10
11.0470354956
 20
6.9627588011
 30
0.0
 10
11.0476785975
 20
6.9655361105
 30
0.0
 10
11.0489255042
 20
6.9695963328
 30
0.0
 10
11.0511372172
 20
6.9747099934
 30
0.0
 10
11.0530025523
 20
6.978274895
 30
0.0
 10
11.0550701517
 20
6.9815955523
 30
0.0
 10
11.0580193636
 20
6.9856334192
 30
0.0
 10
11.0605100085
 20
6.9883832391
 30
0.0
 10
11.0622600966
 20
6.9900682604
 30
0.0
  0
SPLINE
  5
41E
100
AcDbEntity
  8
0
100
AcDbSpline
 62
9
  6
CONTINUOUS
 70
0
 71
3
 72
28
 73
24
 74
0
 42
0.0000001
 43
0.0000001
 44
0.0000000001
 40
0.0
 40
0.0
 40
0.0
 40
0.0
 40
0.0248237976
 40
0.049930377
 40
0.0753982344
 40
0.1012978761
 40
0.1276897574
 40
0.1546235914
 40
0.1821380881
 40
0.2102608194
 40
0.2390084884
 40
0.2683874057
 40
0.3289905711
 40
0.3919635391
 40
0.4570473749
 40
0.523882975
 40
0.5920345287
 40
0.6610117323
 40
0.7302914932
 40
0.799338887
 40
0.8676280552
 40
0.9346631878
 40
1.0
 40
1.0
 40
1.0
 40
1.0
 10
10.7980511358
 20
6.065059803
 30
0.0
 10
10.8007298521
 20
6.0645599777
 30
0.0
 10
10.8060767595
 20
6.0633194892
 30
0.0
 10
10.8139601152
 20
6.0607685433
 30
0.0
 10
10.8217146485
 20
6.0575286944
 30
0.0
 10
10.8293093683
 20
6.0536133288
 30
0.0
 10
10.8367151619
 20
6.0490381492
 30
0.0
 10
10.8439034596
 20
6.0438213593
 30
0.0
 10
10.8508466961
 20
6.0379834999
 30
0.0
 10
10.8575182449
 20
6.0315475388
 30
0.0
 10
10.8638928281
 20
6.0245383673
 30
0.0
 10
10.8720465228
 20
6.0143616575
 30
0.0
 10
10.8813378908
 20
6.0003274622
 30
0.0
 10
10.8908183165
 20
5.981873198
 30
0.0
 10
10.8986076535
 20
5.9619097208
 30
0.0
 10
10.9045883875
 20
5.9407439173
 30
0.0
 10
10.9086710643
 20
5.9186985448
 30
0.0
 10
10.9107942021
 20
5.8961107087
 30
0.0
 10
10.9109256388
 20
5.8733256815
 30
0.0
 10
10.9090635812
 20
5.8506921484
 30
0.0
 10
10.9052357018
 20
5.8285554262
 30
0.0
 10
10.8995010408
 20
5.8072566927
 30
0.0
 10
10.8943858681
 20
5.7936259646
 30
0.0
 10
10.8915226996
 20
5.7870501229
 30
0.0
  0
SPLINE
  5
41F
100
AcDbEntity
  8
0
100
AcDbSpline
 62
7
  6
CONTINUOUS
 70
0
 71
3
 72
15
 73
11
 74
0
 42
0.0000001
 43
0.0000001
 44
0.0000000001
 40
0.0
 40
0.0
 40
0.0
 40
0.0
 40
0.1250676162
 40
0.2501261237
 40
0.3751545469
 40
0.5001652179
 40
0.6251534128
 40
0.7501153149
 40
0.8750780991
 40
1.0
 40
1.0
 40
1.0
 40
1.0
 10
10.7146953084
 20
6.9627588011
 30
0.0
 10
10.7151749283
 20
6.9641758726
 30
0.0
 10
10.7162760083
 20
6.9669639816
 30
0.0
 10
10.7183206514
 20
6.9709657336
 30
0.0
 10
10.7207259584
 20
6.9747608219
 30
0.0
 10
10.7234592639
 20
6.9783251758
 30
0.0
 10
10.7264856547
 20
6.9816424288
 30
0.0
 10
10.7297653818
 20
6.9847074579
 30
0.0
 10
10.7332564979
 20
6.9875266092
 30
0.0
 10
10.7357030554
 20
6.9892479586
 30
0.0
 10
10.7369509437
 20
6.990069962
 30
0.0
  0
SPLINE
  5
420
100
AcDbEntity
  8
0
100
AcDbSpline
 62
7
  6
CONTINUOUS
 70
0
 71
3
 72
13
 73
9
 74
0
 42
0.0000001
 43
0.0000001
 44
0.0000000001
 40
0.0
 40
0.0
 40
0.0
 40
0.0
 40
0.2837573855
 40
0.4179996896
 40
0.546397354
 40
0.6686666797
 40
0.7848277372
 40
1.0
 40
1.0
 40
1.0
 40
1.0
 10
10.9156694469
 20
6.9627588011
 30
0.0
 10
10.9152404091
 20
6.965507691
 30
0.0
 10
10.9144126846
 20
6.9695314037
 30
0.0
 10
10.9129152393
 20
6.9746771795
 30
0.0
 10
10.9116612128
 20
6.9782388911
 30
0.0
 10
10.9102706805
 20
6.9815583962
 30
0.0
 10
10.9083084305
 20
6.9855513636
 30
0.0
 10
10.9066184279
 20
6.9883383133
 30
0.0
 10
10.9054085102
 20
6.9900666001
 30
0.0
  0
SPLINE
  5
421
100
AcDbEntity
  8
0
100
AcDbSpline
 62
7
  6
CONTINUOUS
 70
0
 71
3
 72
15
 73
11
 74
0
 42
0.0000001
 43
0.0000001
 44
0.0000000001
 40
0.0
 40
0.0
 40
0.0
 40
0.0
 40
0.1301048281
 40
0.2588995327
 40
0.3862098134
 40
0.5119577333
 40
0.6361189101
 40
0.7587530523
 40
0.8800139594
 40
1.0
 40
1.0
 40
1.0
 40
1.0
 10
10.9156694469
 20
6.9627588011
 30
0.0
 10
10.9160784091
 20
6.9641696905
 30
0.0
 10
10.9170152368
 20
6.9669432583
 30
0.0
 10
10.9187634369
 20
6.9709435369
 30
0.0
 10
10.9208207301
 20
6.9747382719
 30
0.0
 10
10.9231595256
 20
6.9783035572
 30
0.0
 10
10.9257503643
 20
6.9816229782
 30
0.0
 10
10.9285593094
 20
6.9846909098
 30
0.0
 10
10.9315497988
 20
6.9875128047
 30
0.0
 10
10.9336557105
 20
6.9892440326
 30
0.0
 10
10.9347295323
 20
6.9900699667
 30
0.0
  0
SPLINE
  5
422
100
AcDbEntity
  8
0
100
AcDbSpline
 62
7
  6
CONTINUOUS
 70
0
 71
3
 72
15
 73
11
 74
0
 42
0.0000001
 43
0.0000001
 44
0.0000000001
 40
0.0
 40
0.0
 40
0.0
 40
0.0
 40
0.1269824053
 40
0.2534540224
 40
0.3793384195
 40
0.5046175447
 40
0.6292837963
 40
0.7533616657
 40
0.8769292612
 40
1.0
 40
1.0
 40
1.0
 40
1.0
 10
10.6004385109
 20
6.9627588011
 30
0.0
 10
10.6008906285
 20
6.9641731648
 30
0.0
 10
10.6019276804
 20
6.9669550863
 30
0.0
 10
10.6038571526
 20
6.9709557204
 30
0.0
 10
10.6061272771
 20
6.9747502293
 30
0.0
 10
10.6087073852
 20
6.9783145878
 30
0.0
 10
10.6115646822
 20
6.9816323847
 30
0.0
 10
10.614661625
 20
6.9846983217
 30
0.0
 10
10.6179584672
 20
6.9875182575
 30
0.0
 10
10.6202729854
 20
6.9892429261
 30
0.0
 10
10.6214533815
 20
6.9900661838
 30
0.0
  0
SPLINE
  5
423
100
AcDbEntity
  8
0
100
AcDbSpline
 62
7
  6
CONTINUOUS
 70
0
 71
3
 72
13
 73
9
 74
0
 42
0.0000001
 43
0.0000001
 44
0.0000000001
 40
0.0
 40
0.0
 40
0.0
 40
0.0
 40
0.2498258971
 40
0.4996803966
 40
0.624732955
 40
0.7498000321
 40
0.8748949567
 40
1.0
 40
1.0
 40
1.0
 40
1.0
 10
11.3559212246
 20
6.9075185143
 30
0.0
 10
11.3585205216
 20
6.9091849701
 30
0.0
 10
11.3635139801
 20
6.9128534681
 30
0.0
 10
11.3690497377
 20
6.9182815291
 30
0.0
 10
11.3729108186
 20
6.9231142027
 30
0.0
 10
11.3754832975
 20
6.9269804737
 30
0.0
 10
11.3776821931
 20
6.9310718622
 30
0.0
 10
11.3788648527
 20
6.9339364656
 30
0.0
 10
11.3793756827
 20
6.9353958298
 30
0.0
  0
SPLINE
  5
424
100
AcDbEntity
  8
0
100
AcDbSpline
 62
7
  6
CONTINUOUS
 70
0
 71
3
 72
11
 73
7
 74
0
 42
0.0000001
 43
0.0000001
 44
0.0000000001
 40
0.0
 40
0.0
 40
0.0
 40
0.0
 40
0.3001271096
 40
0.5685929251
 40
0.8021300863
 40
1.0
 40
1.0
 40
1.0
 40
1.0
 10
11.3543168957
 20
6.9353958298
 30
0.0
 10
11.3543837784
 20
6.9326024335
 30
0.0
 10
11.3545526825
 20
6.9273112114
 30
0.0
 10
11.3549192112
 20
6.9198519423
 30
0.0
 10
11.3553626419
 20
6.9133508053
 30
0.0
 10
11.355725789
 20
6.9093502958
 30
0.0
 10
11.3559212246
 20
6.9075185143
 30
0.0
  0
SPLINE
  5
425
100
AcDbEntity
  8
0
100
AcDbSpline
 62
7
  6
CONTINUOUS
 70
0
 71
3
 72
15
 73
11
 74
0
 42
0.0000001
 43
0.0000001
 44
0.0000000001
 40
0.0
 40
0.0
 40
0.0
 40
0.0
 40
0.1278631579
 40
0.2549877006
 40
0.381270454
 40
0.5066778096
 40
0.6311988907
 40
0.7548695597
 40
0.8777905523
 40
1.0
 40
1.0
 40
1.0
 40
1.0
 10
10.5882416649
 20
6.9627588011
 30
0.0
 10
10.5886815027
 20
6.964172328
 30
0.0
 10
10.5896900264
 20
6.9669521794
 30
0.0
 10
10.5915680881
 20
6.9709532121
 30
0.0
 10
10.5937778979
 20
6.9747482345
 30
0.0
 10
10.5962896496
 20
6.9783132438
 30
0.0
 10
10.5990714886
 20
6.9816318154
 30
0.0
 10
10.6020869045
 20
6.9846985262
 30
0.0
 10
10.6052969413
 20
6.9875192322
 30
0.0
 10
10.6075523282
 20
6.9892458786
 30
0.0
 10
10.6087024907
 20
6.9900699675
 30
0.0
  0
SPLINE
  5
426
100
AcDbEntity
  8
0
100
AcDbSpline
 62
9
  6
CONTINUOUS
 70
0
 71
3
 72
13
 73
9
 74
0
 42
0.0000001
 43
0.0000001
 44
0.0000000001
 40
0.0
 40
0.0
 40
0.0
 40
0.0
 40
0.2609951731
 40
0.3907885935
 40
0.5188995853
 40
0.6445412151
 40
0.7670159211
 40
1.0
 40
1.0
 40
1.0
 40
1.0
 10
11.3635172926
 20
7.0536849373
 30
0.0
 10
11.3630234509
 20
7.0479562763
 30
0.0
 10
11.3629912248
 20
7.0392957196
 30
0.0
 10
11.3643560226
 20
7.0279367281
 30
0.0
 10
11.3660657181
 20
7.0196508527
 30
0.0
 10
11.3684416002
 20
7.0116973217
 30
0.0
 10
11.3723846249
 20
7.0018508511
 30
0.0
 10
11.3763261788
 20
6.9950001336
 30
0.0
 10
11.3793756827
 20
6.9908714297
 30
0.0
  0
SPLINE
  5
427
100
AcDbEntity
  8
0
100
AcDbSpline
 62
7
  6
CONTINUOUS
 70
0
 71
3
 72
13
 73
9
 74
0
 42
0.0000001
 43
0.0000001
 44
0.0000000001
 40
0.0
 40
0.0
 40
0.0
 40
0.0
 40
0.2494296895
 40
0.4991343919
 40
0.6242155071
 40
0.7493837963
 40
0.8746525014
 40
1.0
 40
1.0
 40
1.0
 40
1.0
 10
11.3310265986
 20
6.9075185143
 30
0.0
 10
11.3336088234
 20
6.9091856936
 30
0.0
 10
11.3385697276
 20
6.9128564285
 30
0.0
 10
11.3440651547
 20
6.9182838072
 30
0.0
 10
11.3478980713
 20
6.9231152927
 30
0.0
 10
11.3504524439
 20
6.9269816296
 30
0.0
 10
11.352635803
 20
6.9310730223
 30
0.0
 10
11.353809767
 20
6.9339368279
 30
0.0
 10
11.3543168957
 20
6.9353958298
 30
0.0
  0
SPLINE
  5
428
100
AcDbEntity
  8
0
100
AcDbSpline
 62
9
  6
CONTINUOUS
 70
0
 71
3
 72
11
 73
7
 74
0
 42
0.0000001
 43
0.0000001
 44
0.0000000001
 40
0.0
 40
0.0
 40
0.0
 40
0.0
 40
0.254305658
 40
0.5067855743
 40
0.7558324708
 40
1.0
 40
1.0
 40
1.0
 40
1.0
 10
10.795949649
 20
6.2872205009
 30
0.0
 10
10.795949649
 20
6.28592852
 30
0.0
 10
10.7960625321
 20
6.2833525357
 30
0.0
 10
10.7965554398
 20
6.2795399616
 30
0.0
 10
10.7973556101
 20
6.27583257
 30
0.0
 10
10.7980929666
 20
6.2734337948
 30
0.0
 10
10.7985109873
 20
6.2722658749
 30
0.0
  0
SPLINE
  5
429
100
AcDbEntity
  8
0
100
AcDbSpline
 62
9
  6
CONTINUOUS
 70
0
 71
3
 72
21
 73
17
 74
0
 42
0.0000001
 43
0.0000001
 44
0.0000000001
 40
0.0
 40
0.0
 40
0.0
 40
0.0
 40
0.0514730618
 40
0.1034676183
 40
0.156415304
 40
0.2106868639
 40
0.2665721489
 40
0.3243026531
 40
0.3840506734
 40
0.4459337259
 40
0.5758499351
 40
0.6436423503
 40
0.7129648144
 40
0.7835604626
 40
0.8551488495
 40
1.0
 40
1.0
 40
1.0
 40
1.0
 10
10.8192841728
 20
6.3202205009
 30
0.0
 10
10.818520371
 20
6.3202205009
 30
0.0
 10
10.8169828991
 20
6.3201071206
 30
0.0
 10
10.8147082899
 20
6.3196119947
 30
0.0
 10
10.8124804642
 20
6.3188058712
 30
0.0
 10
10.8103196112
 20
6.3177027187
 30
0.0
 10
10.8082443067
 20
6.3163147156
 30
0.0
 10
10.8062738742
 20
6.3146531594
 30
0.0
 10
10.8044274327
 20
6.312729509
 30
0.0
 10
10.8021266387
 20
6.3097833464
 30
0.0
 10
10.8002140013
 20
6.3064115579
 30
0.0
 10
10.7986822257
 20
6.3027547921
 30
0.0
 10
10.7977092446
 20
6.2998269023
 30
0.0
 10
10.7969370933
 20
6.2967819652
 30
0.0
 10
10.7961833791
 20
6.2925875918
 30
0.0
 10
10.795949649
 20
6.2893699275
 30
0.0
 10
10.795949649
 20
6.2872205009
 30
0.0
  0
SPLINE
  5
42A
100
AcDbEntity
  8
0
100
AcDbSpline
 62
7
  6
CONTINUOUS
 70
0
 71
3
 72
15
 73
11
 74
0
 42
0.0000001
 43
0.0000001
 44
0.0000000001
 40
0.0
 40
0.0
 40
0.0
 40
0.0
 40
0.1262632519
 40
0.2522030735
 40
0.3777642789
 40
0.5029408429
 40
0.6277268693
 40
0.7521368127
 40
0.8762301979
 40
1.0
 40
1.0
 40
1.0
 40
1.0
 10
10.6147175983
 20
6.9627588011
 30
0.0
 10
10.6151799871
 20
6.9641742665
 30
0.0
 10
10.6162409496
 20
6.9669586814
 30
0.0
 10
10.6182135241
 20
6.970960017
 30
0.0
 10
10.6205342645
 20
6.9747549951
 30
0.0
 10
10.623171748
 20
6.9783195674
 30
0.0
 10
10.6260923827
 20
6.9816373339
 30
0.0
 10
10.6292578064
 20
6.9847030455
 30
0.0
 10
10.6326273868
 20
6.9875228074
 30
0.0
 10
10.6349913205
 20
6.9892463116
 30
0.0
 10
10.6361969638
 20
6.9900691471
 30
0.0
  0
SPLINE
  5
42B
100
AcDbEntity
  8
0
100
AcDbSpline
 62
7
  6
CONTINUOUS
 70
0
 71
3
 72
13
 73
9
 74
0
 42
0.0000001
 43
0.0000001
 44
0.0000000001
 40
0.0
 40
0.0
 40
0.0
 40
0.0
 40
0.2989084936
 40
0.5668536659
 40
0.6881333589
 40
0.8007440527
 40
0.9046906182
 40
1.0
 40
1.0
 40
1.0
 40
1.0
 10
11.327825421
 20
6.9353958298
 30
0.0
 10
11.3279589674
 20
6.9326004866
 30
0.0
 10
11.328296599
 20
6.9273029489
 30
0.0
 10
11.3289254616
 20
6.9208895619
 30
0.0
 10
11.329520648
 20
6.9162286953
 30
0.0
 10
11.3299855809
 20
6.9130997994
 30
0.0
 10
11.3304794308
 20
6.9102217621
 30
0.0
 10
11.3308407971
 20
6.9083912905
 30
0.0
 10
11.3310265986
 20
6.9075185143
 30
0.0
  0
SPLINE
  5
42C
100
AcDbEntity
  8
0
100
AcDbSpline
 62
9
  6
CONTINUOUS
 70
0
 71
3
 72
26
 73
22
 74
0
 42
0.0000001
 43
0.0000001
 44
0.0000000001
 40
0.0
 40
0.0
 40
0.0
 40
0.0
 40
0.0624652367
 40
0.1274840165
 40
0.1945429259
 40
0.2630871987
 40
0.332527704
 40
0.4022061435
 40
0.471398871
 40
0.5394451334
 40
0.60578824
 40
0.6699459023
 40
0.7010856293
 40
0.731527781
 40
0.7612352084
 40
0.7901901054
 40
0.8184159369
 40
0.8459503749
 40
0.8991110519
 40
0.9502318626
 40
1.0
 40
1.0
 40
1.0
 40
1.0
 10
10.6990907629
 20
5.5523332057
 30
0.0
 10
10.6983035088
 20
5.5511412257
 30
0.0
 10
10.696865956
 20
5.5485937951
 30
0.0
 10
10.6951578718
 20
5.544476273
 30
0.0
 10
10.6938637929
 20
5.5400658235
 30
0.0
 10
10.6930042821
 20
5.5354484097
 30
0.0
 10
10.692598555
 20
5.5307089675
 30
0.0
 10
10.6926739634
 20
5.5259372112
 30
0.0
 10
10.6932432511
 20
5.521231143
 30
0.0
 10
10.6942722481
 20
5.5166822726
 30
0.0
 10
10.6957291998
 20
5.5123732734
 30
0.0
 10
10.6972925137
 20
5.50901368
 30
0.0
 10
10.6987393335
 20
5.5065267959
 30
0.0
 10
10.6999044309
 20
5.5047925904
 30
0.0
 10
10.7011556308
 20
5.5031820559
 30
0.0
 10
10.7024888323
 20
5.5017061995
 30
0.0
 10
10.7038945775
 20
5.5003701588
 30
0.0
 10
10.7058298392
 20
5.4987988763
 30
0.0
 10
10.7083931215
 20
5.4971836429
 30
0.0
 10
10.7116689711
 20
5.4958405547
 30
0.0
 10
10.7139462934
 20
5.4953748163
 30
0.0
 10
10.715078631
 20
5.4952601745
 30
0.0
  0
SPLINE
  5
42D
100
AcDbEntity
  8
0
100
AcDbSpline
 62
7
  6
CONTINUOUS
 70
0
 71
3
 72
15
 73
11
 74
0
 42
0.0000001
 43
0.0000001
 44
0.0000000001
 40
0.0
 40
0.0
 40
0.0
 40
0.0
 40
0.1249880838
 40
0.2499880838
 40
0.3749812684
 40
0.499981074
 40
0.6249828382
 40
0.7499814529
 40
0.8750018534
 40
1.0
 40
1.0
 40
1.0
 40
1.0
 10
10.6911860448
 20
6.9627588011
 30
0.0
 10
10.6916667385
 20
6.9641757344
 30
0.0
 10
10.6927702973
 20
6.9669636143
 30
0.0
 10
10.6948193196
 20
6.9709647434
 30
0.0
 10
10.6972297251
 20
6.974759271
 30
0.0
 10
10.699968792
 20
6.9783231304
 30
0.0
 10
10.7030015336
 20
6.9816399614
 30
0.0
 10
10.7062880951
 20
6.9847046883
 30
0.0
 10
10.7097865932
 20
6.987523514
 30
0.0
 10
10.7122382418
 20
6.9892444616
 30
0.0
 10
10.7134887505
 20
6.9900662615
 30
0.0
  0
SPLINE
  5
42E
100
AcDbEntity
  8
0
100
AcDbSpline
 62
7
  6
CONTINUOUS
 70
0
 71
3
 72
11
 73
7
 74
0
 42
0.0000001
 43
0.0000001
 44
0.0000000001
 40
0.0
 40
0.0
 40
0.0
 40
0.0
 40
0.2474030215
 40
0.4958741783
 40
0.7464131332
 40
1.0
 40
1.0
 40
1.0
 40
1.0
 10
10.7995481222
 20
6.0782205009
 30
0.0
 10
10.796535138
 20
6.0782205009
 30
0.0
 10
10.7904924831
 20
6.07793983
 30
0.0
 10
10.7814776236
 20
6.0766798563
 30
0.0
 10
10.7725420007
 20
6.0745864608
 30
0.0
 10
10.7667044016
 20
6.0726550735
 30
0.0
 10
10.7638169787
 20
6.0715594697
 30
0.0
  0
SPLINE
  5
42F
100
AcDbEntity
  8
0
100
AcDbSpline
 62
7
  6
CONTINUOUS
 70
0
 71
3
 72
13
 73
9
 74
0
 42
0.0000001
 43
0.0000001
 44
0.0000000001
 40
0.0
 40
0.0
 40
0.0
 40
0.0
 40
0.2487666848
 40
0.4982215787
 40
0.6233508489
 40
0.7486886017
 40
0.8742477468
 40
1.0
 40
1.0
 40
1.0
 40
1.0
 10
11.3048078751
 20
6.9075185143
 30
0.0
 10
11.3073617302
 20
6.9091869156
 30
0.0
 10
11.3122685113
 20
6.9128614105
 30
0.0
 10
11.3176969296
 20
6.9182876185
 30
0.0
 10
11.3214830706
 20
6.9231171101
 30
0.0
 10
11.3240073587
 20
6.926983551
 30
0.0
 10
11.3261649059
 20
6.9310749447
 30
0.0
 10
11.3273244369
 20
6.9339374268
 30
0.0
 10
11.327825421
 20
6.9353958298
 30
0.0
  0
SPLINE
  5
430
100
AcDbEntity
  8
0
100
AcDbSpline
 62
7
  6
CONTINUOUS
 70
0
 71
3
 72
13
 73
9
 74
0
 42
0.0000001
 43
0.0000001
 44
0.0000000001
 40
0.0
 40
0.0
 40
0.0
 40
0.0
 40
0.2933941544
 40
0.4304492433
 40
0.5600618763
 40
0.7954430915
 40
0.9014302606
 40
1.0
 40
1.0
 40
1.0
 40
1.0
 10
10.8230264169
 20
6.9627588011
 30
0.0
 10
10.8227762927
 20
6.9654915517
 30
0.0
 10
10.8222954729
 20
6.9694922302
 30
0.0
 10
10.821415042
 20
6.974656957
 30
0.0
 10
10.8204663799
 20
6.9792565166
 30
0.0
 10
10.8193436735
 20
6.9835219584
 30
0.0
 10
10.8180426839
 20
6.9874267574
 30
0.0
 10
10.8173589332
 20
6.9892145266
 30
0.0
 10
10.8170087966
 20
6.9900673934
 30
0.0
  0
SPLINE
  5
431
100
AcDbEntity
  8
0
100
AcDbSpline
 62
7
  6
CONTINUOUS
 70
0
 71
3
 72
14
 73
10
 74
0
 42
0.0000001
 43
0.0000001
 44
0.0000000001
 40
0.0
 40
0.0
 40
0.0
 40
0.0
 40
0.2969573872
 40
0.4345126171
 40
0.5640982198
 40
0.6854723705
 40
0.7985517771
 40
0.9033734143
 40
1.0
 40
1.0
 40
1.0
 40
1.0
 10
11.300024774
 20
6.9353958298
 30
0.0
 10
11.3002245425
 20
6.9325972993
 30
0.0
 10
11.3006139288
 20
6.9285081951
 30
0.0
 10
11.3013265789
 20
6.9232260212
 30
0.0
 10
11.3019138765
 20
6.9196021321
 30
0.0
 10
11.3025588735
 20
6.916223238
 30
0.0
 10
11.3032539095
 20
6.9130934826
 30
0.0
 10
11.3039923021
 20
6.9102144778
 30
0.0
 10
11.3045311468
 20
6.9083884901
 30
0.0
 10
11.3048078751
 20
6.9075185143
 30
0.0
  0
SPLINE
  5
432
100
AcDbEntity
  8
0
100
AcDbSpline
 62
7
  6
CONTINUOUS
 70
0
 71
3
 72
15
 73
11
 74
0
 42
0.0000001
 43
0.0000001
 44
0.0000000001
 40
0.0
 40
0.0
 40
0.0
 40
0.0
 40
0.1269825036
 40
0.2534541035
 40
0.3793384795
 40
0.5046176247
 40
0.6292838332
 40
0.7533616586
 40
0.8769292446
 40
1.0
 40
1.0
 40
1.0
 40
1.0
 10
10.8230264169
 20
6.9627588011
 30
0.0
 10
10.8234785579
 20
6.9641732383
 30
0.0
 10
10.8245156706
 20
6.9669553009
 30
0.0
 10
10.8264452697
 20
6.9709561275
 30
0.0
 10
10.8287155553
 20
6.9747508042
 30
0.0
 10
10.8312958503
 20
6.9783153051
 30
0.0
 10
10.8341533551
 20
6.9816332188
 30
0.0
 10
10.8372505351
 20
6.9846992316
 30
0.0
 10
10.8405475908
 20
6.9875192565
 30
0.0
 10
10.8428622313
 20
6.989244007
 30
0.0
 10
10.8440426865
 20
6.990067309
 30
0.0
  0
SPLINE
  5
433
100
AcDbEntity
  8
0
100
AcDbSpline
 62
7
  6
CONTINUOUS
 70
0
 71
3
 72
13
 73
9
 74
0
 42
0.0000001
 43
0.0000001
 44
0.0000000001
 40
0.0
 40
0.0
 40
0.0
 40
0.0
 40
0.2478330509
 40
0.4969380091
 40
0.6221358641
 40
0.7477124633
 40
0.8736798396
 40
1.0
 40
1.0
 40
1.0
 40
1.0
 10
11.2773872976
 20
6.9075185143
 30
0.0
 10
11.2799016108
 20
6.9091886611
 30
0.0
 10
11.284732898
 20
6.9128684857
 30
0.0
 10
11.2900679426
 20
6.9182929834
 30
0.0
 10
11.2937889449
 20
6.9231196556
 30
0.0
 10
11.2962713095
 20
6.9269862298
 30
0.0
 10
11.2983928926
 20
6.9310776126
 30
0.0
 10
11.2995323421
 20
6.9339382551
 30
0.0
 10
11.300024774
 20
6.9353958298
 30
0.0
  0
SPLINE
  5
434
100
AcDbEntity
  8
0
100
AcDbSpline
 62
7
  6
CONTINUOUS
 70
0
 71
3
 72
11
 73
7
 74
0
 42
0.0000001
 43
0.0000001
 44
0.0000000001
 40
0.0
 40
0.0
 40
0.0
 40
0.0
 40
0.2474030215
 40
0.4958741783
 40
0.7464131332
 40
1.0
 40
1.0
 40
1.0
 40
1.0
 10
11.294522869
 20
6.0782205009
 30
0.0
 10
11.2975358531
 20
6.0782205009
 30
0.0
 10
11.303578508
 20
6.07793983
 30
0.0
 10
11.3125933676
 20
6.0766798563
 30
0.0
 10
11.3215289904
 20
6.0745864608
 30
0.0
 10
11.3273665896
 20
6.0726550735
 30
0.0
 10
11.3302540124
 20
6.0715594697
 30
0.0
  0
SPLINE
  5
435
100
AcDbEntity
  8
0
100
AcDbSpline
 62
7
  6
CONTINUOUS
 70
0
 71
3
 72
13
 73
9
 74
0
 42
0.0000001
 43
0.0000001
 44
0.0000000001
 40
0.0
 40
0.0
 40
0.0
 40
0.0
 40
0.2665000197
 40
0.3959107947
 40
0.522419049
 40
0.6459557475
 40
0.766603331
 40
1.0
 40
1.0
 40
1.0
 40
1.0
 10
11.5338638872
 20
6.9630736944
 30
0.0
 10
11.5331689603
 20
6.9658098453
 30
0.0
 10
11.53183235
 20
6.9698072206
 30
0.0
 10
11.5294902901
 20
6.9748251657
 30
0.0
 10
11.5275170426
 20
6.978331786
 30
0.0
 10
11.5253343325
 20
6.9816007194
 30
0.0
 10
11.5222175327
 20
6.9855896686
 30
0.0
 10
11.5195998452
 20
6.9882966699
 30
0.0
 10
11.5177664277
 20
6.9899553251
 30
0.0
  0
LINE
  5
436
100
AcDbEntity
  8
0
100
AcDbLine
 62
7
  6
CONTINUOUS
 10
11.5177664277
 20
6.9899553251
 11
11.5176419741
 21
6.9900675748
  0
SPLINE
  5
437
100
AcDbEntity
  8
0
100
AcDbSpline
 62
7
  6
CONTINUOUS
 70
0
 71
3
 72
14
 73
10
 74
0
 42
0.0000001
 43
0.0000001
 44
0.0000000001
 40
0.0
 40
0.0
 40
0.0
 40
0.0
 40
0.2943924189
 40
0.43121111
 40
0.5604768049
 40
0.6819848382
 40
0.7956873764
 40
0.9016584263
 40
1.0
 40
1.0
 40
1.0
 40
1.0
 10
11.2710445742
 20
6.9353958298
 30
0.0
 10
11.2713098922
 20
6.9325929554
 30
0.0
 10
11.2718275524
 20
6.9284976285
 30
0.0
 10
11.2727719117
 20
6.9232206347
 30
0.0
 10
11.273551101
 20
6.9195958939
 30
0.0
 10
11.2744068965
 20
6.9162161252
 30
0.0
 10
11.275329178
 20
6.9130853905
 30
0.0
 10
11.2763091023
 20
6.9102053365
 30
0.0
 10
11.2770217821
 20
6.9083850636
 30
0.0
 10
11.2773872976
 20
6.9075185143
 30
0.0
  0
SPLINE
  5
438
100
AcDbEntity
  8
0
100
AcDbSpline
 62
7
  6
CONTINUOUS
 70
0
 71
3
 72
11
 73
7
 74
0
 42
0.0000001
 43
0.0000001
 44
0.0000000001
 40
0.0
 40
0.0
 40
0.0
 40
0.0
 40
0.298859122
 40
0.5679000713
 40
0.8016997128
 40
1.0
 40
1.0
 40
1.0
 40
1.0
 10
10.7397540954
 20
6.9627588011
 30
0.0
 10
10.7396910117
 20
6.9654836603
 30
0.0
 10
10.7395337663
 20
6.9706607503
 30
0.0
 10
10.7391918835
 20
6.9779646315
 30
0.0
 10
10.7387682525
 20
6.9843454011
 30
0.0
 10
10.7384185651
 20
6.9882710861
 30
0.0
 10
10.738231773
 20
6.9900699084
 30
0.0
  0
SPLINE
  5
439
100
AcDbEntity
  8
0
100
AcDbSpline
 62
7
  6
CONTINUOUS
 70
0
 71
3
 72
15
 73
11
 74
0
 42
0.0000001
 43
0.0000001
 44
0.0000000001
 40
0.0
 40
0.0
 40
0.0
 40
0.0
 40
0.1253062946
 40
0.2505404517
 40
0.3756748041
 40
0.5007181273
 40
0.6256656985
 40
0.750517489
 40
0.8753071618
 40
1.0
 40
1.0
 40
1.0
 40
1.0
 10
10.7397540954
 20
6.9627588011
 30
0.0
 10
10.7402301621
 20
6.9641752887
 30
0.0
 10
10.7413229435
 20
6.9669621522
 30
0.0
 10
10.7433526284
 20
6.9709631451
 30
0.0
 10
10.7457403449
 20
6.9747576233
 30
0.0
 10
10.7484537056
 20
6.9783215249
 30
0.0
 10
10.751458078
 20
6.9816384795
 30
0.0
 10
10.7547139762
 20
6.9847033782
 30
0.0
 10
10.7581798746
 20
6.9875223537
 30
0.0
 10
10.7606093672
 20
6.9892438535
 30
0.0
 10
10.7618485465
 20
6.9900658632
 30
0.0
  0
SPLINE
  5
43A
100
AcDbEntity
  8
0
100
AcDbSpline
 62
7
  6
CONTINUOUS
 70
0
 71
3
 72
11
 73
7
 74
0
 42
0.0000001
 43
0.0000001
 44
0.0000000001
 40
0.0
 40
0.0
 40
0.0
 40
0.0
 40
0.2469702771
 40
0.4949092734
 40
0.7454491901
 40
1.0
 40
1.0
 40
1.0
 40
1.0
 10
10.7519113467
 20
6.0737924425
 30
0.0
 10
10.7545702211
 20
6.0749099202
 30
0.0
 10
10.7600148888
 20
6.0768831707
 30
0.0
 10
10.7684718545
 20
6.0790081594
 30
0.0
 10
10.7771870249
 20
6.0802846323
 30
0.0
 10
10.7830898183
 20
6.0805621922
 30
0.0
 10
10.7860625033
 20
6.0805621922
 30
0.0
  0
SPLINE
  5
43B
100
AcDbEntity
  8
0
100
AcDbSpline
 62
7
  6
CONTINUOUS
 70
0
 71
3
 72
13
 73
9
 74
0
 42
0.0000001
 43
0.0000001
 44
0.0000000001
 40
0.0
 40
0.0
 40
0.0
 40
0.0
 40
0.2466238463
 40
0.4952787141
 40
0.6205667456
 40
0.7464530009
 40
0.8729477584
 40
1.0
 40
1.0
 40
1.0
 40
1.0
 10
11.2488927138
 20
6.9075185143
 30
0.0
 10
11.2513564854
 20
6.9091909658
 30
0.0
 10
11.2560911787
 20
6.9128777543
 30
0.0
 10
11.2613069263
 20
6.9182999282
 30
0.0
 10
11.2649447732
 20
6.9231229285
 30
0.0
 10
11.2673735696
 20
6.9269896522
 30
0.0
 10
11.2694492084
 20
6.9310810004
 30
0.0
 10
11.270563052
 20
6.9339393018
 30
0.0
 10
11.2710445742
 20
6.9353958298
 30
0.0
  0
SPLINE
  5
43C
100
AcDbEntity
  8
0
100
AcDbSpline
 62
7
  6
CONTINUOUS
 70
0
 71
3
 72
13
 73
9
 74
0
 42
0.0000001
 43
0.0000001
 44
0.0000000001
 40
0.0
 40
0.0
 40
0.0
 40
0.0
 40
0.2801989703
 40
0.4134239272
 40
0.5414021708
 40
0.6639044539
 40
0.7809784187
 40
1.0
 40
1.0
 40
1.0
 40
1.0
 10
10.947971254
 20
6.9627588011
 30
0.0
 10
10.9474854692
 20
6.9655147372
 30
0.0
 10
10.9465470093
 20
6.9695479948
 30
0.0
 10
10.9448572668
 20
6.9746868084
 30
0.0
 10
10.9434397217
 20
6.9782499236
 30
0.0
 10
10.9418679454
 20
6.9815703279
 30
0.0
 10
10.9396433269
 20
6.985576227
 30
0.0
 10
10.9377372332
 20
6.9883540136
 30
0.0
 10
10.9363805875
 20
6.9900699253
 30
0.0
  0
SPLINE
  5
43D
100
AcDbEntity
  8
0
100
AcDbSpline
 62
7
  6
CONTINUOUS
 70
0
 71
3
 72
15
 73
11
 74
0
 42
0.0000001
 43
0.0000001
 44
0.0000000001
 40
0.0
 40
0.0
 40
0.0
 40
0.0
 40
0.1314602094
 40
0.2612705261
 40
0.3892116667
 40
0.515175709
 40
0.639126456
 40
0.7611343241
 40
0.8813813803
 40
1.0
 40
1.0
 40
1.0
 40
1.0
 10
10.947971254
 20
6.9627588011
 30
0.0
 10
10.9483617974
 20
6.9641679089
 30
0.0
 10
10.9492558988
 20
6.9669372992
 30
0.0
 10
10.9509263136
 20
6.9709363452
 30
0.0
 10
10.9528921709
 20
6.9747301907
 30
0.0
 10
10.9551272145
 20
6.9782950109
 30
0.0
 10
10.9576034266
 20
6.981614425
 30
0.0
 10
10.9602883956
 20
6.984682736
 30
0.0
 10
10.9631471675
 20
6.9875049994
 30
0.0
 10
10.9651633835
 20
6.989238876
 30
0.0
 10
10.9661914438
 20
6.9900658489
 30
0.0
  0
SPLINE
  5
43E
100
AcDbEntity
  8
0
100
AcDbSpline
 62
7
  6
CONTINUOUS
 70
0
 71
3
 72
15
 73
11
 74
0
 42
0.0000001
 43
0.0000001
 44
0.0000000001
 40
0.0
 40
0.0
 40
0.0
 40
0.0
 40
0.1461677583
 40
0.2872532271
 40
0.4224764379
 40
0.5512767215
 40
0.6733117856
 40
0.788567493
 40
0.8973510519
 40
1.0
 40
1.0
 40
1.0
 40
1.0
 10
10.883980129
 20
6.9627588011
 30
0.0
 10
10.8837914311
 20
6.9641549359
 30
0.0
 10
10.8833618652
 20
6.9668911495
 30
0.0
 10
10.8825511085
 20
6.9708830009
 30
0.0
 10
10.8815968407
 20
6.974670753
 30
0.0
 10
10.8805115359
 20
6.9782316179
 30
0.0
 10
10.8793081279
 20
6.9815503896
 30
0.0
 10
10.8780017221
 20
6.9846213861
 30
0.0
 10
10.8766098764
 20
6.987447564
 30
0.0
 10
10.8756062569
 20
6.9892227361
 30
0.0
 10
10.8750933565
 20
6.9900687841
 30
0.0
  0
SPLINE
  5
43F
100
AcDbEntity
  8
0
100
AcDbSpline
 62
7
  6
CONTINUOUS
 70
0
 71
3
 72
12
 73
8
 74
0
 42
0.0000001
 43
0.0000001
 44
0.0000000001
 40
0.0
 40
0.0
 40
0.0
 40
0.0
 40
0.2625993371
 40
0.5159055204
 40
0.7611555002
 40
0.8812835699
 40
1.0
 40
1.0
 40
1.0
 40
1.0
 10
10.7233267322
 20
5.6749851451
 30
0.0
 10
10.7204415636
 20
5.6749851451
 30
0.0
 10
10.7147689712
 20
5.6752394635
 30
0.0
 10
10.7064784074
 20
5.6764337621
 30
0.0
 10
10.699874453
 20
5.6781047324
 30
0.0
 10
10.6948420796
 20
5.6798330891
 30
0.0
 10
10.692410174
 20
5.6808236061
 30
0.0
 10
10.6912167086
 20
5.6813498419
 30
0.0
  0
SPLINE
  5
440
100
AcDbEntity
  8
0
100
AcDbSpline
 62
7
  6
CONTINUOUS
 70
0
 71
3
 72
15
 73
11
 74
0
 42
0.0000001
 43
0.0000001
 44
0.0000000001
 40
0.0
 40
0.0
 40
0.0
 40
0.0
 40
0.1289038264
 40
0.2568023215
 40
0.3835598718
 40
0.5091230213
 40
0.6334756345
 40
0.7566655089
 40
0.8788181709
 40
1.0
 40
1.0
 40
1.0
 40
1.0
 10
10.883980129
 20
6.9627588011
 30
0.0
 10
10.8844054514
 20
6.964170826
 30
0.0
 10
10.8853802326
 20
6.9669472288
 30
0.0
 10
10.8871972058
 20
6.9709472542
 30
0.0
 10
10.8893352455
 20
6.9747415782
 30
0.0
 10
10.891765608
 20
6.9783062453
 30
0.0
 10
10.8944575717
 20
6.9816248326
 30
0.0
 10
10.8973758029
 20
6.9846918518
 30
0.0
 10
10.9004826077
 20
6.9875128192
 30
0.0
 10
10.9026678076
 20
6.9892412869
 30
0.0
 10
10.9037821312
 20
6.9900660582
 30
0.0
  0
SPLINE
  5
441
100
AcDbEntity
  8
0
100
AcDbSpline
 62
7
  6
CONTINUOUS
 70
0
 71
3
 72
9
 73
5
 74
0
 42
0.0000001
 43
0.0000001
 44
0.0000000001
 40
0.0
 40
0.0
 40
0.0
 40
0.0
 40
0.4944650403
 40
1.0
 40
1.0
 40
1.0
 40
1.0
 10
10.7860625033
 20
6.0805621922
 30
0.0
 10
10.7889541401
 20
6.0805621922
 30
0.0
 10
10.7948047733
 20
6.0802947071
 30
0.0
 10
10.8006092631
 20
6.0795215752
 30
0.0
 10
10.8035213977
 20
6.0790120484
 30
0.0
  0
SPLINE
  5
442
100
AcDbEntity
  8
0
100
AcDbSpline
 62
7
  6
CONTINUOUS
 70
0
 71
3
 72
11
 73
7
 74
0
 42
0.0000001
 43
0.0000001
 44
0.0000000001
 40
0.0
 40
0.0
 40
0.0
 40
0.0
 40
0.2545507777
 40
0.5050907301
 40
0.7530296002
 40
1.0
 40
1.0
 40
1.0
 40
1.0
 10
11.3080084878
 20
6.0805621922
 30
0.0
 10
11.3109812706
 20
6.0805621922
 30
0.0
 10
11.3168842593
 20
6.0802846129
 30
0.0
 10
11.325599711
 20
6.079008056
 30
0.0
 10
11.334056939
 20
6.0768829237
 30
0.0
 10
11.3395017646
 20
6.0749095453
 30
0.0
 10
11.3421607129
 20
6.0737919939
 30
0.0
  0
SPLINE
  5
443
100
AcDbEntity
  8
0
100
AcDbSpline
 62
7
  6
CONTINUOUS
 70
0
 71
3
 72
9
 73
5
 74
0
 42
0.0000001
 43
0.0000001
 44
0.0000000001
 40
0.0
 40
0.0
 40
0.0
 40
0.0
 40
0.4900633042
 40
1.0
 40
1.0
 40
1.0
 40
1.0
 10
11.370744259
 20
5.6749851451
 30
0.0
 10
11.3676613265
 20
5.6749851451
 30
0.0
 10
11.3613678096
 20
5.6752864818
 30
0.0
 10
11.3551258262
 20
5.6761302169
 30
0.0
 10
11.3519658748
 20
5.6766830953
 30
0.0
  0
SPLINE
  5
444
100
AcDbEntity
  8
0
100
AcDbSpline
 62
7
  6
CONTINUOUS
 70
0
 71
3
 72
12
 73
8
 74
0
 42
0.0000001
 43
0.0000001
 44
0.0000000001
 40
0.0
 40
0.0
 40
0.0
 40
0.0
 40
0.1187164293
 40
0.2388444988
 40
0.4840944791
 40
0.7374006605
 40
1.0
 40
1.0
 40
1.0
 40
1.0
 10
11.4028542903
 20
5.6813498453
 30
0.0
 10
11.4016608246
 20
5.6808236092
 30
0.0
 10
11.3992289185
 20
5.6798330917
 30
0.0
 10
11.394196544
 20
5.678104734
 30
0.0
 10
11.387592588
 20
5.6764337629
 30
0.0
 10
11.3793020222
 20
5.6752394636
 30
0.0
 10
11.3736294283
 20
5.6749851451
 30
0.0
 10
11.370744259
 20
5.6749851451
 30
0.0
  0
SPLINE
  5
445
100
AcDbEntity
  8
0
100
AcDbSpline
 62
7
  6
CONTINUOUS
 70
0
 71
3
 72
14
 73
10
 74
0
 42
0.0000001
 43
0.0000001
 44
0.0000000001
 40
0.0
 40
0.0
 40
0.0
 40
0.0
 40
0.2913441935
 40
0.4272957437
 40
0.5561926061
 40
0.6778709206
 40
0.7923199091
 40
0.8996502035
 40
1.0
 40
1.0
 40
1.0
 40
1.0
 10
11.2410199407
 20
6.9353958298
 30
0.0
 10
11.2413498943
 20
6.9325875665
 30
0.0
 10
11.2419944105
 20
6.9284846887
 30
0.0
 10
11.2431655458
 20
6.9232141207
 30
0.0
 10
11.2441332574
 20
6.9195884534
 30
0.0
 10
11.2451961661
 20
6.9162077853
 30
0.0
 10
11.2463417483
 20
6.9130760998
 30
0.0
 10
11.2475590365
 20
6.9101950983
 30
0.0
 10
11.2484409768
 20
6.9083813363
 30
0.0
 10
11.2488927138
 20
6.9075185143
 30
0.0
  0
SPLINE
  5
446
100
AcDbEntity
  8
0
100
AcDbSpline
 62
7
  6
CONTINUOUS
 70
0
 71
3
 72
15
 73
11
 74
0
 42
0.0000001
 43
0.0000001
 44
0.0000000001
 40
0.0
 40
0.0
 40
0.0
 40
0.0
 40
0.1314605595
 40
0.2612710963
 40
0.3892122968
 40
0.5151762644
 40
0.6391267767
 40
0.761134279
 40
0.8813811778
 40
1.0
 40
1.0
 40
1.0
 40
1.0
 10
10.5646631616
 20
6.9627588011
 30
0.0
 10
10.5650537312
 20
6.9641680033
 30
0.0
 10
10.5659479001
 20
6.9669375756
 30
0.0
 10
10.5676184583
 20
6.9709368721
 30
0.0
 10
10.5695844966
 20
6.9747309366
 30
0.0
 10
10.5718197502
 20
6.9782959417
 30
0.0
 10
10.5742961961
 20
6.9816155055
 30
0.0
 10
10.5769814319
 20
6.9846839203
 30
0.0
 10
10.5798404496
 20
6.9875062953
 30
0.0
 10
10.5818568056
 20
6.9892402703
 30
0.0
 10
10.582884932
 20
6.9900673
 30
0.0
  0
SPLINE
  5
447
100
AcDbEntity
  8
0
100
AcDbSpline
 62
7
  6
CONTINUOUS
 70
0
 71
3
 72
13
 73
9
 74
0
 42
0.0000001
 43
0.0000001
 44
0.0000000001
 40
0.0
 40
0.0
 40
0.0
 40
0.0
 40
0.2451332899
 40
0.4932382957
 40
0.6186395363
 40
0.7449079971
 40
0.8720507693
 40
1.0
 40
1.0
 40
1.0
 40
1.0
 10
11.2194569784
 20
6.9075185143
 30
0.0
 10
11.2218594254
 20
6.9091938763
 30
0.0
 10
11.2264767623
 20
6.9128893421
 30
0.0
 10
11.2315478604
 20
6.9183084808
 30
0.0
 10
11.2350849838
 20
6.9231269254
 30
0.0
 10
11.2374488165
 20
6.9269938
 30
0.0
 10
11.2394687524
 20
6.9310850752
 30
0.0
 10
11.2405516224
 20
6.9339405537
 30
0.0
 10
11.2410199407
 20
6.9353958298
 30
0.0
  0
SPLINE
  5
448
100
AcDbEntity
  8
0
100
AcDbSpline
 62
9
  6
CONTINUOUS
 70
0
 71
3
 72
13
 73
9
 74
0
 42
0.0000001
 43
0.0000001
 44
0.0000000001
 40
0.0
 40
0.0
 40
0.0
 40
0.0
 40
0.2523259298
 40
0.3790391834
 40
0.5054932738
 40
0.6312457441
 40
0.7558668187
 40
1.0
 40
1.0
 40
1.0
 40
1.0
 10
10.8046902935
 20
6.2070090386
 30
0.0
 10
10.805489136
 20
6.2125162254
 30
0.0
 10
10.8061876965
 20
6.2208727272
 30
0.0
 10
10.8061298514
 20
6.2320250512
 30
0.0
 10
10.8055913423
 20
6.2403696678
 30
0.0
 10
10.8045610628
 20
6.2486216461
 30
0.0
 10
10.8025564016
 20
6.2593459074
 30
0.0
 10
10.8003254006
 20
6.2671966823
 30
0.0
 10
10.7985110278
 20
6.2722659039
 30
0.0
  0
SPLINE
  5
449
100
AcDbEntity
  8
0
100
AcDbSpline
 62
7
  6
CONTINUOUS
 70
0
 71
3
 72
15
 73
11
 74
0
 42
0.0000001
 43
0.0000001
 44
0.0000000001
 40
0.0
 40
0.0
 40
0.0
 40
0.0
 40
0.1289038178
 40
0.2568023075
 40
0.3835598564
 40
0.5091230077
 40
0.6334756268
 40
0.7566655104
 40
0.878818176
 40
1.0
 40
1.0
 40
1.0
 40
1.0
 10
10.5781839275
 20
6.9627588011
 30
0.0
 10
10.5786092487
 20
6.964170822
 30
0.0
 10
10.5795840268
 20
6.9669472171
 30
0.0
 10
10.5814009935
 20
6.970947232
 30
0.0
 10
10.5835390249
 20
6.9747415468
 30
0.0
 10
10.5859693778
 20
6.9783062061
 30
0.0
 10
10.5886613308
 20
6.9816247872
 30
0.0
 10
10.5915795499
 20
6.9846918021
 30
0.0
 10
10.5946863435
 20
6.9875127648
 30
0.0
 10
10.596871537
 20
6.9892412284
 30
0.0
 10
10.5979858575
 20
6.9900659973
 30
0.0
  0
SPLINE
  5
44A
100
AcDbEntity
  8
0
100
AcDbSpline
 62
9
  6
CONTINUOUS
 70
0
 71
3
 72
13
 73
9
 74
0
 42
0.0000001
 43
0.0000001
 44
0.0000000001
 40
0.0
 40
0.0
 40
0.0
 40
0.0
 40
0.2608851045
 40
0.3896166187
 40
0.5166080291
 40
0.6414733769
 40
0.7638692254
 40
1.0
 40
1.0
 40
1.0
 40
1.0
 10
10.7179137147
 20
5.6128487638
 30
0.0
 10
10.7176081727
 20
5.6072853215
 30
0.0
 10
10.7166583691
 20
5.5989915108
 30
0.0
 10
10.7143985435
 20
5.5881869204
 30
0.0
 10
10.7122374427
 20
5.5803451774
 30
0.0
 10
10.7096176093
 20
5.5727868464
 30
0.0
 10
10.7055884404
 20
5.5632767056
 30
0.0
 10
10.7018701001
 20
5.5565413449
 30
0.0
 10
10.6990907794
 20
5.5523331839
 30
0.0
  0
SPLINE
  5
44B
100
AcDbEntity
  8
0
100
AcDbSpline
 62
7
  6
CONTINUOUS
 70
0
 71
3
 72
13
 73
9
 74
0
 42
0.0000001
 43
0.0000001
 44
0.0000000001
 40
0.0
 40
0.0
 40
0.0
 40
0.0
 40
0.2976915396
 40
0.4360291193
 40
0.5662235469
 40
0.8003585145
 40
0.9043654174
 40
1.0
 40
1.0
 40
1.0
 40
1.0
 10
10.7662455701
 20
6.9627588011
 30
0.0
 10
10.7661196394
 20
6.9654849033
 30
0.0
 10
10.7658779375
 20
6.9694756496
 30
0.0
 10
10.7654332098
 20
6.9746475043
 30
0.0
 10
10.7649562676
 20
6.9792309716
 30
0.0
 10
10.7643921196
 20
6.9834886391
 30
0.0
 10
10.7637331929
 20
6.9874104923
 30
0.0
 10
10.7633865544
 20
6.9892077689
 30
0.0
 10
10.7632086784
 20
6.9900662395
 30
0.0
  0
SPLINE
  5
44C
100
AcDbEntity
  8
0
100
AcDbSpline
 62
7
  6
CONTINUOUS
 70
0
 71
3
 72
15
 73
11
 74
0
 42
0.0000001
 43
0.0000001
 44
0.0000000001
 40
0.0
 40
0.0
 40
0.0
 40
0.0
 40
0.1257046801
 40
0.2512323387
 40
0.3765439537
 40
0.5016423146
 40
0.6265223515
 40
0.7511902189
 40
0.8756904847
 40
1.0
 40
1.0
 40
1.0
 40
1.0
 10
10.7662455701
 20
6.9627588011
 30
0.0
 10
10.7667159569
 20
6.9641749732
 30
0.0
 10
10.7677955327
 20
6.9669610319
 30
0.0
 10
10.7698015633
 20
6.9709624719
 30
0.0
 10
10.7721615598
 20
6.9747574252
 30
0.0
 10
10.7748435255
 20
6.9783218322
 30
0.0
 10
10.7778132554
 20
6.9816393076
 30
0.0
 10
10.7810317384
 20
6.9847046656
 30
0.0
 10
10.784457751
 20
6.9875241012
 30
0.0
 10
10.7868600633
 20
6.9892465501
 30
0.0
 10
10.7880853297
 20
6.9900689697
 30
0.0
  0
SPLINE
  5
44D
100
AcDbEntity
  8
0
100
AcDbSpline
 62
9
  6
CONTINUOUS
 70
0
 71
3
 72
49
 73
45
 74
0
 42
0.0000001
 43
0.0000001
 44
0.0000000001
 40
0.0
 40
0.0
 40
0.0
 40
0.0
 40
0.0128549586
 40
0.025741798
 40
0.038689042
 40
0.051727007
 40
0.0648834093
 40
0.0781841518
 40
0.0916531039
 40
0.1053115779
 40
0.1191782315
 40
0.133268965
 40
0.1621610421
 40
0.1920699296
 40
0.2230217156
 40
0.2550018568
 40
0.2879594206
 40
0.3218118995
 40
0.3564500266
 40
0.3917425208
 40
0.4275407673
 40
0.4636832639
 40
0.5
 40
0.5363167361
 40
0.5724592327
 40
0.6082574792
 40
0.6435499734
 40
0.6781881005
 40
0.7120405794
 40
0.7449981432
 40
0.7769782844
 40
0.8079300704
 40
0.8378389579
 40
0.866731035
 40
0.8808217685
 40
0.8946884221
 40
0.9083468961
 40
0.9218158482
 40
0.9351165907
 40
0.948272993
 40
0.961310958
 40
0.974258202
 40
0.9871450414
 40
1.0
 40
1.0
 40
1.0
 40
1.0
 10
11.90448735
 20
5.5683649733
 30
0.0
 10
11.900843858
 20
5.5683649733
 30
0.0
 10
11.8935453157
 20
5.5686186943
 30
0.0
 10
11.8826307074
 20
5.5697585967
 30
0.0
 10
11.8717688331
 20
5.571655471
 30
0.0
 10
11.860987114
 20
5.5743043162
 30
0.0
 10
11.8503113641
 20
5.5776985465
 30
0.0
 10
11.8397675651
 20
5.5818296615
 30
0.0
 10
11.8293811972
 20
5.5866874481
 30
0.0
 10
11.8191773663
 20
5.5922598268
 30
0.0
 10
11.8091802972
 20
5.5985332911
 30
0.0
 10
11.7960516713
 20
5.6078881706
 30
0.0
 10
11.7802818313
 20
5.6213060517
 30
0.0
 10
11.762731395
 20
5.6397802216
 30
0.0
 10
11.7465538281
 20
5.6605850094
 30
0.0
 10
11.7319020655
 20
5.6835183305
 30
0.0
 10
11.7189123088
 20
5.7083604918
 30
0.0
 10
11.7077065362
 20
5.7348737641
 30
0.0
 10
11.6983901468
 20
5.7628048356
 30
0.0
 10
11.6910509502
 20
5.7918868371
 30
0.0
 10
11.6857584474
 20
5.8218419269
 30
0.0
 10
11.6825627352
 20
5.8523838027
 30
0.0
 10
11.6814940834
 20
5.8832205009
 30
0.0
 10
11.6825627352
 20
5.9140571992
 30
0.0
 10
11.6857584474
 20
5.944599075
 30
0.0
 10
11.6910509502
 20
5.9745541648
 30
0.0
 10
11.6983901468
 20
6.0036361663
 30
0.0
 10
11.7077065362
 20
6.0315672378
 30
0.0
 10
11.7189123088
 20
6.0580805101
 30
0.0
 10
11.7319020655
 20
6.0829226714
 30
0.0
 10
11.7465538281
 20
6.1058559925
 30
0.0
 10
11.762731395
 20
6.1266607803
 30
0.0
 10
11.7802818313
 20
6.1451349502
 30
0.0
 10
11.7960516713
 20
6.1585528313
 30
0.0
 10
11.8091802972
 20
6.1679077108
 30
0.0
 10
11.8191773663
 20
6.1741811751
 30
0.0
 10
11.8293811972
 20
6.1797535538
 30
0.0
 10
11.8397675651
 20
6.1846113404
 30
0.0
 10
11.8503113641
 20
6.1887424554
 30
0.0
 10
11.860987114
 20
6.1921366857
 30
0.0
 10
11.8717688331
 20
6.1947855309
 30
0.0
 10
11.8826307074
 20
6.1966824052
 30
0.0
 10
11.8935453157
 20
6.1978223075
 30
0.0
 10
11.900843858
 20
6.1980760286
 30
0.0
 10
11.90448735
 20
6.1980760286
 30
0.0
  0
SPLINE
  5
44E
100
AcDbEntity
  8
0
100
AcDbSpline
 62
7
  6
CONTINUOUS
 70
0
 71
3
 72
15
 73
11
 74
0
 42
0.0000001
 43
0.0000001
 44
0.0000000001
 40
0.0
 40
0.0
 40
0.0
 40
0.0
 40
0.1253063112
 40
0.2505404813
 40
0.3756748353
 40
0.5007181651
 40
0.6256657274
 40
0.7505174974
 40
0.8753071658
 40
1.0
 40
1.0
 40
1.0
 40
1.0
 10
10.6492467961
 20
6.9627588011
 30
0.0
 10
10.649722892
 20
6.9641753753
 30
0.0
 10
10.650815749
 20
6.9669624066
 30
0.0
 10
10.6528455926
 20
6.9709636272
 30
0.0
 10
10.6552335091
 20
6.9747583041
 30
0.0
 10
10.6579471015
 20
6.9783223734
 30
0.0
 10
10.660951732
 20
6.9816394636
 30
0.0
 10
10.6642079198
 20
6.9847044525
 30
0.0
 10
10.667674086
 20
6.9875235279
 30
0.0
 10
10.670103735
 20
6.9892451193
 30
0.0
 10
10.6713429884
 20
6.9900671815
 30
0.0
  0
SPLINE
  5
44F
100
AcDbEntity
  8
0
100
AcDbSpline
 62
7
  6
CONTINUOUS
 70
0
 71
3
 72
14
 73
10
 74
0
 42
0.0000001
 43
0.0000001
 44
0.0000000001
 40
0.0
 40
0.0
 40
0.0
 40
0.0
 40
0.2879533801
 40
0.4229508075
 40
0.551451736
 40
0.6733333007
 40
0.7886195456
 40
0.8974529616
 40
1.0
 40
1.0
 40
1.0
 40
1.0
 10
11.2100908622
 20
6.9353958298
 30
0.0
 10
11.2104842833
 20
6.9325812676
 30
0.0
 10
11.2112537581
 20
6.9284697966
 30
0.0
 10
11.2126455939
 20
6.9232067339
 30
0.0
 10
11.2137975744
 20
6.9195801497
 30
0.0
 10
11.2150629197
 20
6.9161986588
 30
0.0
 10
11.2164267593
 20
6.913066169
 30
0.0
 10
11.2178760377
 20
6.9101844494
 30
0.0
 10
11.2189218961
 20
6.908377576
 30
0.0
 10
11.2194569784
 20
6.9075185143
 30
0.0
  0
SPLINE
  5
450
100
AcDbEntity
  8
0
100
AcDbSpline
 62
9
  6
CONTINUOUS
 70
0
 71
3
 72
49
 73
45
 74
0
 42
0.0000001
 43
0.0000001
 44
0.0000000001
 40
0.0
 40
0.0
 40
0.0
 40
0.0
 40
0.0128549586
 40
0.025741798
 40
0.038689042
 40
0.051727007
 40
0.0648834093
 40
0.0781841518
 40
0.0916531039
 40
0.1053115779
 40
0.1191782315
 40
0.133268965
 40
0.1621610421
 40
0.1920699296
 40
0.2230217156
 40
0.2550018568
 40
0.2879594206
 40
0.3218118995
 40
0.3564500266
 40
0.3917425208
 40
0.4275407673
 40
0.4636832639
 40
0.5
 40
0.5363167361
 40
0.5724592327
 40
0.6082574792
 40
0.6435499734
 40
0.6781881005
 40
0.7120405794
 40
0.7449981432
 40
0.7769782844
 40
0.8079300704
 40
0.8378389579
 40
0.866731035
 40
0.8808217685
 40
0.8946884221
 40
0.9083468961
 40
0.9218158482
 40
0.9351165907
 40
0.948272993
 40
0.961310958
 40
0.974258202
 40
0.9871450414
 40
1.0
 40
1.0
 40
1.0
 40
1.0
 10
11.90448735
 20
5.5683649733
 30
0.0
 10
11.908130842
 20
5.5683649733
 30
0.0
 10
11.9154293843
 20
5.5686186943
 30
0.0
 10
11.9263439925
 20
5.5697585967
 30
0.0
 10
11.9372058669
 20
5.571655471
 30
0.0
 10
11.947987586
 20
5.5743043162
 30
0.0
 10
11.9586633358
 20
5.5776985465
 30
0.0
 10
11.9692071348
 20
5.5818296615
 30
0.0
 10
11.9795935028
 20
5.5866874481
 30
0.0
 10
11.9897973336
 20
5.5922598268
 30
0.0
 10
11.9997944028
 20
5.5985332911
 30
0.0
 10
12.0129230286
 20
5.6078881706
 30
0.0
 10
12.0286928686
 20
5.6213060517
 30
0.0
 10
12.0462433049
 20
5.6397802216
 30
0.0
 10
12.0624208718
 20
5.6605850094
 30
0.0
 10
12.0770726344
 20
5.6835183305
 30
0.0
 10
12.0900623911
 20
5.7083604918
 30
0.0
 10
12.1012681637
 20
5.7348737641
 30
0.0
 10
12.1105845531
 20
5.7628048356
 30
0.0
 10
12.1179237498
 20
5.7918868371
 30
0.0
 10
12.1232162525
 20
5.8218419269
 30
0.0
 10
12.1264119647
 20
5.8523838027
 30
0.0
 10
12.1274806165
 20
5.8832205009
 30
0.0
 10
12.1264119647
 20
5.9140571992
 30
0.0
 10
12.1232162525
 20
5.944599075
 30
0.0
 10
12.1179237498
 20
5.9745541648
 30
0.0
 10
12.1105845531
 20
6.0036361663
 30
0.0
 10
12.1012681637
 20
6.0315672378
 30
0.0
 10
12.0900623911
 20
6.0580805101
 30
0.0
 10
12.0770726344
 20
6.0829226714
 30
0.0
 10
12.0624208718
 20
6.1058559925
 30
0.0
 10
12.0462433049
 20
6.1266607803
 30
0.0
 10
12.0286928686
 20
6.1451349502
 30
0.0
 10
12.0129230286
 20
6.1585528313
 30
0.0
 10
11.9997944028
 20
6.1679077108
 30
0.0
 10
11.9897973336
 20
6.1741811751
 30
0.0
 10
11.9795935028
 20
6.1797535538
 30
0.0
 10
11.9692071348
 20
6.1846113404
 30
0.0
 10
11.9586633358
 20
6.1887424554
 30
0.0
 10
11.947987586
 20
6.1921366857
 30
0.0
 10
11.9372058669
 20
6.1947855309
 30
0.0
 10
11.9263439925
 20
6.1966824052
 30
0.0
 10
11.9154293843
 20
6.1978223075
 30
0.0
 10
11.908130842
 20
6.1980760286
 30
0.0
 10
11.90448735
 20
6.1980760286
 30
0.0
  0
SPLINE
  5
451
100
AcDbEntity
  8
0
100
AcDbSpline
 62
7
  6
CONTINUOUS
 70
0
 71
3
 72
12
 73
8
 74
0
 42
0.0000001
 43
0.0000001
 44
0.0000000001
 40
0.0
 40
0.0
 40
0.0
 40
0.0
 40
0.2434091115
 40
0.490919964
 40
0.7430193788
 40
0.8709602185
 40
1.0
 40
1.0
 40
1.0
 40
1.0
 10
11.1892173345
 20
6.9075185143
 30
0.0
 10
11.1915479314
 20
6.909197452
 30
0.0
 10
11.1960281249
 20
6.9129043442
 30
0.0
 10
11.201933346
 20
6.9194267467
 30
0.0
 10
11.2059985277
 20
6.925663004
 30
0.0
 10
11.2085911377
 20
6.9310896451
 30
0.0
 10
11.2096379661
 20
6.9339419939
 30
0.0
 10
11.2100908622
 20
6.9353958298
 30
0.0
  0
SPLINE
  5
452
100
AcDbEntity
  8
0
100
AcDbSpline
 62
9
  6
CONTINUOUS
 70
0
 71
3
 72
49
 73
45
 74
0
 42
0.0000001
 43
0.0000001
 44
0.0000000001
 40
0.0
 40
0.0
 40
0.0
 40
0.0
 40
0.0128549586
 40
0.025741798
 40
0.038689042
 40
0.051727007
 40
0.0648834093
 40
0.0781841518
 40
0.0916531039
 40
0.1053115779
 40
0.1191782315
 40
0.133268965
 40
0.1621610421
 40
0.1920699296
 40
0.2230217156
 40
0.2550018568
 40
0.2879594206
 40
0.3218118995
 40
0.3564500266
 40
0.3917425208
 40
0.4275407673
 40
0.4636832639
 40
0.5
 40
0.5363167361
 40
0.5724592327
 40
0.6082574792
 40
0.6435499734
 40
0.6781881005
 40
0.7120405794
 40
0.7449981432
 40
0.7769782844
 40
0.8079300704
 40
0.8378389579
 40
0.866731035
 40
0.8808217685
 40
0.8946884221
 40
0.9083468961
 40
0.9218158482
 40
0.9351165907
 40
0.948272993
 40
0.961310958
 40
0.974258202
 40
0.9871450414
 40
1.0
 40
1.0
 40
1.0
 40
1.0
 10
10.1895836412
 20
5.5683649733
 30
0.0
 10
10.1859401492
 20
5.5683649733
 30
0.0
 10
10.1786416069
 20
5.5686186943
 30
0.0
 10
10.1677269986
 20
5.5697585967
 30
0.0
 10
10.1568651243
 20
5.571655471
 30
0.0
 10
10.1460834052
 20
5.5743043162
 30
0.0
 10
10.1354076554
 20
5.5776985465
 30
0.0
 10
10.1248638564
 20
5.5818296615
 30
0.0
 10
10.1144774884
 20
5.5866874481
 30
0.0
 10
10.1042736575
 20
5.5922598268
 30
0.0
 10
10.0942765884
 20
5.5985332911
 30
0.0
 10
10.0811479626
 20
5.6078881706
 30
0.0
 10
10.0653781225
 20
5.6213060517
 30
0.0
 10
10.0478276863
 20
5.6397802216
 30
0.0
 10
10.0316501193
 20
5.6605850094
 30
0.0
 10
10.0169983567
 20
5.6835183305
 30
0.0
 10
10.0040086
 20
5.7083604918
 30
0.0
 10
9.9928028274
 20
5.7348737641
 30
0.0
 10
9.983486438
 20
5.7628048356
 30
0.0
 10
9.9761472414
 20
5.7918868371
 30
0.0
 10
9.9708547386
 20
5.8218419269
 30
0.0
 10
9.9676590265
 20
5.8523838027
 30
0.0
 10
9.9665903746
 20
5.8832205009
 30
0.0
 10
9.9676590265
 20
5.9140571992
 30
0.0
 10
9.9708547386
 20
5.944599075
 30
0.0
 10
9.9761472414
 20
5.9745541648
 30
0.0
 10
9.983486438
 20
6.0036361663
 30
0.0
 10
9.9928028274
 20
6.0315672378
 30
0.0
 10
10.0040086
 20
6.0580805101
 30
0.0
 10
10.0169983567
 20
6.0829226714
 30
0.0
 10
10.0316501193
 20
6.1058559925
 30
0.0
 10
10.0478276863
 20
6.1266607803
 30
0.0
 10
10.0653781225
 20
6.1451349502
 30
0.0
 10
10.0811479626
 20
6.1585528313
 30
0.0
 10
10.0942765884
 20
6.1679077108
 30
0.0
 10
10.1042736575
 20
6.1741811751
 30
0.0
 10
10.1144774884
 20
6.1797535538
 30
0.0
 10
10.1248638564
 20
6.1846113404
 30
0.0
 10
10.1354076554
 20
6.1887424554
 30
0.0
 10
10.1460834052
 20
6.1921366857
 30
0.0
 10
10.1568651243
 20
6.1947855309
 30
0.0
 10
10.1677269986
 20
6.1966824052
 30
0.0
 10
10.1786416069
 20
6.1978223075
 30
0.0
 10
10.1859401492
 20
6.1980760286
 30
0.0
 10
10.1895836412
 20
6.1980760286
 30
0.0
  0
SPLINE
  5
453
100
AcDbEntity
  8
0
100
AcDbSpline
 62
7
  6
CONTINUOUS
 70
0
 71
3
 72
13
 73
9
 74
0
 42
0.0000001
 43
0.0000001
 44
0.0000000001
 40
0.0
 40
0.0
 40
0.0
 40
0.0
 40
0.2843855656
 40
0.4183970099
 40
0.5465079082
 40
0.6686336912
 40
0.7848281244
 40
1.0
 40
1.0
 40
1.0
 40
1.0
 10
11.1784015442
 20
6.9353958298
 30
0.0
 10
11.1788569976
 20
6.9325742112
 30
0.0
 10
11.1797489888
 20
6.9284534165
 30
0.0
 10
11.1813543782
 20
6.9231987201
 30
0.0
 10
11.18268545
 20
6.9195713756
 30
0.0
 10
11.184147682
 20
6.9161889495
 30
0.0
 10
11.1861963844
 20
6.9121160899
 30
0.0
 10
11.187954598
 20
6.9092740827
 30
0.0
 10
11.1892173345
 20
6.9075185143
 30
0.0
  0
SPLINE
  5
454
100
AcDbEntity
  8
0
100
AcDbSpline
 62
7
  6
CONTINUOUS
 70
0
 71
3
 72
12
 73
8
 74
0
 42
0.0000001
 43
0.0000001
 44
0.0000000001
 40
0.0
 40
0.0
 40
0.0
 40
0.0
 40
0.2413369058
 40
0.4881003876
 40
0.7409017665
 40
0.8697343193
 40
1.0
 40
1.0
 40
1.0
 40
1.0
 10
11.1583147732
 20
6.9075185143
 30
0.0
 10
11.1605632878
 20
6.9092017652
 30
0.0
 10
11.1648857773
 20
6.9129209849
 30
0.0
 10
11.1705668188
 20
6.9194473115
 30
0.0
 10
11.1744698929
 20
6.9256759423
 30
0.0
 10
11.1769604841
 20
6.9310949509
 30
0.0
 10
11.1779662004
 20
6.9339436015
 30
0.0
 10
11.1784015442
 20
6.9353958298
 30
0.0
  0
SPLINE
  5
455
100
AcDbEntity
  8
0
100
AcDbSpline
 62
9
  6
CONTINUOUS
 70
0
 71
3
 72
49
 73
45
 74
0
 42
0.0000001
 43
0.0000001
 44
0.0000000001
 40
0.0
 40
0.0
 40
0.0
 40
0.0
 40
0.0128549586
 40
0.025741798
 40
0.038689042
 40
0.051727007
 40
0.0648834093
 40
0.0781841518
 40
0.0916531039
 40
0.1053115779
 40
0.1191782315
 40
0.133268965
 40
0.1621610421
 40
0.1920699296
 40
0.2230217156
 40
0.2550018568
 40
0.2879594206
 40
0.3218118995
 40
0.3564500266
 40
0.3917425208
 40
0.4275407673
 40
0.4636832639
 40
0.5
 40
0.5363167361
 40
0.5724592327
 40
0.6082574792
 40
0.6435499734
 40
0.6781881005
 40
0.7120405794
 40
0.7449981432
 40
0.7769782844
 40
0.8079300704
 40
0.8378389579
 40
0.866731035
 40
0.8808217685
 40
0.8946884221
 40
0.9083468961
 40
0.9218158482
 40
0.9351165907
 40
0.948272993
 40
0.961310958
 40
0.974258202
 40
0.9871450414
 40
1.0
 40
1.0
 40
1.0
 40
1.0
 10
10.1895836412
 20
5.5683649733
 30
0.0
 10
10.1932271332
 20
5.5683649733
 30
0.0
 10
10.2005256755
 20
5.5686186943
 30
0.0
 10
10.2114402837
 20
5.5697585967
 30
0.0
 10
10.2223021581
 20
5.571655471
 30
0.0
 10
10.2330838772
 20
5.5743043162
 30
0.0
 10
10.243759627
 20
5.5776985465
 30
0.0
 10
10.254303426
 20
5.5818296615
 30
0.0
 10
10.264689794
 20
5.5866874481
 30
0.0
 10
10.2748936248
 20
5.5922598268
 30
0.0
 10
10.284890694
 20
5.5985332911
 30
0.0
 10
10.2980193198
 20
5.6078881706
 30
0.0
 10
10.3137891598
 20
5.6213060517
 30
0.0
 10
10.3313395961
 20
5.6397802216
 30
0.0
 10
10.347517163
 20
5.6605850094
 30
0.0
 10
10.3621689256
 20
5.6835183305
 30
0.0
 10
10.3751586823
 20
5.7083604918
 30
0.0
 10
10.3863644549
 20
5.7348737641
 30
0.0
 10
10.3956808443
 20
5.7628048356
 30
0.0
 10
10.403020041
 20
5.7918868371
 30
0.0
 10
10.4083125437
 20
5.8218419269
 30
0.0
 10
10.4115082559
 20
5.8523838027
 30
0.0
 10
10.4125769077
 20
5.8832205009
 30
0.0
 10
10.4115082559
 20
5.9140571992
 30
0.0
 10
10.4083125437
 20
5.944599075
 30
0.0
 10
10.403020041
 20
5.9745541648
 30
0.0
 10
10.3956808443
 20
6.0036361663
 30
0.0
 10
10.3863644549
 20
6.0315672378
 30
0.0
 10
10.3751586823
 20
6.0580805101
 30
0.0
 10
10.3621689256
 20
6.0829226714
 30
0.0
 10
10.347517163
 20
6.1058559925
 30
0.0
 10
10.3313395961
 20
6.1266607803
 30
0.0
 10
10.3137891598
 20
6.1451349502
 30
0.0
 10
10.2980193198
 20
6.1585528313
 30
0.0
 10
10.284890694
 20
6.1679077108
 30
0.0
 10
10.2748936248
 20
6.1741811751
 30
0.0
 10
10.264689794
 20
6.1797535538
 30
0.0
 10
10.254303426
 20
6.1846113404
 30
0.0
 10
10.243759627
 20
6.1887424554
 30
0.0
 10
10.2330838772
 20
6.1921366857
 30
0.0
 10
10.2223021581
 20
6.1947855309
 30
0.0
 10
10.2114402837
 20
6.1966824052
 30
0.0
 10
10.2005256755
 20
6.1978223075
 30
0.0
 10
10.1932271332
 20
6.1980760286
 30
0.0
 10
10.1895836412
 20
6.1980760286
 30
0.0
  0
SPLINE
  5
456
100
AcDbEntity
  8
0
100
AcDbSpline
 62
7
  6
CONTINUOUS
 70
0
 71
3
 72
11
 73
7
 74
0
 42
0.0000001
 43
0.0000001
 44
0.0000000001
 40
0.0
 40
0.0
 40
0.0
 40
0.0
 40
0.2807704356
 40
0.541429928
 40
0.780869687
 40
1.0
 40
1.0
 40
1.0
 40
1.0
 10
11.1460997371
 20
6.9353958298
 30
0.0
 10
11.1466155072
 20
6.9325665618
 30
0.0
 10
11.1479384477
 20
6.9271641304
 30
0.0
 10
11.1507680655
 20
6.9196629297
 30
0.0
 10
11.1541964682
 20
6.9131218888
 30
0.0
 10
11.1568995735
 20
6.9092606672
 30
0.0
 10
11.1583147732
 20
6.9075185143
 30
0.0
  0
SPLINE
  5
457
100
AcDbEntity
  8
0
100
AcDbSpline
 62
7
  6
CONTINUOUS
 70
0
 71
3
 72
13
 73
9
 74
0
 42
0.0000001
 43
0.0000001
 44
0.0000000001
 40
0.0
 40
0.0
 40
0.0
 40
0.0
 40
0.2389193654
 40
0.4847908953
 40
0.610687846
 40
0.7385546395
 40
0.8683739931
 40
1.0
 40
1.0
 40
1.0
 40
1.0
 10
11.1268933765
 20
6.9075185143
 30
0.0
 10
11.1290498975
 20
6.9092069009
 30
0.0
 10
11.1331947719
 20
6.9129396104
 30
0.0
 10
11.1376875632
 20
6.9183440045
 30
0.0
 10
11.1408230958
 20
6.9231431412
 30
0.0
 10
11.1429269796
 20
6.9270102739
 30
0.0
 10
11.1447241863
 20
6.9311009333
 30
0.0
 10
11.1456839767
 20
6.9339453531
 30
0.0
 10
11.1460997371
 20
6.9353958298
 30
0.0
  0
SPLINE
  5
458
100
AcDbEntity
  8
0
100
AcDbSpline
 62
7
  6
CONTINUOUS
 70
0
 71
3
 72
11
 73
7
 74
0
 42
0.0000001
 43
0.0000001
 44
0.0000000001
 40
0.0
 40
0.0
 40
0.0
 40
0.0
 40
0.2363608901
 40
0.4814117584
 40
0.736000425
 40
1.0
 40
1.0
 40
1.0
 40
1.0
 10
11.5145714166
 20
6.9075185143
 30
0.0
 10
11.5166263731
 20
6.9092129565
 30
0.0
 10
11.5205755132
 20
6.9129625498
 30
0.0
 10
11.5257286748
 20
6.9194981901
 30
0.0
 10
11.5299933148
 20
6.9270106641
 30
0.0
 10
11.5320265815
 20
6.9325253404
 30
0.0
 10
11.5328078179
 20
6.9353958298
 30
0.0
  0
SPLINE
  5
459
100
AcDbEntity
  8
0
100
AcDbSpline
 62
7
  6
CONTINUOUS
 70
0
 71
3
 72
12
 73
8
 74
0
 42
0.0000001
 43
0.0000001
 44
0.0000000001
 40
0.0
 40
0.0
 40
0.0
 40
0.0
 40
0.2770729926
 40
0.4090991078
 40
0.536456058
 40
0.7770522433
 40
1.0
 40
1.0
 40
1.0
 40
1.0
 10
11.1133360468
 20
6.9353958298
 30
0.0
 10
11.1139101269
 20
6.9325584925
 30
0.0
 10
11.1150374119
 20
6.9284180424
 30
0.0
 10
11.1170444515
 20
6.9231818038
 30
0.0
 10
11.1192302883
 20
6.9184337017
 30
0.0
 10
11.1223478444
 20
6.9130839427
 30
0.0
 10
11.1253336099
 20
6.9092485248
 30
0.0
 10
11.1268933765
 20
6.9075185143
 30
0.0
  0
SPLINE
  5
45A
100
AcDbEntity
  8
0
100
AcDbSpline
 62
7
  6
CONTINUOUS
 70
0
 71
3
 72
13
 73
9
 74
0
 42
0.0000001
 43
0.0000001
 44
0.0000000001
 40
0.0
 40
0.0
 40
0.0
 40
0.0
 40
0.2389193994
 40
0.4847912758
 40
0.6106882516
 40
0.7385548683
 40
0.8683739316
 40
1.0
 40
1.0
 40
1.0
 40
1.0
 10
11.5102014689
 20
6.9075185143
 30
0.0
 10
11.5123579901
 20
6.9092069011
 30
0.0
 10
11.5165028676
 20
6.9129396137
 30
0.0
 10
11.5209956621
 20
6.9183440115
 30
0.0
 10
11.5241311935
 20
6.9231431516
 30
0.0
 10
11.5262350751
 20
6.9270102797
 30
0.0
 10
11.528032279
 20
6.9311009352
 30
0.0
 10
11.5289920689
 20
6.9339453524
 30
0.0
 10
11.5294078295
 20
6.9353958298
 30
0.0
  0
SPLINE
  5
45B
100
AcDbEntity
  8
0
100
AcDbSpline
 62
7
  6
CONTINUOUS
 70
0
 71
3
 72
12
 73
8
 74
0
 42
0.0000001
 43
0.0000001
 44
0.0000000001
 40
0.0
 40
0.0
 40
0.0
 40
0.0
 40
0.2413369058
 40
0.4881003876
 40
0.7409017665
 40
0.8697343193
 40
1.0
 40
1.0
 40
1.0
 40
1.0
 10
11.5036720276
 20
6.9075185143
 30
0.0
 10
11.5059205422
 20
6.9092017652
 30
0.0
 10
11.5102430317
 20
6.9129209849
 30
0.0
 10
11.5159240732
 20
6.9194473115
 30
0.0
 10
11.5198271473
 20
6.9256759423
 30
0.0
 10
11.5223177385
 20
6.9310949509
 30
0.0
 10
11.5233234548
 20
6.9339436015
 30
0.0
 10
11.5237587986
 20
6.9353958298
 30
0.0
  0
SPLINE
  5
45C
100
AcDbEntity
  8
0
100
AcDbSpline
 62
7
  6
CONTINUOUS
 70
0
 71
3
 72
12
 73
8
 74
0
 42
0.0000001
 43
0.0000001
 44
0.0000000001
 40
0.0
 40
0.0
 40
0.0
 40
0.0
 40
0.2434091115
 40
0.490919964
 40
0.7430193788
 40
0.8709602185
 40
1.0
 40
1.0
 40
1.0
 40
1.0
 10
11.495013536
 20
6.9075185143
 30
0.0
 10
11.4973441329
 20
6.909197452
 30
0.0
 10
11.5018243263
 20
6.9129043442
 30
0.0
 10
11.5077295475
 20
6.9194267467
 30
0.0
 10
11.5117947291
 20
6.925663004
 30
0.0
 10
11.5143873392
 20
6.9310896451
 30
0.0
 10
11.5154341676
 20
6.9339419939
 30
0.0
 10
11.5158870636
 20
6.9353958298
 30
0.0
  0
SPLINE
  5
45D
100
AcDbEntity
  8
0
100
AcDbSpline
 62
7
  6
CONTINUOUS
 70
0
 71
3
 72
13
 73
9
 74
0
 42
0.0000001
 43
0.0000001
 44
0.0000000001
 40
0.0
 40
0.0
 40
0.0
 40
0.0
 40
0.2451332899
 40
0.4932382957
 40
0.6186395363
 40
0.7449079971
 40
0.8720507693
 40
1.0
 40
1.0
 40
1.0
 40
1.0
 10
11.4842663639
 20
6.9075185143
 30
0.0
 10
11.4866688109
 20
6.9091938763
 30
0.0
 10
11.4912861478
 20
6.9128893421
 30
0.0
 10
11.4963572459
 20
6.9183084808
 30
0.0
 10
11.4998943693
 20
6.9231269254
 30
0.0
 10
11.5022582021
 20
6.9269938
 30
0.0
 10
11.504278138
 20
6.9310850752
 30
0.0
 10
11.5053610079
 20
6.9339405537
 30
0.0
 10
11.5058293262
 20
6.9353958298
 30
0.0
  0
SPLINE
  5
45E
100
AcDbEntity
  8
0
100
AcDbSpline
 62
7
  6
CONTINUOUS
 70
0
 71
3
 72
13
 73
9
 74
0
 42
0.0000001
 43
0.0000001
 44
0.0000000001
 40
0.0
 40
0.0
 40
0.0
 40
0.0
 40
0.2466238463
 40
0.4952787141
 40
0.6205667456
 40
0.7464530009
 40
0.8729477584
 40
1.0
 40
1.0
 40
1.0
 40
1.0
 10
11.4714806198
 20
6.9075185143
 30
0.0
 10
11.4739443914
 20
6.9091909658
 30
0.0
 10
11.4786790847
 20
6.9128777543
 30
0.0
 10
11.4838948323
 20
6.9182999282
 30
0.0
 10
11.4875326792
 20
6.9231229285
 30
0.0
 10
11.4899614755
 20
6.9269896522
 30
0.0
 10
11.4920371144
 20
6.9310810004
 30
0.0
 10
11.4931509579
 20
6.9339393018
 30
0.0
 10
11.4936324802
 20
6.9353958298
 30
0.0
  0
SPLINE
  5
45F
100
AcDbEntity
  8
0
100
AcDbSpline
 62
7
  6
CONTINUOUS
 70
0
 71
3
 72
13
 73
9
 74
0
 42
0.0000001
 43
0.0000001
 44
0.0000000001
 40
0.0
 40
0.0
 40
0.0
 40
0.0
 40
0.2478330651
 40
0.496938011
 40
0.6221358688
 40
0.747712455
 40
0.8736798214
 40
1.0
 40
1.0
 40
1.0
 40
1.0
 10
11.4567159165
 20
6.9075185143
 30
0.0
 10
11.4592302298
 20
6.9091886612
 30
0.0
 10
11.464061517
 20
6.9128684859
 30
0.0
 10
11.4693965617
 20
6.9182929836
 30
0.0
 10
11.4731175637
 20
6.9231196556
 30
0.0
 10
11.4755999283
 20
6.9269862295
 30
0.0
 10
11.4777215112
 20
6.9310776123
 30
0.0
 10
11.4788609609
 20
6.9339382549
 30
0.0
 10
11.4793533929
 20
6.9353958298
 30
0.0
  0
SPLINE
  5
460
100
AcDbEntity
  8
0
100
AcDbSpline
 62
7
  6
CONTINUOUS
 70
0
 71
3
 72
13
 73
9
 74
0
 42
0.0000001
 43
0.0000001
 44
0.0000000001
 40
0.0
 40
0.0
 40
0.0
 40
0.0
 40
0.2487666706
 40
0.4982215768
 40
0.6233508442
 40
0.7486886099
 40
0.8742477649
 40
1.0
 40
1.0
 40
1.0
 40
1.0
 10
11.440041094
 20
6.9075185143
 30
0.0
 10
11.442594949
 20
6.9091869156
 30
0.0
 10
11.4475017301
 20
6.9128614104
 30
0.0
 10
11.4529301483
 20
6.9182876184
 30
0.0
 10
11.4567162896
 20
6.9231171101
 30
0.0
 10
11.4592405777
 20
6.9269835512
 30
0.0
 10
11.461398125
 20
6.931074945
 30
0.0
 10
11.4625576559
 20
6.933937427
 30
0.0
 10
11.4630586399
 20
6.9353958298
 30
0.0
  0
SPLINE
  5
461
100
AcDbEntity
  8
0
100
AcDbSpline
 62
7
  6
CONTINUOUS
 70
0
 71
3
 72
13
 73
9
 74
0
 42
0.0000001
 43
0.0000001
 44
0.0000000001
 40
0.0
 40
0.0
 40
0.0
 40
0.0
 40
0.2494296895
 40
0.4991343919
 40
0.6242155071
 40
0.7493837963
 40
0.8746525014
 40
1.0
 40
1.0
 40
1.0
 40
1.0
 10
11.4215338979
 20
6.9075185143
 30
0.0
 10
11.4241161227
 20
6.9091856936
 30
0.0
 10
11.4290770269
 20
6.9128564285
 30
0.0
 10
11.434572454
 20
6.9182838072
 30
0.0
 10
11.4384053706
 20
6.9231152927
 30
0.0
 10
11.4409597432
 20
6.9269816296
 30
0.0
 10
11.4431431023
 20
6.9310730223
 30
0.0
 10
11.4443170663
 20
6.9339368279
 30
0.0
 10
11.444824195
 20
6.9353958298
 30
0.0
  0
SPLINE
  5
462
100
AcDbEntity
  8
0
100
AcDbSpline
 62
7
  6
CONTINUOUS
 70
0
 71
3
 72
13
 73
9
 74
0
 42
0.0000001
 43
0.0000001
 44
0.0000000001
 40
0.0
 40
0.0
 40
0.0
 40
0.0
 40
0.2498258971
 40
0.4996803966
 40
0.624732955
 40
0.7498000321
 40
0.8748949567
 40
1.0
 40
1.0
 40
1.0
 40
1.0
 10
11.4012806175
 20
6.9075185143
 30
0.0
 10
11.4038799145
 20
6.9091849701
 30
0.0
 10
11.408873373
 20
6.9128534681
 30
0.0
 10
11.4144091306
 20
6.9182815291
 30
0.0
 10
11.4182702115
 20
6.9231142027
 30
0.0
 10
11.4208426904
 20
6.9269804737
 30
0.0
 10
11.423041586
 20
6.9310718622
 30
0.0
 10
11.4242242456
 20
6.9339364656
 30
0.0
 10
11.4247350756
 20
6.9353958298
 30
0.0
  0
SPLINE
  5
463
100
AcDbEntity
  8
0
100
AcDbSpline
 62
7
  6
CONTINUOUS
 70
0
 71
3
 72
13
 73
9
 74
0
 42
0.0000001
 43
0.0000001
 44
0.0000000001
 40
0.0
 40
0.0
 40
0.0
 40
0.0
 40
0.2499576957
 40
0.4998621104
 40
0.6249052061
 40
0.7499386247
 40
0.8749757055
 40
1.0
 40
1.0
 40
1.0
 40
1.0
 10
11.3793756827
 20
6.9075185143
 30
0.0
 10
11.381980679
 20
6.9091847305
 30
0.0
 10
11.3869850024
 20
6.9128524861
 30
0.0
 10
11.3925342243
 20
6.9182807712
 30
0.0
 10
11.3964047098
 20
6.9231138395
 30
0.0
 10
11.3989832334
 20
6.9269800879
 30
0.0
 10
11.4011873161
 20
6.9310714744
 30
0.0
 10
11.4023728801
 20
6.9339363444
 30
0.0
 10
11.4028849464
 20
6.9353958298
 30
0.0
  0
SPLINE
  5
464
100
AcDbEntity
  8
0
100
AcDbSpline
 62
7
  6
CONTINUOUS
 70
0
 71
3
 72
15
 73
11
 74
0
 42
0.0000001
 43
0.0000001
 44
0.0000000001
 40
0.0
 40
0.0
 40
0.0
 40
0.0
 40
0.1250676168
 40
0.2501261302
 40
0.3751545552
 40
0.5001652223
 40
0.6251534125
 40
0.7501153117
 40
0.8750780964
 40
1.0
 40
1.0
 40
1.0
 40
1.0
 10
11.4247350756
 20
6.9627588011
 30
0.0
 10
11.424255456
 20
6.9641758716
 30
0.0
 10
11.4231543769
 20
6.9669639787
 30
0.0
 10
11.4211097357
 20
6.9709657281
 30
0.0
 10
11.418704431
 20
6.9747608141
 30
0.0
 10
11.4159711283
 20
6.9783251659
 30
0.0
 10
11.4129447406
 20
6.9816424171
 30
0.0
 10
11.4096650171
 20
6.9847074452
 30
0.0
 10
11.4061739041
 20
6.9875265953
 30
0.0
 10
11.4037273482
 20
6.9892479434
 30
0.0
 10
11.4024794608
 20
6.9900699462
 30
0.0
  0
SPLINE
  5
465
100
AcDbEntity
  8
0
100
AcDbSpline
 62
7
  6
CONTINUOUS
 70
0
 71
3
 72
15
 73
11
 74
0
 42
0.0000001
 43
0.0000001
 44
0.0000000001
 40
0.0
 40
0.0
 40
0.0
 40
0.0
 40
0.124988091
 40
0.2499881097
 40
0.3749812953
 40
0.4999811273
 40
0.6249828903
 40
0.7499814868
 40
0.875001891
 40
1.0
 40
1.0
 40
1.0
 40
1.0
 10
11.4028849464
 20
6.9627588011
 30
0.0
 10
11.4024041716
 20
6.9641759732
 30
0.0
 10
11.4013004025
 20
6.9669643152
 30
0.0
 10
11.3992509386
 20
6.9709660716
 30
0.0
 10
11.3968399773
 20
6.9747611461
 30
0.0
 10
11.3941002666
 20
6.9783254672
 30
0.0
 10
11.3910668074
 20
6.9816426713
 30
0.0
 10
11.387779442
 20
6.9847076457
 30
0.0
 10
11.3842801995
 20
6.9875267461
 30
0.0
 10
11.3818281157
 20
6.9892479458
 30
0.0
 10
11.380577401
 20
6.9900698903
 30
0.0
  0
SPLINE
  5
466
100
AcDbEntity
  8
0
100
AcDbSpline
 62
7
  6
CONTINUOUS
 70
0
 71
3
 72
15
 73
11
 74
0
 42
0.0000001
 43
0.0000001
 44
0.0000000001
 40
0.0
 40
0.0
 40
0.0
 40
0.0
 40
0.1253063469
 40
0.2505405505
 40
0.3756749094
 40
0.5007182497
 40
0.6256657883
 40
0.7505175121
 40
0.8753071719
 40
1.0
 40
1.0
 40
1.0
 40
1.0
 10
11.444824195
 20
6.9627588011
 30
0.0
 10
11.4443480378
 20
6.9641755581
 30
0.0
 10
11.4432550212
 20
6.9669629432
 30
0.0
 10
11.4412248426
 20
6.9709646443
 30
0.0
 10
11.4388365043
 20
6.9747597401
 30
0.0
 10
11.4361224234
 20
6.9783241633
 30
0.0
 10
11.4331172483
 20
6.9816415393
 30
0.0
 10
11.4298604498
 20
6.9847067179
 30
0.0
 10
11.4263937187
 20
6.9875260043
 30
0.0
 10
11.4239637399
 20
6.9892477889
 30
0.0
 10
11.4227243303
 20
6.9900699617
 30
0.0
  0
SPLINE
  5
467
100
AcDbEntity
  8
0
100
AcDbSpline
 62
7
  6
CONTINUOUS
 70
0
 71
3
 72
15
 73
11
 74
0
 42
0.0000001
 43
0.0000001
 44
0.0000000001
 40
0.0
 40
0.0
 40
0.0
 40
0.0
 40
0.1257051775
 40
0.2512326256
 40
0.3765438076
 40
0.5016426556
 40
0.6265239643
 40
0.7511921075
 40
0.8756914126
 40
1.0
 40
1.0
 40
1.0
 40
1.0
 10
11.4630586399
 20
6.9627588011
 30
0.0
 10
11.4625882315
 20
6.9641750384
 30
0.0
 10
11.4615086009
 20
6.9669612148
 30
0.0
 10
11.4595024634
 20
6.9709628101
 30
0.0
 10
11.4571423358
 20
6.9747579018
 30
0.0
 10
11.4544601925
 20
6.978322431
 30
0.0
 10
11.451490258
 20
6.9816400062
 30
0.0
 10
11.4482715974
 20
6.9847054595
 30
0.0
 10
11.4448453919
 20
6.9875249241
 30
0.0
 10
11.4424429919
 20
6.9892474229
 30
0.0
 10
11.441217684
 20
6.9900698724
 30
0.0
  0
SPLINE
  5
468
100
AcDbEntity
  8
0
100
AcDbSpline
 62
7
  6
CONTINUOUS
 70
0
 71
3
 72
15
 73
11
 74
0
 42
0.0000001
 43
0.0000001
 44
0.0000000001
 40
0.0
 40
0.0
 40
0.0
 40
0.0
 40
0.1262632677
 40
0.2522031071
 40
0.3777643179
 40
0.5029408756
 40
0.6277268886
 40
0.7521368158
 40
0.8762301893
 40
1.0
 40
1.0
 40
1.0
 40
1.0
 10
11.4793533929
 20
6.9627588011
 30
0.0
 10
11.4788909972
 20
6.9641742874
 30
0.0
 10
11.477830017
 20
6.9669587428
 30
0.0
 10
11.4758574052
 20
6.9709601335
 30
0.0
 10
11.4735366178
 20
6.9747551596
 30
0.0
 10
11.47089908
 20
6.9783197724
 30
0.0
 10
11.4679783845
 20
6.9816375712
 30
0.0
 10
11.4648128942
 20
6.9847033061
 30
0.0
 10
11.4614432482
 20
6.9875230892
 30
0.0
 10
11.4590792756
 20
6.989246612
 30
0.0
 10
11.4578736148
 20
6.9900694601
 30
0.0
  0
SPLINE
  5
469
100
AcDbEntity
  8
0
100
AcDbSpline
 62
7
  6
CONTINUOUS
 70
0
 71
3
 72
15
 73
11
 74
0
 42
0.0000001
 43
0.0000001
 44
0.0000000001
 40
0.0
 40
0.0
 40
0.0
 40
0.0
 40
0.1269826573
 40
0.25345444
 40
0.379338873
 40
0.5046179544
 40
0.6292840327
 40
0.7533616316
 40
0.8769291252
 40
1.0
 40
1.0
 40
1.0
 40
1.0
 10
11.4936324802
 20
6.9627588011
 30
0.0
 10
11.4931802888
 20
6.9641733959
 30
0.0
 10
11.4921430453
 20
6.9669557645
 30
0.0
 10
11.4902131695
 20
6.9709570079
 30
0.0
 10
11.4879425365
 20
6.9747520486
 30
0.0
 10
11.4853618391
 20
6.9783168561
 30
0.0
 10
11.4825038853
 20
6.9816350158
 30
0.0
 10
11.4794062036
 20
6.9847011974
 30
0.0
 10
11.4761086766
 20
6.9875214
 30
0.0
 10
11.4737937608
 20
6.9892463105
 30
0.0
 10
11.472613177
 20
6.9900697079
 30
0.0
  0
SPLINE
  5
46A
100
AcDbEntity
  8
0
100
AcDbSpline
 62
7
  6
CONTINUOUS
 70
0
 71
3
 72
15
 73
11
 74
0
 42
0.0000001
 43
0.0000001
 44
0.0000000001
 40
0.0
 40
0.0
 40
0.0
 40
0.0
 40
0.1278631318
 40
0.2549876642
 40
0.3812704166
 40
0.5066777743
 40
0.631198871
 40
0.7548695697
 40
0.8777905686
 40
1.0
 40
1.0
 40
1.0
 40
1.0
 10
11.5058293262
 20
6.9627588011
 30
0.0
 10
11.5053894939
 20
6.9641723104
 30
0.0
 10
11.5043809845
 20
6.9669521277
 30
0.0
 10
11.5025029527
 20
6.9709531138
 30
0.0
 10
11.5002931809
 20
6.9747480954
 30
0.0
 10
11.4977814731
 20
6.9783130703
 30
0.0
 10
11.4949996829
 20
6.9816316138
 30
0.0
 10
11.4919843232
 20
6.9846983065
 30
0.0
 10
11.4887743361
 20
6.9875189903
 30
0.0
 10
11.4865189775
 20
6.9892456162
 30
0.0
 10
11.4853688289
 20
6.9900696944
 30
0.0
  0
SPLINE
  5
46B
100
AcDbEntity
  8
0
100
AcDbSpline
 62
7
  6
CONTINUOUS
 70
0
 71
3
 72
15
 73
11
 74
0
 42
0.0000001
 43
0.0000001
 44
0.0000000001
 40
0.0
 40
0.0
 40
0.0
 40
0.0
 40
0.1289048173
 40
0.2568034073
 40
0.3835606234
 40
0.5091241484
 40
0.6334777264
 40
0.7566674964
 40
0.8788188746
 40
1.0
 40
1.0
 40
1.0
 40
1.0
 10
11.5158870636
 20
6.9627588011
 30
0.0
 10
11.5154616725
 20
6.9641710544
 30
0.0
 10
11.5144867145
 20
6.9669478904
 30
0.0
 10
11.5126693745
 20
6.9709485036
 30
0.0
 10
11.5105308772
 20
6.9747433437
 30
0.0
 10
11.5080999585
 20
6.9783084523
 30
0.0
 10
11.5054073667
 20
6.981627397
 30
0.0
 10
11.5024884904
 20
6.9846946971
 30
0.0
 10
11.4993810291
 20
6.9875158654
 30
0.0
 10
11.4971954693
 20
6.9892445265
 30
0.0
 10
11.4960809838
 20
6.9900694246
 30
0.0
  0
SPLINE
  5
46C
100
AcDbEntity
  8
0
100
AcDbSpline
 62
7
  6
CONTINUOUS
 70
0
 71
3
 72
15
 73
11
 74
0
 42
0.0000001
 43
0.0000001
 44
0.0000000001
 40
0.0
 40
0.0
 40
0.0
 40
0.0
 40
0.1301048325
 40
0.2588995455
 40
0.3862098282
 40
0.5119577438
 40
0.6361189128
 40
0.7587530476
 40
0.8800139543
 40
1.0
 40
1.0
 40
1.0
 40
1.0
 10
11.5237587986
 20
6.9627588011
 30
0.0
 10
11.5233498361
 20
6.9641696919
 30
0.0
 10
11.5224130073
 20
6.9669432623
 30
0.0
 10
11.520664805
 20
6.9709435445
 30
0.0
 10
11.5186075091
 20
6.9747382826
 30
0.0
 10
11.5162687106
 20
6.9783035705
 30
0.0
 10
11.5136778685
 20
6.9816229934
 30
0.0
 10
11.5108689194
 20
6.9846909264
 30
0.0
 10
11.5078784265
 20
6.987512823
 30
0.0
 10
11.5057725128
 20
6.9892440525
 30
0.0
 10
11.50469869
 20
6.9900699874
 30
0.0
  0
SPLINE
  5
46D
100
AcDbEntity
  8
0
100
AcDbSpline
 62
7
  6
CONTINUOUS
 70
0
 71
3
 72
15
 73
11
 74
0
 42
0.0000001
 43
0.0000001
 44
0.0000000001
 40
0.0
 40
0.0
 40
0.0
 40
0.0
 40
0.1314612448
 40
0.2612716991
 40
0.3892126064
 40
0.5151767379
 40
0.6391274035
 40
0.7611347704
 40
0.8813812413
 40
1.0
 40
1.0
 40
1.0
 40
1.0
 10
11.5294078295
 20
6.9627588011
 30
0.0
 10
11.5290172403
 20
6.964168074
 30
0.0
 10
11.5281230216
 20
6.966937775
 30
0.0
 10
11.526452366
 20
6.9709372459
 30
0.0
 10
11.5244862023
 20
6.9747314596
 30
0.0
 10
11.5222507973
 20
6.9782965938
 30
0.0
 10
11.519774182
 20
6.9816162657
 30
0.0
 10
11.5170887776
 20
6.9846847711
 30
0.0
 10
11.5142295555
 20
6.9875071875
 30
0.0
 10
11.5122130754
 20
6.9892411901
 30
0.0
 10
11.5111849037
 20
6.9900682569
 30
0.0
  0
SPLINE
  5
46E
100
AcDbEntity
  8
0
100
AcDbSpline
 62
7
  6
CONTINUOUS
 70
0
 71
3
 72
15
 73
11
 74
0
 42
0.0000001
 43
0.0000001
 44
0.0000000001
 40
0.0
 40
0.0
 40
0.0
 40
0.0
 40
0.1329680999
 40
0.2639123571
 40
0.3925622244
 40
0.5187750848
 40
0.6424981018
 40
0.763808771
 40
0.8829192414
 40
1.0
 40
1.0
 40
1.0
 40
1.0
 10
11.5328078179
 20
6.9627588011
 30
0.0
 10
11.5324373511
 20
6.964166566
 30
0.0
 10
11.5315897252
 20
6.966932525
 30
0.0
 10
11.5300040879
 20
6.9709316406
 30
0.0
 10
11.5281378522
 20
6.9747257241
 30
0.0
 10
11.526015843
 20
6.9782910424
 30
0.0
 10
11.5236645376
 20
6.98161126
 30
0.0
 10
11.5211146557
 20
6.984680572
 30
0.0
 10
11.5183996002
 20
6.9875038388
 30
0.0
 10
11.5164815478
 20
6.9892413771
 30
0.0
 10
11.5155035688
 20
6.9900699172
 30
0.0
  0
ENDSEC
  0
SECTION
  2
OBJECTS
  0
DICTIONARY
  5
C
100
AcDbDictionary
280
0
281
1
  3
ACAD_GROUP
350
D
  3
ACAD_MLINESTYLE
350
17
  3
ACAD_LAYOUT
350
1A
  3
ACAD_PLOTSETTINGS
350
19
  3
ACAD_PLOTSTYLENAME
350
E
  0
DICTIONARY
  5
D
102
{ACAD_REACTORS
330
C
102
}
100
AcDbDictionary
280
0
281
1
  0
ACDBDICTIONARYWDFLT
  5
E
102
{ACAD_REACTORS
330
C
102
}
100
AcDbDictionary
281
1
  3
Normal
350
F
100
AcDbDictionaryWithDefault
340
F
  0
DICTIONARY
  5
17
102
{ACAD_REACTORS
330
C
102
}
100
AcDbDictionary
280
0
281
1
  3
Standard
350
18
  0
DICTIONARY
  5
19
102
{ACAD_REACTORS
330
C
102
}
100
AcDbDictionary
281
1
  0
DICTIONARY
  5
1A
102
{ACAD_REACTORS
330
C
102
}
100
AcDbDictionary
281
1
  3
Model
350
46F
  3
Layout1
350
470
  0
ACDBPLACEHOLDER
  5
F
102
{ACAD_REACTORS
330
E
102
}
  0
MLINESTYLE
  5
18
102
{ACAD_REACTORS
330
17
102
}
100
AcDbMlineStyle
  2
STANDARD
 70
0
  3

 62
256
 51
90.0
 52
90.0
 71
2
 49
0.5
 62
256
  6
BYLAYER
 49
-0.5
 62
256
  6
BYLAYER
  0
LAYOUT
  5
46F
102
{ACAD_REACTORS
330
1A
102
}
100
AcDbPlotSettings
  1

  2
none_device
  4
ANSI_C_(22.00_x_17.00_Inches)
  6

 40
0.0
 41
0.0
 42
0.0
 43
0.0
 44
558.8
 45
431.8
 46
0.0
 47
0.0
 48
0.0
 49
0.0
140
0.0
141
0.0
142
1.0
143
1.0
 70
1024
 72
0
 73
0
 74
0
  7

 75
0
147
1.0
148
0.0
149
0.0
100
AcDbLayout
  1
Model
 70
0
 71
0
 10
0.0
 20
0.0
 11
22.0
 21
17.0
 12
0.0
 22
0.0
 32
0.0
 14
0.0
 24
0.0
 34
0.0
 15
0.0
 25
0.0
 35
0.0
146
0.0
 13
0.0
 23
0.0
 33
0.0
 16
1.0
 26
0.0
 36
0.0
 17
0.0
 27
1.0
 37
0.0
 76
0
330
205
345
0
346
0
  0
LAYOUT
  5
470
102
{ACAD_REACTORS
330
1A
102
}
100
AcDbPlotSettings
  1

  2
none_device
  4
ANSI_C_(22.00_x_17.00_Inches)
  6

 40
0.0
 41
0.0
 42
0.0
 43
0.0
 44
558.8
 45
431.8
 46
0.0
 47
0.0
 48
0.0
 49
0.0
140
0.0
141
0.0
142
1.0
143
1.0
 70
0
 72
0
 73
0
 74
0
  7

 75
0
147
1.0
148
0.0
149
0.0
100
AcDbLayout
  1
Layout1
 70
0
 71
1
 10
0.0
 20
0.0
 11
22.0
 21
17.0
 12
0.0
 22
0.0
 32
0.0
 14
0.0
 24
0.0
 34
0.0
 15
0.0
 25
0.0
 35
0.0
146
0.0
 13
0.0
 23
0.0
 33
0.0
 16
1.0
 26
0.0
 36
0.0
 17
0.0
 27
1.0
 37
0.0
 76
0
330
206
345
0
346
0
  0
ENDSEC
  0
EOF
