999
DXF file: E:\BT Custom\CADOUTPUT\_RIGHT.dxf
999
Pro/ENGINEER 2018400 by Parametric Technology Corporation
  0
SECTION
  2
HEADER
  9
$ACADVER
  1
AC1018
  9
$DWGCODEPAGE
  3
ANSI_1252
  9
$EXTMAX
 10
22.0
 20
17.0
 30
0.0
  9
$EXTMIN
 10
0.0
 20
0.0
 30
0.0
  9
$LIMMIN
 10
0.0
 20
0.0
  9
$LIMMAX
 10
22.0
 20
17.0
  9
$VIEWCTR
 10
11.0
 20
8.5
  9
$VIEWSIZE
 40
17.0
  9
$CLAYER
  8
0
  9
$LTSCALE
 40
1.21
  9
$CELTYPE
  6
BYLAYER
  9
$DIMSCALE
 40
1.0
  9
$DIMASZ
 40
0.1
  9
$DIMEXO
 40
0.0625
  9
$DIMDLI
 40
0.836
  9
$DIMEXE
 40
0.125
  9
$DIMCEN
 40
0.198
  9
$DIMLFAC
 40
1.0
  9
$DIMBLK
  1
_FILLED
  9
$DIMALT
 70
1
  9
$DIMALTD
 70
2
  9
$DIMALTTD
 70
2
  9
$DIMALTF
 40
25.4
  9
$DIMTXT
 40
0.08
  9
$DIMTOL
 70
1
  9
$DIMLIM
 70
0
  9
$DIMTFAC
 40
1.0
  9
$DIMTP
 40
0.001
  9
$DIMTM
 40
0.001
  9
$DIMGAP
 40
0.09
  9
$DIMDSEP
 70
46
  9
$AUNITS
 70
0
  9
$PDMODE
 70
3
  9
$PDSIZE
 40
0.06
  9
$HANDSEED
  5
459
  9
$TILEMODE
 70
1
  9
$MEASUREMENT
 70
0
  9
$INSUNITS
 70
1
  0
ENDSEC
  0
SECTION
  2
CLASSES
  0
CLASS
  1
ACDBDICTIONARYWDFLT
  2
AcDbDictionaryWithDefault
  3
AutoCAD 2000
 90
0
 91
1
280
0
281
0
  0
CLASS
  1
ACDBPLACEHOLDER
  2
AcDbPlaceHolder
  3
AutoCAD 2000
 90
0
 91
1
280
0
281
0
  0
CLASS
  1
LAYOUT
  2
AcDbLayout
  3
AutoCAD 2000
 90
0
 91
0
280
0
281
0
  0
ENDSEC
  0
SECTION
  2
TABLES
  0
TABLE
  2
VPORT
  5
8
100
AcDbSymbolTable
 70
2
  0
VPORT
  5
1F4
100
AcDbSymbolTableRecord
100
AcDbViewportTableRecord
  2
*ACTIVE
 70
0
 10
0.0
 20
0.0
 11
1.0
 21
1.0
 12
11.0
 22
8.5
 13
0.0
 23
0.0
 14
1.0
 24
1.0
 15
0.0
 25
0.0
 16
0.0
 26
0.0
 36
1.0
 17
0.0
 27
0.0
 37
0.0
 40
17.0
 41
1.2941176471
 42
50.0
 43
0.0
 44
0.0
 50
0.0
 51
0.0
 71
0
 72
100
 73
1
 74
1
 75
0
 76
0
 77
0
 78
0
  0
ENDTAB
  0
TABLE
  2
LTYPE
  5
5
100
AcDbSymbolTable
 70
6
  0
LTYPE
  5
14
100
AcDbSymbolTableRecord
100
AcDbLinetypeTableRecord
  2
BYBLOCK
 70
0
  3

 72
65
 73
0
 40
0.0
  0
LTYPE
  5
15
100
AcDbSymbolTableRecord
100
AcDbLinetypeTableRecord
  2
BYLAYER
 70
0
  3

 72
65
 73
0
 40
0.0
  0
LTYPE
  5
16
100
AcDbSymbolTableRecord
100
AcDbLinetypeTableRecord
  2
CONTINUOUS
 70
64
  3
Solid line
 72
65
 73
0
 40
0.0
  0
LTYPE
  5
1F5
100
AcDbSymbolTableRecord
100
AcDbLinetypeTableRecord
  2
CENTER
 70
64
  3
____ _ ____ _ ____ _ ____ _ ____ _ ____ _ ____
 72
65
 73
4
 40
0.6
 49
0.375
 74
0
 49
-0.075
 74
0
 49
0.075
 74
0
 49
-0.075
 74
0
  0
LTYPE
  5
1F6
100
AcDbSymbolTableRecord
100
AcDbLinetypeTableRecord
  2
HIDDEN
 70
64
  3
- - - - - - - - - - - - - - - - - - - -
 72
65
 73
2
 40
0.2
 49
0.1
 74
0
 49
-0.1
 74
0
  0
LTYPE
  5
1F7
100
AcDbSymbolTableRecord
100
AcDbLinetypeTableRecord
  2
PHANTOM
 70
64
  3
_____ _ _ _____ _ _ _____ _ _ _____
 72
65
 73
6
 40
0.8
 49
0.45
 74
0
 49
-0.05
 74
0
 49
0.1
 74
0
 49
-0.05
 74
0
 49
0.1
 74
0
 49
-0.05
 74
0
  0
LTYPE
  5
1F8
100
AcDbSymbolTableRecord
100
AcDbLinetypeTableRecord
  2
DOT
 70
64
  3
. . . . . . . . . . . . . . . . . . . .
 72
65
 73
2
 40
0.2
 49
0.1
 74
0
 49
-0.1
 74
0
  0
LTYPE
  5
1F9
100
AcDbSymbolTableRecord
100
AcDbLinetypeTableRecord
  2
DASHED
 70
64
  3
- - - - - - - - - - - - - - - - - - - -
 72
65
 73
2
 40
0.2
 49
0.1
 74
0
 49
-0.1
 74
0
  0
ENDTAB
  0
TABLE
  2
LAYER
  5
2
100
AcDbSymbolTable
 70
36
  0
LAYER
  5
10
100
AcDbSymbolTableRecord
100
AcDbLayerTableRecord
  2
0
 70
0
 62
7
  6
CONTINUOUS
370
-3
390
F
  0
LAYER
  5
1FA
100
AcDbSymbolTableRecord
100
AcDbLayerTableRecord
  2
DEFAULT_1
 70
0
 62
7
  6
CENTER
370
-3
390
F
  0
LAYER
  5
1FB
100
AcDbSymbolTableRecord
100
AcDbLayerTableRecord
  2
DEFAULT_2
 70
0
 62
8
  6
HIDDEN
370
-3
390
F
  0
LAYER
  5
1FC
100
AcDbSymbolTableRecord
100
AcDbLayerTableRecord
  2
DEFAULT_3
 70
0
 62
7
  6
PHANTOM
370
-3
390
F
  0
LAYER
  5
1FD
100
AcDbSymbolTableRecord
100
AcDbLayerTableRecord
  2
ALL_FEATURES
 70
0
 62
7
  6
CONTINUOUS
370
-3
390
F
  0
LAYER
  5
1FE
100
AcDbSymbolTableRecord
100
AcDbLayerTableRecord
  2
AXES_FEATURES
 70
0
 62
7
  6
CONTINUOUS
370
-3
390
F
  0
LAYER
  5
1FF
100
AcDbSymbolTableRecord
100
AcDbLayerTableRecord
  2
DEFAULT_COORDINATE_SYSTEM
 70
0
 62
7
  6
CONTINUOUS
370
-3
390
F
  0
LAYER
  5
200
100
AcDbSymbolTableRecord
100
AcDbLayerTableRecord
  2
DEFAULT_DATUM_AXES
 70
0
 62
7
  6
CONTINUOUS
370
-3
390
F
  0
LAYER
  5
201
100
AcDbSymbolTableRecord
100
AcDbLayerTableRecord
  2
DEFAULT_DATUM_PLANES
 70
0
 62
7
  6
CONTINUOUS
370
-3
390
F
  0
LAYER
  5
202
100
AcDbSymbolTableRecord
100
AcDbLayerTableRecord
  2
DIMENSIONS
 70
0
 62
7
  6
CONTINUOUS
370
-3
390
F
  0
ENDTAB
  0
TABLE
  2
STYLE
  5
3
100
AcDbSymbolTable
 70
1
  0
STYLE
  5
11
100
AcDbSymbolTableRecord
100
AcDbTextStyleTableRecord
  2
STANDARD
 70
0
 40
0.0
 41
0.8
 50
0.0
 71
0
 42
0.2
  3
txt
  4

  0
STYLE
  5
203
100
AcDbSymbolTableRecord
100
AcDbTextStyleTableRecord
  2
TEXTSTYLE_1
 70
0
 40
0.0
 41
0.8
 50
0.0
 71
0
 42
0.2
  3
gdt
  4

  0
ENDTAB
  0
TABLE
  2
VIEW
  5
6
100
AcDbSymbolTable
 70
0
  0
ENDTAB
  0
TABLE
  2
UCS
  5
7
100
AcDbSymbolTable
 70
0
  0
ENDTAB
  0
TABLE
  2
APPID
  5
9
100
AcDbSymbolTable
 70
1
  0
APPID
  5
204
100
AcDbSymbolTableRecord
100
AcDbRegAppTableRecord
  2
ACAD
 70
0
  0
ENDTAB
  0
TABLE
  2
BLOCK_RECORD
  5
1
100
AcDbSymbolTable
 70
0
  0
BLOCK_RECORD
  5
205
100
AcDbSymbolTableRecord
100
AcDbBlockTableRecord
  2
*Model_Space
  0
BLOCK_RECORD
  5
206
100
AcDbSymbolTableRecord
100
AcDbBlockTableRecord
  2
*Paper_Space
  0
BLOCK_RECORD
  5
207
100
AcDbSymbolTableRecord
100
AcDbBlockTableRecord
  2
_FILLED
  0
ENDTAB
  0
TABLE
  2
DIMSTYLE
  5
A
100
AcDbSymbolTable
 70
1
100
AcDbDimStyleTable
 71
0
  0
DIMSTYLE
105
208
100
AcDbSymbolTableRecord
100
AcDbDimStyleTableRecord
  2
STANDARD
 70
0
  3

  4

 40
1.0
 41
0.1
 42
0.0625
 43
0.38
 44
0.125
 45
0.0
 46
0.0
 47
0.001
 48
0.001
140
0.08
141
0.09
142
0.0
143
25.4
144
1.0
145
0.0
146
1.0
147
0.09
 71
1.0
 72
0.0
 73
1
 74
1
 75
0
 76
0
 77
0
 78
4
 79
1
170
1
171
2
172
0
173
0
174
0
175
0
176
0
177
0
178
0
270
2
179
3
271
3
272
3
273
2
274
2
275
0
280
0
281
0
282
0
283
1
284
4
285
0
286
0
287
3
288
0
340
11
278
46
341
207
342
207
343
207
344
207
  0
ENDTAB
  0
ENDSEC
  0
SECTION
  2
BLOCKS
  0
BLOCK
  5
20
100
AcDbEntity
  8
0
100
AcDbBlockBegin
  2
*Model_Space
 70
0
 10
0.0
 20
0.0
 30
0.0
  3
*Model_Space
  1

  0
ENDBLK
  5
21
100
AcDbEntity
  8
0
100
AcDbBlockEnd
  0
BLOCK
  5
1C
100
AcDbEntity
  8
0
100
AcDbBlockBegin
  2
*Paper_Space
 70
0
 10
0.0
 20
0.0
 30
0.0
  3
*Paper_Space
  1

  0
ENDBLK
  5
1D
100
AcDbEntity
  8
0
100
AcDbBlockEnd
  0
BLOCK
  5
209
100
AcDbEntity
  8
0
100
AcDbBlockBegin
  2
_FILLED
 70
64
 10
0.0
 20
0.0
  3
_FILLED
  1

  0
SOLID
  5
20A
100
AcDbEntity
  8
0
  6
BYBLOCK
 62
0
100
AcDbTrace
 10
0.0
 20
0.0
 11
-1.0
 21
0.2
 12
-1.0
 22
-0.2
 13
-1.0
 23
-0.2
  0
ENDBLK
  5
20B
100
AcDbEntity
  8
0
  6
BYBLOCK
 62
0
100
AcDbBlockEnd
  0
ENDSEC
  0
SECTION
  2
ENTITIES
  0
LINE
  5
20C
100
AcDbEntity
  8
0
100
AcDbLine
 62
7
  6
CONTINUOUS
 10
12.7945948303
 20
5.259891804
 11
12.6195948303
 21
5.259891804
  0
LINE
  5
20D
100
AcDbEntity
  8
0
100
AcDbLine
 62
9
  6
CONTINUOUS
 10
8.6663245289
 20
5.7985434473
 11
9.444419767
 21
5.7985434473
  0
LINE
  5
20E
100
AcDbEntity
  8
0
100
AcDbLine
 62
7
  6
CONTINUOUS
 10
8.6753721479
 20
5.8775067709
 11
9.4353721479
 21
5.8775067709
  0
LINE
  5
20F
100
AcDbEntity
  8
0
100
AcDbLine
 62
9
  6
CONTINUOUS
 10
8.6482339941
 20
9.3551341703
 11
8.6482339941
 21
8.6646494378
  0
LINE
  5
210
100
AcDbEntity
  8
0
100
AcDbLine
 62
9
  6
CONTINUOUS
 10
8.662940632
 20
9.4778603773
 11
8.662940632
 21
8.5419232308
  0
LINE
  5
211
100
AcDbEntity
  8
0
100
AcDbLine
 62
9
  6
CONTINUOUS
 10
8.7128282096
 20
8.5215478422
 11
8.7128282096
 21
9.4982357659
  0
LINE
  5
212
100
AcDbEntity
  8
0
100
AcDbLine
 62
9
  6
CONTINUOUS
 10
8.7728672481
 20
8.552884051
 11
8.772865213
 21
9.4732051831
  0
LINE
  5
213
100
AcDbEntity
  8
0
100
AcDbLine
 62
7
  6
CONTINUOUS
 10
8.7053721479
 20
5.8775067709
 11
8.7853721479
 21
8.128966364
  0
LINE
  5
214
100
AcDbEntity
  8
0
100
AcDbLine
 62
7
  6
CONTINUOUS
 10
12.1501183693
 20
7.2729018131
 11
12.0445948303
 21
7.2756650442
  0
LINE
  5
215
100
AcDbEntity
  8
0
100
AcDbLine
 62
7
  6
CONTINUOUS
 10
9.4053721479
 20
5.8775067709
 11
9.3253721479
 21
8.128966364
  0
LINE
  5
216
100
AcDbEntity
  8
0
100
AcDbLine
 62
9
  6
CONTINUOUS
 10
9.386082355
 20
9.353616543
 11
9.386082355
 21
8.6661670651
  0
LINE
  5
217
100
AcDbEntity
  8
0
100
AcDbLine
 62
9
  6
CONTINUOUS
 10
9.4513878005
 20
9.3623077566
 11
9.4513878005
 21
8.6574758515
  0
LINE
  5
218
100
AcDbEntity
  8
0
100
AcDbLine
 62
7
  6
CONTINUOUS
 10
9.4993721479
 20
8.686891804
 11
9.4993721479
 21
9.332891804
  0
LINE
  5
219
100
AcDbEntity
  8
0
100
AcDbLine
 62
7
  6
CONTINUOUS
 10
8.7553721479
 20
8.128966364
 11
9.3553721479
 21
8.128966364
  0
LINE
  5
21A
100
AcDbEntity
  8
0
100
AcDbLine
 62
9
  6
CONTINUOUS
 10
9.3775209919
 20
8.1793515569
 11
8.733223304
 21
8.1793515569
  0
LWPOLYLINE
  5
21B
100
AcDbEntity
  8
0
100
AcDbPolyline
 62
7
  6
CONTINUOUS
 90
7
 70
0
 10
10.1793881943
 20
8.5774983492
 10
10.1797025119
 20
8.5715283452
 10
10.1806184332
 20
8.5657074232
 10
10.1821051027
 20
8.5600703166
 10
10.1841436228
 20
8.5546505451
 10
10.1867241541
 20
8.5494866471
 10
10.1898430263
 20
8.5446230671
  0
LINE
  5
21C
100
AcDbEntity
  8
0
100
AcDbLine
 62
7
  6
CONTINUOUS
 10
9.9905721479
 20
9.315651804
 11
9.9905721479
 21
8.704131804
  0
LINE
  5
21D
100
AcDbEntity
  8
0
100
AcDbLine
 62
9
  6
CONTINUOUS
 10
10.0278121479
 20
8.666891804
 11
10.0278121479
 21
9.352891804
  0
LWPOLYLINE
  5
21E
100
AcDbEntity
  8
0
100
AcDbPolyline
 62
7
  6
CONTINUOUS
 90
8
 70
0
 10
10.1936701247
 20
9.479891804
 10
10.1898430263
 20
9.475160541
 10
10.1867241541
 20
9.470296961
 10
10.1841436228
 20
9.465133063
 10
10.1821051027
 20
9.4597132915
 10
10.1806184332
 20
9.4540761849
 10
10.1797025119
 20
9.4482552629
 10
10.1793881943
 20
9.4422852589
  0
LINE
  5
21F
100
AcDbEntity
  8
0
100
AcDbLine
 62
9
  6
CONTINUOUS
 10
9.3477744772
 20
8.2403731513
 11
8.7629698186
 21
8.2403731513
  0
LINE
  5
220
100
AcDbEntity
  8
0
100
AcDbLine
 62
7
  6
CONTINUOUS
 10
11.5105721114
 20
8.4181077781
 11
11.2594950876
 21
8.4181077781
  0
LINE
  5
221
100
AcDbEntity
  8
0
100
AcDbLine
 62
7
  6
CONTINUOUS
 10
10.1898430263
 20
8.5446230671
 11
10.1936701247
 21
8.539891804
  0
LINE
  5
222
100
AcDbEntity
  8
0
100
AcDbLine
 62
9
  6
CONTINUOUS
 10
10.276221784
 20
8.5390423541
 11
10.276221646
 21
8.5400818889
  0
LINE
  5
223
100
AcDbEntity
  8
0
100
AcDbLine
 62
7
  6
CONTINUOUS
 10
10.1793881943
 20
9.4422852589
 11
10.1793881943
 21
8.5774983492
  0
LINE
  5
224
100
AcDbEntity
  8
0
100
AcDbLine
 62
9
  6
CONTINUOUS
 10
10.2762216336
 20
9.4710660183
 11
10.2762218107
 21
9.4762400642
  0
LINE
  5
225
100
AcDbEntity
  8
0
100
AcDbLine
 62
9
  6
CONTINUOUS
 10
10.2762217415
 20
8.5490633706
 11
10.276221611
 21
8.5562733261
  0
LINE
  5
226
100
AcDbEntity
  8
0
100
AcDbLine
 62
9
  6
CONTINUOUS
 10
10.2762217884
 20
8.5665131919
 11
10.2762215806
 21
8.5776846585
  0
LINE
  5
227
100
AcDbEntity
  8
0
100
AcDbLine
 62
9
  6
CONTINUOUS
 10
10.2762215784
 20
9.4126363749
 11
10.2762217883
 21
9.4275613237
  0
LINE
  5
228
100
AcDbEntity
  8
0
100
AcDbLine
 62
9
  6
CONTINUOUS
 10
10.2762217987
 20
8.5922222864
 11
10.2762216544
 21
8.6071473689
  0
LINE
  5
229
100
AcDbEntity
  8
0
100
AcDbLine
 62
9
  6
CONTINUOUS
 10
10.276221637
 20
9.3756713165
 11
10.276221812
 21
9.3940718402
  0
LINE
  5
22A
100
AcDbEntity
  8
0
100
AcDbLine
 62
9
  6
CONTINUOUS
 10
10.276221637
 20
9.4420988567
 11
10.2762217065
 21
9.4532704534
  0
LINE
  5
22B
100
AcDbEntity
  8
0
100
AcDbLine
 62
9
  6
CONTINUOUS
 10
10.2762217387
 20
8.6451845802
 11
10.2762216046
 21
8.6651980356
  0
LINE
  5
22C
100
AcDbEntity
  8
0
100
AcDbLine
 62
9
  6
CONTINUOUS
 10
10.2762217216
 20
8.6891327819
 11
10.2762215842
 21
8.7120851652
  0
LINE
  5
22D
100
AcDbEntity
  8
0
100
AcDbLine
 62
9
  6
CONTINUOUS
 10
10.2762217136
 20
8.7390561195
 11
10.2762215771
 21
8.7645198943
  0
LINE
  5
22E
100
AcDbEntity
  8
0
100
AcDbLine
 62
9
  6
CONTINUOUS
 10
10.2762216042
 20
9.2552636601
 11
10.2762216868
 21
9.2807274688
  0
LINE
  5
22F
100
AcDbEntity
  8
0
100
AcDbLine
 62
9
  6
CONTINUOUS
 10
10.276221721
 20
9.4538393626
 11
10.2762217387
 21
9.4630517596
  0
LINE
  5
230
100
AcDbEntity
  8
0
100
AcDbLine
 62
9
  6
CONTINUOUS
 10
10.276221673
 20
9.3318925124
 11
10.2762217105
 21
9.3534257782
  0
LINE
  5
231
100
AcDbEntity
  8
0
100
AcDbLine
 62
9
  6
CONTINUOUS
 10
10.2762216376
 20
8.7940246843
 11
10.2762215953
 21
8.8215254874
  0
LINE
  5
232
100
AcDbEntity
  8
0
100
AcDbLine
 62
9
  6
CONTINUOUS
 10
10.2762215832
 20
9.1683703616
 11
10.2762216204
 21
9.1966995446
  0
LINE
  5
233
100
AcDbEntity
  8
0
100
AcDbLine
 62
9
  6
CONTINUOUS
 10
10.2762216097
 20
8.8836762048
 11
10.2762215893
 21
8.9132627281
  0
LINE
  5
234
100
AcDbEntity
  8
0
100
AcDbLine
 62
9
  6
CONTINUOUS
 10
10.2762215777
 20
9.0748475843
 11
10.2762215998
 21
9.1048571318
  0
LINE
  5
235
100
AcDbEntity
  8
0
100
AcDbLine
 62
9
  6
CONTINUOUS
 10
10.2762216001
 20
8.8230840858
 11
10.2762215945
 21
8.8514132682
  0
LINE
  5
236
100
AcDbEntity
  8
0
100
AcDbLine
 62
9
  6
CONTINUOUS
 10
10.2762215923
 20
8.9149264868
 11
10.2762215787
 21
8.9449360256
  0
LINE
  5
237
100
AcDbEntity
  8
0
100
AcDbLine
 62
9
  6
CONTINUOUS
 10
10.2762215967
 20
9.1065208661
 11
10.2762216101
 21
9.1361074039
  0
LINE
  5
238
100
AcDbEntity
  8
0
100
AcDbLine
 62
9
  6
CONTINUOUS
 10
10.2762216161
 20
9.1982580801
 11
10.2762216231
 21
9.2257589095
  0
LINE
  5
239
100
AcDbEntity
  8
0
100
AcDbLine
 62
9
  6
CONTINUOUS
 10
10.2762216534
 20
9.3076983065
 11
10.2762216602
 21
9.3306507965
  0
LINE
  5
23A
100
AcDbEntity
  8
0
100
AcDbLine
 62
9
  6
CONTINUOUS
 10
10.2762215778
 20
8.94661954
 11
10.27622158
 21
8.9769121987
  0
LINE
  5
23B
100
AcDbEntity
  8
0
100
AcDbLine
 62
9
  6
CONTINUOUS
 10
10.276221579
 20
8.9786075755
 11
10.2762215822
 21
9.00904214
  0
LINE
  5
23C
100
AcDbEntity
  8
0
100
AcDbLine
 62
9
  6
CONTINUOUS
 10
10.2762215831
 20
9.0107414665
 11
10.2762215785
 21
9.0411760319
  0
LINE
  5
23D
100
AcDbEntity
  8
0
100
AcDbLine
 62
9
  6
CONTINUOUS
 10
10.2762215795
 20
9.0428714103
 11
10.2762215776
 21
9.0731640678
  0
LINE
  5
23E
100
AcDbEntity
  8
0
100
AcDbLine
 62
9
  6
CONTINUOUS
 10
10.2762215899
 20
8.8530144466
 11
10.27622161
 21
8.8820399801
  0
LINE
  5
23F
100
AcDbEntity
  8
0
100
AcDbLine
 62
9
  6
CONTINUOUS
 10
10.2762216121
 20
9.1377436239
 11
10.2762215802
 21
9.1667691498
  0
LINE
  5
240
100
AcDbEntity
  8
0
100
AcDbLine
 62
9
  6
CONTINUOUS
 10
10.2762216301
 20
9.2272675837
 11
10.2762216115
 21
9.2538117893
  0
LINE
  5
241
100
AcDbEntity
  8
0
100
AcDbLine
 62
9
  6
CONTINUOUS
 10
10.2762216976
 20
9.2821154634
 11
10.2762216656
 21
9.3063803092
  0
LINE
  5
242
100
AcDbEntity
  8
0
100
AcDbLine
 62
9
  6
CONTINUOUS
 10
10.2762215793
 20
8.7659718467
 11
10.2762216411
 21
8.7925160459
  0
LINE
  5
243
100
AcDbEntity
  8
0
100
AcDbLine
 62
9
  6
CONTINUOUS
 10
10.2762217263
 20
8.625711775
 11
10.2762217525
 21
8.6441125092
  0
LINE
  5
244
100
AcDbEntity
  8
0
100
AcDbLine
 62
9
  6
CONTINUOUS
 10
10.2762216996
 20
9.3545853899
 11
10.2762216225
 21
9.3745990026
  0
LINE
  5
245
100
AcDbEntity
  8
0
100
AcDbLine
 62
9
  6
CONTINUOUS
 10
10.2762215904
 20
8.7134033451
 11
10.2762217166
 21
8.7376681824
  0
LINE
  5
246
100
AcDbEntity
  8
0
100
AcDbLine
 62
9
  6
CONTINUOUS
 10
10.2762216391
 20
8.6080301871
 11
10.276221711
 21
8.6247320541
  0
LINE
  5
247
100
AcDbEntity
  8
0
100
AcDbLine
 62
9
  6
CONTINUOUS
 10
10.2762216151
 20
8.6663578634
 11
10.2762217274
 21
8.6878912019
  0
LINE
  5
248
100
AcDbEntity
  8
0
100
AcDbLine
 62
9
  6
CONTINUOUS
 10
10.2762217329
 20
8.5435434787
 11
10.2762217555
 21
8.5487177593
  0
LINE
  5
249
100
AcDbEntity
  8
0
100
AcDbLine
 62
9
  6
CONTINUOUS
 10
10.2762217953
 20
9.4283427975
 11
10.276221652
 21
9.44142191
  0
LINE
  5
24A
100
AcDbEntity
  8
0
100
AcDbLine
 62
9
  6
CONTINUOUS
 10
10.276221807
 20
9.3950513774
 11
10.276221581
 21
9.411753424
  0
LINE
  5
24B
100
AcDbEntity
  8
0
100
AcDbLine
 62
9
  6
CONTINUOUS
 10
10.2762217253
 20
9.4635101123
 11
10.2762216195
 21
9.4707203246
  0
LINE
  5
24C
100
AcDbEntity
  8
0
100
AcDbLine
 62
9
  6
CONTINUOUS
 10
10.2762215783
 20
8.5783616743
 11
10.2762217915
 21
8.591440804
  0
LINE
  5
24D
100
AcDbEntity
  8
0
100
AcDbLine
 62
9
  6
CONTINUOUS
 10
10.2762216238
 20
8.5567317812
 11
10.2762217925
 21
8.5659443578
  0
LINE
  5
24E
100
AcDbEntity
  8
0
100
AcDbLine
 62
9
  6
CONTINUOUS
 10
10.2762218062
 20
9.4764713583
 11
10.276221582
 21
9.4795858287
  0
LINE
  5
24F
100
AcDbEntity
  8
0
100
AcDbLine
 62
9
  6
CONTINUOUS
 10
10.3398364547
 20
8.562318952
 11
10.3398364547
 21
9.4574646561
  0
LINE
  5
250
100
AcDbEntity
  8
0
100
AcDbLine
 62
9
  6
CONTINUOUS
 10
10.2762216316
 20
8.540197827
 11
10.2762217175
 21
8.5433121352
  0
LINE
  5
251
100
AcDbEntity
  8
0
100
AcDbLine
 62
9
  6
CONTINUOUS
 10
10.2762215786
 20
9.479701799
 11
10.2762217772
 21
9.4807412613
  0
LINE
  5
252
100
AcDbEntity
  8
0
100
AcDbLine
 62
7
  6
CONTINUOUS
 10
10.2489104116
 20
8.5232682443
 11
10.2215474402
 21
8.5232682443
  0
LINE
  5
253
100
AcDbEntity
  8
0
100
AcDbLine
 62
7
  6
CONTINUOUS
 10
10.2489104116
 20
8.525537108
 11
10.2215474402
 21
8.525537108
  0
LINE
  5
254
100
AcDbEntity
  8
0
100
AcDbLine
 62
7
  6
CONTINUOUS
 10
10.2489104116
 20
8.5300642568
 11
10.2215474402
 21
8.5300642568
  0
LINE
  5
255
100
AcDbEntity
  8
0
100
AcDbLine
 62
7
  6
CONTINUOUS
 10
10.2489104116
 20
8.5368285832
 11
10.2215474402
 21
8.5368285832
  0
LINE
  5
256
100
AcDbEntity
  8
0
100
AcDbLine
 62
7
  6
CONTINUOUS
 10
10.2489104116
 20
8.5457985487
 11
10.2215474402
 21
8.5457985487
  0
LINE
  5
257
100
AcDbEntity
  8
0
100
AcDbLine
 62
7
  6
CONTINUOUS
 10
10.2489104116
 20
8.5569323312
 11
10.2215474402
 21
8.5569323312
  0
LINE
  5
258
100
AcDbEntity
  8
0
100
AcDbLine
 62
7
  6
CONTINUOUS
 10
10.2489104116
 20
8.5701780198
 11
10.2215474402
 21
8.5701780198
  0
LINE
  5
259
100
AcDbEntity
  8
0
100
AcDbLine
 62
7
  6
CONTINUOUS
 10
10.2489104116
 20
8.5854738571
 11
10.2215474402
 21
8.5854738571
  0
LINE
  5
25A
100
AcDbEntity
  8
0
100
AcDbLine
 62
7
  6
CONTINUOUS
 10
10.2489104116
 20
8.6027485267
 11
10.2215474402
 21
8.6027485267
  0
LINE
  5
25B
100
AcDbEntity
  8
0
100
AcDbLine
 62
7
  6
CONTINUOUS
 10
10.2489104116
 20
8.6219214863
 11
10.2215474402
 21
8.6219214863
  0
LINE
  5
25C
100
AcDbEntity
  8
0
100
AcDbLine
 62
7
  6
CONTINUOUS
 10
10.2489104116
 20
8.6429033426
 11
10.2215474402
 21
8.6429033426
  0
LINE
  5
25D
100
AcDbEntity
  8
0
100
AcDbLine
 62
7
  6
CONTINUOUS
 10
10.2489104116
 20
8.6655962685
 11
10.2215474402
 21
8.6655962685
  0
LINE
  5
25E
100
AcDbEntity
  8
0
100
AcDbLine
 62
7
  6
CONTINUOUS
 10
10.0278121479
 20
8.666891804
 11
10.1793881943
 21
8.666891804
  0
LINE
  5
25F
100
AcDbEntity
  8
0
100
AcDbLine
 62
7
  6
CONTINUOUS
 10
10.1936701247
 20
8.6890918267
 11
10.2770226879
 21
8.6890918267
  0
LINE
  5
260
100
AcDbEntity
  8
0
100
AcDbLine
 62
7
  6
CONTINUOUS
 10
10.2489104116
 20
8.6898944591
 11
10.2215474402
 21
8.6898944591
  0
LINE
  5
261
100
AcDbEntity
  8
0
100
AcDbLine
 62
7
  6
CONTINUOUS
 10
10.1936701247
 20
8.7132804702
 11
10.2770230299
 21
8.7132804702
  0
LINE
  5
262
100
AcDbEntity
  8
0
100
AcDbLine
 62
7
  6
CONTINUOUS
 10
11.5105721114
 20
8.7139997911
 11
11.2594950876
 21
8.7139997911
  0
LINE
  5
263
100
AcDbEntity
  8
0
100
AcDbLine
 62
7
  6
CONTINUOUS
 10
10.2489104116
 20
8.7156846251
 11
10.2215474402
 21
8.7156846251
  0
LINE
  5
264
100
AcDbEntity
  8
0
100
AcDbLine
 62
7
  6
CONTINUOUS
 10
10.1936701247
 20
8.7388520527
 11
10.2770227113
 21
8.7388520527
  0
LINE
  5
265
100
AcDbEntity
  8
0
100
AcDbLine
 62
7
  6
CONTINUOUS
 10
10.2489104116
 20
8.7428465207
 11
10.2215474402
 21
8.7428465207
  0
LINE
  5
266
100
AcDbEntity
  8
0
100
AcDbLine
 62
7
  6
CONTINUOUS
 10
9.4993721479
 20
8.744891804
 11
9.9905721479
 21
8.744891804
  0
LINE
  5
267
100
AcDbEntity
  8
0
100
AcDbLine
 62
9
  6
CONTINUOUS
 10
10.6356913237
 20
8.5503167147
 11
10.6356913237
 21
9.4694668934
  0
LWPOLYLINE
  5
268
100
AcDbEntity
  8
0
100
AcDbPolyline
 62
7
  6
CONTINUOUS
 90
11
 70
0
 10
10.2770272665
 20
8.5398967319
 10
10.2804719415
 20
8.543268761
 10
10.2860890505
 20
8.5479362715
 10
10.2921362839
 20
8.5520312078
 10
10.2985554965
 20
8.5555141967
 10
10.3052849664
 20
8.5583517493
 10
10.312259989
 20
8.5605165822
 10
10.3194134985
 20
8.5619878809
 10
10.3266767132
 20
8.5627514987
 10
10.3339797966
 20
8.5628000935
 10
10.3398365364
 20
8.5623196211
  0
LINE
  5
269
100
AcDbEntity
  8
0
100
AcDbLine
 62
7
  6
CONTINUOUS
 10
10.1936701247
 20
8.7656873475
 11
10.2770230524
 21
8.7656873475
  0
LINE
  5
26A
100
AcDbEntity
  8
0
100
AcDbLine
 62
7
  6
CONTINUOUS
 10
10.2489104116
 20
8.7712535047
 11
10.2215474402
 21
8.7712535047
  0
LINE
  5
26B
100
AcDbEntity
  8
0
100
AcDbLine
 62
7
  6
CONTINUOUS
 10
10.1936701247
 20
8.7936612363
 11
10.2770228997
 21
8.7936612363
  0
LINE
  5
26C
100
AcDbEntity
  8
0
100
AcDbLine
 62
7
  6
CONTINUOUS
 10
10.2489104116
 20
8.8007731306
 11
10.2215474402
 21
8.8007731306
  0
LINE
  5
26D
100
AcDbEntity
  8
0
100
AcDbLine
 62
7
  6
CONTINUOUS
 10
10.1936701247
 20
8.8226432918
 11
10.2770230033
 21
8.8226432918
  0
LINE
  5
26E
100
AcDbEntity
  8
0
100
AcDbLine
 62
7
  6
CONTINUOUS
 10
10.2489104116
 20
8.8312677644
 11
10.2215474402
 21
8.8312677644
  0
LINE
  5
26F
100
AcDbEntity
  8
0
100
AcDbLine
 62
7
  6
CONTINUOUS
 10
10.1936701247
 20
8.8524983863
 11
10.2770230172
 21
8.8524983863
  0
LINE
  5
270
100
AcDbEntity
  8
0
100
AcDbLine
 62
7
  6
CONTINUOUS
 10
10.2489104116
 20
8.8625952258
 11
10.2215474402
 21
8.8625952258
  0
LINE
  5
271
100
AcDbEntity
  8
0
100
AcDbLine
 62
7
  6
CONTINUOUS
 10
10.1936701247
 20
8.8830873216
 11
10.2770229732
 21
8.8830873216
  0
LINE
  5
272
100
AcDbEntity
  8
0
100
AcDbLine
 62
7
  6
CONTINUOUS
 10
10.2489104116
 20
8.8946094519
 11
10.2215474402
 21
8.8946094519
  0
LINE
  5
273
100
AcDbEntity
  8
0
100
AcDbLine
 62
7
  6
CONTINUOUS
 10
10.1936701247
 20
8.9142674779
 11
10.2770230204
 21
8.9142674779
  0
LINE
  5
274
100
AcDbEntity
  8
0
100
AcDbLine
 62
7
  6
CONTINUOUS
 10
10.2489104116
 20
8.9271611775
 11
10.2215474402
 21
8.9271611775
  0
LINE
  5
275
100
AcDbEntity
  8
0
100
AcDbLine
 62
7
  6
CONTINUOUS
 10
10.1936701247
 20
8.945893479
 11
10.277023052
 21
8.945893479
  0
LINE
  5
276
100
AcDbEntity
  8
0
100
AcDbLine
 62
7
  6
CONTINUOUS
 10
10.2489104116
 20
8.9600986315
 11
10.2215474402
 21
8.9600986315
  0
LINE
  5
277
100
AcDbEntity
  8
0
100
AcDbLine
 62
7
  6
CONTINUOUS
 10
10.1936701247
 20
8.9778178698
 11
10.2770230494
 21
8.9778178698
  0
LINE
  5
278
100
AcDbEntity
  8
0
100
AcDbLine
 62
7
  6
CONTINUOUS
 10
10.2489104116
 20
8.9932682443
 11
10.2215474402
 21
8.9932682443
  0
LINE
  5
279
100
AcDbEntity
  8
0
100
AcDbLine
 62
9
  6
CONTINUOUS
 10
10.3398365478
 20
9.009891804
 11
10.2770230402
 21
9.009891804
  0
LINE
  5
27A
100
AcDbEntity
  8
0
100
AcDbLine
 62
9
  6
CONTINUOUS
 10
10.1936701247
 20
9.009891804
 11
10.1793881943
 21
9.009891804
  0
LINE
  5
27B
100
AcDbEntity
  8
0
100
AcDbLine
 62
7
  6
CONTINUOUS
 10
10.1936701247
 20
9.009891804
 11
10.2770230424
 21
9.009891804
  0
LINE
  5
27C
100
AcDbEntity
  8
0
100
AcDbLine
 62
7
  6
CONTINUOUS
 10
10.2489104116
 20
9.0265153638
 11
10.2215474402
 21
9.0265153638
  0
LINE
  5
27D
100
AcDbEntity
  8
0
100
AcDbLine
 62
7
  6
CONTINUOUS
 10
10.1936701247
 20
9.0419657383
 11
10.2770230506
 21
9.0419657383
  0
LINE
  5
27E
100
AcDbEntity
  8
0
100
AcDbLine
 62
7
  6
CONTINUOUS
 10
10.2804719415
 20
9.4765148471
 11
10.2770272665
 21
9.4798868761
  0
LINE
  5
27F
100
AcDbEntity
  8
0
100
AcDbLine
 62
9
  6
CONTINUOUS
 10
10.9336000901
 20
8.57929373
 11
10.9336000901
 21
9.4404898781
  0
LINE
  5
280
100
AcDbEntity
  8
0
100
AcDbLine
 62
7
  6
CONTINUOUS
 10
10.2489104116
 20
9.0596849765
 11
10.2215474402
 21
9.0596849765
  0
LINE
  5
281
100
AcDbEntity
  8
0
100
AcDbLine
 62
7
  6
CONTINUOUS
 10
10.1936701247
 20
9.0738901291
 11
10.2770230535
 21
9.0738901291
  0
LINE
  5
282
100
AcDbEntity
  8
0
100
AcDbLine
 62
7
  6
CONTINUOUS
 10
10.2489104116
 20
9.0926224305
 11
10.2215474402
 21
9.0926224305
  0
LINE
  5
283
100
AcDbEntity
  8
0
100
AcDbLine
 62
7
  6
CONTINUOUS
 10
10.1936701247
 20
9.1055161302
 11
10.2770230017
 21
9.1055161302
  0
LINE
  5
284
100
AcDbEntity
  8
0
100
AcDbLine
 62
7
  6
CONTINUOUS
 10
10.2489104116
 20
9.1251741562
 11
10.2215474402
 21
9.1251741562
  0
LINE
  5
285
100
AcDbEntity
  8
0
100
AcDbLine
 62
7
  6
CONTINUOUS
 10
10.1936701247
 20
9.1366962865
 11
10.27702297
 21
9.1366962865
  0
LINE
  5
286
100
AcDbEntity
  8
0
100
AcDbLine
 62
7
  6
CONTINUOUS
 10
10.2489104116
 20
9.1571883823
 11
10.2215474402
 21
9.1571883823
  0
LINE
  5
287
100
AcDbEntity
  8
0
100
AcDbLine
 62
7
  6
CONTINUOUS
 10
10.1936701247
 20
9.1672852218
 11
10.2770230434
 21
9.1672852218
  0
LINE
  5
288
100
AcDbEntity
  8
0
100
AcDbLine
 62
7
  6
CONTINUOUS
 10
10.2489104116
 20
9.1885158437
 11
10.2215474402
 21
9.1885158437
  0
LINE
  5
289
100
AcDbEntity
  8
0
100
AcDbLine
 62
7
  6
CONTINUOUS
 10
10.1936701247
 20
9.1971403163
 11
10.2770229522
 21
9.1971403163
  0
LINE
  5
28A
100
AcDbEntity
  8
0
100
AcDbLine
 62
7
  6
CONTINUOUS
 10
10.2489104116
 20
9.2190104775
 11
10.2215474402
 21
9.2190104775
  0
LINE
  5
28B
100
AcDbEntity
  8
0
100
AcDbLine
 62
7
  6
CONTINUOUS
 10
10.1936701247
 20
9.2261223718
 11
10.2770229314
 21
9.2261223718
  0
LINE
  5
28C
100
AcDbEntity
  8
0
100
AcDbLine
 62
7
  6
CONTINUOUS
 10
10.2489104116
 20
9.2485301034
 11
10.2215474402
 21
9.2485301034
  0
LINE
  5
28D
100
AcDbEntity
  8
0
100
AcDbLine
 62
7
  6
CONTINUOUS
 10
10.1936701247
 20
9.2540962606
 11
10.2770229783
 21
9.2540962606
  0
LINE
  5
28E
100
AcDbEntity
  8
0
100
AcDbLine
 62
7
  6
CONTINUOUS
 10
9.4993721479
 20
9.274891804
 11
9.9905721479
 21
9.274891804
  0
LINE
  5
28F
100
AcDbEntity
  8
0
100
AcDbLine
 62
7
  6
CONTINUOUS
 10
10.2489104116
 20
9.2769370874
 11
10.2215474402
 21
9.2769370874
  0
LINE
  5
290
100
AcDbEntity
  8
0
100
AcDbLine
 62
7
  6
CONTINUOUS
 10
10.1936701247
 20
9.2809315554
 11
10.2770227684
 21
9.2809315554
  0
LINE
  5
291
100
AcDbEntity
  8
0
100
AcDbLine
 62
7
  6
CONTINUOUS
 10
10.2489104116
 20
9.304098983
 11
10.2215474402
 21
9.304098983
  0
LINE
  5
292
100
AcDbEntity
  8
0
100
AcDbLine
 62
7
  6
CONTINUOUS
 10
11.5105721114
 20
9.305783817
 11
11.2594950876
 21
9.305783817
  0
LINE
  5
293
100
AcDbEntity
  8
0
100
AcDbLine
 62
7
  6
CONTINUOUS
 10
10.1936701247
 20
9.3065031379
 11
10.2770228498
 21
9.3065031379
  0
LINE
  5
294
100
AcDbEntity
  8
0
100
AcDbLine
 62
7
  6
CONTINUOUS
 10
10.2489104116
 20
9.329889149
 11
10.2215474402
 21
9.329889149
  0
LINE
  5
295
100
AcDbEntity
  8
0
100
AcDbLine
 62
7
  6
CONTINUOUS
 10
10.1936701247
 20
9.3306917814
 11
10.2770228322
 21
9.3306917814
  0
LINE
  5
296
100
AcDbEntity
  8
0
100
AcDbLine
 62
9
  6
CONTINUOUS
 10
11.0908214246
 20
8.598589454
 11
11.0908214246
 21
9.4211941541
  0
LINE
  5
297
100
AcDbEntity
  8
0
100
AcDbLine
 62
9
  6
CONTINUOUS
 10
11.1729861727
 20
8.5953737672
 11
11.1729861727
 21
9.4244098409
  0
LINE
  5
298
100
AcDbEntity
  8
0
100
AcDbLine
 62
9
  6
CONTINUOUS
 10
11.2140574927
 20
8.5687981743
 11
11.2140574927
 21
9.4509854338
  0
LINE
  5
299
100
AcDbEntity
  8
0
100
AcDbLine
 62
9
  6
CONTINUOUS
 10
11.2450791502
 20
8.5013158528
 11
11.2450791502
 21
9.5184677553
  0
LWPOLYLINE
  5
29A
100
AcDbEntity
  8
0
100
AcDbPolyline
 62
7
  6
CONTINUOUS
 90
10
 70
0
 10
10.3398365364
 20
9.457463987
 10
10.3339797966
 20
9.4569835146
 10
10.3266767132
 20
9.4570321094
 10
10.3194134985
 20
9.4577957272
 10
10.312259989
 20
9.4592670259
 10
10.3052849664
 20
9.4614318588
 10
10.2985554965
 20
9.4642694114
 10
10.2921362839
 20
9.4677524003
 10
10.2860890505
 20
9.4718473365
 10
10.2804719415
 20
9.4765148471
  0
LINE
  5
29B
100
AcDbEntity
  8
0
100
AcDbLine
 62
7
  6
CONTINUOUS
 10
10.0278121479
 20
9.352891804
 11
10.1793881943
 21
9.352891804
  0
LINE
  5
29C
100
AcDbEntity
  8
0
100
AcDbLine
 62
7
  6
CONTINUOUS
 10
10.2489104116
 20
9.3541873396
 11
10.2215474402
 21
9.3541873396
  0
LINE
  5
29D
100
AcDbEntity
  8
0
100
AcDbLine
 62
7
  6
CONTINUOUS
 10
10.2489104116
 20
9.3768802655
 11
10.2215474402
 21
9.3768802655
  0
LINE
  5
29E
100
AcDbEntity
  8
0
100
AcDbLine
 62
7
  6
CONTINUOUS
 10
10.2489104116
 20
9.3978621218
 11
10.2215474402
 21
9.3978621218
  0
LINE
  5
29F
100
AcDbEntity
  8
0
100
AcDbLine
 62
7
  6
CONTINUOUS
 10
10.2489104116
 20
9.4170350814
 11
10.2215474402
 21
9.4170350814
  0
LINE
  5
2A0
100
AcDbEntity
  8
0
100
AcDbLine
 62
7
  6
CONTINUOUS
 10
10.2489104116
 20
9.434309751
 11
10.2215474402
 21
9.434309751
  0
LINE
  5
2A1
100
AcDbEntity
  8
0
100
AcDbLine
 62
7
  6
CONTINUOUS
 10
10.2489104116
 20
9.4496055883
 11
10.2215474402
 21
9.4496055883
  0
LINE
  5
2A2
100
AcDbEntity
  8
0
100
AcDbLine
 62
7
  6
CONTINUOUS
 10
10.2489104116
 20
9.4628512769
 11
10.2215474402
 21
9.4628512769
  0
LINE
  5
2A3
100
AcDbEntity
  8
0
100
AcDbLine
 62
7
  6
CONTINUOUS
 10
10.2489104116
 20
9.4739850594
 11
10.2215474402
 21
9.4739850594
  0
LINE
  5
2A4
100
AcDbEntity
  8
0
100
AcDbLine
 62
7
  6
CONTINUOUS
 10
10.2489104116
 20
9.4829550249
 11
10.2215474402
 21
9.4829550249
  0
LINE
  5
2A5
100
AcDbEntity
  8
0
100
AcDbLine
 62
7
  6
CONTINUOUS
 10
10.2489104116
 20
9.4897193513
 11
10.2215474402
 21
9.4897193513
  0
LINE
  5
2A6
100
AcDbEntity
  8
0
100
AcDbLine
 62
7
  6
CONTINUOUS
 10
10.2489104116
 20
9.4942465001
 11
10.2215474402
 21
9.4942465001
  0
LINE
  5
2A7
100
AcDbEntity
  8
0
100
AcDbLine
 62
7
  6
CONTINUOUS
 10
10.2489104116
 20
9.4965153638
 11
10.2215474402
 21
9.4965153638
  0
LINE
  5
2A8
100
AcDbEntity
  8
0
100
AcDbLine
 62
7
  6
CONTINUOUS
 10
11.5105721114
 20
9.60167583
 11
11.2594950876
 21
9.60167583
  0
LINE
  5
2A9
100
AcDbEntity
  8
0
100
AcDbLine
 62
7
  6
CONTINUOUS
 10
11.5105721114
 20
8.3181714414
 11
11.5105721114
 21
9.7016121667
  0
LINE
  5
2AA
100
AcDbEntity
  8
0
100
AcDbLine
 62
9
  6
CONTINUOUS
 10
11.65013659
 20
8.248243273
 11
11.65013659
 21
9.7715403351
  0
LINE
  5
2AB
100
AcDbEntity
  8
0
100
AcDbLine
 62
9
  6
CONTINUOUS
 10
11.7846831785
 20
8.0796637804
 11
11.7846831785
 21
9.9401198277
  0
LINE
  5
2AC
100
AcDbEntity
  8
0
100
AcDbLine
 62
9
  6
CONTINUOUS
 10
11.8167085448
 20
8.0117655336
 11
11.8167085448
 21
10.0080180745
  0
LINE
  5
2AD
100
AcDbEntity
  8
0
100
AcDbLine
 62
9
  6
CONTINUOUS
 10
11.8590639945
 20
7.9411977394
 11
11.8590639945
 21
10.0785858687
  0
LINE
  5
2AE
100
AcDbEntity
  8
0
100
AcDbLine
 62
9
  6
CONTINUOUS
 10
11.9039226608
 20
7.9079966989
 11
11.9039226608
 21
10.1117869092
  0
LINE
  5
2AF
100
AcDbEntity
  8
0
100
AcDbLine
 62
7
  6
CONTINUOUS
 10
12.0445948303
 20
10.7441185639
 11
12.0445948303
 21
7.2756650442
  0
LINE
  5
2B0
100
AcDbEntity
  8
0
100
AcDbLine
 62
9
  6
CONTINUOUS
 10
12.1501183693
 20
7.2729018131
 11
12.1501183693
 21
10.746881795
  0
LINE
  5
2B1
100
AcDbEntity
  8
0
100
AcDbLine
 62
7
  6
CONTINUOUS
 10
12.1695948303
 20
12.242891804
 11
12.1695948303
 21
5.776891804
  0
LINE
  5
2B2
100
AcDbEntity
  8
0
100
AcDbLine
 62
9
  6
CONTINUOUS
 10
12.2286066937
 20
12.3200895898
 11
12.2286066937
 21
5.6996940183
  0
LINE
  5
2B3
100
AcDbEntity
  8
0
100
AcDbLine
 62
7
  6
CONTINUOUS
 10
12.1501183693
 20
10.746881795
 11
12.0445948303
 21
10.7441185639
  0
LINE
  5
2B4
100
AcDbEntity
  8
0
100
AcDbLine
 62
9
  6
CONTINUOUS
 10
12.5399928323
 20
12.687861867
 11
12.5399928323
 21
5.3319217411
  0
LINE
  5
2B5
100
AcDbEntity
  8
0
100
AcDbLine
 62
9
  6
CONTINUOUS
 10
12.6195948303
 20
12.759891804
 11
12.6195948303
 21
5.259891804
  0
LINE
  5
2B6
100
AcDbEntity
  8
0
100
AcDbLine
 62
7
  6
CONTINUOUS
 10
12.7945948303
 20
12.759891804
 11
12.7945948303
 21
5.259891804
  0
LINE
  5
2B7
100
AcDbEntity
  8
0
100
AcDbLine
 62
7
  6
CONTINUOUS
 10
12.7945948303
 20
12.759891804
 11
12.6195948303
 21
12.759891804
  0
ARC
  5
2B8
100
AcDbEntity
  8
0
100
AcDbCircle
 62
7
  6
CONTINUOUS
 10
8.544534428
 20
6.5098905745
 40
3.6003821801
100
AcDbArc
 50
24.6543569553
 51
25.8490587855
  0
ARC
  5
2B9
100
AcDbEntity
  8
0
100
AcDbCircle
 62
7
  6
CONTINUOUS
 10
9.0553721479
 20
7.473966364
 40
1.72
100
AcDbArc
 50
256.9271076843
 51
283.0728923157
  0
ARC
  5
2BA
100
AcDbEntity
  8
0
100
AcDbCircle
 62
7
  6
CONTINUOUS
 10
7.386162114
 20
8.4511674875
 40
1.2799999961
100
AcDbArc
 50
4.065849858
 51
9.6008151765
  0
ARC
  5
2BB
100
AcDbEntity
  8
0
100
AcDbCircle
 62
7
  6
CONTINUOUS
 10
8.6446355224
 20
8.2602971082
 40
0.1199999637
100
AcDbArc
 50
317.581034107
 51
350.4427425722
  0
ARC
  5
2BC
100
AcDbEntity
  8
0
100
AcDbCircle
 62
7
  6
CONTINUOUS
 10
9.4661087735
 20
8.2602971082
 40
0.1199999637
100
AcDbArc
 50
189.5572574278
 51
222.418965893
  0
ARC
  5
2BD
100
AcDbEntity
  8
0
100
AcDbCircle
 62
7
  6
CONTINUOUS
 10
8.7792360755
 20
8.44678164
 40
0.0999999878
100
AcDbArc
 50
118.1642058887
 51
131.611707727
  0
ARC
  5
2BE
100
AcDbEntity
  8
0
100
AcDbCircle
 62
7
  6
CONTINUOUS
 10
9.4062791168
 20
8.5682279401
 40
0.0999999794
100
AcDbArc
 50
63.1865397166
 51
101.6520545805
  0
ARC
  5
2BF
100
AcDbEntity
  8
0
100
AcDbCircle
 62
7
  6
CONTINUOUS
 10
8.7603561072
 20
8.4820456211
 40
0.059999995
100
AcDbArc
 50
344.0854006194
 51
118.1643027482
  0
ARC
  5
2C0
100
AcDbEntity
  8
0
100
AcDbCircle
 62
7
  6
CONTINUOUS
 10
9.3202360585
 20
8.5903579029
 40
0.059999992
100
AcDbArc
 50
102.8980420108
 51
194.7281741985
  0
ARC
  5
2C1
100
AcDbEntity
  8
0
100
AcDbCircle
 62
7
  6
CONTINUOUS
 10
8.6753721479
 20
5.8375067709
 40
0.04
100
AcDbArc
 50
90.0
 51
256.9271076843
  0
ARC
  5
2C2
100
AcDbEntity
  8
0
100
AcDbCircle
 62
7
  6
CONTINUOUS
 10
9.4353721479
 20
5.8375067709
 40
0.04
100
AcDbArc
 50
283.0728923157
 51
90.0
  0
ARC
  5
2C3
100
AcDbEntity
  8
0
100
AcDbCircle
 62
7
  6
CONTINUOUS
 10
8.544534428
 20
11.5098930336
 40
3.6003821801
100
AcDbArc
 50
334.1509412145
 51
335.3456430447
  0
ARC
  5
2C4
100
AcDbEntity
  8
0
100
AcDbCircle
 62
7
  6
CONTINUOUS
 10
7.386162114
 20
9.5686161206
 40
1.2799999961
100
AcDbArc
 50
350.3991848235
 51
355.934150142
  0
ARC
  5
2C5
100
AcDbEntity
  8
0
100
AcDbCircle
 62
7
  6
CONTINUOUS
 10
8.7792360755
 20
9.5730019681
 40
0.0999999878
100
AcDbArc
 50
228.388292273
 51
266.3472883732
  0
ARC
  5
2C6
100
AcDbEntity
  8
0
100
AcDbCircle
 62
7
  6
CONTINUOUS
 10
9.4062791168
 20
9.451555668
 40
0.0999999794
100
AcDbArc
 50
258.3479454195
 51
296.8134602834
  0
ARC
  5
2C7
100
AcDbEntity
  8
0
100
AcDbCircle
 62
7
  6
CONTINUOUS
 10
10.5295721176
 20
6.8326013872
 40
2.6389999968
100
AcDbArc
 50
81.1934452325
 51
87.6954064276
  0
ARC
  5
2C8
100
AcDbEntity
  8
0
100
AcDbCircle
 62
7
  6
CONTINUOUS
 10
11.3175721088
 20
6.1008608576
 40
2.5080000028
100
AcDbArc
 50
95.1872496666
 51
98.8065547675
  0
ARC
  5
2C9
100
AcDbEntity
  8
0
100
AcDbCircle
 62
7
  6
CONTINUOUS
 10
10.5619024859
 20
7.6359510922
 40
1.8349999961
100
AcDbArc
 50
87.6954064276
 51
96.9507950207
  0
ARC
  5
2CA
100
AcDbEntity
  8
0
100
AcDbCircle
 62
7
  6
CONTINUOUS
 10
10.0278121479
 20
8.704131804
 40
0.03724
100
AcDbArc
 50
180.0
 51
270.0
  0
ARC
  5
2CB
100
AcDbEntity
  8
0
100
AcDbCircle
 62
7
  6
CONTINUOUS
 10
10.2352252071
 20
8.5803173183
 40
0.058667552
100
AcDbArc
 50
283.4894909886
 51
284.1045425458
  0
ARC
  5
2CC
100
AcDbEntity
  8
0
100
AcDbCircle
 62
7
  6
CONTINUOUS
 10
10.2351168105
 20
8.5772133678
 40
0.0556806949
100
AcDbArc
 50
284.3430373175
 51
285.0293784257
  0
ARC
  5
2CD
100
AcDbEntity
  8
0
100
AcDbCircle
 62
7
  6
CONTINUOUS
 10
10.234413454
 20
8.576882355
 40
0.0550342356
100
AcDbArc
 50
228.4547341824
 51
231.2028790218
  0
ARC
  5
2CE
100
AcDbEntity
  8
0
100
AcDbCircle
 62
7
  6
CONTINUOUS
 10
10.2347667658
 20
8.5765514498
 40
0.0548985478
100
AcDbArc
 50
255.3878644072
 51
256.0665013939
  0
ARC
  5
2CF
100
AcDbEntity
  8
0
100
AcDbCircle
 62
7
  6
CONTINUOUS
 10
10.2373346093
 20
8.5750294054
 40
0.0529780278
100
AcDbArc
 50
307.9143122952
 51
310.8863469434
  0
ARC
  5
2D0
100
AcDbEntity
  8
0
100
AcDbCircle
 62
7
  6
CONTINUOUS
 10
10.2392480462
 20
8.5771681006
 40
0.0522861184
100
AcDbArc
 50
314.1734080674
 51
315.0010873426
  0
ARC
  5
2D1
100
AcDbEntity
  8
0
100
AcDbCircle
 62
7
  6
CONTINUOUS
 10
10.2563687093
 20
8.7024881962
 40
0.0793015779
100
AcDbArc
 50
284.346896828
 51
284.4960237557
  0
ARC
  5
2D2
100
AcDbEntity
  8
0
100
AcDbCircle
 62
7
  6
CONTINUOUS
 10
10.255181831
 20
8.6664269443
 40
0.0620713048
100
AcDbArc
 50
289.5756955337
 51
289.8125050731
  0
ARC
  5
2D3
100
AcDbEntity
  8
0
100
AcDbCircle
 62
7
  6
CONTINUOUS
 10
10.2536558022
 20
8.641234269
 40
0.0539571177
100
AcDbArc
 50
294.4163360694
 51
294.7174196458
  0
ARC
  5
2D4
100
AcDbEntity
  8
0
100
AcDbCircle
 62
7
  6
CONTINUOUS
 10
10.2518430916
 20
8.6220336472
 40
0.0500155159
100
AcDbArc
 50
298.8396496154
 51
299.1710459948
  0
ARC
  5
2D5
100
AcDbEntity
  8
0
100
AcDbCircle
 62
7
  6
CONTINUOUS
 10
10.2448417
 20
8.5866580934
 40
0.0489698462
100
AcDbArc
 50
309.6114303868
 51
309.8470189679
  0
ARC
  5
2D6
100
AcDbEntity
  8
0
100
AcDbCircle
 62
7
  6
CONTINUOUS
 10
10.2497577424
 20
8.6069989892
 40
0.0483675234
100
AcDbArc
 50
302.8369897113
 51
303.1657116147
  0
ARC
  5
2D7
100
AcDbEntity
  8
0
100
AcDbCircle
 62
7
  6
CONTINUOUS
 10
10.2473911537
 20
8.5953883725
 40
0.0482236626
100
AcDbArc
 50
306.4227553684
 51
306.7147169842
  0
ARC
  5
2D8
100
AcDbEntity
  8
0
100
AcDbCircle
 62
7
  6
CONTINUOUS
 10
10.3040871836
 20
8.4661227374
 40
0.1812171845
100
AcDbArc
 50
98.5891836986
 51
98.8463403464
  0
ARC
  5
2D9
100
AcDbEntity
  8
0
100
AcDbCircle
 62
7
  6
CONTINUOUS
 10
10.3052137105
 20
8.5135774422
 40
0.1158217347
100
AcDbArc
 50
104.0872971524
 51
104.4976258622
  0
ARC
  5
2DA
100
AcDbEntity
  8
0
100
AcDbCircle
 62
7
  6
CONTINUOUS
 10
10.3661351809
 20
8.5847114151
 40
0.1077635205
100
AcDbArc
 50
146.2949441852
 51
146.5519823106
  0
ARC
  5
2DB
100
AcDbEntity
  8
0
100
AcDbCircle
 62
7
  6
CONTINUOUS
 10
10.3643109126
 20
8.5659917142
 40
0.1058781387
100
AcDbArc
 50
146.045407545
 51
146.304612041
  0
ARC
  5
2DC
100
AcDbEntity
  8
0
100
AcDbCircle
 62
7
  6
CONTINUOUS
 10
10.3622075562
 20
8.5489845016
 40
0.1038100225
100
AcDbArc
 50
145.6639566446
 51
145.9258395109
  0
ARC
  5
2DD
100
AcDbEntity
  8
0
100
AcDbCircle
 62
7
  6
CONTINUOUS
 10
10.3614529282
 20
8.532676791
 40
0.1035259856
100
AcDbArc
 50
145.1582022997
 51
145.4182943343
  0
ARC
  5
2DE
100
AcDbEntity
  8
0
100
AcDbCircle
 62
7
  6
CONTINUOUS
 10
10.3621097015
 20
8.5674672293
 40
0.1032281493
100
AcDbArc
 50
145.5136994051
 51
146.042330376
  0
ARC
  5
2DF
100
AcDbEntity
  8
0
100
AcDbCircle
 62
7
  6
CONTINUOUS
 10
10.3606695031
 20
8.5500318245
 40
0.1019492471
100
AcDbArc
 50
145.1321874871
 51
145.662432562
  0
ARC
  5
2E0
100
AcDbEntity
  8
0
100
AcDbCircle
 62
7
  6
CONTINUOUS
 10
10.3581846116
 20
8.534941655
 40
0.0995496267
100
AcDbArc
 50
144.6163287607
 51
145.1533779689
  0
ARC
  5
2E1
100
AcDbEntity
  8
0
100
AcDbCircle
 62
7
  6
CONTINUOUS
 10
10.3565891758
 20
8.5209101731
 40
0.0983986448
100
AcDbArc
 50
144.4934907383
 51
144.7612966339
  0
ARC
  5
2E2
100
AcDbEntity
  8
0
100
AcDbCircle
 62
7
  6
CONTINUOUS
 10
10.3556689589
 20
8.5081291249
 40
0.09825744
100
AcDbArc
 50
143.6950667069
 51
143.9596861953
  0
ARC
  5
2E3
100
AcDbEntity
  8
0
100
AcDbCircle
 62
7
  6
CONTINUOUS
 10
10.3561328296
 20
8.5212361407
 40
0.0978378358
100
AcDbArc
 50
143.9574870088
 51
144.4936722791
  0
ARC
  5
2E4
100
AcDbEntity
  8
0
100
AcDbCircle
 62
7
  6
CONTINUOUS
 10
10.3526269208
 20
8.5103541714
 40
0.0944885196
100
AcDbArc
 50
143.1438299473
 51
143.6902015648
  0
ARC
  5
2E5
100
AcDbEntity
  8
0
100
AcDbCircle
 62
7
  6
CONTINUOUS
 10
10.3505236283
 20
8.500254899
 40
0.093053018
100
AcDbArc
 50
142.7619136299
 51
142.9868353952
  0
ARC
  5
2E6
100
AcDbEntity
  8
0
100
AcDbCircle
 62
7
  6
CONTINUOUS
 10
10.3496792671
 20
8.5008957644
 40
0.0919929927
100
AcDbArc
 50
142.1670755464
 51
142.7614551048
  0
ARC
  5
2E7
100
AcDbEntity
  8
0
100
AcDbCircle
 62
7
  6
CONTINUOUS
 10
10.3069344376
 20
8.5227824675
 40
0.0906115954
100
AcDbArc
 50
109.2752928484
 51
109.8136920477
  0
ARC
  5
2E8
100
AcDbEntity
  8
0
100
AcDbCircle
 62
7
  6
CONTINUOUS
 10
10.345613392
 20
8.4941905388
 40
0.0882522943
100
AcDbArc
 50
141.0060349583
 51
141.6664494641
  0
ARC
  5
2E9
100
AcDbEntity
  8
0
100
AcDbCircle
 62
7
  6
CONTINUOUS
 10
10.3420397661
 20
8.4890348448
 40
0.0853116509
100
AcDbArc
 50
139.6507911066
 51
140.3719613932
  0
ARC
  5
2EA
100
AcDbEntity
  8
0
100
AcDbCircle
 62
7
  6
CONTINUOUS
 10
10.3381097896
 20
8.4861215577
 40
0.0821089374
100
AcDbArc
 50
138.0710211697
 51
138.8549201286
  0
ARC
  5
2EB
100
AcDbEntity
  8
0
100
AcDbCircle
 62
7
  6
CONTINUOUS
 10
10.3354921603
 20
8.4839580903
 40
0.0809154244
100
AcDbArc
 50
136.8221880342
 51
137.0997425537
  0
ARC
  5
2EC
100
AcDbEntity
  8
0
100
AcDbCircle
 62
7
  6
CONTINUOUS
 10
10.3341757434
 20
8.4851778561
 40
0.0791208177
100
AcDbArc
 50
136.2491283194
 51
136.4897183069
  0
ARC
  5
2ED
100
AcDbEntity
  8
0
100
AcDbCircle
 62
7
  6
CONTINUOUS
 10
10.3341329641
 20
8.4852198939
 40
0.0790608458
100
AcDbArc
 50
136.2496958801
 51
136.8150131458
  0
ARC
  5
2EE
100
AcDbEntity
  8
0
100
AcDbCircle
 62
7
  6
CONTINUOUS
 10
10.334023674
 20
8.4853247683
 40
0.0789093824
100
AcDbArc
 50
136.4910620774
 51
137.1013806192
  0
ARC
  5
2EF
100
AcDbEntity
  8
0
100
AcDbCircle
 62
7
  6
CONTINUOUS
 10
10.3089640568
 20
8.5210986994
 40
0.0782985368
100
AcDbArc
 50
114.0758464277
 51
114.7226099775
  0
ARC
  5
2F0
100
AcDbEntity
  8
0
100
AcDbCircle
 62
7
  6
CONTINUOUS
 10
10.3300431829
 20
8.4863761902
 40
0.0761153302
100
AcDbArc
 50
134.1531149228
 51
134.4353285795
  0
ARC
  5
2F1
100
AcDbEntity
  8
0
100
AcDbCircle
 62
7
  6
CONTINUOUS
 10
10.3298982166
 20
8.4865249197
 40
0.0759076398
100
AcDbArc
 50
134.4357921762
 51
135.0029815277
  0
ARC
  5
2F2
100
AcDbEntity
  8
0
100
AcDbCircle
 62
7
  6
CONTINUOUS
 10
10.326102469
 20
8.4892839422
 40
0.0737036407
100
AcDbArc
 50
131.7519584552
 51
132.0327649707
  0
ARC
  5
2F3
100
AcDbEntity
  8
0
100
AcDbCircle
 62
7
  6
CONTINUOUS
 10
10.3119585061
 20
8.5143342934
 40
0.0733255399
100
AcDbArc
 50
118.4533596957
 51
118.9301261984
  0
ARC
  5
2F4
100
AcDbEntity
  8
0
100
AcDbCircle
 62
7
  6
CONTINUOUS
 10
10.3258248427
 20
8.4895947979
 40
0.0732868628
100
AcDbArc
 50
132.0342697797
 51
132.5999303968
  0
ARC
  5
2F5
100
AcDbEntity
  8
0
100
AcDbCircle
 62
7
  6
CONTINUOUS
 10
10.3115306752
 20
8.5151088061
 40
0.0724407183
100
AcDbArc
 50
118.9303024814
 51
119.1711846502
  0
ARC
  5
2F6
100
AcDbEntity
  8
0
100
AcDbCircle
 62
7
  6
CONTINUOUS
 10
10.3156516906
 20
8.5061786234
 40
0.0720764827
100
AcDbArc
 50
122.9151546887
 51
123.1690971953
  0
ARC
  5
2F7
100
AcDbEntity
  8
0
100
AcDbCircle
 62
7
  6
CONTINUOUS
 10
10.3222474152
 20
8.4939048987
 40
0.0718391378
100
AcDbArc
 50
129.0153469644
 51
129.2919372071
  0
ARC
  5
2F8
100
AcDbEntity
  8
0
100
AcDbCircle
 62
7
  6
CONTINUOUS
 10
10.321881832
 20
8.4943544692
 40
0.0712596884
100
AcDbArc
 50
129.2933561974
 51
129.8514848577
  0
ARC
  5
2F9
100
AcDbEntity
  8
0
100
AcDbCircle
 62
7
  6
CONTINUOUS
 10
10.318529779
 20
8.499989986
 40
0.0707787031
100
AcDbArc
 50
125.9041466018
 51
126.1727578311
  0
ARC
  5
2FA
100
AcDbEntity
  8
0
100
AcDbCircle
 62
7
  6
CONTINUOUS
 10
10.3147671868
 20
8.507533223
 40
0.0704586925
100
AcDbArc
 50
122.3913395185
 51
122.9099217366
  0
ARC
  5
2FB
100
AcDbEntity
  8
0
100
AcDbCircle
 62
7
  6
CONTINUOUS
 10
10.3181267529
 20
8.5005409416
 40
0.0700960743
100
AcDbArc
 50
126.1726326266
 51
126.7151086348
  0
ARC
  5
2FC
100
AcDbEntity
  8
0
100
AcDbCircle
 62
7
  6
CONTINUOUS
 10
10.3650805641
 20
8.606768808
 40
0.1063480063
100
AcDbArc
 50
146.4131360934
 51
146.6734762193
  0
ARC
  5
2FD
100
AcDbEntity
  8
0
100
AcDbCircle
 62
7
  6
CONTINUOUS
 10
10.3646470316
 20
8.629747169
 40
0.1058291737
100
AcDbArc
 50
145.8916986108
 51
146.6753984792
  0
ARC
  5
2FE
100
AcDbEntity
  8
0
100
AcDbCircle
 62
7
  6
CONTINUOUS
 10
10.3641222885
 20
8.6074044691
 40
0.1051980686
100
AcDbArc
 50
145.8892832566
 51
146.4128189172
  0
ARC
  5
2FF
100
AcDbEntity
  8
0
100
AcDbCircle
 62
7
  6
CONTINUOUS
 10
10.3638347449
 20
8.6542065376
 40
0.1050047779
100
AcDbArc
 50
145.7653621266
 51
146.5506720615
  0
ARC
  5
300
100
AcDbEntity
  8
0
100
AcDbCircle
 62
7
  6
CONTINUOUS
 10
10.363146303
 20
8.5866968411
 40
0.1041753095
100
AcDbArc
 50
145.7631210075
 51
146.2911516571
  0
ARC
  5
301
100
AcDbEntity
  8
0
100
AcDbCircle
 62
7
  6
CONTINUOUS
 10
10.3628851491
 20
8.6798765546
 40
0.1041655779
100
AcDbArc
 50
145.5163736713
 51
146.3042629495
  0
ARC
  5
302
100
AcDbEntity
  8
0
100
AcDbCircle
 62
7
  6
CONTINUOUS
 10
10.3610530698
 20
8.7071407261
 40
0.102414602
100
AcDbArc
 50
145.1337383331
 51
145.9259558509
  0
ARC
  5
303
100
AcDbEntity
  8
0
100
AcDbCircle
 62
7
  6
CONTINUOUS
 10
10.3041896283
 20
8.8931451422
 40
0.1819047122
100
AcDbArc
 50
261.1555591976
 51
261.4110172569
  0
ARC
  5
304
100
AcDbEntity
  8
0
100
AcDbCircle
 62
7
  6
CONTINUOUS
 10
10.30515681
 20
8.850963124
 40
0.1155872822
100
AcDbArc
 50
255.5021807475
 51
255.912622803
  0
ARC
  5
305
100
AcDbEntity
  8
0
100
AcDbCircle
 62
7
  6
CONTINUOUS
 10
10.3589490128
 20
8.7354786816
 40
0.1004843156
100
AcDbArc
 50
144.6182675362
 51
145.4157512175
  0
ARC
  5
306
100
AcDbEntity
  8
0
100
AcDbCircle
 62
7
  6
CONTINUOUS
 10
10.3563064275
 20
8.7649527479
 40
0.0980513142
100
AcDbArc
 50
143.9585097568
 51
144.7625008547
  0
ARC
  5
307
100
AcDbEntity
  8
0
100
AcDbCircle
 62
7
  6
CONTINUOUS
 10
10.3532697553
 20
8.795345153
 40
0.0952893339
100
AcDbArc
 50
143.1454087291
 51
143.9567985621
  0
ARC
  5
308
100
AcDbEntity
  8
0
100
AcDbCircle
 62
7
  6
CONTINUOUS
 10
10.3497703639
 20
8.8265911337
 40
0.092108643
100
AcDbArc
 50
142.1668094403
 51
142.9876607204
  0
ARC
  5
309
100
AcDbEntity
  8
0
100
AcDbCircle
 62
7
  6
CONTINUOUS
 10
10.3069788298
 20
8.851348145
 40
0.0907475665
100
AcDbArc
 50
250.1881710431
 51
250.7251509675
  0
ARC
  5
30A
100
AcDbEntity
  8
0
100
AcDbCircle
 62
7
  6
CONTINUOUS
 10
10.3461201543
 20
8.8583293513
 40
0.0889015631
100
AcDbArc
 50
141.0078279869
 51
141.8362458054
  0
ARC
  5
30B
100
AcDbEntity
  8
0
100
AcDbCircle
 62
7
  6
CONTINUOUS
 10
10.3422406684
 20
8.8904863262
 40
0.0855762237
100
AcDbArc
 50
139.6496561297
 51
140.4856640654
  0
ARC
  5
30C
100
AcDbEntity
  8
0
100
AcDbCircle
 62
7
  6
CONTINUOUS
 10
10.3381907017
 20
8.9228802156
 40
0.0822169541
100
AcDbArc
 50
138.0714410807
 51
138.9142692062
  0
ARC
  5
30D
100
AcDbEntity
  8
0
100
AcDbCircle
 62
7
  6
CONTINUOUS
 10
10.3340626501
 20
8.9552848437
 40
0.078964783
100
AcDbArc
 50
136.2482101287
 51
137.0957986527
  0
ARC
  5
30E
100
AcDbEntity
  8
0
100
AcDbCircle
 62
7
  6
CONTINUOUS
 10
10.3090935704
 20
8.8654354654
 40
0.0786134078
100
AcDbArc
 50
245.2814619275
 51
245.9236138795
  0
ARC
  5
30F
100
AcDbEntity
  8
0
100
AcDbCircle
 62
7
  6
CONTINUOUS
 10
10.3299429955
 20
8.98745579
 40
0.0759727256
100
AcDbArc
 50
134.1520625187
 51
135.0006270658
  0
ARC
  5
310
100
AcDbEntity
  8
0
100
AcDbCircle
 62
7
  6
CONTINUOUS
 10
10.325831823
 20
9.0005771641
 40
0.0732980323
100
AcDbArc
 50
227.4036542541
 51
228.2489992699
  0
ARC
  5
311
100
AcDbEntity
  8
0
100
AcDbCircle
 62
7
  6
CONTINUOUS
 10
10.3117492806
 20
8.8867299206
 40
0.0728903994
100
AcDbArc
 50
240.8289820316
 51
241.5483027164
  0
ARC
  5
312
100
AcDbEntity
  8
0
100
AcDbCircle
 62
7
  6
CONTINUOUS
 10
10.3218917105
 20
8.9696511124
 40
0.0712779511
100
AcDbArc
 50
230.1532387401
 51
230.9875640131
  0
ARC
  5
313
100
AcDbEntity
  8
0
100
AcDbCircle
 62
7
  6
CONTINUOUS
 10
10.3148007777
 20
8.9120477227
 40
0.0705215049
100
AcDbArc
 50
236.8345339241
 51
237.6091904245
  0
ARC
  5
314
100
AcDbEntity
  8
0
100
AcDbCircle
 62
7
  6
CONTINUOUS
 10
10.3181793101
 20
8.9399366269
 40
0.0701832429
100
AcDbArc
 50
233.2846990667
 51
234.0971544668
  0
ARC
  5
315
100
AcDbEntity
  8
0
100
AcDbCircle
 62
7
  6
CONTINUOUS
 10
11.1195721096
 20
8.2818918067
 40
0.3180000027
100
AcDbArc
 50
80.330261138
 51
95.1872496666
  0
ARC
  5
316
100
AcDbEntity
  8
0
100
AcDbCircle
 62
7
  6
CONTINUOUS
 10
10.8346070553
 20
8.3873480491
 40
0.4260000011
100
AcDbArc
 50
4.1406988071
 51
15.5173434455
  0
ARC
  5
317
100
AcDbEntity
  8
0
100
AcDbCircle
 62
7
  6
CONTINUOUS
 10
11.0205721109
 20
8.4389813494
 40
0.2330000021
100
AcDbArc
 50
15.5173434455
 51
33.859188203
  0
ARC
  5
318
100
AcDbEntity
  8
0
100
AcDbCircle
 62
7
  6
CONTINUOUS
 10
11.1625721096
 20
8.5342546398
 40
0.0620000037
100
AcDbArc
 50
33.859188203
 51
80.330261138
  0
ARC
  5
319
100
AcDbEntity
  8
0
100
AcDbCircle
 62
7
  6
CONTINUOUS
 10
12.1171072175
 20
5.2895807818
 40
0.425
100
AcDbArc
 50
5.7176220275
 51
74.7903499152
  0
ARC
  5
31A
100
AcDbEntity
  8
0
100
AcDbCircle
 62
7
  6
CONTINUOUS
 10
12.6195948303
 20
5.339891804
 40
0.08
100
AcDbArc
 50
185.7176220275
 51
270.0
  0
ARC
  5
31B
100
AcDbEntity
  8
0
100
AcDbCircle
 62
7
  6
CONTINUOUS
 10
12.2495948303
 20
5.776891804
 40
0.08
100
AcDbArc
 50
180.0
 51
254.7903499152
  0
ARC
  5
31C
100
AcDbEntity
  8
0
100
AcDbCircle
 62
7
  6
CONTINUOUS
 10
12.1148338451
 20
8.4780730693
 40
0.6078409296
100
AcDbArc
 50
249.6970355865
 51
263.3643665393
  0
ARC
  5
31D
100
AcDbEntity
  8
0
100
AcDbCircle
 62
7
  6
CONTINUOUS
 10
11.3447515141
 20
7.8665275967
 40
0.4888424103
100
AcDbArc
 50
25.8490587855
 51
51.3390445145
  0
ARC
  5
31E
100
AcDbEntity
  8
0
100
AcDbCircle
 62
7
  6
CONTINUOUS
 10
11.4165361858
 20
7.9562547533
 40
0.3739337434
100
AcDbArc
 50
51.3390445145
 51
75.43503933
  0
ARC
  5
31F
100
AcDbEntity
  8
0
100
AcDbCircle
 62
7
  6
CONTINUOUS
 10
12.1565547765
 20
8.1677494535
 40
0.3739337434
100
AcDbArc
 50
204.6543569553
 51
217.2907938915
  0
ARC
  5
320
100
AcDbEntity
  8
0
100
AcDbCircle
 62
7
  6
CONTINUOUS
 10
11.9386210784
 20
8.0017837973
 40
0.1
100
AcDbArc
 50
217.2907938915
 51
249.6970355865
  0
ARC
  5
321
100
AcDbEntity
  8
0
100
AcDbCircle
 62
7
  6
CONTINUOUS
 10
12.1495948303
 20
7.2529086666
 40
0.02
100
AcDbArc
 50
0.0
 51
88.5
  0
ARC
  5
322
100
AcDbEntity
  8
0
100
AcDbCircle
 62
7
  6
CONTINUOUS
 10
10.0278121479
 20
9.315651804
 40
0.03724
100
AcDbArc
 50
90.0
 51
180.0
  0
ARC
  5
323
100
AcDbEntity
  8
0
100
AcDbCircle
 62
7
  6
CONTINUOUS
 10
10.3043698124
 20
9.1254651676
 40
0.1830917886
100
AcDbArc
 50
98.5899575362
 51
98.8440774883
  0
ARC
  5
324
100
AcDbEntity
  8
0
100
AcDbCircle
 62
7
  6
CONTINUOUS
 10
10.305475029
 20
9.167570984
 40
0.1168766456
100
AcDbArc
 50
104.0895652531
 51
104.4957552116
  0
ARC
  5
325
100
AcDbEntity
  8
0
100
AcDbCircle
 62
7
  6
CONTINUOUS
 10
10.3589891203
 20
9.2843338132
 40
0.1005337159
100
AcDbArc
 50
214.5844211935
 51
215.3819301871
  0
ARC
  5
326
100
AcDbEntity
  8
0
100
AcDbCircle
 62
7
  6
CONTINUOUS
 10
10.3563458729
 20
9.254858851
 40
0.0980997197
100
AcDbArc
 50
215.2371781936
 51
216.0411366094
  0
ARC
  5
327
100
AcDbEntity
  8
0
100
AcDbCircle
 62
7
  6
CONTINUOUS
 10
10.3532552114
 20
9.22442779
 40
0.0952712787
100
AcDbArc
 50
216.0433200401
 51
216.8547147016
  0
ARC
  5
328
100
AcDbEntity
  8
0
100
AcDbCircle
 62
7
  6
CONTINUOUS
 10
10.3498454216
 20
9.1932500512
 40
0.0922032416
100
AcDbArc
 50
217.012730511
 51
217.8328391621
  0
ARC
  5
329
100
AcDbEntity
  8
0
100
AcDbCircle
 62
7
  6
CONTINUOUS
 10
10.3071550716
 20
9.1679390485
 40
0.091274357
100
AcDbArc
 50
109.2764599172
 51
109.8106355251
  0
ARC
  5
32A
100
AcDbEntity
  8
0
100
AcDbCircle
 62
7
  6
CONTINUOUS
 10
10.3461793861
 20
9.1615014368
 40
0.0889773008
100
AcDbArc
 50
218.1638353819
 51
218.9917782586
  0
ARC
  5
32B
100
AcDbEntity
  8
0
100
AcDbCircle
 62
7
  6
CONTINUOUS
 10
10.3422897756
 20
9.1293383321
 40
0.0856402255
100
AcDbArc
 50
219.5146366455
 51
220.3500029009
  0
ARC
  5
32C
100
AcDbEntity
  8
0
100
AcDbCircle
 62
7
  6
CONTINUOUS
 10
10.3382108494
 20
9.0969212231
 40
0.0822438571
100
AcDbArc
 50
221.0858751649
 51
221.9284220819
  0
ARC
  5
32D
100
AcDbEntity
  8
0
100
AcDbCircle
 62
7
  6
CONTINUOUS
 10
10.3092885889
 20
9.1539185778
 40
0.0790851472
100
AcDbArc
 50
114.0784006404
 51
114.7162047381
  0
ARC
  5
32E
100
AcDbEntity
  8
0
100
AcDbCircle
 62
7
  6
CONTINUOUS
 10
10.3340505091
 20
9.0644873197
 40
0.0789481004
100
AcDbArc
 50
222.9040878938
 51
223.7518823481
  0
ARC
  5
32F
100
AcDbEntity
  8
0
100
AcDbCircle
 62
7
  6
CONTINUOUS
 10
10.3299058459
 20
9.032290097
 40
0.0759197847
100
AcDbArc
 50
224.9990606591
 51
225.848223196
  0
ARC
  5
330
100
AcDbEntity
  8
0
100
AcDbCircle
 62
7
  6
CONTINUOUS
 10
10.3258957464
 20
9.0191358128
 40
0.0733932917
100
AcDbArc
 50
131.7515126479
 51
132.5957587837
  0
ARC
  5
331
100
AcDbEntity
  8
0
100
AcDbCircle
 62
7
  6
CONTINUOUS
 10
10.3119047587
 20
9.1327714395
 40
0.0732126541
100
AcDbArc
 50
118.4534787541
 51
119.1698418751
  0
ARC
  5
332
100
AcDbEntity
  8
0
100
AcDbCircle
 62
7
  6
CONTINUOUS
 10
10.3219829784
 20
9.0500216388
 40
0.0714215519
100
AcDbArc
 50
129.0133563746
 51
129.8460823057
  0
ARC
  5
333
100
AcDbEntity
  8
0
100
AcDbCircle
 62
7
  6
CONTINUOUS
 10
10.3149504046
 20
9.1075032092
 40
0.0707981197
100
AcDbArc
 50
122.3921709598
 51
123.1636522897
  0
ARC
  5
334
100
AcDbEntity
  8
0
100
AcDbCircle
 62
7
  6
CONTINUOUS
 10
10.3182995175
 20
9.0796837
 40
0.0703859957
100
AcDbArc
 50
125.9041658331
 51
126.713984963
  0
ARC
  5
335
100
AcDbEntity
  8
0
100
AcDbCircle
 62
7
  6
CONTINUOUS
 10
10.2563687265
 20
9.3173002799
 40
0.0792968137
100
AcDbArc
 50
75.5039055611
 51
75.651114226
  0
ARC
  5
336
100
AcDbEntity
  8
0
100
AcDbCircle
 62
7
  6
CONTINUOUS
 10
10.2551780761
 20
9.3533427988
 40
0.0620856657
100
AcDbArc
 50
70.1875523706
 51
70.4238442643
  0
ARC
  5
337
100
AcDbEntity
  8
0
100
AcDbCircle
 62
7
  6
CONTINUOUS
 10
10.2536755056
 20
9.3785909516
 40
0.0539110899
100
AcDbArc
 50
65.282409876
 51
65.5792283099
  0
ARC
  5
338
100
AcDbEntity
  8
0
100
AcDbCircle
 62
7
  6
CONTINUOUS
 10
10.2518462259
 20
9.3977584425
 40
0.0500065026
100
AcDbArc
 50
60.8288548356
 51
61.1605149775
  0
ARC
  5
339
100
AcDbEntity
  8
0
100
AcDbCircle
 62
7
  6
CONTINUOUS
 10
10.2448263024
 20
9.433102406
 40
0.0489976287
100
AcDbArc
 50
50.1531705506
 51
50.3870356345
  0
ARC
  5
33A
100
AcDbEntity
  8
0
100
AcDbCircle
 62
7
  6
CONTINUOUS
 10
10.2497261159
 20
9.4127303366
 40
0.0484303689
100
AcDbArc
 50
56.8344006439
 51
57.1599024722
  0
ARC
  5
33B
100
AcDbEntity
  8
0
100
AcDbCircle
 62
7
  6
CONTINUOUS
 10
10.2473949853
 20
9.4244040882
 40
0.0482141236
100
AcDbArc
 50
53.2851089784
 51
53.5783418259
  0
ARC
  5
33C
100
AcDbEntity
  8
0
100
AcDbCircle
 62
7
  6
CONTINUOUS
 10
10.2352252065
 20
9.4394662876
 40
0.0586675544
100
AcDbArc
 50
75.8954543952
 51
76.5105090137
  0
ARC
  5
33D
100
AcDbEntity
  8
0
100
AcDbCircle
 62
7
  6
CONTINUOUS
 10
10.2351168175
 20
9.4425702675
 40
0.0556806667
100
AcDbArc
 50
74.9706176996
 51
75.6569626686
  0
ARC
  5
33E
100
AcDbEntity
  8
0
100
AcDbCircle
 62
7
  6
CONTINUOUS
 10
10.2344645384
 20
9.4428407412
 40
0.0551134044
100
AcDbArc
 50
128.7990948253
 51
131.543291732
  0
ARC
  5
33F
100
AcDbEntity
  8
0
100
AcDbCircle
 62
7
  6
CONTINUOUS
 10
10.2347667604
 20
9.4432321801
 40
0.0548985254
100
AcDbArc
 50
103.9334986235
 51
104.6121436489
  0
ARC
  5
340
100
AcDbEntity
  8
0
100
AcDbCircle
 62
7
  6
CONTINUOUS
 10
10.233889654
 20
9.4434839562
 40
0.054250732
100
AcDbArc
 50
131.539379777
 51
137.8477210492
  0
ARC
  5
341
100
AcDbEntity
  8
0
100
AcDbCircle
 62
7
  6
CONTINUOUS
 10
10.2373334649
 20
9.4447527702
 40
0.0529798598
100
AcDbArc
 50
49.1137313785
 51
52.0856631832
  0
ARC
  5
342
100
AcDbEntity
  8
0
100
AcDbCircle
 62
7
  6
CONTINUOUS
 10
10.2392413088
 20
9.4426069762
 40
0.0522969934
100
AcDbArc
 50
44.9989905823
 51
45.8278093254
  0
ARC
  5
343
100
AcDbEntity
  8
0
100
AcDbCircle
 62
7
  6
CONTINUOUS
 10
10.3648699617
 20
9.4128748296
 40
0.1060953132
100
AcDbArc
 50
213.3242633927
 51
213.8462068717
  0
ARC
  5
344
100
AcDbEntity
  8
0
100
AcDbCircle
 62
7
  6
CONTINUOUS
 10
10.3645712187
 20
9.3899875832
 40
0.1057388864
100
AcDbArc
 50
213.325644105
 51
214.10946205
  0
ARC
  5
345
100
AcDbEntity
  8
0
100
AcDbCircle
 62
7
  6
CONTINUOUS
 10
10.3641508039
 20
9.4337613575
 40
0.1053850643
100
AcDbArc
 50
213.4495581152
 51
213.9726794524
  0
ARC
  5
346
100
AcDbEntity
  8
0
100
AcDbCircle
 62
7
  6
CONTINUOUS
 10
10.3641539173
 20
9.4123995554
 40
0.1052359016
100
AcDbArc
 50
213.8484282264
 51
214.1101906451
  0
ARC
  5
347
100
AcDbEntity
  8
0
100
AcDbCircle
 62
7
  6
CONTINUOUS
 10
10.3639750906
 20
9.3656694491
 40
0.1051729269
100
AcDbArc
 50
213.4479943326
 51
214.233175525
  0
ARC
  5
348
100
AcDbEntity
  8
0
100
AcDbCircle
 62
7
  6
CONTINUOUS
 10
10.3635084913
 20
9.4333312555
 40
0.1046120519
100
AcDbArc
 50
213.9739048085
 51
214.2360643876
  0
ARC
  5
349
100
AcDbEntity
  8
0
100
AcDbCircle
 62
7
  6
CONTINUOUS
 10
10.3628840964
 20
9.3399075616
 40
0.1041649507
100
AcDbArc
 50
213.6962588374
 51
214.4842023343
  0
ARC
  5
34A
100
AcDbEntity
  8
0
100
AcDbCircle
 62
7
  6
CONTINUOUS
 10
10.3611032867
 20
9.3126764148
 40
0.1024750346
100
AcDbArc
 50
214.0733997797
 51
214.8655704692
  0
ARC
  5
34B
100
AcDbEntity
  8
0
100
AcDbCircle
 62
7
  6
CONTINUOUS
 10
10.3043909409
 20
9.5556465157
 40
0.1832258824
100
AcDbArc
 50
261.155979761
 51
261.409718107
  0
ARC
  5
34C
100
AcDbEntity
  8
0
100
AcDbCircle
 62
7
  6
CONTINUOUS
 10
10.3054168879
 20
9.5069991019
 40
0.1166403324
100
AcDbArc
 50
255.5027138724
 51
255.9105976174
  0
ARC
  5
34D
100
AcDbEntity
  8
0
100
AcDbCircle
 62
7
  6
CONTINUOUS
 10
10.3634089299
 20
9.4531920261
 40
0.104795083
100
AcDbArc
 50
213.6933290065
 51
214.2177482784
  0
ARC
  5
34E
100
AcDbEntity
  8
0
100
AcDbCircle
 62
7
  6
CONTINUOUS
 10
10.3626266607
 20
9.4526686828
 40
0.1038539231
100
AcDbArc
 50
214.2216901273
 51
214.4849520558
  0
ARC
  5
34F
100
AcDbEntity
  8
0
100
AcDbCircle
 62
7
  6
CONTINUOUS
 10
10.3612355896
 20
9.4701400357
 40
0.1026355354
100
AcDbArc
 50
214.0745042786
 51
214.6023891174
  0
ARC
  5
350
100
AcDbEntity
  8
0
100
AcDbCircle
 62
7
  6
CONTINUOUS
 10
10.3607070586
 20
9.4697759896
 40
0.101993761
100
AcDbArc
 50
214.6026644927
 51
214.8669621824
  0
ARC
  5
351
100
AcDbEntity
  8
0
100
AcDbCircle
 62
7
  6
CONTINUOUS
 10
10.359522633
 20
9.4857763638
 40
0.1011816092
100
AcDbArc
 50
214.5813456074
 51
215.1121850199
  0
ARC
  5
352
100
AcDbEntity
  8
0
100
AcDbCircle
 62
7
  6
CONTINUOUS
 10
10.3588388919
 20
9.4853036812
 40
0.1003504133
100
AcDbArc
 50
215.1159569861
 51
215.3822941659
  0
ARC
  5
353
100
AcDbEntity
  8
0
100
AcDbCircle
 62
7
  6
CONTINUOUS
 10
10.3565504106
 20
9.4988436276
 40
0.0983498876
100
AcDbArc
 50
215.2365881291
 51
215.7722419341
  0
ARC
  5
354
100
AcDbEntity
  8
0
100
AcDbCircle
 62
7
  6
CONTINUOUS
 10
10.3560672884
 20
9.4984980602
 40
0.0977559013
100
AcDbArc
 50
215.7734382313
 51
216.0416445272
  0
ARC
  5
355
100
AcDbEntity
  8
0
100
AcDbCircle
 62
7
  6
CONTINUOUS
 10
10.3536648959
 20
9.5101959821
 40
0.0957787042
100
AcDbArc
 50
216.0413229255
 51
216.5817126368
  0
ARC
  5
356
100
AcDbEntity
  8
0
100
AcDbCircle
 62
7
  6
CONTINUOUS
 10
10.3531586201
 20
9.5098255654
 40
0.0951514041
100
AcDbArc
 50
216.5842880323
 51
216.8550600942
  0
ARC
  5
357
100
AcDbEntity
  8
0
100
AcDbCircle
 62
7
  6
CONTINUOUS
 10
10.3502417052
 20
9.5193144689
 40
0.0926991349
100
AcDbArc
 50
217.010316116
 51
217.5561033323
  0
ARC
  5
358
100
AcDbEntity
  8
0
100
AcDbCircle
 62
7
  6
CONTINUOUS
 10
10.3498223921
 20
9.5189974009
 40
0.0921734567
100
AcDbArc
 50
217.5587323747
 51
217.832033174
  0
ARC
  5
359
100
AcDbEntity
  8
0
100
AcDbCircle
 62
7
  6
CONTINUOUS
 10
10.307172379
 20
9.4976750527
 40
0.0913262212
100
AcDbArc
 50
250.1898717263
 51
250.7234639265
  0
ARC
  5
35A
100
AcDbEntity
  8
0
100
AcDbCircle
 62
7
  6
CONTINUOUS
 10
10.3463470935
 20
9.5261802734
 40
0.0891918037
100
AcDbArc
 50
218.1641275748
 51
218.7158852919
  0
ARC
  5
35B
100
AcDbEntity
  8
0
100
AcDbCircle
 62
7
  6
CONTINUOUS
 10
10.346080549
 20
9.525968748
 40
0.0888515299
100
AcDbArc
 50
218.716961221
 51
218.9928172528
  0
ARC
  5
35C
100
AcDbEntity
  8
0
100
AcDbCircle
 62
7
  6
CONTINUOUS
 10
10.3427033608
 20
9.5313016002
 40
0.086175508
100
AcDbArc
 50
219.5096711953
 51
220.0662750821
  0
ARC
  5
35D
100
AcDbEntity
  8
0
100
AcDbCircle
 62
7
  6
CONTINUOUS
 10
10.3423934848
 20
9.5310487411
 40
0.0857756013
100
AcDbArc
 50
220.070246657
 51
220.3488544788
  0
ARC
  5
35E
100
AcDbEntity
  8
0
100
AcDbCircle
 62
7
  6
CONTINUOUS
 10
10.3382344201
 20
9.5337720385
 40
0.0822750472
100
AcDbArc
 50
221.0858195898
 51
221.6478895239
  0
ARC
  5
35F
100
AcDbEntity
  8
0
100
AcDbCircle
 62
7
  6
CONTINUOUS
 10
10.3381676056
 20
9.5337127676
 40
0.082185732
100
AcDbArc
 50
221.6479675587
 51
221.9284188579
  0
ARC
  5
360
100
AcDbEntity
  8
0
100
AcDbCircle
 62
7
  6
CONTINUOUS
 10
10.3354921603
 20
9.5358255178
 40
0.0809154244
100
AcDbArc
 50
222.9002574463
 51
223.1778119658
  0
ARC
  5
361
100
AcDbEntity
  8
0
100
AcDbCircle
 62
7
  6
CONTINUOUS
 10
10.334174116
 20
9.5346041983
 40
0.0791185677
100
AcDbArc
 50
223.5111422133
 51
223.7508739613
  0
ARC
  5
362
100
AcDbEntity
  8
0
100
AcDbCircle
 62
7
  6
CONTINUOUS
 10
10.3341329641
 20
9.5345637143
 40
0.0790608458
100
AcDbArc
 50
223.1849868543
 51
223.7503041196
  0
ARC
  5
363
100
AcDbEntity
  8
0
100
AcDbCircle
 62
7
  6
CONTINUOUS
 10
10.334021817
 20
9.5344571002
 40
0.0789068379
100
AcDbArc
 50
222.8986118752
 51
223.5098175011
  0
ARC
  5
364
100
AcDbEntity
  8
0
100
AcDbCircle
 62
7
  6
CONTINUOUS
 10
10.309212136
 20
9.4992301583
 40
0.0788975527
100
AcDbArc
 50
245.279826335
 51
245.9212065544
  0
ARC
  5
365
100
AcDbEntity
  8
0
100
AcDbCircle
 62
7
  6
CONTINUOUS
 10
10.3299429477
 20
9.5333063804
 40
0.0759729143
100
AcDbArc
 50
224.9995030962
 51
225.8481227408
  0
ARC
  5
366
100
AcDbEntity
  8
0
100
AcDbCircle
 62
7
  6
CONTINUOUS
 10
10.3118877235
 20
9.5053195639
 40
0.0731778157
100
AcDbArc
 50
240.8297522389
 51
241.5468523533
  0
ARC
  5
367
100
AcDbEntity
  8
0
100
AcDbCircle
 62
7
  6
CONTINUOUS
 10
10.3257180451
 20
9.5300690919
 40
0.073126565
100
AcDbArc
 50
227.3972531525
 51
228.2479762396
  0
ARC
  5
368
100
AcDbEntity
  8
0
100
AcDbCircle
 62
7
  6
CONTINUOUS
 10
10.3219735781
 20
9.5255426594
 40
0.0714054551
100
AcDbArc
 50
230.1526336178
 51
230.9858150453
  0
ARC
  5
369
100
AcDbEntity
  8
0
100
AcDbCircle
 62
7
  6
CONTINUOUS
 10
10.3148476067
 20
9.5123731636
 40
0.0706053465
100
AcDbArc
 50
236.8327276869
 51
237.6070587791
  0
ARC
  5
36A
100
AcDbEntity
  8
0
100
AcDbCircle
 62
7
  6
CONTINUOUS
 10
10.3182231202
 20
9.51937099
 40
0.0702567046
100
AcDbArc
 50
233.2827647468
 51
234.0961125166
  0
ARC
  5
36B
100
AcDbEntity
  8
0
100
AcDbCircle
 62
7
  6
CONTINUOUS
 10
10.5619024859
 20
10.3838325159
 40
1.8349999961
100
AcDbArc
 50
263.0492049793
 51
272.3045935724
  0
ARC
  5
36C
100
AcDbEntity
  8
0
100
AcDbCircle
 62
7
  6
CONTINUOUS
 10
10.8346070553
 20
9.632435559
 40
0.4260000011
100
AcDbArc
 50
344.4826565545
 51
355.8593011929
  0
ARC
  5
36D
100
AcDbEntity
  8
0
100
AcDbCircle
 62
7
  6
CONTINUOUS
 10
11.0205721109
 20
9.5808022587
 40
0.2330000021
100
AcDbArc
 50
326.140811797
 51
344.4826565545
  0
ARC
  5
36E
100
AcDbEntity
  8
0
100
AcDbCircle
 62
7
  6
CONTINUOUS
 10
11.1625721096
 20
9.4855289683
 40
0.0620000037
100
AcDbArc
 50
279.669738862
 51
326.140811797
  0
ARC
  5
36F
100
AcDbEntity
  8
0
100
AcDbCircle
 62
7
  6
CONTINUOUS
 10
11.1195721096
 20
9.7378918014
 40
0.3180000027
100
AcDbArc
 50
264.8127503334
 51
279.669738862
  0
ARC
  5
370
100
AcDbEntity
  8
0
100
AcDbCircle
 62
7
  6
CONTINUOUS
 10
10.5295721176
 20
11.1871822209
 40
2.6389999968
100
AcDbArc
 50
272.3045935724
 51
278.8065547675
  0
ARC
  5
371
100
AcDbEntity
  8
0
100
AcDbCircle
 62
7
  6
CONTINUOUS
 10
11.3175721088
 20
11.9189227505
 40
2.5080000028
100
AcDbArc
 50
261.1934452325
 51
264.8127503334
  0
ARC
  5
372
100
AcDbEntity
  8
0
100
AcDbCircle
 62
7
  6
CONTINUOUS
 10
12.1148338451
 20
9.5417105388
 40
0.6078409296
100
AcDbArc
 50
96.6356334607
 51
110.3029644135
  0
ARC
  5
373
100
AcDbEntity
  8
0
100
AcDbCircle
 62
7
  6
CONTINUOUS
 10
11.3447515141
 20
10.1532560114
 40
0.4888424103
100
AcDbArc
 50
308.6609554855
 51
334.1509412145
  0
ARC
  5
374
100
AcDbEntity
  8
0
100
AcDbCircle
 62
7
  6
CONTINUOUS
 10
11.4165361858
 20
10.0635288548
 40
0.3739337434
100
AcDbArc
 50
284.56496067
 51
308.6609554855
  0
ARC
  5
375
100
AcDbEntity
  8
0
100
AcDbCircle
 62
7
  6
CONTINUOUS
 10
12.1565547765
 20
9.8520341546
 40
0.3739337434
100
AcDbArc
 50
142.7092061085
 51
155.3456430447
  0
ARC
  5
376
100
AcDbEntity
  8
0
100
AcDbCircle
 62
7
  6
CONTINUOUS
 10
11.9386210784
 20
10.0179998108
 40
0.1
100
AcDbArc
 50
110.3029644135
 51
142.7092061085
  0
ARC
  5
377
100
AcDbEntity
  8
0
100
AcDbCircle
 62
7
  6
CONTINUOUS
 10
12.1495948303
 20
10.7668749415
 40
0.02
100
AcDbArc
 50
271.5
 51
360.0
  0
ARC
  5
378
100
AcDbEntity
  8
0
100
AcDbCircle
 62
7
  6
CONTINUOUS
 10
12.1171072175
 20
12.7302028263
 40
0.425
100
AcDbArc
 50
285.2096500848
 51
354.2823779725
  0
ARC
  5
379
100
AcDbEntity
  8
0
100
AcDbCircle
 62
7
  6
CONTINUOUS
 10
12.6195948303
 20
12.679891804
 40
0.08
100
AcDbArc
 50
90.0
 51
174.2823779725
  0
ARC
  5
37A
100
AcDbEntity
  8
0
100
AcDbCircle
 62
7
  6
CONTINUOUS
 10
12.2495948303
 20
12.242891804
 40
0.08
100
AcDbArc
 50
105.2096500848
 51
180.0
  0
SPLINE
  5
37B
100
AcDbEntity
  8
0
100
AcDbSpline
 62
7
  6
CONTINUOUS
 70
0
 71
3
 72
11
 73
7
 74
0
 42
0.0000001
 43
0.0000001
 44
0.0000000001
 40
0.0
 40
0.0
 40
0.0
 40
0.0
 40
0.2321160407
 40
0.4757029656
 40
0.7317313228
 40
1.0
 40
1.0
 40
1.0
 40
1.0
 10
10.1936701247
 20
9.479891804
 30
0.0
 10
10.1953441602
 20
9.4817424587
 30
0.0
 10
10.1990457013
 20
9.4852990198
 30
0.0
 10
10.2054402998
 20
9.4899241513
 30
0.0
 10
10.2127747736
 20
9.4937738855
 30
0.0
 10
10.2181264139
 20
9.4956274704
 30
0.0
 10
10.2209172648
 20
9.4963550524
 30
0.0
  0
SPLINE
  5
37C
100
AcDbEntity
  8
0
100
AcDbSpline
 62
7
  6
CONTINUOUS
 70
0
 71
3
 72
11
 73
7
 74
0
 42
0.0000001
 43
0.0000001
 44
0.0000000001
 40
0.0
 40
0.0
 40
0.0
 40
0.0
 40
0.1975180216
 40
0.4309670912
 40
0.6995642826
 40
1.0
 40
1.0
 40
1.0
 40
1.0
 10
10.1936701247
 20
9.3533847073
 30
0.0
 10
10.1955038098
 20
9.3534825837
 30
0.0
 10
10.1995064592
 20
9.3536643141
 30
0.0
 10
10.2060065199
 20
9.3538860907
 30
0.0
 10
10.2134649226
 20
9.3540694176
 30
0.0
 10
10.2187545348
 20
9.3541538847
 30
0.0
 10
10.2215474402
 20
9.3541873396
 30
0.0
  0
SPLINE
  5
37D
100
AcDbEntity
  8
0
100
AcDbSpline
 62
7
  6
CONTINUOUS
 70
0
 71
3
 72
13
 73
9
 74
0
 42
0.0000001
 43
0.0000001
 44
0.0000000001
 40
0.0
 40
0.0
 40
0.0
 40
0.0
 40
0.0948274962
 40
0.1984551873
 40
0.3108956917
 40
0.4321413586
 40
0.7003866516
 40
1.0
 40
1.0
 40
1.0
 40
1.0
 10
10.1936701247
 20
9.3744761107
 30
0.0
 10
10.1945439622
 20
9.3746158214
 30
0.0
 10
10.1963760899
 20
9.374887418
 30
0.0
 10
10.1992537374
 20
9.375258215
 30
0.0
 10
10.2023822959
 20
9.3756073177
 30
0.0
 10
10.2070451171
 20
9.376054462
 30
0.0
 10
10.2134593684
 20
9.376526674
 30
0.0
 10
10.2187532295
 20
9.3767800098
 30
0.0
 10
10.2215474402
 20
9.3768802655
 30
0.0
  0
SPLINE
  5
37E
100
AcDbEntity
  8
0
100
AcDbSpline
 62
7
  6
CONTINUOUS
 70
0
 71
3
 72
14
 73
10
 74
0
 42
0.0000001
 43
0.0000001
 44
0.0000000001
 40
0.0
 40
0.0
 40
0.0
 40
0.0
 40
0.0959117794
 40
0.2002575058
 40
0.3130811124
 40
0.4344025557
 40
0.5641227748
 40
0.7019838513
 40
1.0
 40
1.0
 40
1.0
 40
1.0
 10
10.1936701247
 20
9.3938676538
 30
0.0
 10
10.1945416003
 20
9.3940991537
 30
0.0
 10
10.1963700099
 20
9.3945496493
 30
0.0
 10
10.1992485081
 20
9.3951660793
 30
0.0
 10
10.202377809
 20
9.3957463479
 30
0.0
 10
10.2057563104
 20
9.3962848674
 30
0.0
 10
10.2093798294
 20
9.3967752278
 30
0.0
 10
10.2146640827
 20
9.397370544
 30
0.0
 10
10.2187506539
 20
9.3976953949
 30
0.0
 10
10.2215474402
 20
9.3978621218
 30
0.0
  0
SPLINE
  5
37F
100
AcDbEntity
  8
0
100
AcDbSpline
 62
7
  6
CONTINUOUS
 70
0
 71
3
 72
14
 73
10
 74
0
 42
0.0000001
 43
0.0000001
 44
0.0000000001
 40
0.0
 40
0.0
 40
0.0
 40
0.0
 40
0.0974407964
 40
0.2028068083
 40
0.3161804014
 40
0.4376167924
 40
0.567049971
 40
0.7042559899
 40
1.0
 40
1.0
 40
1.0
 40
1.0
 10
10.1936701247
 20
9.4114689242
 30
0.0
 10
10.1945384444
 20
9.4117903434
 30
0.0
 10
10.1963617018
 20
9.4124166234
 30
0.0
 10
10.1992412334
 20
9.4132762286
 30
0.0
 10
10.2023714731
 20
9.4140853129
 30
0.0
 10
10.2057507944
 20
9.4148361086
 30
0.0
 10
10.2093750944
 20
9.4155197184
 30
0.0
 10
10.2146548431
 20
9.4163487663
 30
0.0
 10
10.218746876
 20
9.4168024392
 30
0.0
 10
10.2215474402
 20
9.4170350814
 30
0.0
  0
SPLINE
  5
380
100
AcDbEntity
  8
0
100
AcDbSpline
 62
7
  6
CONTINUOUS
 70
0
 71
3
 72
14
 73
10
 74
0
 42
0.0000001
 43
0.0000001
 44
0.0000000001
 40
0.0
 40
0.0
 40
0.0
 40
0.0
 40
0.0993156644
 40
0.2059442525
 40
0.320006606
 40
0.4415953953
 40
0.5706813899
 40
0.7070800789
 40
1.0
 40
1.0
 40
1.0
 40
1.0
 10
10.1936701247
 20
9.4271978567
 30
0.0
 10
10.1945348296
 20
9.4276068252
 30
0.0
 10
10.1963519193
 20
9.4284047587
 30
0.0
 10
10.1992324693
 20
9.4295039608
 30
0.0
 10
10.2023636913
 20
9.4305384539
 30
0.0
 10
10.2057439134
 20
9.4314983282
 30
0.0
 10
10.2093691136
 20
9.4323722548
 30
0.0
 10
10.2146430404
 20
9.4334306915
 30
0.0
 10
10.218741994
 20
9.4340119854
 30
0.0
 10
10.2215474402
 20
9.434309751
 30
0.0
  0
SPLINE
  5
381
100
AcDbEntity
  8
0
100
AcDbSpline
 62
7
  6
CONTINUOUS
 70
0
 71
3
 72
14
 73
10
 74
0
 42
0.0000001
 43
0.0000001
 44
0.0000000001
 40
0.0
 40
0.0
 40
0.0
 40
0.0
 40
0.1014310328
 40
0.2094989487
 40
0.3243572697
 40
0.446133365
 40
0.5748343697
 40
0.7103170767
 40
1.0
 40
1.0
 40
1.0
 40
1.0
 10
10.1936701247
 20
9.4409811158
 30
0.0
 10
10.194531057
 20
9.4414749012
 30
0.0
 10
10.196341398
 20
9.4424395106
 30
0.0
 10
10.1992227925
 20
9.4437735414
 30
0.0
 10
10.2023549042
 20
9.445028952
 30
0.0
 10
10.2057359986
 20
9.446193726
 30
0.0
 10
10.2093621304
 20
9.4472541592
 30
0.0
 10
10.2146290693
 20
9.4485364735
 30
0.0
 10
10.218736132
 20
9.4492437385
 30
0.0
 10
10.2215474402
 20
9.4496055883
 30
0.0
  0
SPLINE
  5
382
100
AcDbEntity
  8
0
100
AcDbSpline
 62
7
  6
CONTINUOUS
 70
0
 71
3
 72
13
 73
9
 74
0
 42
0.0000001
 43
0.0000001
 44
0.0000000001
 40
0.0
 40
0.0
 40
0.0
 40
0.0
 40
0.2132268575
 40
0.3289671639
 40
0.4509733592
 40
0.5792851266
 40
0.7137992407
 40
1.0
 40
1.0
 40
1.0
 40
1.0
 10
10.1936701247
 20
9.4527544374
 30
0.0
 10
10.1954328121
 20
9.453938017
 30
0.0
 10
10.1982794028
 20
9.4555802923
 30
0.0
 10
10.2023453394
 20
9.4574891823
 30
0.0
 10
10.2057274479
 20
9.458853781
 30
0.0
 10
10.2093543893
 20
9.4600959942
 30
0.0
 10
10.2146133808
 20
9.4615955711
 30
0.0
 10
10.2187294345
 20
9.462426643
 30
0.0
 10
10.2215474402
 20
9.4628512769
 30
0.0
  0
SPLINE
  5
383
100
AcDbEntity
  8
0
100
AcDbSpline
 62
7
  6
CONTINUOUS
 70
0
 71
3
 72
13
 73
9
 74
0
 42
0.0000001
 43
0.0000001
 44
0.0000000001
 40
0.0
 40
0.0
 40
0.0
 40
0.0
 40
0.2171271703
 40
0.3337826957
 40
0.4560333323
 40
0.583945222
 40
0.7174512407
 40
1.0
 40
1.0
 40
1.0
 40
1.0
 10
10.1936701247
 20
9.4624629291
 30
0.0
 10
10.1954188366
 20
9.4638028765
 30
0.0
 10
10.1982561293
 20
9.4656747063
 30
0.0
 10
10.2023357765
 20
9.4678612824
 30
0.0
 10
10.2057184681
 20
9.4694194805
 30
0.0
 10
10.2093461831
 20
9.4708379057
 30
0.0
 10
10.2145964141
 20
9.4725470616
 30
0.0
 10
10.2187220605
 20
9.4734992153
 30
0.0
 10
10.2215474402
 20
9.4739850594
 30
0.0
  0
SPLINE
  5
384
100
AcDbEntity
  8
0
100
AcDbSpline
 62
7
  6
CONTINUOUS
 70
0
 71
3
 72
11
 73
7
 74
0
 42
0.0000001
 43
0.0000001
 44
0.0000000001
 40
0.0
 40
0.0
 40
0.0
 40
0.0
 40
0.2210686833
 40
0.4611029918
 40
0.7210662092
 40
1.0
 40
1.0
 40
1.0
 40
1.0
 10
10.1936701247
 20
9.4700613253
 30
0.0
 10
10.1954060395
 20
9.471549804
 30
0.0
 10
10.1992543461
 20
9.4743962998
 30
0.0
 10
10.2057964346
 20
9.4780188961
 30
0.0
 10
10.2133001573
 20
9.4810092245
 30
0.0
 10
10.2187141784
 20
9.4824098302
 30
0.0
 10
10.2215474402
 20
9.4829550249
 30
0.0
  0
SPLINE
  5
385
100
AcDbEntity
  8
0
100
AcDbSpline
 62
7
  6
CONTINUOUS
 70
0
 71
3
 72
11
 73
7
 74
0
 42
0.0000001
 43
0.0000001
 44
0.0000000001
 40
0.0
 40
0.0
 40
0.0
 40
0.0
 40
0.22485091
 40
0.4660722239
 40
0.724685832
 40
1.0
 40
1.0
 40
1.0
 40
1.0
 10
10.1936701247
 20
9.4755141987
 30
0.0
 10
10.1953945696
 20
9.4771432393
 30
0.0
 10
10.1992178639
 20
9.4802645103
 30
0.0
 10
10.2057607551
 20
9.4842627883
 30
0.0
 10
10.213268581
 20
9.4875645896
 30
0.0
 10
10.2187059601
 20
9.4891169611
 30
0.0
 10
10.2215474402
 20
9.4897193513
 30
0.0
  0
SPLINE
  5
386
100
AcDbEntity
  8
0
100
AcDbSpline
 62
7
  6
CONTINUOUS
 70
0
 71
3
 72
11
 73
7
 74
0
 42
0.0000001
 43
0.0000001
 44
0.0000000001
 40
0.0
 40
0.0
 40
0.0
 40
0.0
 40
0.2284501104
 40
0.470833882
 40
0.7281749509
 40
1.0
 40
1.0
 40
1.0
 40
1.0
 10
10.1936701247
 20
9.4787961256
 30
0.0
 10
10.1953844463
 20
9.4805575662
 30
0.0
 10
10.1991842497
 20
9.4839370797
 30
0.0
 10
10.2057264088
 20
9.4882922926
 30
0.0
 10
10.2132370405
 20
9.4918907916
 30
0.0
 10
10.218697576
 20
9.4935893713
 30
0.0
 10
10.2215474402
 20
9.4942465001
 30
0.0
  0
SPLINE
  5
387
100
AcDbEntity
  8
0
100
AcDbSpline
 62
7
  6
CONTINUOUS
 70
0
 71
3
 72
16
 73
12
 74
0
 42
0.0000001
 43
0.0000001
 44
0.0000000001
 40
0.0
 40
0.0
 40
0.0
 40
0.0
 40
0.1251611525
 40
0.2504152399
 40
0.3756709672
 40
0.5008177658
 40
0.6257712898
 40
0.7505192679
 40
0.8751678568
 40
0.9375373645
 40
1.0
 40
1.0
 40
1.0
 40
1.0
 10
9.386082355
 20
9.353616543
 30
0.0
 10
9.3605249835
 20
9.3588869152
 30
0.0
 10
9.309531924
 20
9.3701149985
 30
0.0
 10
9.2333122757
 20
9.3881534328
 30
0.0
 10
9.1571810684
 20
9.4065458608
 30
0.0
 10
9.0809945646
 20
9.4244424936
 30
0.0
 10
9.0046070973
 20
9.4409928926
 30
0.0
 10
8.9278747783
 20
9.4553441425
 30
0.0
 10
8.863533111
 20
9.4647543728
 30
0.0
 10
8.8118114703
 20
9.4703187406
 30
0.0
 10
8.785861735
 20
9.4723755071
 30
0.0
 10
8.772865213
 20
9.4732051831
 30
0.0
  0
SPLINE
  5
388
100
AcDbEntity
  8
0
100
AcDbSpline
 62
7
  6
CONTINUOUS
 70
0
 71
3
 72
9
 73
5
 74
0
 42
0.0000001
 43
0.0000001
 44
0.0000000001
 40
0.0
 40
0.0
 40
0.0
 40
0.0
 40
0.2499070139
 40
1.0
 40
1.0
 40
1.0
 40
1.0
 10
9.386082355
 20
8.6661670651
 30
0.0
 10
9.3794648003
 20
8.6648024108
 30
0.0
 10
9.3530036186
 20
8.6592501038
 30
0.0
 10
9.3266118056
 20
8.6533709424
 30
0.0
 10
9.3068430596
 20
8.6488439913
 30
0.0
  0
SPLINE
  5
389
100
AcDbEntity
  8
0
100
AcDbSpline
 62
7
  6
CONTINUOUS
 70
0
 71
3
 72
19
 73
15
 74
0
 42
0.0000001
 43
0.0000001
 44
0.0000000001
 40
0.0
 40
0.0
 40
0.0
 40
0.0
 40
0.124992519
 40
0.1874155222
 40
0.2497999247
 40
0.31215537
 40
0.3433257526
 40
0.3744930067
 40
0.4368264314
 40
0.499175481
 40
0.6239833597
 40
0.7490200802
 40
0.8743475801
 40
1.0
 40
1.0
 40
1.0
 40
1.0
 10
8.6482339941
 20
8.6646494378
 30
0.0
 10
8.6458263942
 20
8.6788827873
 30
0.0
 10
8.6424925521
 20
8.7002728027
 30
0.0
 10
8.6386390038
 20
8.728864656
 30
0.0
 10
8.6360551278
 20
8.7503261147
 30
0.0
 10
8.6341630187
 20
8.7682333921
 30
0.0
 10
8.632810193
 20
8.782570786
 30
0.0
 10
8.6315665019
 20
8.7969155093
 30
0.0
 10
8.630213999
 20
8.8148645941
 30
0.0
 10
8.6284409562
 20
8.8436246497
 30
0.0
 10
8.6268874151
 20
8.8796500919
 30
0.0
 10
8.6258532841
 20
8.922968632
 30
0.0
 10
8.6254175588
 20
8.9663939629
 30
0.0
 10
8.6253721479
 20
8.9953800527
 30
0.0
 10
8.6253721479
 20
9.009891804
 30
0.0
  0
SPLINE
  5
38A
100
AcDbEntity
  8
0
100
AcDbSpline
 62
7
  6
CONTINUOUS
 70
0
 71
3
 72
19
 73
15
 74
0
 42
0.0000001
 43
0.0000001
 44
0.0000000001
 40
0.0
 40
0.0
 40
0.0
 40
0.0
 40
0.124992519
 40
0.1874155222
 40
0.2497999247
 40
0.31215537
 40
0.3433257526
 40
0.3744930067
 40
0.4368264314
 40
0.499175481
 40
0.6239833597
 40
0.7490200802
 40
0.8743475801
 40
1.0
 40
1.0
 40
1.0
 40
1.0
 10
8.6482339941
 20
9.3551341703
 30
0.0
 10
8.6458263942
 20
9.3409008208
 30
0.0
 10
8.6424925521
 20
9.3195108054
 30
0.0
 10
8.6386390038
 20
9.290918952
 30
0.0
 10
8.6360551278
 20
9.2694574934
 30
0.0
 10
8.6341630187
 20
9.251550216
 30
0.0
 10
8.632810193
 20
9.2372128221
 30
0.0
 10
8.6315665019
 20
9.2228680988
 30
0.0
 10
8.630213999
 20
9.204919014
 30
0.0
 10
8.6284409562
 20
9.1761589584
 30
0.0
 10
8.6268874151
 20
9.1401335162
 30
0.0
 10
8.6258532841
 20
9.0968149761
 30
0.0
 10
8.6254175588
 20
9.0533896452
 30
0.0
 10
8.6253721479
 20
9.0244035554
 30
0.0
 10
8.6253721479
 20
9.009891804
 30
0.0
  0
SPLINE
  5
38B
100
AcDbEntity
  8
0
100
AcDbSpline
 62
7
  6
CONTINUOUS
 70
0
 71
3
 72
11
 73
7
 74
0
 42
0.0000001
 43
0.0000001
 44
0.0000000001
 40
0.0
 40
0.0
 40
0.0
 40
0.0
 40
0.2499939278
 40
0.4999903419
 40
0.7499944687
 40
1.0
 40
1.0
 40
1.0
 40
1.0
 10
9.4663393745
 20
9.3659245774
 30
0.0
 10
9.465046564
 20
9.3659245774
 30
0.0
 10
9.4624583618
 20
9.3657638297
 30
0.0
 10
9.4586350347
 20
9.3650631636
 30
0.0
 10
9.4549182531
 20
9.3639263307
 30
0.0
 10
9.4525416617
 20
9.3628909534
 30
0.0
 10
9.4513878005
 20
9.3623077566
 30
0.0
  0
SPLINE
  5
38C
100
AcDbEntity
  8
0
100
AcDbSpline
 62
7
  6
CONTINUOUS
 70
0
 71
3
 72
23
 73
19
 74
0
 42
0.0000001
 43
0.0000001
 44
0.0000000001
 40
0.0
 40
0.0
 40
0.0
 40
0.0
 40
0.0624959018
 40
0.1249997105
 40
0.18749851
 40
0.2500004361
 40
0.3125008699
 40
0.3750007263
 40
0.43750117
 40
0.4999999994
 40
0.5624988293
 40
0.6249992738
 40
0.6874991297
 40
0.7499995626
 40
0.8125014881
 40
0.8750002874
 40
0.9375040972
 40
1.0
 40
1.0
 40
1.0
 40
1.0
 10
9.4993721479
 20
9.332891804
 30
0.0
 10
9.4993721479
 20
9.3339716394
 30
0.0
 10
9.4992599982
 20
9.336132979
 30
0.0
 10
9.498768767
 20
9.3393402461
 30
0.0
 10
9.4979677532
 20
9.342484719
 30
0.0
 10
9.496870063
 20
9.3455380113
 30
0.0
 10
9.4954872669
 20
9.3484732806
 30
0.0
 10
9.493830041
 20
9.351262872
 30
0.0
 10
9.4919099767
 20
9.3538788404
 30
0.0
 10
9.4897359816
 20
9.356288411
 30
0.0
 10
9.4873264109
 20
9.3584624062
 30
0.0
 10
9.4847104425
 20
9.3603824705
 30
0.0
 10
9.4819208511
 20
9.3620396964
 30
0.0
 10
9.4789855818
 20
9.3634224925
 30
0.0
 10
9.4759322896
 20
9.3645201827
 30
0.0
 10
9.4727878167
 20
9.3653211965
 30
0.0
 10
9.4695805495
 20
9.3658124277
 30
0.0
 10
9.4674192099
 20
9.3659245774
 30
0.0
 10
9.4663393745
 20
9.3659245774
 30
0.0
  0
SPLINE
  5
38D
100
AcDbEntity
  8
0
100
AcDbSpline
 62
7
  6
CONTINUOUS
 70
0
 71
3
 72
23
 73
19
 74
0
 42
0.0000001
 43
0.0000001
 44
0.0000000001
 40
0.0
 40
0.0
 40
0.0
 40
0.0
 40
0.0624959018
 40
0.1249997105
 40
0.18749851
 40
0.2500004361
 40
0.3125008699
 40
0.3750007263
 40
0.43750117
 40
0.4999999994
 40
0.5624988293
 40
0.6249992738
 40
0.6874991297
 40
0.7499995626
 40
0.8125014881
 40
0.8750002874
 40
0.9375040972
 40
1.0
 40
1.0
 40
1.0
 40
1.0
 10
9.4993721479
 20
8.686891804
 30
0.0
 10
9.4993721479
 20
8.6858119687
 30
0.0
 10
9.4992599982
 20
8.6836506291
 30
0.0
 10
9.498768767
 20
8.680443362
 30
0.0
 10
9.4979677532
 20
8.6772988891
 30
0.0
 10
9.496870063
 20
8.6742455968
 30
0.0
 10
9.4954872669
 20
8.6713103275
 30
0.0
 10
9.493830041
 20
8.6685207361
 30
0.0
 10
9.4919099767
 20
8.6659047677
 30
0.0
 10
9.4897359816
 20
8.6634951971
 30
0.0
 10
9.4873264109
 20
8.6613212019
 30
0.0
 10
9.4847104425
 20
8.6594011376
 30
0.0
 10
9.4819208511
 20
8.6577439117
 30
0.0
 10
9.4789855818
 20
8.6563611156
 30
0.0
 10
9.4759322896
 20
8.6552634254
 30
0.0
 10
9.4727878167
 20
8.6544624116
 30
0.0
 10
9.4695805495
 20
8.6539711804
 30
0.0
 10
9.4674192099
 20
8.6538590307
 30
0.0
 10
9.4663393745
 20
8.6538590307
 30
0.0
  0
SPLINE
  5
38E
100
AcDbEntity
  8
0
100
AcDbSpline
 62
7
  6
CONTINUOUS
 70
0
 71
3
 72
11
 73
7
 74
0
 42
0.0000001
 43
0.0000001
 44
0.0000000001
 40
0.0
 40
0.0
 40
0.0
 40
0.0
 40
0.2499939278
 40
0.4999903419
 40
0.7499944687
 40
1.0
 40
1.0
 40
1.0
 40
1.0
 10
9.4663393745
 20
8.6538590307
 30
0.0
 10
9.465046564
 20
8.6538590307
 30
0.0
 10
9.4624583618
 20
8.6540197784
 30
0.0
 10
9.4586350347
 20
8.6547204445
 30
0.0
 10
9.4549182531
 20
8.6558572774
 30
0.0
 10
9.4525416617
 20
8.6568926546
 30
0.0
 10
9.4513878005
 20
8.6574758515
 30
0.0
  0
SPLINE
  5
38F
100
AcDbEntity
  8
0
100
AcDbSpline
 62
7
  6
CONTINUOUS
 70
0
 71
3
 72
11
 73
7
 74
0
 42
0.0000001
 43
0.0000001
 44
0.0000000001
 40
0.0
 40
0.0
 40
0.0
 40
0.0
 40
0.2979045467
 40
0.5665682989
 40
0.8006878962
 40
1.0
 40
1.0
 40
1.0
 40
1.0
 10
10.2489104116
 20
9.3768802655
 30
0.0
 10
10.2516178344
 20
9.3767863368
 30
0.0
 10
10.256765245
 20
9.3765523764
 30
0.0
 10
10.2640295846
 20
9.3760446003
 30
0.0
 10
10.270384101
 20
9.3754156023
 30
0.0
 10
10.2742923887
 20
9.3748970438
 30
0.0
 10
10.276083629
 20
9.3746203651
 30
0.0
  0
LINE
  5
390
100
AcDbEntity
  8
0
100
AcDbLine
 62
7
  6
CONTINUOUS
 10
10.276083629
 20
9.3746203651
 11
10.2762208694
 21
9.374599088
  0
SPLINE
  5
391
100
AcDbEntity
  8
0
100
AcDbSpline
 62
7
  6
CONTINUOUS
 70
0
 71
3
 72
28
 73
24
 74
0
 42
0.0000001
 43
0.0000001
 44
0.0000000001
 40
0.0
 40
0.0
 40
0.0
 40
0.0
 40
0.0624865912
 40
0.1249733079
 40
0.1874631509
 40
0.2499514728
 40
0.2812143588
 40
0.3124783267
 40
0.3437402945
 40
0.3750038105
 40
0.4374913817
 40
0.499979828
 40
0.5624686598
 40
0.6249573147
 40
0.6562204418
 40
0.6874831699
 40
0.7187469738
 40
0.7500096114
 40
0.7812729538
 40
0.8125353316
 40
0.8750246504
 40
0.9375119207
 40
1.0
 40
1.0
 40
1.0
 40
1.0
 10
8.7128282096
 20
9.4982357659
 30
0.0
 10
8.7117869928
 20
9.499160581
 30
0.0
 10
8.7095670523
 20
9.5008610676
 30
0.0
 10
8.7059191993
 20
9.5029232207
 30
0.0
 10
8.7020261878
 20
9.5044740366
 30
0.0
 10
8.6986354636
 20
9.505317051
 30
0.0
 10
8.6958746032
 20
9.5057057378
 30
0.0
 10
8.6937875428
 20
9.5058507709
 30
0.0
 10
8.6916953465
 20
9.5058440598
 30
0.0
 10
8.6889152976
 20
9.5056308833
 30
0.0
 10
8.6854794684
 20
9.5049931001
 30
0.0
 10
8.6815029853
 20
9.503670797
 30
0.0
 10
8.6777406967
 20
9.5018254139
 30
0.0
 10
8.6748415078
 20
9.4998750434
 30
0.0
 10
8.6727040362
 20
9.4980847729
 30
0.0
 10
8.6712016325
 20
9.4966287182
 30
0.0
 10
8.6698090081
 20
9.4950674934
 30
0.0
 10
8.668532733
 20
9.493409852
 30
0.0
 10
8.66737641
 20
9.4916664572
 30
0.0
 10
8.6659989672
 20
9.489242532
 30
0.0
 10
8.6645916502
 20
9.4860446405
 30
0.0
 10
8.663435631
 20
9.4820174711
 30
0.0
 10
8.6630393758
 20
9.4792495344
 30
0.0
 10
8.662940632
 20
9.4778603773
 30
0.0
  0
SPLINE
  5
392
100
AcDbEntity
  8
0
100
AcDbSpline
 62
7
  6
CONTINUOUS
 70
0
 71
3
 72
28
 73
24
 74
0
 42
0.0000001
 43
0.0000001
 44
0.0000000001
 40
0.0
 40
0.0
 40
0.0
 40
0.0
 40
0.0624865912
 40
0.1249733079
 40
0.1874631509
 40
0.2499514728
 40
0.2812143588
 40
0.3124783267
 40
0.3437402945
 40
0.3750038105
 40
0.4374913817
 40
0.499979828
 40
0.5624686598
 40
0.6249573147
 40
0.6562204418
 40
0.6874831699
 40
0.7187469738
 40
0.7500096114
 40
0.7812729538
 40
0.8125353316
 40
0.8750246504
 40
0.9375119207
 40
1.0
 40
1.0
 40
1.0
 40
1.0
 10
8.7128282096
 20
8.5215478422
 30
0.0
 10
8.7117869928
 20
8.5206230271
 30
0.0
 10
8.7095670523
 20
8.5189225405
 30
0.0
 10
8.7059191993
 20
8.5168603874
 30
0.0
 10
8.7020261878
 20
8.5153095715
 30
0.0
 10
8.6986354636
 20
8.5144665571
 30
0.0
 10
8.6958746032
 20
8.5140778703
 30
0.0
 10
8.6937875428
 20
8.5139328372
 30
0.0
 10
8.6916953465
 20
8.5139395483
 30
0.0
 10
8.6889152976
 20
8.5141527248
 30
0.0
 10
8.6854794684
 20
8.514790508
 30
0.0
 10
8.6815029853
 20
8.516112811
 30
0.0
 10
8.6777406967
 20
8.5179581942
 30
0.0
 10
8.6748415078
 20
8.5199085647
 30
0.0
 10
8.6727040362
 20
8.5216988352
 30
0.0
 10
8.6712016325
 20
8.5231548898
 30
0.0
 10
8.6698090081
 20
8.5247161147
 30
0.0
 10
8.668532733
 20
8.5263737561
 30
0.0
 10
8.66737641
 20
8.5281171509
 30
0.0
 10
8.6659989672
 20
8.5305410761
 30
0.0
 10
8.6645916502
 20
8.5337389676
 30
0.0
 10
8.663435631
 20
8.537766137
 30
0.0
 10
8.6630393758
 20
8.5405340736
 30
0.0
 10
8.662940632
 20
8.5419232308
 30
0.0
  0
SPLINE
  5
393
100
AcDbEntity
  8
0
100
AcDbSpline
 62
7
  6
CONTINUOUS
 70
0
 71
3
 72
14
 73
10
 74
0
 42
0.0000001
 43
0.0000001
 44
0.0000000001
 40
0.0
 40
0.0
 40
0.0
 40
0.0
 40
0.2849686452
 40
0.4195733376
 40
0.548141803
 40
0.6703562173
 40
0.7862027756
 40
0.8959721352
 40
1.0
 40
1.0
 40
1.0
 40
1.0
 10
10.2489104116
 20
9.4628512769
 30
0.0
 10
10.2516256325
 20
9.4624556639
 30
0.0
 10
10.255601572
 20
9.4616947036
 30
0.0
 10
10.2606985372
 20
9.460318231
 30
0.0
 10
10.2642281121
 20
9.4591667709
 30
0.0
 10
10.2675213335
 20
9.4578902365
 30
0.0
 10
10.2705723647
 20
9.4565043905
 30
0.0
 10
10.2733836434
 20
9.4550272449
 30
0.0
 10
10.2751481492
 20
9.4539641154
 30
0.0
 10
10.2759897274
 20
9.4534209171
 30
0.0
  0
SPLINE
  5
394
100
AcDbEntity
  8
0
100
AcDbSpline
 62
7
  6
CONTINUOUS
 70
0
 71
3
 72
16
 73
12
 74
0
 42
0.0000001
 43
0.0000001
 44
0.0000000001
 40
0.0
 40
0.0
 40
0.0
 40
0.0
 40
0.0310931483
 40
0.0621916577
 40
0.1244096574
 40
0.1866624827
 40
0.2489562796
 40
0.373681766
 40
0.4986058637
 40
0.7490182229
 40
1.0
 40
1.0
 40
1.0
 40
1.0
 10
8.7629698186
 20
8.2403731513
 30
0.0
 10
8.7633690197
 20
8.2427441278
 30
0.0
 10
8.7641850773
 20
8.2474835429
 30
0.0
 10
8.7658789205
 20
8.2569535622
 30
0.0
 10
8.768109299
 20
8.2687750827
 30
0.0
 10
8.7709542682
 20
8.2829344051
 30
0.0
 10
8.7749588227
 20
8.3017897015
 30
0.0
 10
8.7803297202
 20
8.3253075119
 30
0.0
 10
8.7895806586
 20
8.3628545396
 30
0.0
 10
8.8021374829
 20
8.4096343602
 30
0.0
 10
8.8127347161
 20
8.4469295119
 30
0.0
 10
8.818056374
 20
8.465593386
 30
0.0
  0
SPLINE
  5
395
100
AcDbEntity
  8
0
100
AcDbSpline
 62
7
  6
CONTINUOUS
 70
0
 71
3
 72
19
 73
15
 74
0
 42
0.0000001
 43
0.0000001
 44
0.0000000001
 40
0.0
 40
0.0
 40
0.0
 40
0.0
 40
0.0310476406
 40
0.0621042768
 40
0.093172439
 40
0.1242541379
 40
0.1864639234
 40
0.2487433553
 40
0.3735219829
 40
0.4985791544
 40
0.6238517802
 40
0.7492471079
 40
0.8746616597
 40
1.0
 40
1.0
 40
1.0
 40
1.0
 10
9.3477744772
 20
8.2403731513
 30
0.0
 10
9.3471805308
 20
8.2439007796
 30
0.0
 10
9.3459542685
 20
8.2509506672
 30
0.0
 10
9.3440149211
 20
8.2615094236
 30
0.0
 10
9.3419784874
 20
8.2720538933
 30
0.0
 10
9.339140028
 20
8.2860986835
 30
0.0
 10
9.3353734324
 20
8.3036240313
 30
0.0
 10
9.328930334
 20
8.3316132157
 30
0.0
 10
9.3201937473
 20
8.3665008758
 30
0.0
 10
9.3089311083
 20
8.4082286282
 30
0.0
 10
9.2971866915
 20
8.4498962031
 30
0.0
 10
9.2852634726
 20
8.4915553534
 30
0.0
 10
9.2734642906
 20
8.5332578632
 30
0.0
 10
9.2658789969
 20
8.5611370331
 30
0.0
 10
9.2622075271
 20
8.5751039003
 30
0.0
  0
SPLINE
  5
396
100
AcDbEntity
  8
0
100
AcDbSpline
 62
7
  6
CONTINUOUS
 70
0
 71
3
 72
13
 73
9
 74
0
 42
0.0000001
 43
0.0000001
 44
0.0000000001
 40
0.0
 40
0.0
 40
0.0
 40
0.0
 40
0.2781516592
 40
0.41080729
 40
0.5385699663
 40
0.6612317538
 40
0.7788408339
 40
1.0
 40
1.0
 40
1.0
 40
1.0
 10
10.2489104116
 20
9.4829550249
 30
0.0
 10
10.2516489527
 20
9.4824454866
 30
0.0
 10
10.2556570667
 20
9.4814621174
 30
0.0
 10
10.260756731
 20
9.4796985354
 30
0.0
 10
10.2642988684
 20
9.4782180533
 30
0.0
 10
10.2676021149
 20
9.4765766954
 30
0.0
 10
10.2715969625
 20
9.4742497495
 30
0.0
 10
10.2743609027
 20
9.4722608084
 30
0.0
 10
10.2760671081
 20
9.4708486599
 30
0.0
  0
SPLINE
  5
397
100
AcDbEntity
  8
0
100
AcDbSpline
 62
7
  6
CONTINUOUS
 70
0
 71
3
 72
11
 73
7
 74
0
 42
0.0000001
 43
0.0000001
 44
0.0000000001
 40
0.0
 40
0.0
 40
0.0
 40
0.0
 40
0.249986815
 40
0.4999942952
 40
0.7500043017
 40
1.0
 40
1.0
 40
1.0
 40
1.0
 10
9.3854338069
 20
8.159028023
 30
0.0
 10
9.3854338069
 20
8.1608840216
 30
0.0
 10
9.3850689821
 20
8.1646047914
 30
0.0
 10
9.3835097736
 20
8.1699806289
 30
0.0
 10
9.3810177961
 20
8.1749924863
 30
0.0
 10
9.3787729932
 20
8.1779813495
 30
0.0
 10
9.3775209919
 20
8.1793515569
 30
0.0
  0
SPLINE
  5
398
100
AcDbEntity
  8
0
100
AcDbSpline
 62
7
  6
CONTINUOUS
 70
0
 71
3
 72
23
 73
19
 74
0
 42
0.0000001
 43
0.0000001
 44
0.0000000001
 40
0.0
 40
0.0
 40
0.0
 40
0.0
 40
0.0624961833
 40
0.124999616
 40
0.1874974278
 40
0.2499984204
 40
0.3124983694
 40
0.3749985949
 40
0.4375000054
 40
0.4999999993
 40
0.562499993
 40
0.6250014032
 40
0.6875016285
 40
0.7500015774
 40
0.8125025702
 40
0.8750003822
 40
0.937503816
 40
1.0
 40
1.0
 40
1.0
 40
1.0
 10
9.3553721479
 20
8.128966364
 30
0.0
 10
9.3563548625
 20
8.128966364
 30
0.0
 10
9.3583217999
 20
8.1290684286
 30
0.0
 10
9.3612405747
 20
8.1295154712
 30
0.0
 10
9.3641021843
 20
8.1302444296
 30
0.0
 10
9.3668808181
 20
8.1312433646
 30
0.0
 10
9.3695520628
 20
8.1325017761
 30
0.0
 10
9.3720907636
 20
8.1340099379
 30
0.0
 10
9.3744714898
 20
8.1357573058
 30
0.0
 10
9.3766643324
 20
8.1377358385
 30
0.0
 10
9.3786428652
 20
8.1399286811
 30
0.0
 10
9.380390233
 20
8.1423094073
 30
0.0
 10
9.3818983949
 20
8.1448481081
 30
0.0
 10
9.3831568063
 20
8.1475193528
 30
0.0
 10
9.3841557413
 20
8.1502979866
 30
0.0
 10
9.3848846998
 20
8.1531595962
 30
0.0
 10
9.3853317424
 20
8.156078371
 30
0.0
 10
9.3854338069
 20
8.1580453085
 30
0.0
 10
9.3854338069
 20
8.159028023
 30
0.0
  0
SPLINE
  5
399
100
AcDbEntity
  8
0
100
AcDbSpline
 62
7
  6
CONTINUOUS
 70
0
 71
3
 72
23
 73
19
 74
0
 42
0.0000001
 43
0.0000001
 44
0.0000000001
 40
0.0
 40
0.0
 40
0.0
 40
0.0
 40
0.0624961833
 40
0.124999616
 40
0.1874974278
 40
0.2499984204
 40
0.3124983694
 40
0.3749985949
 40
0.4375000054
 40
0.4999999993
 40
0.562499993
 40
0.6250014032
 40
0.6875016285
 40
0.7500015774
 40
0.8125025702
 40
0.8750003822
 40
0.937503816
 40
1.0
 40
1.0
 40
1.0
 40
1.0
 10
8.7553721479
 20
8.128966364
 30
0.0
 10
8.7543894334
 20
8.128966364
 30
0.0
 10
8.7524224959
 20
8.1290684286
 30
0.0
 10
8.7495037212
 20
8.1295154712
 30
0.0
 10
8.7466421116
 20
8.1302444296
 30
0.0
 10
8.7438634778
 20
8.1312433646
 30
0.0
 10
8.7411922331
 20
8.1325017761
 30
0.0
 10
8.7386535323
 20
8.1340099379
 30
0.0
 10
8.7362728061
 20
8.1357573058
 30
0.0
 10
8.7340799635
 20
8.1377358385
 30
0.0
 10
8.7321014307
 20
8.1399286811
 30
0.0
 10
8.7303540628
 20
8.1423094073
 30
0.0
 10
8.728845901
 20
8.1448481081
 30
0.0
 10
8.7275874895
 20
8.1475193528
 30
0.0
 10
8.7265885545
 20
8.1502979866
 30
0.0
 10
8.7258595961
 20
8.1531595962
 30
0.0
 10
8.7254125535
 20
8.156078371
 30
0.0
 10
8.7253104889
 20
8.1580453085
 30
0.0
 10
8.7253104889
 20
8.159028023
 30
0.0
  0
SPLINE
  5
39A
100
AcDbEntity
  8
0
100
AcDbSpline
 62
7
  6
CONTINUOUS
 70
0
 71
3
 72
11
 73
7
 74
0
 42
0.0000001
 43
0.0000001
 44
0.0000000001
 40
0.0
 40
0.0
 40
0.0
 40
0.0
 40
0.249986815
 40
0.4999942952
 40
0.7500043017
 40
1.0
 40
1.0
 40
1.0
 40
1.0
 10
8.7253104889
 20
8.159028023
 30
0.0
 10
8.7253104889
 20
8.1608840216
 30
0.0
 10
8.7256753138
 20
8.1646047914
 30
0.0
 10
8.7272345222
 20
8.1699806289
 30
0.0
 10
8.7297264997
 20
8.1749924863
 30
0.0
 10
8.7319713026
 20
8.1779813495
 30
0.0
 10
8.733223304
 20
8.1793515569
 30
0.0
  0
SPLINE
  5
39B
100
AcDbEntity
  8
0
100
AcDbSpline
 62
7
  6
CONTINUOUS
 70
0
 71
3
 72
11
 73
7
 74
0
 42
0.0000001
 43
0.0000001
 44
0.0000000001
 40
0.0
 40
0.0
 40
0.0
 40
0.0
 40
0.2991483154
 40
0.5683198639
 40
0.8020395917
 40
1.0
 40
1.0
 40
1.0
 40
1.0
 10
10.2489104116
 20
9.3541873396
 30
0.0
 10
10.2516346003
 20
9.3541557871
 30
0.0
 10
10.2568098048
 20
9.3540771559
 30
0.0
 10
10.2641121509
 20
9.3539061787
 30
0.0
 10
10.2704914628
 20
9.3536943408
 30
0.0
 10
10.2744190409
 20
9.3535193607
 30
0.0
 10
10.2762194567
 20
9.3534258268
 30
0.0
  0
SPLINE
  5
39C
100
AcDbEntity
  8
0
100
AcDbSpline
 62
7
  6
CONTINUOUS
 70
0
 71
3
 72
13
 73
9
 74
0
 42
0.0000001
 43
0.0000001
 44
0.0000000001
 40
0.0
 40
0.0
 40
0.0
 40
0.0
 40
0.2680329505
 40
0.3978372338
 40
0.5244721901
 40
0.6478672392
 40
0.7681152488
 40
1.0
 40
1.0
 40
1.0
 40
1.0
 10
10.2495220176
 20
9.4963651727
 30
0.0
 10
10.2522388749
 20
9.4956825139
 30
0.0
 10
10.2562075304
 20
9.4943777473
 30
0.0
 10
10.2611959609
 20
9.4920974087
 30
0.0
 10
10.2646774515
 20
9.4901818153
 30
0.0
 10
10.2679224329
 20
9.4880662921
 30
0.0
 10
10.2718779439
 20
9.485052262
 30
0.0
 10
10.274568534
 20
9.482519649
 30
0.0
 10
10.2762183882
 20
9.4807444334
 30
0.0
  0
SPLINE
  5
39D
100
AcDbEntity
  8
0
100
AcDbSpline
 62
7
  6
CONTINUOUS
 70
0
 71
3
 72
13
 73
9
 74
0
 42
0.0000001
 43
0.0000001
 44
0.0000000001
 40
0.0
 40
0.0
 40
0.0
 40
0.0
 40
0.2912732608
 40
0.4277274985
 40
0.5571067045
 40
0.7931898357
 40
0.9001109372
 40
1.0
 40
1.0
 40
1.0
 40
1.0
 10
10.2489104116
 20
9.434309751
 30
0.0
 10
10.2516116646
 20
9.4340325272
 30
0.0
 10
10.2555677123
 20
9.433500682
 30
0.0
 10
10.2606711771
 20
9.4325311956
 30
0.0
 10
10.2652326076
 20
9.4314846743
 30
0.0
 10
10.269465711
 20
9.4302467982
 30
0.0
 10
10.2733400283
 20
9.428815941
 30
0.0
 10
10.2751162974
 20
9.4280638313
 30
0.0
 10
10.2759642131
 20
9.4276788231
 30
0.0
  0
SPLINE
  5
39E
100
AcDbEntity
  8
0
100
AcDbSpline
 62
7
  6
CONTINUOUS
 70
0
 71
3
 72
13
 73
9
 74
0
 42
0.0000001
 43
0.0000001
 44
0.0000000001
 40
0.0
 40
0.0
 40
0.0
 40
0.0
 40
0.2815929173
 40
0.4152299402
 40
0.5433966346
 40
0.6658323028
 40
0.7825578004
 40
1.0
 40
1.0
 40
1.0
 40
1.0
 10
10.2489104116
 20
9.4739850594
 30
0.0
 10
10.2516360383
 20
9.4735318706
 30
0.0
 10
10.2556264253
 20
9.4726587852
 30
0.0
 10
10.2607233245
 20
9.4710861531
 30
0.0
 10
10.2642581667
 20
9.4697683671
 30
0.0
 10
10.2675557618
 20
9.4683073294
 30
0.0
 10
10.2715334938
 20
9.4662417994
 30
0.0
 10
10.2743039953
 20
9.464467282
 30
0.0
 10
10.2760208242
 20
9.4632005193
 30
0.0
  0
SPLINE
  5
39F
100
AcDbEntity
  8
0
100
AcDbSpline
 62
7
  6
CONTINUOUS
 70
0
 71
3
 72
14
 73
10
 74
0
 42
0.0000001
 43
0.0000001
 44
0.0000000001
 40
0.0
 40
0.0
 40
0.0
 40
0.0
 40
0.2707954802
 40
0.4014090828
 40
0.5283904107
 40
0.6516068929
 40
0.7711133963
 40
0.8871595397
 40
1.0
 40
1.0
 40
1.0
 40
1.0
 10
10.2489104116
 20
9.4942465001
 30
0.0
 10
10.2516111117
 20
9.493644363
 30
0.0
 10
10.2555629443
 20
9.4924843836
 30
0.0
 10
10.260559939
 20
9.4904317063
 30
0.0
 10
10.2640501778
 20
9.4887035161
 30
0.0
 10
10.2673101855
 20
9.486788583
 30
0.0
 10
10.2703338585
 20
9.4847103832
 30
0.0
 10
10.2731237487
 20
9.4824949963
 30
0.0
 10
10.2748557485
 20
9.4809203769
 30
0.0
 10
10.2756827458
 20
9.4801169373
 30
0.0
  0
SPLINE
  5
3A0
100
AcDbEntity
  8
0
100
AcDbSpline
 62
7
  6
CONTINUOUS
 70
0
 71
3
 72
13
 73
9
 74
0
 42
0.0000001
 43
0.0000001
 44
0.0000000001
 40
0.0
 40
0.0
 40
0.0
 40
0.0
 40
0.2939532945
 40
0.4311995289
 40
0.5609303064
 40
0.796214929
 40
0.9019084688
 40
1.0
 40
1.0
 40
1.0
 40
1.0
 10
10.2489104116
 20
9.4170350814
 30
0.0
 10
10.251609655
 20
9.4168182722
 30
0.0
 10
10.2555626631
 20
9.4164026602
 30
0.0
 10
10.260674478
 20
9.4156425797
 30
0.0
 10
10.265228942
 20
9.4148245367
 30
0.0
 10
10.2694601613
 20
9.4138569639
 30
0.0
 10
10.2733465276
 20
9.4127333461
 30
0.0
 10
10.2751290699
 20
9.4121425001
 30
0.0
 10
10.2759804678
 20
9.4118397251
 30
0.0
  0
SPLINE
  5
3A1
100
AcDbEntity
  8
0
100
AcDbSpline
 62
7
  6
CONTINUOUS
 70
0
 71
3
 72
13
 73
9
 74
0
 42
0.0000001
 43
0.0000001
 44
0.0000000001
 40
0.0
 40
0.0
 40
0.0
 40
0.0
 40
0.2962024392
 40
0.4341162483
 40
0.5641453248
 40
0.7987702601
 40
0.9034329054
 40
1.0
 40
1.0
 40
1.0
 40
1.0
 10
10.2489104116
 20
9.3978621218
 30
0.0
 10
10.2516117678
 20
9.3977064102
 30
0.0
 10
10.2555675474
 20
9.3974080272
 30
0.0
 10
10.2606922856
 20
9.3968607799
 30
0.0
 10
10.2652457648
 20
9.3962731906
 30
0.0
 10
10.269478638
 20
9.3955783414
 30
0.0
 10
10.2733773634
 20
9.3947682231
 30
0.0
 10
10.2751658843
 20
9.3943420226
 30
0.0
 10
10.2760205152
 20
9.3941234005
 30
0.0
  0
SPLINE
  5
3A2
100
AcDbEntity
  8
0
100
AcDbSpline
 62
7
  6
CONTINUOUS
 70
0
 71
3
 72
14
 73
10
 74
0
 42
0.0000001
 43
0.0000001
 44
0.0000000001
 40
0.0
 40
0.0
 40
0.0
 40
0.0
 40
0.2882258922
 40
0.4237808606
 40
0.5527599459
 40
0.6747862152
 40
0.7898079608
 40
0.8981029746
 40
1.0
 40
1.0
 40
1.0
 40
1.0
 10
10.2489104116
 20
9.4496055883
 30
0.0
 10
10.2516169784
 20
9.4492687424
 30
0.0
 10
10.2555807195
 20
9.4486217547
 30
0.0
 10
10.2606790214
 20
9.4474468005
 30
0.0
 10
10.2642043646
 20
9.4464655113
 30
0.0
 10
10.2674942141
 20
9.4453776524
 30
0.0
 10
10.2705427782
 20
9.4441964876
 30
0.0
 10
10.2733523621
 20
9.4429374625
 30
0.0
 10
10.2751225888
 20
9.4420279748
 30
0.0
 10
10.2759672355
 20
9.4415628623
 30
0.0
  0
SPLINE
  5
3A3
100
AcDbEntity
  8
0
100
AcDbSpline
 62
7
  6
CONTINUOUS
 70
0
 71
3
 72
13
 73
9
 74
0
 42
0.0000001
 43
0.0000001
 44
0.0000000001
 40
0.0
 40
0.0
 40
0.0
 40
0.0
 40
0.2747354321
 40
0.4064291669
 40
0.5338074275
 40
0.6567093661
 40
0.7752030632
 40
1.0
 40
1.0
 40
1.0
 40
1.0
 10
10.2489104116
 20
9.4897193513
 30
0.0
 10
10.2516626351
 20
9.4891551817
 30
0.0
 10
10.2556892434
 20
9.4880644543
 30
0.0
 10
10.2607919279
 20
9.4861170984
 30
0.0
 10
10.2643416131
 20
9.4844793083
 30
0.0
 10
10.267650617
 20
9.4826636698
 30
0.0
 10
10.2716620581
 20
9.4800829957
 30
0.0
 10
10.2744193826
 20
9.4778879812
 30
0.0
 10
10.2761158555
 20
9.4763367341
 30
0.0
  0
LINE
  5
3A4
100
AcDbEntity
  8
0
100
AcDbLine
 62
7
  6
CONTINUOUS
 10
10.2761158555
 20
9.4763367341
 11
10.27621785
 21
9.4762432134
  0
SPLINE
  5
3A5
100
AcDbEntity
  8
0
100
AcDbSpline
 62
7
  6
CONTINUOUS
 70
0
 71
3
 72
11
 73
7
 74
0
 42
0.0000001
 43
0.0000001
 44
0.0000000001
 40
0.0
 40
0.0
 40
0.0
 40
0.0
 40
0.2682686782
 40
0.5242970353
 40
0.767883966
 40
1.0
 40
1.0
 40
1.0
 40
1.0
 10
10.220917272
 20
8.5234285538
 30
0.0
 10
10.2181264203
 20
8.5241561356
 30
0.0
 10
10.2127747786
 20
8.5260097203
 30
0.0
 10
10.2054403028
 20
8.5298594549
 30
0.0
 10
10.1990457025
 20
8.5344845871
 30
0.0
 10
10.1953441605
 20
8.538041149
 30
0.0
 10
10.1936701247
 20
8.539891804
 30
0.0
  0
SPLINE
  5
3A6
100
AcDbEntity
  8
0
100
AcDbSpline
 62
7
  6
CONTINUOUS
 70
0
 71
3
 72
11
 73
7
 74
0
 42
0.0000001
 43
0.0000001
 44
0.0000000001
 40
0.0
 40
0.0
 40
0.0
 40
0.0
 40
0.2718250454
 40
0.529166114
 40
0.7715498927
 40
1.0
 40
1.0
 40
1.0
 40
1.0
 10
10.2215474402
 20
8.525537108
 30
0.0
 10
10.2186975761
 20
8.5261942368
 30
0.0
 10
10.2132370405
 20
8.5278928165
 30
0.0
 10
10.2057264089
 20
8.5314913155
 30
0.0
 10
10.1991842497
 20
8.5358465284
 30
0.0
 10
10.1953844463
 20
8.5392260419
 30
0.0
 10
10.1936701247
 20
8.5409874825
 30
0.0
  0
SPLINE
  5
3A7
100
AcDbEntity
  8
0
100
AcDbSpline
 62
7
  6
CONTINUOUS
 70
0
 71
3
 72
11
 73
7
 74
0
 42
0.0000001
 43
0.0000001
 44
0.0000000001
 40
0.0
 40
0.0
 40
0.0
 40
0.0
 40
0.2753141642
 40
0.5339277721
 40
0.7751490931
 40
1.0
 40
1.0
 40
1.0
 40
1.0
 10
10.2215474402
 20
8.5300642568
 30
0.0
 10
10.2187059601
 20
8.530666647
 30
0.0
 10
10.2132685811
 20
8.5322190185
 30
0.0
 10
10.2057607552
 20
8.5355208197
 30
0.0
 10
10.1992178639
 20
8.5395190977
 30
0.0
 10
10.1953945695
 20
8.5426403688
 30
0.0
 10
10.1936701247
 20
8.5442694094
 30
0.0
  0
SPLINE
  5
3A8
100
AcDbEntity
  8
0
100
AcDbSpline
 62
7
  6
CONTINUOUS
 70
0
 71
3
 72
11
 73
7
 74
0
 42
0.0000001
 43
0.0000001
 44
0.0000000001
 40
0.0
 40
0.0
 40
0.0
 40
0.0
 40
0.278933787
 40
0.5388970042
 40
0.7789313197
 40
1.0
 40
1.0
 40
1.0
 40
1.0
 10
10.2215474402
 20
8.5368285832
 30
0.0
 10
10.2187141785
 20
8.5373737779
 30
0.0
 10
10.2133001574
 20
8.5387743835
 30
0.0
 10
10.2057964346
 20
8.541764712
 30
0.0
 10
10.1992543461
 20
8.5453873083
 30
0.0
 10
10.1954060395
 20
8.5482338041
 30
0.0
 10
10.1936701247
 20
8.5497222828
 30
0.0
  0
SPLINE
  5
3A9
100
AcDbEntity
  8
0
100
AcDbSpline
 62
7
  6
CONTINUOUS
 70
0
 71
3
 72
13
 73
9
 74
0
 42
0.0000001
 43
0.0000001
 44
0.0000000001
 40
0.0
 40
0.0
 40
0.0
 40
0.0
 40
0.2825487557
 40
0.4160547766
 40
0.5439666621
 40
0.6662173067
 40
0.7828728315
 40
1.0
 40
1.0
 40
1.0
 40
1.0
 10
10.2215474402
 20
8.5457985487
 30
0.0
 10
10.2187220605
 20
8.5462843928
 30
0.0
 10
10.2145964141
 20
8.5472365465
 30
0.0
 10
10.2093461832
 20
8.5489457024
 30
0.0
 10
10.2057184682
 20
8.5503641276
 30
0.0
 10
10.2023357765
 20
8.5519223256
 30
0.0
 10
10.1982561292
 20
8.5541089018
 30
0.0
 10
10.1954188366
 20
8.5559807316
 30
0.0
 10
10.1936701247
 20
8.557320679
 30
0.0
  0
SPLINE
  5
3AA
100
AcDbEntity
  8
0
100
AcDbSpline
 62
7
  6
CONTINUOUS
 70
0
 71
3
 72
13
 73
9
 74
0
 42
0.0000001
 43
0.0000001
 44
0.0000000001
 40
0.0
 40
0.0
 40
0.0
 40
0.0
 40
0.2862007649
 40
0.4207148678
 40
0.5490266352
 40
0.6710328303
 40
0.7867731325
 40
1.0
 40
1.0
 40
1.0
 40
1.0
 10
10.2215474402
 20
8.5569323312
 30
0.0
 10
10.2187294345
 20
8.5573569651
 30
0.0
 10
10.2146133808
 20
8.558188037
 30
0.0
 10
10.2093543893
 20
8.5596876139
 30
0.0
 10
10.205727448
 20
8.560929827
 30
0.0
 10
10.2023453396
 20
8.5622944257
 30
0.0
 10
10.1982794029
 20
8.5642033158
 30
0.0
 10
10.1954328122
 20
8.5658455911
 30
0.0
 10
10.1936701247
 20
8.5670291707
 30
0.0
  0
LINE
  5
3AB
100
AcDbEntity
  8
0
100
AcDbLine
 62
7
  6
CONTINUOUS
 10
10.2762209154
 20
8.6663578461
 11
10.2770229736
 21
8.6663989008
  0
SPLINE
  5
3AC
100
AcDbEntity
  8
0
100
AcDbSpline
 62
7
  6
CONTINUOUS
 70
0
 71
3
 72
14
 73
10
 74
0
 42
0.0000001
 43
0.0000001
 44
0.0000000001
 40
0.0
 40
0.0
 40
0.0
 40
0.0
 40
0.2896829193
 40
0.4251656299
 40
0.553866631
 40
0.6756427332
 40
0.7905010544
 40
0.8985689678
 40
1.0
 40
1.0
 40
1.0
 40
1.0
 10
10.2215474402
 20
8.5701780198
 30
0.0
 10
10.2187361321
 20
8.5705398696
 30
0.0
 10
10.2146290693
 20
8.5712471346
 30
0.0
 10
10.2093621304
 20
8.5725294489
 30
0.0
 10
10.2057359986
 20
8.5735898821
 30
0.0
 10
10.2023549041
 20
8.5747546561
 30
0.0
 10
10.1992227925
 20
8.5760100667
 30
0.0
 10
10.196341398
 20
8.5773440975
 30
0.0
 10
10.194531057
 20
8.5783087069
 30
0.0
 10
10.1936701247
 20
8.5788024923
 30
0.0
  0
LINE
  5
3AD
100
AcDbEntity
  8
0
100
AcDbLine
 62
7
  6
CONTINUOUS
 10
10.2770227365
 20
9.3533847073
 11
10.2762194567
 21
9.3534258268
  0
SPLINE
  5
3AE
100
AcDbEntity
  8
0
100
AcDbSpline
 62
7
  6
CONTINUOUS
 70
0
 71
3
 72
14
 73
10
 74
0
 42
0.0000001
 43
0.0000001
 44
0.0000000001
 40
0.0
 40
0.0
 40
0.0
 40
0.0
 40
0.2929199171
 40
0.4293186098
 40
0.5584046007
 40
0.6799933968
 40
0.7940557505
 40
0.9006843361
 40
1.0
 40
1.0
 40
1.0
 40
1.0
 10
10.2215474402
 20
8.5854738571
 30
0.0
 10
10.2187419941
 20
8.5857716227
 30
0.0
 10
10.2146430405
 20
8.5863529166
 30
0.0
 10
10.2093691136
 20
8.5874113533
 30
0.0
 10
10.2057439134
 20
8.5882852799
 30
0.0
 10
10.2023636913
 20
8.5892451542
 30
0.0
 10
10.1992324692
 20
8.5902796473
 30
0.0
 10
10.1963519193
 20
8.5913788494
 30
0.0
 10
10.1945348296
 20
8.5921767829
 30
0.0
 10
10.1936701247
 20
8.5925857514
 30
0.0
  0
SPLINE
  5
3AF
100
AcDbEntity
  8
0
100
AcDbSpline
 62
7
  6
CONTINUOUS
 70
0
 71
3
 72
14
 73
10
 74
0
 42
0.0000001
 43
0.0000001
 44
0.0000000001
 40
0.0
 40
0.0
 40
0.0
 40
0.0
 40
0.295744006
 40
0.4329500287
 40
0.5623832035
 40
0.6838196015
 40
0.7971931947
 40
0.9025592041
 40
1.0
 40
1.0
 40
1.0
 40
1.0
 10
10.2215474402
 20
8.6027485267
 30
0.0
 10
10.218746876
 20
8.6029811689
 30
0.0
 10
10.2146548432
 20
8.6034348418
 30
0.0
 10
10.2093750945
 20
8.6042638897
 30
0.0
 10
10.2057507944
 20
8.6049474995
 30
0.0
 10
10.2023714731
 20
8.6056982952
 30
0.0
 10
10.1992412333
 20
8.6065073795
 30
0.0
 10
10.1963617017
 20
8.6073669847
 30
0.0
 10
10.1945384444
 20
8.6079932647
 30
0.0
 10
10.1936701247
 20
8.6083146839
 30
0.0
  0
SPLINE
  5
3B0
100
AcDbEntity
  8
0
100
AcDbSpline
 62
7
  6
CONTINUOUS
 70
0
 71
3
 72
14
 73
10
 74
0
 42
0.0000001
 43
0.0000001
 44
0.0000000001
 40
0.0
 40
0.0
 40
0.0
 40
0.0
 40
0.2980161446
 40
0.435877225
 40
0.5655974402
 40
0.6869188904
 40
0.7997424972
 40
0.9040882212
 40
1.0
 40
1.0
 40
1.0
 40
1.0
 10
10.2215474402
 20
8.6219214863
 30
0.0
 10
10.2187506539
 20
8.6220882132
 30
0.0
 10
10.2146640828
 20
8.6224130641
 30
0.0
 10
10.2093798295
 20
8.6230083802
 30
0.0
 10
10.2057563105
 20
8.6234987407
 30
0.0
 10
10.202377809
 20
8.6240372602
 30
0.0
 10
10.199248508
 20
8.6246175288
 30
0.0
 10
10.1963700099
 20
8.6252339588
 30
0.0
 10
10.1945416003
 20
8.6256844544
 30
0.0
 10
10.1936701247
 20
8.6259159543
 30
0.0
  0
SPLINE
  5
3B1
100
AcDbEntity
  8
0
100
AcDbSpline
 62
7
  6
CONTINUOUS
 70
0
 71
3
 72
13
 73
9
 74
0
 42
0.0000001
 43
0.0000001
 44
0.0000000001
 40
0.0
 40
0.0
 40
0.0
 40
0.0
 40
0.2996133443
 40
0.5678586373
 40
0.6891043112
 40
0.8015448157
 40
0.9051725043
 40
1.0
 40
1.0
 40
1.0
 40
1.0
 10
10.2215474402
 20
8.6429033426
 30
0.0
 10
10.2187532296
 20
8.6430035982
 30
0.0
 10
10.2134593684
 20
8.6432569341
 30
0.0
 10
10.2070451171
 20
8.6437291461
 30
0.0
 10
10.2023822959
 20
8.6441762904
 30
0.0
 10
10.1992537374
 20
8.6445253931
 30
0.0
 10
10.1963760899
 20
8.6448961901
 30
0.0
 10
10.1945439622
 20
8.6451677867
 30
0.0
 10
10.1936701247
 20
8.6453074974
 30
0.0
  0
SPLINE
  5
3B2
100
AcDbEntity
  8
0
100
AcDbSpline
 62
7
  6
CONTINUOUS
 70
0
 71
3
 72
11
 73
7
 74
0
 42
0.0000001
 43
0.0000001
 44
0.0000000001
 40
0.0
 40
0.0
 40
0.0
 40
0.0
 40
0.3004357132
 40
0.5690329047
 40
0.8024819813
 40
1.0
 40
1.0
 40
1.0
 40
1.0
 10
10.2215474402
 20
8.6655962685
 30
0.0
 10
10.2187545349
 20
8.6656297234
 30
0.0
 10
10.2134649227
 20
8.6657141905
 30
0.0
 10
10.2060065199
 20
8.6658975174
 30
0.0
 10
10.1995064592
 20
8.6661192939
 30
0.0
 10
10.1955038098
 20
8.6663010244
 30
0.0
 10
10.1936701247
 20
8.6663989008
 30
0.0
  0
SPLINE
  5
3B3
100
AcDbEntity
  8
0
100
AcDbSpline
 62
7
  6
CONTINUOUS
 70
0
 71
3
 72
13
 73
9
 74
0
 42
0.0000001
 43
0.0000001
 44
0.0000000001
 40
0.0
 40
0.0
 40
0.0
 40
0.0
 40
0.2939496482
 40
0.4311950901
 40
0.5609258564
 40
0.7962129651
 40
0.9019079571
 40
1.0
 40
1.0
 40
1.0
 40
1.0
 10
10.2489104116
 20
8.6027485267
 30
0.0
 10
10.2516094646
 20
8.6029653206
 30
0.0
 10
10.2555622025
 20
8.6033808977
 30
0.0
 10
10.2606736836
 20
8.6041409006
 30
0.0
 10
10.2652279042
 20
8.6049588642
 30
0.0
 10
10.2694589253
 20
8.6059263308
 30
0.0
 10
10.2733451232
 20
8.6070498322
 30
0.0
 10
10.2751275859
 20
8.6076406297
 30
0.0
 10
10.2759789412
 20
8.6079433818
 30
0.0
  0
SPLINE
  5
3B4
100
AcDbEntity
  8
0
100
AcDbSpline
 62
7
  6
CONTINUOUS
 70
0
 71
3
 72
14
 73
10
 74
0
 42
0.0000001
 43
0.0000001
 44
0.0000000001
 40
0.0
 40
0.0
 40
0.0
 40
0.0
 40
0.2707957041
 40
0.4014094181
 40
0.52839084
 40
0.6516074244
 40
0.7711140877
 40
0.8871601365
 40
1.0
 40
1.0
 40
1.0
 40
1.0
 10
10.2489104116
 20
8.525537108
 30
0.0
 10
10.2516111136
 20
8.5261392455
 30
0.0
 10
10.2555629489
 20
8.5272992262
 30
0.0
 10
10.260559947
 20
8.529351905
 30
0.0
 10
10.2640501878
 20
8.5310800975
 30
0.0
 10
10.2673101966
 20
8.5329950345
 30
0.0
 10
10.2703338749
 20
8.5350732288
 30
0.0
 10
10.2731237549
 20
8.5372886201
 30
0.0
 10
10.2748557264
 20
8.5388632609
 30
0.0
 10
10.2756827023
 20
8.5396667137
 30
0.0
  0
SPLINE
  5
3B5
100
AcDbEntity
  8
0
100
AcDbSpline
 62
7
  6
CONTINUOUS
 70
0
 71
3
 72
11
 73
7
 74
0
 42
0.0000001
 43
0.0000001
 44
0.0000000001
 40
0.0
 40
0.0
 40
0.0
 40
0.0
 40
0.2991513678
 40
0.5683231446
 40
0.8020395749
 40
1.0
 40
1.0
 40
1.0
 40
1.0
 10
10.2489104116
 20
8.6655962685
 30
0.0
 10
10.2516347737
 20
8.665627823
 30
0.0
 10
10.2568102846
 20
8.6657064603
 30
0.0
 10
10.2641130208
 20
8.6658774513
 30
0.0
 10
10.2704926453
 20
8.6660893142
 30
0.0
 10
10.2744204032
 20
8.6662643077
 30
0.0
 10
10.2762209154
 20
8.6663578461
 30
0.0
  0
SPLINE
  5
3B6
100
AcDbEntity
  8
0
100
AcDbSpline
 62
7
  6
CONTINUOUS
 70
0
 71
3
 72
11
 73
7
 74
0
 42
0.0000001
 43
0.0000001
 44
0.0000000001
 40
0.0
 40
0.0
 40
0.0
 40
0.0
 40
0.2979000144
 40
0.566563163
 40
0.8006868845
 40
1.0
 40
1.0
 40
1.0
 40
1.0
 10
10.2489104116
 20
8.6429033426
 30
0.0
 10
10.2516175915
 20
8.6429972629
 30
0.0
 10
10.2567645722
 20
8.6432311982
 30
0.0
 10
10.2640283628
 20
8.6437389137
 30
0.0
 10
10.2703824515
 20
8.6443678164
 30
0.0
 10
10.2742904996
 20
8.6448863073
 30
0.0
 10
10.2760816151
 20
8.6451629697
 30
0.0
  0
LINE
  5
3B7
100
AcDbEntity
  8
0
100
AcDbLine
 62
7
  6
CONTINUOUS
 10
10.2760816151
 20
8.6451629697
 11
10.2762186885
 21
8.6451842211
  0
SPLINE
  5
3B8
100
AcDbEntity
  8
0
100
AcDbSpline
 62
7
  6
CONTINUOUS
 70
0
 71
3
 72
13
 73
9
 74
0
 42
0.0000001
 43
0.0000001
 44
0.0000000001
 40
0.0
 40
0.0
 40
0.0
 40
0.0
 40
0.2781472249
 40
0.4108020023
 40
0.5385648194
 40
0.6612277727
 40
0.7788389259
 40
1.0
 40
1.0
 40
1.0
 40
1.0
 10
10.2489104116
 20
8.5368285832
 30
0.0
 10
10.2516485274
 20
8.5373380424
 30
0.0
 10
10.2556560354
 20
8.5383212264
 30
0.0
 10
10.2607549827
 20
8.5400844198
 30
0.0
 10
10.2642966824
 20
8.5415645712
 30
0.0
 10
10.2675995738
 20
8.5432055619
 30
0.0
 10
10.2715940564
 20
8.5455319529
 30
0.0
 10
10.2743577615
 20
8.5475204882
 30
0.0
 10
10.2760637816
 20
8.5489324064
 30
0.0
  0
SPLINE
  5
3B9
100
AcDbEntity
  8
0
100
AcDbSpline
 62
7
  6
CONTINUOUS
 70
0
 71
3
 72
14
 73
10
 74
0
 42
0.0000001
 43
0.0000001
 44
0.0000000001
 40
0.0
 40
0.0
 40
0.0
 40
0.0
 40
0.2849589254
 40
0.4195618866
 40
0.5481297648
 40
0.6703447551
 40
0.7861937355
 40
0.8959683737
 40
1.0
 40
1.0
 40
1.0
 40
1.0
 10
10.2489104116
 20
8.5569323312
 30
0.0
 10
10.2516250241
 20
8.5573278556
 30
0.0
 10
10.2556001037
 20
8.5580886101
 30
0.0
 10
10.2606960266
 20
8.5594646479
 30
0.0
 10
10.2642249637
 20
8.5606157305
 30
0.0
 10
10.2675176594
 20
8.5618918279
 30
0.0
 10
10.2705682727
 20
8.563277245
 30
0.0
 10
10.2733792527
 20
8.5647538964
 30
0.0
 10
10.2751435906
 20
8.5658167188
 30
0.0
 10
10.2759850688
 20
8.566359788
 30
0.0
  0
SPLINE
  5
3BA
100
AcDbEntity
  8
0
100
AcDbSpline
 62
7
  6
CONTINUOUS
 70
0
 71
3
 72
14
 73
10
 74
0
 42
0.0000001
 43
0.0000001
 44
0.0000000001
 40
0.0
 40
0.0
 40
0.0
 40
0.0
 40
0.2882282197
 40
0.4237836017
 40
0.5527625689
 40
0.6747881149
 40
0.789808496
 40
0.8981026978
 40
1.0
 40
1.0
 40
1.0
 40
1.0
 10
10.2489104116
 20
8.5701780198
 30
0.0
 10
10.2516171424
 20
8.5705148861
 30
0.0
 10
10.2555811167
 20
8.5711619208
 30
0.0
 10
10.2606797027
 20
8.5723369772
 30
0.0
 10
10.2642052174
 20
8.5733183524
 30
0.0
 10
10.2674952059
 20
8.5744063053
 30
0.0
 10
10.2705438802
 20
8.5755875856
 30
0.0
 10
10.2733535734
 20
8.5768467168
 30
0.0
 10
10.2751238827
 20
8.5777562607
 30
0.0
 10
10.2759685747
 20
8.5782214013
 30
0.0
  0
SPLINE
  5
3BB
100
AcDbEntity
  8
0
100
AcDbSpline
 62
7
  6
CONTINUOUS
 70
0
 71
3
 72
13
 73
9
 74
0
 42
0.0000001
 43
0.0000001
 44
0.0000000001
 40
0.0
 40
0.0
 40
0.0
 40
0.0
 40
0.2815966667
 40
0.4152343774
 40
0.5434009222
 40
0.6658355191
 40
0.7825590379
 40
1.0
 40
1.0
 40
1.0
 40
1.0
 10
10.2489104116
 20
8.5457985487
 30
0.0
 10
10.2516363617
 20
8.5462517913
 30
0.0
 10
10.2556272092
 20
8.5471250017
 30
0.0
 10
10.2607246591
 20
8.5486978998
 30
0.0
 10
10.2642598361
 20
8.5500159113
 30
0.0
 10
10.2675577039
 20
8.5514771966
 30
0.0
 10
10.2715357168
 20
8.5535431199
 30
0.0
 10
10.2743064235
 20
8.5553178922
 30
0.0
 10
10.2760233992
 20
8.556584814
 30
0.0
  0
SPLINE
  5
3BC
100
AcDbEntity
  8
0
100
AcDbSpline
 62
7
  6
CONTINUOUS
 70
0
 71
3
 72
13
 73
9
 74
0
 42
0.0000001
 43
0.0000001
 44
0.0000000001
 40
0.0
 40
0.0
 40
0.0
 40
0.0
 40
0.2680324859
 40
0.3978366714
 40
0.524471645
 40
0.6478667877
 40
0.7681149375
 40
1.0
 40
1.0
 40
1.0
 40
1.0
 10
10.2495220146
 20
8.5234184347
 30
0.0
 10
10.252238803
 20
8.524101076
 30
0.0
 10
10.2562073606
 20
8.525405802
 30
0.0
 10
10.2611956788
 20
8.5276860606
 30
0.0
 10
10.2646771
 20
8.5296015849
 30
0.0
 10
10.2679220264
 20
8.5317170302
 30
0.0
 10
10.2718774732
 20
8.5347309578
 30
0.0
 10
10.2745680548
 20
8.5372634624
 30
0.0
 10
10.2762178719
 20
8.5390386388
 30
0.0
  0
SPLINE
  5
3BD
100
AcDbEntity
  8
0
100
AcDbSpline
 62
7
  6
CONTINUOUS
 70
0
 71
3
 72
13
 73
9
 74
0
 42
0.0000001
 43
0.0000001
 44
0.0000000001
 40
0.0
 40
0.0
 40
0.0
 40
0.0
 40
0.2961959598
 40
0.4341077869
 40
0.5641359797
 40
0.798761646
 40
0.9034273324
 40
1.0
 40
1.0
 40
1.0
 40
1.0
 10
10.2489104116
 20
8.6219214863
 30
0.0
 10
10.2516115547
 20
8.6220771856
 30
0.0
 10
10.255567032
 20
8.6223755399
 30
0.0
 10
10.2606913954
 20
8.6229227263
 30
0.0
 10
10.2652446
 20
8.6235102473
 30
0.0
 10
10.2694772628
 20
8.6242050283
 30
0.0
 10
10.2733758636
 20
8.6250150482
 30
0.0
 10
10.2751643727
 20
8.6254411851
 30
0.0
 10
10.2760190117
 20
8.6256597778
 30
0.0
  0
SPLINE
  5
3BE
100
AcDbEntity
  8
0
100
AcDbSpline
 62
7
  6
CONTINUOUS
 70
0
 71
3
 72
14
 73
10
 74
0
 42
0.0000001
 43
0.0000001
 44
0.0000000001
 40
0.0
 40
0.0
 40
0.0
 40
0.0
 40
0.2912451166
 40
0.4276887647
 40
0.5570601461
 40
0.6789245583
 40
0.7931897298
 40
0.9001102574
 40
1.0
 40
1.0
 40
1.0
 40
1.0
 10
10.2489104116
 20
8.5854738571
 30
0.0
 10
10.251611076
 20
8.5857510205
 30
0.0
 10
10.2555663436
 20
8.5862827428
 30
0.0
 10
10.2606686397
 20
8.5872518852
 30
0.0
 10
10.2641918641
 20
8.5880601228
 30
0.0
 10
10.2674799793
 20
8.5889561167
 30
0.0
 10
10.2705272504
 20
8.5899289761
 30
0.0
 10
10.2733357979
 20
8.5909659985
 30
0.0
 10
10.2751118863
 20
8.5917178646
 30
0.0
 10
10.2759597357
 20
8.5921027608
 30
0.0
  0
SPLINE
  5
3BF
100
AcDbEntity
  8
0
100
AcDbSpline
 62
7
  6
CONTINUOUS
 70
0
 71
3
 72
13
 73
9
 74
0
 42
0.0000001
 43
0.0000001
 44
0.0000000001
 40
0.0
 40
0.0
 40
0.0
 40
0.0
 40
0.2747328455
 40
0.4064258245
 40
0.533803806
 40
0.6567058017
 40
0.7751997218
 40
1.0
 40
1.0
 40
1.0
 40
1.0
 10
10.2489104116
 20
8.5300642568
 30
0.0
 10
10.2516624384
 20
8.530628386
 30
0.0
 10
10.2556887666
 20
8.5317190179
 30
0.0
 10
10.2607911228
 20
8.5336661788
 30
0.0
 10
10.2643406072
 20
8.5353037996
 30
0.0
 10
10.26764945
 20
8.5371192453
 30
0.0
 10
10.2716607275
 20
8.5396996934
 30
0.0
 10
10.2744180277
 20
8.541894435
 30
0.0
 10
10.2761145193
 20
8.5434455011
 30
0.0
  0
LINE
  5
3C0
100
AcDbEntity
  8
0
100
AcDbLine
 62
7
  6
CONTINUOUS
 10
10.2761145193
 20
8.5434455011
 11
10.2762187919
 21
8.5435411044
  0
SPLINE
  5
3C1
100
AcDbEntity
  8
0
100
AcDbSpline
 62
7
  6
CONTINUOUS
 70
0
 71
3
 72
12
 73
8
 74
0
 42
0.0000001
 43
0.0000001
 44
0.0000000001
 40
0.0
 40
0.0
 40
0.0
 40
0.0
 40
0.2682878126
 40
0.5247386701
 40
0.6481562012
 40
0.7683635356
 40
1.0
 40
1.0
 40
1.0
 40
1.0
 10
10.2489104116
 20
9.0265153638
 30
0.0
 10
10.251691571
 20
9.0258482039
 30
0.0
 10
10.2570446671
 20
9.024144481
 30
0.0
 10
10.2632686435
 20
9.0210811314
 30
0.0
 10
10.2677521844
 20
9.0181881475
 30
0.0
 10
10.271794743
 20
9.0151285388
 30
0.0
 10
10.2745404093
 20
9.0125503516
 30
0.0
 10
10.2762214733
 20
9.0107415742
 30
0.0
  0
SPLINE
  5
3C2
100
AcDbEntity
  8
0
100
AcDbSpline
 62
7
  6
CONTINUOUS
 70
0
 71
3
 72
15
 73
11
 74
0
 42
0.0000001
 43
0.0000001
 44
0.0000000001
 40
0.0
 40
0.0
 40
0.0
 40
0.0
 40
0.1283634315
 40
0.2558596356
 40
0.3823700939
 40
0.5078518497
 40
0.6322916298
 40
0.7557312729
 40
0.8782834754
 40
1.0
 40
1.0
 40
1.0
 40
1.0
 10
10.2489104116
 20
9.4739850594
 30
0.0
 10
10.2503231603
 20
9.4735522391
 30
0.0
 10
10.2531012455
 20
9.4725600359
 30
0.0
 10
10.2571016615
 20
9.4707115156
 30
0.0
 10
10.2608962343
 20
9.4685364165
 30
0.0
 10
10.2644609849
 20
9.4660640275
 30
0.0
 10
10.26777949
 20
9.4633256549
 30
0.0
 10
10.2708462965
 20
9.4603572428
 30
0.0
 10
10.2736670739
 20
9.4571971185
 30
0.0
 10
10.2753945379
 20
9.4549756487
 30
0.0
 10
10.2762189195
 20
9.453842802
 30
0.0
  0
SPLINE
  5
3C3
100
AcDbEntity
  8
0
100
AcDbSpline
 62
7
  6
CONTINUOUS
 70
0
 71
3
 72
13
 73
9
 74
0
 42
0.0000001
 43
0.0000001
 44
0.0000000001
 40
0.0
 40
0.0
 40
0.0
 40
0.0
 40
0.2784127778
 40
0.4111319837
 40
0.5389063866
 40
0.661532025
 40
0.7790674386
 40
1.0
 40
1.0
 40
1.0
 40
1.0
 10
10.2489104116
 20
9.0926224305
 30
0.0
 10
10.2516697808
 20
9.0931358442
 30
0.0
 10
10.2557075614
 20
9.0941283199
 30
0.0
 10
10.2608423137
 20
9.0959109157
 30
0.0
 10
10.2644058291
 20
9.0974076914
 30
0.0
 10
10.2677264011
 20
9.0990672563
 30
0.0
 10
10.2717382617
 20
9.1014194552
 30
0.0
 10
10.2745112323
 20
9.1034297642
 30
0.0
 10
10.2762212321
 20
9.1048568525
 30
0.0
  0
SPLINE
  5
3C4
100
AcDbEntity
  8
0
100
AcDbSpline
 62
7
  6
CONTINUOUS
 70
0
 71
3
 72
15
 73
11
 74
0
 42
0.0000001
 43
0.0000001
 44
0.0000000001
 40
0.0
 40
0.0
 40
0.0
 40
0.0
 40
0.1321950364
 40
0.2625576734
 40
0.3908436202
 40
0.5169278046
 40
0.640766421
 40
0.762434539
 40
0.8821289809
 40
1.0
 40
1.0
 40
1.0
 40
1.0
 10
10.2489104116
 20
9.4942465001
 30
0.0
 10
10.250318725
 20
9.493865811
 30
0.0
 10
10.2530861776
 20
9.4929945376
 30
0.0
 10
10.2570849247
 20
9.4913657511
 30
0.0
 10
10.2608785988
 20
9.4894488209
 30
0.0
 10
10.2644434194
 20
9.4872693025
 30
0.0
 10
10.2677630297
 20
9.4848544478
 30
0.0
 10
10.2708316825
 20
9.4822358297
 30
0.0
 10
10.2736543045
 20
9.4794476127
 30
0.0
 10
10.275389821
 20
9.4774795227
 30
0.0
 10
10.2762174737
 20
9.4764760133
 30
0.0
  0
SPLINE
  5
3C5
100
AcDbEntity
  8
0
100
AcDbSpline
 62
7
  6
CONTINUOUS
 70
0
 71
3
 72
15
 73
11
 74
0
 42
0.0000001
 43
0.0000001
 44
0.0000000001
 40
0.0
 40
0.0
 40
0.0
 40
0.0
 40
0.1321961523
 40
0.2625594932
 40
0.390845637
 40
0.5169295855
 40
0.6407674571
 40
0.7624344113
 40
0.8821283433
 40
1.0
 40
1.0
 40
1.0
 40
1.0
 10
10.2489104116
 20
9.0926224305
 30
0.0
 10
10.2503189924
 20
9.0922416691
 30
0.0
 10
10.2530869608
 20
9.0913702093
 30
0.0
 10
10.2570864181
 20
9.0897410263
 30
0.0
 10
10.2608807135
 20
9.0878235955
 30
0.0
 10
10.2644460588
 20
9.0856434963
 30
0.0
 10
10.2677660937
 20
9.0832279949
 30
0.0
 10
10.2708350428
 20
9.0806086372
 30
0.0
 10
10.2736579819
 20
9.0778197389
 30
0.0
 10
10.2753937767
 20
9.0758512622
 30
0.0
 10
10.2762215902
 20
9.0748475704
 30
0.0
  0
SPLINE
  5
3C6
100
AcDbEntity
  8
0
100
AcDbSpline
 62
7
  6
CONTINUOUS
 70
0
 71
3
 72
15
 73
11
 74
0
 42
0.0000001
 43
0.0000001
 44
0.0000000001
 40
0.0
 40
0.0
 40
0.0
 40
0.0
 40
0.1251670513
 40
0.2502987183
 40
0.375371241
 40
0.500395488
 40
0.6253667362
 40
0.7502827582
 40
0.8751734564
 40
1.0
 40
1.0
 40
1.0
 40
1.0
 10
10.2489104116
 20
9.3978621218
 30
0.0
 10
10.2503272825
 20
9.3973839693
 30
0.0
 10
10.2531149555
 20
9.3962863127
 30
0.0
 10
10.2571165045
 20
9.3942478282
 30
0.0
 10
10.2609114375
 20
9.3918497568
 30
0.0
 10
10.2644756865
 20
9.3891246527
 30
0.0
 10
10.2677928827
 20
9.3861073148
 30
0.0
 10
10.2708579024
 20
9.3828373798
 30
0.0
 10
10.2736770302
 20
9.3793566456
 30
0.0
 10
10.2753984872
 20
9.3769171258
 30
0.0
 10
10.276220519
 20
9.3756728321
 30
0.0
  0
SPLINE
  5
3C7
100
AcDbEntity
  8
0
100
AcDbSpline
 62
7
  6
CONTINUOUS
 70
0
 71
3
 72
15
 73
11
 74
0
 42
0.0000001
 43
0.0000001
 44
0.0000000001
 40
0.0
 40
0.0
 40
0.0
 40
0.0
 40
0.1254854606
 40
0.2508515679
 40
0.3760655768
 40
0.5011335785
 40
0.6260507463
 40
0.7508198524
 40
0.8754794354
 40
1.0
 40
1.0
 40
1.0
 40
1.0
 10
10.2489104116
 20
9.4170350814
 30
0.0
 10
10.2503266638
 20
9.4165616049
 30
0.0
 10
10.2531129846
 20
9.4154748544
 30
0.0
 10
10.2571139354
 20
9.413455994
 30
0.0
 10
10.2609084154
 20
9.4110809768
 30
0.0
 10
10.2644723656
 20
9.4083820043
 30
0.0
 10
10.2677894098
 20
9.4053935108
 30
0.0
 10
10.2708544189
 20
9.4021547739
 30
0.0
 10
10.2736734943
 20
9.3987071268
 30
0.0
 10
10.275395322
 20
9.3962900433
 30
0.0
 10
10.2762174594
 20
9.3950572097
 30
0.0
  0
SPLINE
  5
3C8
100
AcDbEntity
  8
0
100
AcDbSpline
 62
7
  6
CONTINUOUS
 70
0
 71
3
 72
12
 73
8
 74
0
 42
0.0000001
 43
0.0000001
 44
0.0000000001
 40
0.0
 40
0.0
 40
0.0
 40
0.0
 40
0.1309394479
 40
0.2602636412
 40
0.513455854
 40
0.7598101556
 40
1.0
 40
1.0
 40
1.0
 40
1.0
 10
10.2215474402
 20
9.1251741562
 30
0.0
 10
10.2200960715
 20
9.1247483568
 30
0.0
 10
10.2172494156
 20
9.12376498
 30
0.0
 10
10.2118345732
 20
9.1213298377
 30
0.0
 10
10.2056102818
 20
9.1175149243
 30
0.0
 10
10.1990819581
 20
9.1119561803
 30
0.0
 10
10.1953558349
 20
9.1077198659
 30
0.0
 10
10.1936701247
 20
9.1055161302
 30
0.0
  0
SPLINE
  5
3C9
100
AcDbEntity
  8
0
100
AcDbSpline
 62
7
  6
CONTINUOUS
 70
0
 71
3
 72
15
 73
11
 74
0
 42
0.0000001
 43
0.0000001
 44
0.0000000001
 40
0.0
 40
0.0
 40
0.0
 40
0.0
 40
0.1266026272
 40
0.2527932606
 40
0.37850676
 40
0.5037314874
 40
0.6284608666
 40
0.7527141674
 40
0.8765596602
 40
1.0
 40
1.0
 40
1.0
 40
1.0
 10
10.2489104116
 20
9.4496055883
 30
0.0
 10
10.2503252437
 20
9.449148097
 30
0.0
 10
10.2531082631
 20
9.4480985467
 30
0.0
 10
10.2571089778
 20
9.4461465626
 30
0.0
 10
10.2609034823
 20
9.4438500174
 30
0.0
 10
10.2644677414
 20
9.4412399654
 30
0.0
 10
10.2677853506
 20
9.4383496148
 30
0.0
 10
10.2708510537
 20
9.4352169478
 30
0.0
 10
10.2736707698
 20
9.4318821112
 30
0.0
 10
10.2753947029
 20
9.429541747
 30
0.0
 10
10.2762176687
 20
9.4283481393
 30
0.0
  0
SPLINE
  5
3CA
100
AcDbEntity
  8
0
100
AcDbSpline
 62
7
  6
CONTINUOUS
 70
0
 71
3
 72
13
 73
9
 74
0
 42
0.0000001
 43
0.0000001
 44
0.0000000001
 40
0.0
 40
0.0
 40
0.0
 40
0.0
 40
0.1274800792
 40
0.2542836849
 40
0.3803518675
 40
0.5056935196
 40
0.7540858947
 40
1.0
 40
1.0
 40
1.0
 40
1.0
 10
10.2215474402
 20
9.4628512769
 30
0.0
 10
10.2200915137
 20
9.4623760743
 30
0.0
 10
10.217234565
 20
9.4612770578
 30
0.0
 10
10.2131432476
 20
9.4592280663
 30
0.0
 10
10.2092764473
 20
9.4568303451
 30
0.0
 10
10.2044556122
 20
9.4532406957
 30
0.0
 10
10.1990348598
 20
9.4480941447
 30
0.0
 10
10.1953439524
 20
9.4434155577
 30
0.0
 10
10.1936701247
 20
9.4409811158
 30
0.0
  0
SPLINE
  5
3CB
100
AcDbEntity
  8
0
100
AcDbSpline
 62
7
  6
CONTINUOUS
 70
0
 71
3
 72
15
 73
11
 74
0
 42
0.0000001
 43
0.0000001
 44
0.0000000001
 40
0.0
 40
0.0
 40
0.0
 40
0.0
 40
0.1307636087
 40
0.2600513902
 40
0.3876673486
 40
0.5135192814
 40
0.6375773978
 40
0.7599069814
 40
0.8806761101
 40
1.0
 40
1.0
 40
1.0
 40
1.0
 10
10.2489104116
 20
9.4897193513
 30
0.0
 10
10.2503204931
 20
9.4893193474
 30
0.0
 10
10.2530921439
 20
9.4884033019
 30
0.0
 10
10.2570920027
 20
9.4866928918
 30
0.0
 10
10.2608864656
 20
9.484680008
 30
0.0
 10
10.2644516629
 20
9.4823915958
 30
0.0
 10
10.2677711934
 20
9.4798564157
 30
0.0
 10
10.2708393881
 20
9.4771076562
 30
0.0
 10
10.273661543
 20
9.4741811363
 30
0.0
 10
10.2753941105
 20
9.4721187944
 30
0.0
 10
10.2762205802
 20
9.4710672081
 30
0.0
  0
SPLINE
  5
3CC
100
AcDbEntity
  8
0
100
AcDbSpline
 62
7
  6
CONTINUOUS
 70
0
 71
3
 72
13
 73
9
 74
0
 42
0.0000001
 43
0.0000001
 44
0.0000000001
 40
0.0
 40
0.0
 40
0.0
 40
0.0
 40
0.2819859343
 40
0.4157194976
 40
0.5439062604
 40
0.6662902776
 40
0.7829049685
 40
1.0
 40
1.0
 40
1.0
 40
1.0
 10
10.2489104116
 20
9.1251741562
 30
0.0
 10
10.251662948
 20
9.1256318193
 30
0.0
 10
10.2556916419
 20
9.1265153726
 30
0.0
 10
10.2608343064
 20
9.1281100975
 30
0.0
 10
10.2643969272
 20
9.1294467636
 30
0.0
 10
10.26771707
 20
9.1309289105
 30
0.0
 10
10.2717167584
 20
9.1330235582
 30
0.0
 10
10.2744992508
 20
9.1348229373
 30
0.0
 10
10.2762213032
 20
9.1361072082
 30
0.0
  0
SPLINE
  5
3CD
100
AcDbEntity
  8
0
100
AcDbSpline
 62
7
  6
CONTINUOUS
 70
0
 71
3
 72
15
 73
11
 74
0
 42
0.0000001
 43
0.0000001
 44
0.0000000001
 40
0.0
 40
0.0
 40
0.0
 40
0.0
 40
0.1307637503
 40
0.2600516206
 40
0.3876676025
 40
0.513519505
 40
0.6375775259
 40
0.7599069611
 40
0.8806760272
 40
1.0
 40
1.0
 40
1.0
 40
1.0
 10
10.2489104116
 20
9.1251741562
 30
0.0
 10
10.2503205364
 20
9.1247741401
 30
0.0
 10
10.2530922706
 20
9.1238580629
 30
0.0
 10
10.2570922439
 20
9.1221475857
 30
0.0
 10
10.2608868069
 20
9.120134617
 30
0.0
 10
10.2644520888
 20
9.1178461065
 30
0.0
 10
10.2677716878
 20
9.1153108169
 30
0.0
 10
10.2708399297
 20
9.1125619327
 30
0.0
 10
10.2736621356
 20
9.1096352979
 30
0.0
 10
10.2753947482
 20
9.1075728903
 30
0.0
 10
10.2762212439
 20
9.106521273
 30
0.0
  0
SPLINE
  5
3CE
100
AcDbEntity
  8
0
100
AcDbSpline
 62
7
  6
CONTINUOUS
 70
0
 71
3
 72
13
 73
9
 74
0
 42
0.0000001
 43
0.0000001
 44
0.0000000001
 40
0.0
 40
0.0
 40
0.0
 40
0.0
 40
0.1284597192
 40
0.2559717603
 40
0.3824588437
 40
0.5079258852
 40
0.7557193008
 40
1.0
 40
1.0
 40
1.0
 40
1.0
 10
10.2215474402
 20
9.4739850594
 30
0.0
 10
10.2200928614
 20
9.47352418
 30
0.0
 10
10.217238971
 20
9.4724587527
 30
0.0
 10
10.2131477573
 20
9.4704702496
 30
0.0
 10
10.2092808185
 20
9.4681430827
 30
0.0
 10
10.2044649889
 20
9.4646627428
 30
0.0
 10
10.199047667
 20
9.459673257
 30
0.0
 10
10.1953471877
 20
9.455122258
 30
0.0
 10
10.1936701247
 20
9.4527544374
 30
0.0
  0
SPLINE
  5
3CF
100
AcDbEntity
  8
0
100
AcDbSpline
 62
7
  6
CONTINUOUS
 70
0
 71
3
 72
12
 73
8
 74
0
 42
0.0000001
 43
0.0000001
 44
0.0000000001
 40
0.0
 40
0.0
 40
0.0
 40
0.0
 40
0.1296323245
 40
0.258003728
 40
0.5104409648
 40
0.7575901215
 40
1.0
 40
1.0
 40
1.0
 40
1.0
 10
10.2215474402
 20
9.4829550249
 30
0.0
 10
10.2200943886
 20
9.4825106446
 30
0.0
 10
10.2172438386
 20
9.4814837672
 30
0.0
 10
10.211820895
 20
9.4789406606
 30
0.0
 10
10.2055882802
 20
9.4749541223
 30
0.0
 10
10.1990639352
 20
9.4691575475
 30
0.0
 10
10.195351122
 20
9.4647537444
 30
0.0
 10
10.1936701247
 20
9.4624629291
 30
0.0
  0
SPLINE
  5
3D0
100
AcDbEntity
  8
0
100
AcDbSpline
 62
7
  6
CONTINUOUS
 70
0
 71
3
 72
11
 73
7
 74
0
 42
0.0000001
 43
0.0000001
 44
0.0000000001
 40
0.0
 40
0.0
 40
0.0
 40
0.0
 40
0.2284501104
 40
0.470833882
 40
0.7281749509
 40
1.0
 40
1.0
 40
1.0
 40
1.0
 10
10.1936701247
 20
9.0419657383
 30
0.0
 10
10.1953844463
 20
9.0402042977
 30
0.0
 10
10.1991842497
 20
9.0368247842
 30
0.0
 10
10.2057264088
 20
9.0324695713
 30
0.0
 10
10.2132370405
 20
9.0288710723
 30
0.0
 10
10.218697576
 20
9.0271724926
 30
0.0
 10
10.2215474402
 20
9.0265153638
 30
0.0
  0
SPLINE
  5
3D1
100
AcDbEntity
  8
0
100
AcDbSpline
 62
7
  6
CONTINUOUS
 70
0
 71
3
 72
14
 73
10
 74
0
 42
0.0000001
 43
0.0000001
 44
0.0000000001
 40
0.0
 40
0.0
 40
0.0
 40
0.0
 40
0.2854870727
 40
0.4202223178
 40
0.5488194108
 40
0.6709655374
 40
0.7866644545
 40
0.8962298391
 40
1.0
 40
1.0
 40
1.0
 40
1.0
 10
10.2489104116
 20
9.1571883823
 30
0.0
 10
10.2516565744
 20
9.1575885037
 30
0.0
 10
10.255676545
 20
9.158359967
 30
0.0
 10
10.2608266023
 20
9.1597588504
 30
0.0
 10
10.2643882606
 20
9.1609293813
 30
0.0
 10
10.2677075242
 20
9.1622272096
 30
0.0
 10
10.2707788172
 20
9.1636360866
 30
0.0
 10
10.2736051933
 20
9.1651370466
 30
0.0
 10
10.2753771491
 20
9.1662172946
 30
0.0
 10
10.2762215477
 20
9.1667691302
 30
0.0
  0
SPLINE
  5
3D2
100
AcDbEntity
  8
0
100
AcDbSpline
 62
7
  6
CONTINUOUS
 70
0
 71
3
 72
15
 73
11
 74
0
 42
0.0000001
 43
0.0000001
 44
0.0000000001
 40
0.0
 40
0.0
 40
0.0
 40
0.0
 40
0.1294847571
 40
0.2578163113
 40
0.3848404752
 40
0.5104922077
 40
0.6347516366
 40
0.7576726037
 40
0.8793947047
 40
1.0
 40
1.0
 40
1.0
 40
1.0
 10
10.2489104116
 20
9.1571883823
 30
0.0
 10
10.2503219735
 20
9.1567709689
 30
0.0
 10
10.2530971731
 20
9.1558145327
 30
0.0
 10
10.2570975695
 20
9.1540307545
 30
0.0
 10
10.2608923122
 20
9.1519316723
 30
0.0
 10
10.2644574658
 20
9.1495454794
 30
0.0
 10
10.2677766087
 20
9.1469022904
 30
0.0
 10
10.2708441725
 20
9.1440367557
 30
0.0
 10
10.2736656986
 20
9.1409860769
 30
0.0
 10
10.2753955864
 20
9.1388391568
 30
0.0
 10
10.2762209696
 20
9.1377443953
 30
0.0
  0
SPLINE
  5
3D3
100
AcDbEntity
  8
0
100
AcDbSpline
 62
7
  6
CONTINUOUS
 70
0
 71
3
 72
12
 73
8
 74
0
 42
0.0000001
 43
0.0000001
 44
0.0000000001
 40
0.0
 40
0.0
 40
0.0
 40
0.0
 40
0.1309394479
 40
0.2602636412
 40
0.513455854
 40
0.7598101556
 40
1.0
 40
1.0
 40
1.0
 40
1.0
 10
10.2215474402
 20
9.4897193513
 30
0.0
 10
10.2200960715
 20
9.4892935519
 30
0.0
 10
10.2172494156
 20
9.4883101751
 30
0.0
 10
10.2118345732
 20
9.4858750327
 30
0.0
 10
10.2056102818
 20
9.4820601194
 30
0.0
 10
10.1990819581
 20
9.4765013753
 30
0.0
 10
10.1953558349
 20
9.472265061
 30
0.0
 10
10.1936701247
 20
9.4700613253
 30
0.0
  0
SPLINE
  5
3D4
100
AcDbEntity
  8
0
100
AcDbSpline
 62
7
  6
CONTINUOUS
 70
0
 71
3
 72
11
 73
7
 74
0
 42
0.0000001
 43
0.0000001
 44
0.0000000001
 40
0.0
 40
0.0
 40
0.0
 40
0.0
 40
0.2349167468
 40
0.479469261
 40
0.7345555198
 40
1.0
 40
1.0
 40
1.0
 40
1.0
 10
10.1936701247
 20
8.5409874825
 30
0.0
 10
10.1953679734
 20
8.5389867883
 30
0.0
 10
10.1991265675
 20
8.5351426245
 30
0.0
 10
10.2056638839
 20
8.5301374333
 30
0.0
 10
10.2131765041
 20
8.525996614
 30
0.0
 10
10.2186809616
 20
8.5240262651
 30
0.0
 10
10.2215474402
 20
8.5232682443
 30
0.0
  0
SPLINE
  5
3D5
100
AcDbEntity
  8
0
100
AcDbSpline
 62
7
  6
CONTINUOUS
 70
0
 71
3
 72
12
 73
8
 74
0
 42
0.0000001
 43
0.0000001
 44
0.0000000001
 40
0.0
 40
0.0
 40
0.0
 40
0.0
 40
0.1324059091
 40
0.2628038191
 40
0.5168589768
 40
0.7623267959
 40
1.0
 40
1.0
 40
1.0
 40
1.0
 10
10.2215474402
 20
9.4942465001
 30
0.0
 10
10.2200978851
 20
9.4938412593
 30
0.0
 10
10.2172554787
 20
9.4929059606
 30
0.0
 10
10.2118496293
 20
9.4905901798
 30
0.0
 10
10.2056351355
 20
9.486965139
 30
0.0
 10
10.1991028806
 20
9.481670743
 30
0.0
 10
10.1953614176
 20
9.477621112
 30
0.0
 10
10.1936701247
 20
9.4755141987
 30
0.0
  0
SPLINE
  5
3D6
100
AcDbEntity
  8
0
100
AcDbSpline
 62
7
  6
CONTINUOUS
 70
0
 71
3
 72
12
 73
8
 74
0
 42
0.0000001
 43
0.0000001
 44
0.0000000001
 40
0.0
 40
0.0
 40
0.0
 40
0.0
 40
0.2376731935
 40
0.4831410175
 40
0.737196186
 40
0.8675941009
 40
1.0
 40
1.0
 40
1.0
 40
1.0
 10
10.1936701247
 20
8.5442694094
 30
0.0
 10
10.1953614176
 20
8.5421624962
 30
0.0
 10
10.1991028805
 20
8.5381128652
 30
0.0
 10
10.2056351354
 20
8.5328184692
 30
0.0
 10
10.2118496294
 20
8.5291934282
 30
0.0
 10
10.2172554788
 20
8.5268776474
 30
0.0
 10
10.2200978852
 20
8.5259423488
 30
0.0
 10
10.2215474402
 20
8.525537108
 30
0.0
  0
SPLINE
  5
3D7
100
AcDbEntity
  8
0
100
AcDbSpline
 62
7
  6
CONTINUOUS
 70
0
 71
3
 72
13
 73
9
 74
0
 42
0.0000001
 43
0.0000001
 44
0.0000000001
 40
0.0
 40
0.0
 40
0.0
 40
0.0
 40
0.2171271571
 40
0.3337826869
 40
0.4560333307
 40
0.5839452168
 40
0.7174512502
 40
1.0
 40
1.0
 40
1.0
 40
1.0
 10
10.1936701247
 20
9.1366962865
 30
0.0
 10
10.1954188365
 20
9.1353563392
 30
0.0
 10
10.1982561291
 20
9.1334845094
 30
0.0
 10
10.2023357762
 20
9.1312979333
 30
0.0
 10
10.205718468
 20
9.1297397352
 30
0.0
 10
10.2093461831
 20
9.1283213099
 30
0.0
 10
10.2145964141
 20
9.126612154
 30
0.0
 10
10.2187220606
 20
9.1256600003
 30
0.0
 10
10.2215474402
 20
9.1251741562
 30
0.0
  0
SPLINE
  5
3D8
100
AcDbEntity
  8
0
100
AcDbSpline
 62
7
  6
CONTINUOUS
 70
0
 71
3
 72
12
 73
8
 74
0
 42
0.0000001
 43
0.0000001
 44
0.0000000001
 40
0.0
 40
0.0
 40
0.0
 40
0.0
 40
0.2401898476
 40
0.4865441421
 40
0.7397363553
 40
0.8690605435
 40
1.0
 40
1.0
 40
1.0
 40
1.0
 10
10.1936701247
 20
8.5497222828
 30
0.0
 10
10.1953558349
 20
8.5475185471
 30
0.0
 10
10.1990819581
 20
8.5432822328
 30
0.0
 10
10.2056102817
 20
8.5377234887
 30
0.0
 10
10.211834573
 20
8.5339085754
 30
0.0
 10
10.2172494155
 20
8.5314734331
 30
0.0
 10
10.2200960714
 20
8.5304900562
 30
0.0
 10
10.2215474402
 20
8.5300642568
 30
0.0
  0
SPLINE
  5
3D9
100
AcDbEntity
  8
0
100
AcDbSpline
 62
7
  6
CONTINUOUS
 70
0
 71
3
 72
15
 73
11
 74
0
 42
0.0000001
 43
0.0000001
 44
0.0000000001
 40
0.0
 40
0.0
 40
0.0
 40
0.0
 40
0.1488317326
 40
0.2920056271
 40
0.4286312533
 40
0.5580460995
 40
0.6798191482
 40
0.7938756209
 40
0.9004944473
 40
1.0
 40
1.0
 40
1.0
 40
1.0
 10
10.2489104116
 20
9.2190104775
 30
0.0
 10
10.2503047402
 20
9.2191535744
 30
0.0
 10
10.2530360541
 20
9.2194790376
 30
0.0
 10
10.2570264312
 20
9.2200941691
 30
0.0
 10
10.2608125888
 20
9.2208181166
 30
0.0
 10
10.2643718857
 20
9.2216414114
 30
0.0
 10
10.2676893759
 20
9.2225542882
 30
0.0
 10
10.270759545
 20
9.2235453418
 30
0.0
 10
10.2735850742
 20
9.2246012453
 30
0.0
 10
10.2753699364
 20
9.2253668793
 30
0.0
 10
10.2762211902
 20
9.2257587314
 30
0.0
  0
SPLINE
  5
3DA
100
AcDbEntity
  8
0
100
AcDbSpline
 62
7
  6
CONTINUOUS
 70
0
 71
3
 72
15
 73
11
 74
0
 42
0.0000001
 43
0.0000001
 44
0.0000000001
 40
0.0
 40
0.0
 40
0.0
 40
0.0
 40
0.1274027221
 40
0.2541856914
 40
0.3802597951
 40
0.5055997068
 40
0.6301963882
 40
0.7540799018
 40
0.8773393422
 40
1.0
 40
1.0
 40
1.0
 40
1.0
 10
10.2489104116
 20
9.2190104775
 30
0.0
 10
10.2503244576
 20
9.2185642097
 30
0.0
 10
10.25310555
 20
9.2175407429
 30
0.0
 10
10.2571066015
 20
9.2156357164
 30
0.0
 10
10.2609015551
 20
9.2133942566
 30
0.0
 10
10.2644663936
 20
9.2108466284
 30
0.0
 10
10.2677846972
 20
9.2080251818
 30
0.0
 10
10.2708510952
 20
9.2049669612
 30
0.0
 10
10.273671498
 20
9.201711387
 30
0.0
 10
10.2753971943
 20
9.1994250032
 30
0.0
 10
10.2762208972
 20
9.1982589989
 30
0.0
  0
SPLINE
  5
3DB
100
AcDbEntity
  8
0
100
AcDbSpline
 62
7
  6
CONTINUOUS
 70
0
 71
3
 72
12
 73
8
 74
0
 42
0.0000001
 43
0.0000001
 44
0.0000000001
 40
0.0
 40
0.0
 40
0.0
 40
0.0
 40
0.2424098817
 40
0.4895590312
 40
0.7419962686
 40
0.8703676669
 40
1.0
 40
1.0
 40
1.0
 40
1.0
 10
10.1936701247
 20
8.557320679
 30
0.0
 10
10.195351122
 20
8.5550298636
 30
0.0
 10
10.1990639352
 20
8.5506260606
 30
0.0
 10
10.2055882802
 20
8.5448294858
 30
0.0
 10
10.2118208948
 20
8.5408429476
 30
0.0
 10
10.2172438385
 20
8.538299841
 30
0.0
 10
10.2200943885
 20
8.5372729635
 30
0.0
 10
10.2215474402
 20
8.5368285832
 30
0.0
  0
SPLINE
  5
3DC
100
AcDbEntity
  8
0
100
AcDbSpline
 62
7
  6
CONTINUOUS
 70
0
 71
3
 72
13
 73
9
 74
0
 42
0.0000001
 43
0.0000001
 44
0.0000000001
 40
0.0
 40
0.0
 40
0.0
 40
0.0
 40
0.2442806548
 40
0.4920735746
 40
0.6175405834
 40
0.7440279027
 40
0.8715403191
 40
1.0
 40
1.0
 40
1.0
 40
1.0
 10
10.1936701247
 20
8.5670291707
 30
0.0
 10
10.1953471874
 20
8.5646613505
 30
0.0
 10
10.1990476624
 20
8.5601103563
 30
0.0
 10
10.204464979
 20
8.5551208751
 30
0.0
 10
10.2092808036
 20
8.5516405342
 30
0.0
 10
10.2131477483
 20
8.5493133636
 30
0.0
 10
10.2172389675
 20
8.5473248564
 30
0.0
 10
10.2200928619
 20
8.546259428
 30
0.0
 10
10.2215474402
 20
8.5457985487
 30
0.0
  0
SPLINE
  5
3DD
100
AcDbEntity
  8
0
100
AcDbSpline
 62
7
  6
CONTINUOUS
 70
0
 71
3
 72
11
 73
7
 74
0
 42
0.0000001
 43
0.0000001
 44
0.0000000001
 40
0.0
 40
0.0
 40
0.0
 40
0.0
 40
0.2654444766
 40
0.520530735
 40
0.7650832564
 40
1.0
 40
1.0
 40
1.0
 40
1.0
 10
10.2215474402
 20
9.4965153638
 30
0.0
 10
10.2186809616
 20
9.495757343
 30
0.0
 10
10.2131765042
 20
9.4937869941
 30
0.0
 10
10.205663884
 20
9.4896461748
 30
0.0
 10
10.1991265675
 20
9.4846409836
 30
0.0
 10
10.1953679734
 20
9.4807968198
 30
0.0
 10
10.1936701247
 20
9.4787961256
 30
0.0
  0
SPLINE
  5
3DE
100
AcDbEntity
  8
0
100
AcDbSpline
 62
7
  6
CONTINUOUS
 70
0
 71
3
 72
13
 73
9
 74
0
 42
0.0000001
 43
0.0000001
 44
0.0000000001
 40
0.0
 40
0.0
 40
0.0
 40
0.0
 40
0.2459140944
 40
0.4943064747
 40
0.6196481272
 40
0.7457163201
 40
0.8725199306
 40
1.0
 40
1.0
 40
1.0
 40
1.0
 10
10.1936701247
 20
8.5788024923
 30
0.0
 10
10.1953439523
 20
8.5763680505
 30
0.0
 10
10.1990348597
 20
8.5716894635
 30
0.0
 10
10.204455612
 20
8.5665429126
 30
0.0
 10
10.2092764472
 20
8.562953263
 30
0.0
 10
10.2131432477
 20
8.5605555418
 30
0.0
 10
10.2172345651
 20
8.5585065502
 30
0.0
 10
10.2200915138
 20
8.5574075337
 30
0.0
 10
10.2215474402
 20
8.5569323312
 30
0.0
  0
SPLINE
  5
3DF
100
AcDbEntity
  8
0
100
AcDbSpline
 62
7
  6
CONTINUOUS
 70
0
 71
3
 72
15
 73
11
 74
0
 42
0.0000001
 43
0.0000001
 44
0.0000000001
 40
0.0
 40
0.0
 40
0.0
 40
0.0
 40
0.1470976441
 40
0.2889107539
 40
0.4246207823
 40
0.5536317843
 40
0.6755715604
 40
0.7904068942
 40
0.8984381345
 40
1.0
 40
1.0
 40
1.0
 40
1.0
 10
10.2489104116
 20
9.1885158437
 30
0.0
 10
10.2503059126
 20
9.1886895209
 30
0.0
 10
10.2530404077
 20
9.189084767
 30
0.0
 10
10.2570317854
 20
9.1898311241
 30
0.0
 10
10.2608190282
 20
9.1907095692
 30
0.0
 10
10.2643793984
 20
9.1917086146
 30
0.0
 10
10.2676977844
 20
9.192816378
 30
0.0
 10
10.2707685668
 20
9.1940189995
 30
0.0
 10
10.2735946188
 20
9.1953002808
 30
0.0
 10
10.2753731103
 20
9.1962259132
 30
0.0
 10
10.2762209022
 20
9.196699173
 30
0.0
  0
SPLINE
  5
3E0
100
AcDbEntity
  8
0
100
AcDbSpline
 62
7
  6
CONTINUOUS
 70
0
 71
3
 72
8
 73
4
 74
0
 42
0.0000001
 43
0.0000001
 44
0.0000000001
 40
0.0
 40
0.0
 40
0.0
 40
0.0
 40
1.0
 40
1.0
 40
1.0
 40
1.0
 10
10.2762779875
 20
8.5401466061
 30
0.0
 10
10.2762588223
 20
8.540124649
 30
0.0
 10
10.276239657
 20
8.5401026918
 30
0.0
 10
10.2762204917
 20
8.5400807346
 30
0.0
  0
LINE
  5
3E1
100
AcDbEntity
  8
0
100
AcDbLine
 62
7
  6
CONTINUOUS
 10
10.2763326288
 20
8.543446699
 11
10.2762203737
 21
8.5433108599
  0
LINE
  5
3E2
100
AcDbEntity
  8
0
100
AcDbLine
 62
7
  6
CONTINUOUS
 10
10.2763871174
 20
8.5489280064
 11
10.2762187344
 21
8.548714394
  0
SPLINE
  5
3E3
100
AcDbEntity
  8
0
100
AcDbSpline
 62
7
  6
CONTINUOUS
 70
0
 71
3
 72
15
 73
11
 74
0
 42
0.0000001
 43
0.0000001
 44
0.0000000001
 40
0.0
 40
0.0
 40
0.0
 40
0.0
 40
0.1283637266
 40
0.2558601957
 40
0.3823707328
 40
0.5078523941
 40
0.6322919513
 40
0.7557312238
 40
0.8782832714
 40
1.0
 40
1.0
 40
1.0
 40
1.0
 10
10.2489104116
 20
9.1885158437
 30
0.0
 10
10.2503233286
 20
9.1880829718
 30
0.0
 10
10.25310174
 20
9.1870906352
 30
0.0
 10
10.2571026017
 20
9.1852418315
 30
0.0
 10
10.260897564
 20
9.1830663764
 30
0.0
 10
10.2644626428
 20
9.1805935749
 30
0.0
 10
10.2677814117
 20
9.1778547422
 30
0.0
 10
10.2708483996
 20
9.174885813
 30
0.0
 10
10.2736693696
 20
9.1717252057
 30
0.0
 10
10.2753970062
 20
9.1695034559
 30
0.0
 10
10.2762214895
 20
9.168370478
 30
0.0
  0
SPLINE
  5
3E4
100
AcDbEntity
  8
0
100
AcDbSpline
 62
7
  6
CONTINUOUS
 70
0
 71
3
 72
13
 73
9
 74
0
 42
0.0000001
 43
0.0000001
 44
0.0000000001
 40
0.0
 40
0.0
 40
0.0
 40
0.0
 40
0.2946879257
 40
0.4321266873
 40
0.5619108818
 40
0.7969090043
 40
0.9023023169
 40
1.0
 40
1.0
 40
1.0
 40
1.0
 10
10.2489104116
 20
9.2485301034
 30
0.0
 10
10.2516414096
 20
9.2487494631
 30
0.0
 10
10.2556394769
 20
9.2491709528
 30
0.0
 10
10.2608069019
 20
9.249943911
 30
0.0
 10
10.2654019959
 20
9.250775573
 30
0.0
 10
10.2696656042
 20
9.2517597541
 30
0.0
 10
10.273575781
 20
9.2529028353
 30
0.0
 10
10.2753664912
 20
9.2535037214
 30
0.0
 10
10.2762210451
 20
9.253811595
 30
0.0
  0
SPLINE
  5
3E5
100
AcDbEntity
  8
0
100
AcDbSpline
 62
7
  6
CONTINUOUS
 70
0
 71
3
 72
15
 73
11
 74
0
 42
0.0000001
 43
0.0000001
 44
0.0000000001
 40
0.0
 40
0.0
 40
0.0
 40
0.0
 40
0.1266027986
 40
0.2527935415
 40
0.378507063
 40
0.5037317673
 40
0.6284610315
 40
0.7527141465
 40
0.8765595738
 40
1.0
 40
1.0
 40
1.0
 40
1.0
 10
10.2489104116
 20
9.2485301034
 30
0.0
 10
10.2503254387
 20
9.248072549
 30
0.0
 10
10.2531088355
 20
9.2470228351
 30
0.0
 10
10.257110064
 20
9.2450705067
 30
0.0
 10
10.2609050171
 20
9.2427735276
 30
0.0
 10
10.2644696549
 20
9.2401629727
 30
0.0
 10
10.2677875703
 20
9.2372720617
 30
0.0
 10
10.2708534784
 20
9.2341387642
 30
0.0
 10
10.2736734207
 20
9.2308033449
 30
0.0
 10
10.2753975595
 20
9.2284626422
 30
0.0
 10
10.2762206434
 20
9.2272688742
 30
0.0
  0
LINE
  5
3E6
100
AcDbEntity
  8
0
100
AcDbLine
 62
7
  6
CONTINUOUS
 10
10.2762189962
 20
8.6891329688
 11
10.2770226879
 21
8.6890918267
  0
SPLINE
  5
3E7
100
AcDbEntity
  8
0
100
AcDbSpline
 62
7
  6
CONTINUOUS
 70
0
 71
3
 72
13
 73
9
 74
0
 42
0.0000001
 43
0.0000001
 44
0.0000000001
 40
0.0
 40
0.0
 40
0.0
 40
0.0
 40
0.2472632526
 40
0.4961556647
 40
0.6213958271
 40
0.7471182909
 40
0.8733343645
 40
1.0
 40
1.0
 40
1.0
 40
1.0
 10
10.1936701247
 20
8.5925857514
 30
0.0
 10
10.1953413514
 20
8.5900953465
 30
0.0
 10
10.1990244491
 20
8.5853097384
 30
0.0
 10
10.2044478671
 20
8.5800311344
 30
0.0
 10
10.2092728117
 20
8.5763494836
 30
0.0
 10
10.2131394594
 20
8.5738924618
 30
0.0
 10
10.2172308287
 20
8.5717926161
 30
0.0
 10
10.2200903623
 20
8.5706652879
 30
0.0
 10
10.2215474402
 20
8.5701780198
 30
0.0
  0
LINE
  5
3E8
100
AcDbEntity
  8
0
100
AcDbLine
 62
7
  6
CONTINUOUS
 10
10.2770228322
 20
9.3306917814
 11
10.2762208695
 21
9.3306507292
  0
SPLINE
  5
3E9
100
AcDbEntity
  8
0
100
AcDbSpline
 62
7
  6
CONTINUOUS
 70
0
 71
3
 72
11
 73
7
 74
0
 42
0.0000001
 43
0.0000001
 44
0.0000000001
 40
0.0
 40
0.0
 40
0.0
 40
0.0
 40
0.2991524143
 40
0.5683246626
 40
0.8020436484
 40
1.0
 40
1.0
 40
1.0
 40
1.0
 10
10.2489104116
 20
9.329889149
 30
0.0
 10
10.2516347787
 20
9.3299207036
 30
0.0
 10
10.2568102948
 20
9.3299993403
 30
0.0
 10
10.2641130557
 20
9.3301703348
 30
0.0
 10
10.2704926603
 20
9.330382191
 30
0.0
 10
10.2744203973
 20
9.3305571926
 30
0.0
 10
10.2762208695
 20
9.3306507292
 30
0.0
  0
SPLINE
  5
3EA
100
AcDbEntity
  8
0
100
AcDbSpline
 62
7
  6
CONTINUOUS
 70
0
 71
3
 72
15
 73
11
 74
0
 42
0.0000001
 43
0.0000001
 44
0.0000000001
 40
0.0
 40
0.0
 40
0.0
 40
0.0
 40
0.125167049
 40
0.2502987139
 40
0.3753712365
 40
0.5003954816
 40
0.6253667307
 40
0.7502827558
 40
0.8751734545
 40
1.0
 40
1.0
 40
1.0
 40
1.0
 10
10.2489104116
 20
9.329889149
 30
0.0
 10
10.2503272632
 20
9.329411003
 30
0.0
 10
10.2531148987
 20
9.3283133634
 30
0.0
 10
10.2571163969
 20
9.3262749145
 30
0.0
 10
10.2609112856
 20
9.3238768879
 30
0.0
 10
10.2644754972
 20
9.3211518357
 30
0.0
 10
10.2677926631
 20
9.3181345556
 30
0.0
 10
10.2708576628
 20
9.3148646855
 30
0.0
 10
10.2736767682
 20
9.3113840113
 30
0.0
 10
10.2753982048
 20
9.3089445265
 30
0.0
 10
10.2762202249
 20
9.3077002494
 30
0.0
  0
SPLINE
  5
3EB
100
AcDbEntity
  8
0
100
AcDbSpline
 62
7
  6
CONTINUOUS
 70
0
 71
3
 72
13
 73
9
 74
0
 42
0.0000001
 43
0.0000001
 44
0.0000000001
 40
0.0
 40
0.0
 40
0.0
 40
0.0
 40
0.2968500989
 40
0.4349347262
 40
0.5650125136
 40
0.7993854407
 40
0.9037818197
 40
1.0
 40
1.0
 40
1.0
 40
1.0
 10
10.2489104116
 20
9.2769370874
 30
0.0
 10
10.2516379986
 20
9.277094311
 30
0.0
 10
10.2556309679
 20
9.27739617
 30
0.0
 10
10.2608018351
 20
9.2779510823
 30
0.0
 10
10.2653887306
 20
9.2785467292
 30
0.0
 10
10.2696483007
 20
9.2792514102
 30
0.0
 10
10.2735669973
 20
9.2800731491
 30
0.0
 10
10.2753624677
 20
9.2805053307
 30
0.0
 10
10.2762198371
 20
9.2807270004
 30
0.0
  0
SPLINE
  5
3EC
100
AcDbEntity
  8
0
100
AcDbSpline
 62
7
  6
CONTINUOUS
 70
0
 71
3
 72
15
 73
11
 74
0
 42
0.0000001
 43
0.0000001
 44
0.0000000001
 40
0.0
 40
0.0
 40
0.0
 40
0.0
 40
0.1259639142
 40
0.2516827635
 40
0.3771100589
 40
0.5022445584
 40
0.6270808608
 40
0.7516290268
 40
0.8759406215
 40
1.0
 40
1.0
 40
1.0
 40
1.0
 10
10.2489104116
 20
9.2769370874
 30
0.0
 10
10.2503262837
 20
9.276470411
 30
0.0
 10
10.2531116343
 20
9.2753994683
 30
0.0
 10
10.2571131048
 20
9.2734089414
 30
0.0
 10
10.260908139
 20
9.2710671308
 30
0.0
 10
10.2644726816
 20
9.2684057698
 30
0.0
 10
10.2677903397
 20
9.2654587799
 30
0.0
 10
10.2708558933
 20
9.2622648692
 30
0.0
 10
10.2736755148
 20
9.2588650046
 30
0.0
 10
10.2753984824
 20
9.2564804832
 30
0.0
 10
10.2762211118
 20
9.2552643157
 30
0.0
  0
SPLINE
  5
3ED
100
AcDbEntity
  8
0
100
AcDbSpline
 62
9
  6
CONTINUOUS
 70
0
 71
3
 72
62
 73
58
 74
0
 42
0.0000001
 43
0.0000001
 44
0.0000000001
 40
0.0
 40
0.0
 40
0.0
 40
0.0
 40
0.000002729
 40
0.000010852
 40
0.0000243665
 40
0.0000432702
 40
0.0000675607
 40
0.0000972356
 40
0.0001727288
 40
0.0002697306
 40
0.0003882218
 40
0.0005281831
 40
0.0006895953
 40
0.0010766955
 40
0.0015493192
 40
0.0021070445
 40
0.0027493888
 40
0.0034758701
 40
0.004286006
 40
0.0051792856
 40
0.0061550189
 40
0.0083508174
 40
0.0108673371
 40
0.0136979453
 40
0.0168351165
 40
0.0202712103
 40
0.0239980315
 40
0.0280070262
 40
0.0322896096
 40
0.0416402677
 40
0.0519795564
 40
0.0632382538
 40
0.0753498288
 40
0.0882511134
 40
0.1018832894
 40
0.1161917469
 40
0.1311260073
 40
0.1466399374
 40
0.1792386231
 40
0.213686185
 40
0.2497202767
 40
0.287105849
 40
0.3256247082
 40
0.365068143
 40
0.4052329478
 40
0.4459199209
 40
0.4869343166
 40
0.5280864775
 40
0.6100579022
 40
0.6505194266
 40
0.6903794919
 40
0.7294394929
 40
0.7674848332
 40
0.8395545057
 40
0.904325577
 40
0.9589431904
 40
1.0
 40
1.0
 40
1.0
 40
1.0
 10
9.3068430596
 20
8.6488439913
 30
0.0
 10
9.3068425557
 20
8.6488439495
 30
0.0
 10
9.3068406414
 20
8.6488448512
 30
0.0
 10
9.3068362392
 20
8.6488455967
 30
0.0
 10
9.3068289857
 20
8.6488476985
 30
0.0
 10
9.3068188068
 20
8.6488502371
 30
0.0
 10
9.3068057408
 20
8.6488536612
 30
0.0
 10
9.3067825208
 20
8.6488596605
 30
0.0
 10
9.3067462622
 20
8.6488690678
 30
0.0
 10
9.3066940718
 20
8.6488825818
 30
0.0
 10
9.3066303176
 20
8.6488990916
 30
0.0
 10
9.3065550084
 20
8.6489185818
 30
0.0
 10
9.3064315162
 20
8.6489505276
 30
0.0
 10
9.3062483448
 20
8.6489978727
 30
0.0
 10
9.3059940655
 20
8.6490635263
 30
0.0
 10
9.3056939643
 20
8.6491408742
 30
0.0
 10
9.3053482718
 20
8.649229781
 30
0.0
 10
9.3049572288
 20
8.649330107
 30
0.0
 10
9.3045210816
 20
8.6494417109
 30
0.0
 10
9.3040401139
 20
8.6495644436
 30
0.0
 10
9.303310247
 20
8.6497500981
 30
0.0
 10
9.3022885707
 20
8.650008535
 30
0.0
 10
9.3009330664
 20
8.6503486327
 30
0.0
 10
9.2994075642
 20
8.6507278612
 30
0.0
 10
9.2977156721
 20
8.6511439563
 30
0.0
 10
9.2958613033
 20
8.6515946564
 30
0.0
 10
9.2938485152
 20
8.6520774559
 30
0.0
 10
9.2916815249
 20
8.6525897256
 30
0.0
 10
9.2884979022
 20
8.6533305277
 30
0.0
 10
9.284166086
 20
8.6543118045
 30
0.0
 10
9.2785630269
 20
8.6555306498
 30
0.0
 10
9.272447663
 20
8.6567997112
 30
0.0
 10
9.2658534595
 20
8.6580957444
 30
0.0
 10
9.2588123086
 20
8.659395669
 30
0.0
 10
9.2513543429
 20
8.6606768352
 30
0.0
 10
9.2435078729
 20
8.6619172111
 30
0.0
 10
9.2352993775
 20
8.6630953717
 30
0.0
 10
9.2237127909
 20
8.6645806461
 30
0.0
 10
9.2084949232
 20
8.6661581048
 30
0.0
 10
9.1894376011
 20
8.6674680191
 30
0.0
 10
9.169457529
 20
8.6680980041
 30
0.0
 10
9.1487132396
 20
8.6679445594
 30
0.0
 10
9.1273603359
 20
8.6669323723
 30
0.0
 10
9.1055523186
 20
8.6650180532
 30
0.0
 10
9.0834388286
 20
8.6621915784
 30
0.0
 10
9.0611627318
 20
8.6584751808
 30
0.0
 10
9.038856707
 20
8.6539193917
 30
0.0
 10
9.0092783877
 20
8.646833378
 30
0.0
 10
8.9801434103
 20
8.6384130355
 30
0.0
 10
8.9515907999
 20
8.6289802373
 30
0.0
 10
8.9307468275
 20
8.6215750284
 30
0.0
 10
8.9104718583
 20
8.6139199494
 30
0.0
 10
8.8847859973
 20
8.6037130565
 30
0.0
 10
8.8549413866
 20
8.5910852453
 30
0.0
 10
8.8225859759
 20
8.5765400281
 30
0.0
 10
8.7956708943
 20
8.5639185488
 30
0.0
 10
8.7797048944
 20
8.5562172435
 30
0.0
 10
8.7728672481
 20
8.552884051
 30
0.0
  0
SPLINE
  5
3EE
100
AcDbEntity
  8
0
100
AcDbSpline
 62
7
  6
CONTINUOUS
 70
0
 71
3
 72
12
 73
8
 74
0
 42
0.0000001
 43
0.0000001
 44
0.0000000001
 40
0.0
 40
0.0
 40
0.0
 40
0.0
 40
0.1296323245
 40
0.258003728
 40
0.5104409648
 40
0.7575901215
 40
1.0
 40
1.0
 40
1.0
 40
1.0
 10
10.2215474402
 20
9.1571883823
 30
0.0
 10
10.2200943886
 20
9.156744002
 30
0.0
 10
10.2172438386
 20
9.1557171246
 30
0.0
 10
10.211820895
 20
9.153174018
 30
0.0
 10
10.2055882802
 20
9.1491874797
 30
0.0
 10
10.1990639352
 20
9.1433909049
 30
0.0
 10
10.195351122
 20
9.1389871018
 30
0.0
 10
10.1936701247
 20
9.1366962865
 30
0.0
  0
SPLINE
  5
3EF
100
AcDbEntity
  8
0
100
AcDbSpline
 62
7
  6
CONTINUOUS
 70
0
 71
3
 72
13
 73
9
 74
0
 42
0.0000001
 43
0.0000001
 44
0.0000000001
 40
0.0
 40
0.0
 40
0.0
 40
0.0
 40
0.24833399
 40
0.497626432
 40
0.6227873771
 40
0.7482357908
 40
0.8739842414
 40
1.0
 40
1.0
 40
1.0
 40
1.0
 10
10.1936701247
 20
8.6083146839
 30
0.0
 10
10.1953393315
 20
8.6057792128
 30
0.0
 10
10.1990162914
 20
8.6009075227
 30
0.0
 10
10.2044417158
 20
8.5955225201
 30
0.0
 10
10.2092699023
 20
8.5917666725
 30
0.0
 10
10.2131364068
 20
8.5892618771
 30
0.0
 10
10.2172277972
 20
8.5871210527
 30
0.0
 10
10.2200894233
 20
8.5859708632
 30
0.0
 10
10.2215474402
 20
8.5854738571
 30
0.0
  0
SPLINE
  5
3F0
100
AcDbEntity
  8
0
100
AcDbSpline
 62
7
  6
CONTINUOUS
 70
0
 71
3
 72
13
 73
9
 74
0
 42
0.0000001
 43
0.0000001
 44
0.0000000001
 40
0.0
 40
0.0
 40
0.0
 40
0.0
 40
0.2132268705
 40
0.3289671726
 40
0.4509733608
 40
0.5792851318
 40
0.7137992312
 40
1.0
 40
1.0
 40
1.0
 40
1.0
 10
10.1936701247
 20
9.1672852218
 30
0.0
 10
10.1954328122
 20
9.1661016422
 30
0.0
 10
10.198279403
 20
9.1644593668
 30
0.0
 10
10.2023453396
 20
9.1625504768
 30
0.0
 10
10.205727448
 20
9.1611858781
 30
0.0
 10
10.2093543893
 20
9.1599436651
 30
0.0
 10
10.2146133807
 20
9.1584440881
 30
0.0
 10
10.2187294345
 20
9.1576130162
 30
0.0
 10
10.2215474402
 20
9.1571883823
 30
0.0
  0
SPLINE
  5
3F1
100
AcDbEntity
  8
0
100
AcDbSpline
 62
7
  6
CONTINUOUS
 70
0
 71
3
 72
13
 73
9
 74
0
 42
0.0000001
 43
0.0000001
 44
0.0000000001
 40
0.0
 40
0.0
 40
0.0
 40
0.0
 40
0.2491317301
 40
0.4987240514
 40
0.623826747
 40
0.7490711888
 40
0.8744704792
 40
1.0
 40
1.0
 40
1.0
 40
1.0
 10
10.1936701247
 20
8.6259159543
 30
0.0
 10
10.1953378513
 20
8.623346509
 30
0.0
 10
10.1990102733
 20
8.6184099809
 30
0.0
 10
10.2044371304
 20
8.6129447401
 30
0.0
 10
10.2092677208
 20
8.6091328977
 30
0.0
 10
10.2131341058
 20
8.6065920775
 30
0.0
 10
10.2172254998
 20
8.6044203464
 30
0.0
 10
10.2200887089
 20
8.6032528866
 30
0.0
 10
10.2215474402
 20
8.6027485267
 30
0.0
  0
SPLINE
  5
3F2
100
AcDbEntity
  8
0
100
AcDbSpline
 62
7
  6
CONTINUOUS
 70
0
 71
3
 72
13
 73
9
 74
0
 42
0.0000001
 43
0.0000001
 44
0.0000000001
 40
0.0
 40
0.0
 40
0.0
 40
0.0
 40
0.1284596701
 40
0.255972093
 40
0.3824594161
 40
0.5079264206
 40
0.7557193495
 40
1.0
 40
1.0
 40
1.0
 40
1.0
 10
10.2215474402
 20
9.1885158437
 30
0.0
 10
10.220092862
 20
9.1880549645
 30
0.0
 10
10.2172389677
 20
9.1869895362
 30
0.0
 10
10.2131477484
 20
9.1850010289
 30
0.0
 10
10.2092808037
 20
9.1826738583
 30
0.0
 10
10.2044649791
 20
9.1791935173
 30
0.0
 10
10.1990476624
 20
9.1742040362
 30
0.0
 10
10.1953471873
 20
9.1696530419
 30
0.0
 10
10.1936701247
 20
9.1672852218
 30
0.0
  0
SPLINE
  5
3F3
100
AcDbEntity
  8
0
100
AcDbSpline
 62
7
  6
CONTINUOUS
 70
0
 71
3
 72
14
 73
10
 74
0
 42
0.0000001
 43
0.0000001
 44
0.0000000001
 40
0.0
 40
0.0
 40
0.0
 40
0.0
 40
0.1014310328
 40
0.2094989487
 40
0.3243572697
 40
0.446133365
 40
0.5748343697
 40
0.7103170767
 40
1.0
 40
1.0
 40
1.0
 40
1.0
 10
10.1936701247
 20
9.1971403163
 30
0.0
 10
10.194531057
 20
9.1966465309
 30
0.0
 10
10.196341398
 20
9.1956819214
 30
0.0
 10
10.1992227925
 20
9.1943478906
 30
0.0
 10
10.2023549042
 20
9.1930924801
 30
0.0
 10
10.2057359986
 20
9.1919277061
 30
0.0
 10
10.2093621304
 20
9.1908672728
 30
0.0
 10
10.2146290693
 20
9.1895849585
 30
0.0
 10
10.218736132
 20
9.1888776935
 30
0.0
 10
10.2215474402
 20
9.1885158437
 30
0.0
  0
SPLINE
  5
3F4
100
AcDbEntity
  8
0
100
AcDbSpline
 62
7
  6
CONTINUOUS
 70
0
 71
3
 72
13
 73
9
 74
0
 42
0.0000001
 43
0.0000001
 44
0.0000000001
 40
0.0
 40
0.0
 40
0.0
 40
0.0
 40
0.2496609579
 40
0.499453051
 40
0.6245174774
 40
0.7496266832
 40
0.8747939713
 40
1.0
 40
1.0
 40
1.0
 40
1.0
 10
10.1936701247
 20
8.6453074974
 30
0.0
 10
10.1953368811
 20
8.6427153184
 30
0.0
 10
10.1990063095
 20
8.6377354316
 30
0.0
 10
10.204434088
 20
8.6322164898
 30
0.0
 10
10.2092662673
 20
8.628367153
 30
0.0
 10
10.2131325661
 20
8.6258022235
 30
0.0
 10
10.2172239566
 20
8.623609806
 30
0.0
 10
10.2200882273
 20
8.6224307728
 30
0.0
 10
10.2215474402
 20
8.6219214863
 30
0.0
  0
SPLINE
  5
3F5
100
AcDbEntity
  8
0
100
AcDbSpline
 62
7
  6
CONTINUOUS
 70
0
 71
3
 72
13
 73
9
 74
0
 42
0.0000001
 43
0.0000001
 44
0.0000000001
 40
0.0
 40
0.0
 40
0.0
 40
0.0
 40
0.1274800792
 40
0.2542836849
 40
0.3803518675
 40
0.5056935196
 40
0.7540858947
 40
1.0
 40
1.0
 40
1.0
 40
1.0
 10
10.2215474402
 20
9.2190104775
 30
0.0
 10
10.2200915137
 20
9.2185352749
 30
0.0
 10
10.217234565
 20
9.2174362583
 30
0.0
 10
10.2131432476
 20
9.2153872668
 30
0.0
 10
10.2092764473
 20
9.2129895456
 30
0.0
 10
10.2044556122
 20
9.2093998962
 30
0.0
 10
10.1990348598
 20
9.2042533452
 30
0.0
 10
10.1953439524
 20
9.1995747582
 30
0.0
 10
10.1936701247
 20
9.1971403163
 30
0.0
  0
SPLINE
  5
3F6
100
AcDbEntity
  8
0
100
AcDbSpline
 62
7
  6
CONTINUOUS
 70
0
 71
3
 72
15
 73
11
 74
0
 42
0.0000001
 43
0.0000001
 44
0.0000000001
 40
0.0
 40
0.0
 40
0.0
 40
0.0
 40
0.1250079641
 40
0.2500225889
 40
0.3750245794
 40
0.5000271042
 40
0.6250254766
 40
0.7500149135
 40
0.8750209153
 40
1.0
 40
1.0
 40
1.0
 40
1.0
 10
10.2489104116
 20
9.3768802655
 30
0.0
 10
10.2503274186
 20
9.376399827
 30
0.0
 10
10.2531154316
 20
9.3752968536
 30
0.0
 10
10.2571168194
 20
9.3732488538
 30
0.0
 10
10.260911577
 20
9.3708396319
 30
0.0
 10
10.2644756358
 20
9.3681018999
 30
0.0
 10
10.2677926336
 20
9.3650706285
 30
0.0
 10
10.2708574767
 20
9.3617856439
 30
0.0
 10
10.2736764289
 20
9.3582888695
 30
0.0
 10
10.2753975184
 20
9.3558384225
 30
0.0
 10
10.2762193928
 20
9.3545885351
 30
0.0
  0
SPLINE
  5
3F7
100
AcDbEntity
  8
0
100
AcDbSpline
 62
7
  6
CONTINUOUS
 70
0
 71
3
 72
13
 73
9
 74
0
 42
0.0000001
 43
0.0000001
 44
0.0000000001
 40
0.0
 40
0.0
 40
0.0
 40
0.0
 40
0.2499247588
 40
0.4998166956
 40
0.6248621543
 40
0.7499039838
 40
0.8749555217
 40
1.0
 40
1.0
 40
1.0
 40
1.0
 10
10.1936701247
 20
8.6663989008
 30
0.0
 10
10.1953364008
 20
8.6637953298
 30
0.0
 10
10.1990043419
 20
8.6587937232
 30
0.0
 10
10.2044325711
 20
8.6532478684
 30
0.0
 10
10.2092655407
 20
8.6493797348
 30
0.0
 10
10.2131317949
 20
8.6468027228
 30
0.0
 10
10.2172231818
 20
8.6445999373
 30
0.0
 10
10.2200879852
 20
8.6434150996
 30
0.0
 10
10.2215474402
 20
8.6429033426
 30
0.0
  0
SPLINE
  5
3F8
100
AcDbEntity
  8
0
100
AcDbSpline
 62
7
  6
CONTINUOUS
 70
0
 71
3
 72
14
 73
10
 74
0
 42
0.0000001
 43
0.0000001
 44
0.0000000001
 40
0.0
 40
0.0
 40
0.0
 40
0.0
 40
0.099315658
 40
0.2059442397
 40
0.3200065974
 40
0.4415953936
 40
0.5706813845
 40
0.7070800887
 40
1.0
 40
1.0
 40
1.0
 40
1.0
 10
10.1936701247
 20
9.2261223718
 30
0.0
 10
10.1945348295
 20
9.2257134033
 30
0.0
 10
10.1963519191
 20
9.2249154699
 30
0.0
 10
10.199232469
 20
9.2238162678
 30
0.0
 10
10.2023636911
 20
9.2227817746
 30
0.0
 10
10.2057439132
 20
9.2218219003
 30
0.0
 10
10.2093691136
 20
9.2209479737
 30
0.0
 10
10.2146430405
 20
9.219889537
 30
0.0
 10
10.2187419941
 20
9.2193082431
 30
0.0
 10
10.2215474402
 20
9.2190104775
 30
0.0
  0
SPLINE
  5
3F9
100
AcDbEntity
  8
0
100
AcDbSpline
 62
7
  6
CONTINUOUS
 70
0
 71
3
 72
13
 73
9
 74
0
 42
0.0000001
 43
0.0000001
 44
0.0000000001
 40
0.0
 40
0.0
 40
0.0
 40
0.0
 40
0.2499247588
 40
0.4998166956
 40
0.6248621543
 40
0.7499039838
 40
0.8749555217
 40
1.0
 40
1.0
 40
1.0
 40
1.0
 10
10.1936701247
 20
8.6890918267
 30
0.0
 10
10.1953364008
 20
8.6864882557
 30
0.0
 10
10.1990043419
 20
8.6814866491
 30
0.0
 10
10.2044325711
 20
8.6759407943
 30
0.0
 10
10.2092655407
 20
8.6720726607
 30
0.0
 10
10.2131317949
 20
8.6694956487
 30
0.0
 10
10.2172231818
 20
8.6672928632
 30
0.0
 10
10.2200879852
 20
8.6661080255
 30
0.0
 10
10.2215474402
 20
8.6655962685
 30
0.0
  0
SPLINE
  5
3FA
100
AcDbEntity
  8
0
100
AcDbSpline
 62
7
  6
CONTINUOUS
 70
0
 71
3
 72
13
 73
9
 74
0
 42
0.0000001
 43
0.0000001
 44
0.0000000001
 40
0.0
 40
0.0
 40
0.0
 40
0.0
 40
0.1266656271
 40
0.2528817057
 40
0.3786041723
 40
0.5038443314
 40
0.7527367507
 40
1.0
 40
1.0
 40
1.0
 40
1.0
 10
10.2215474402
 20
9.2485301034
 30
0.0
 10
10.2200903624
 20
9.2480428353
 30
0.0
 10
10.2172308288
 20
9.2469155072
 30
0.0
 10
10.2131394595
 20
9.2448156614
 30
0.0
 10
10.2092728118
 20
9.2423586397
 30
0.0
 10
10.2044478672
 20
9.2386769887
 30
0.0
 10
10.1990244491
 20
9.2333983848
 30
0.0
 10
10.1953413514
 20
9.2286127766
 30
0.0
 10
10.1936701247
 20
9.2261223718
 30
0.0
  0
SPLINE
  5
3FB
100
AcDbEntity
  8
0
100
AcDbSpline
 62
7
  6
CONTINUOUS
 70
0
 71
3
 72
11
 73
7
 74
0
 42
0.0000001
 43
0.0000001
 44
0.0000000001
 40
0.0
 40
0.0
 40
0.0
 40
0.0
 40
0.3004357132
 40
0.5690329047
 40
0.8024819813
 40
1.0
 40
1.0
 40
1.0
 40
1.0
 10
10.2215474402
 20
8.6898944591
 30
0.0
 10
10.2187545349
 20
8.6898610042
 30
0.0
 10
10.2134649227
 20
8.6897765371
 30
0.0
 10
10.2060065199
 20
8.6895932102
 30
0.0
 10
10.1995064592
 20
8.6893714336
 30
0.0
 10
10.1955038098
 20
8.6891897032
 30
0.0
 10
10.1936701247
 20
8.6890918267
 30
0.0
  0
SPLINE
  5
3FC
100
AcDbEntity
  8
0
100
AcDbSpline
 62
7
  6
CONTINUOUS
 70
0
 71
3
 72
14
 73
10
 74
0
 42
0.0000001
 43
0.0000001
 44
0.0000000001
 40
0.0
 40
0.0
 40
0.0
 40
0.0
 40
0.0974407964
 40
0.2028068083
 40
0.3161804014
 40
0.4376167924
 40
0.567049971
 40
0.7042559899
 40
1.0
 40
1.0
 40
1.0
 40
1.0
 10
10.1936701247
 20
9.2540962606
 30
0.0
 10
10.1945384444
 20
9.2537748414
 30
0.0
 10
10.1963617018
 20
9.2531485613
 30
0.0
 10
10.1992412334
 20
9.2522889561
 30
0.0
 10
10.2023714731
 20
9.2514798719
 30
0.0
 10
10.2057507944
 20
9.2507290762
 30
0.0
 10
10.2093750944
 20
9.2500454664
 30
0.0
 10
10.2146548431
 20
9.2492164184
 30
0.0
 10
10.218746876
 20
9.2487627455
 30
0.0
 10
10.2215474402
 20
9.2485301034
 30
0.0
  0
SPLINE
  5
3FD
100
AcDbEntity
  8
0
100
AcDbSpline
 62
7
  6
CONTINUOUS
 70
0
 71
3
 72
13
 73
9
 74
0
 42
0.0000001
 43
0.0000001
 44
0.0000000001
 40
0.0
 40
0.0
 40
0.0
 40
0.0
 40
0.2496609436
 40
0.4994530492
 40
0.6245174728
 40
0.7496266914
 40
0.8747939894
 40
1.0
 40
1.0
 40
1.0
 40
1.0
 10
10.1936701247
 20
8.7132804702
 30
0.0
 10
10.195336881
 20
8.7106882914
 30
0.0
 10
10.1990063093
 20
8.7057084046
 30
0.0
 10
10.2044340878
 20
8.7001894628
 30
0.0
 10
10.2092662672
 20
8.6963401257
 30
0.0
 10
10.2131325663
 20
8.6937751963
 30
0.0
 10
10.2172239569
 20
8.6915827785
 30
0.0
 10
10.2200882275
 20
8.6904037455
 30
0.0
 10
10.2215474402
 20
8.6898944591
 30
0.0
  0
SPLINE
  5
3FE
100
AcDbEntity
  8
0
100
AcDbSpline
 62
7
  6
CONTINUOUS
 70
0
 71
3
 72
13
 73
9
 74
0
 42
0.0000001
 43
0.0000001
 44
0.0000000001
 40
0.0
 40
0.0
 40
0.0
 40
0.0
 40
0.2996133443
 40
0.5678586373
 40
0.6891043112
 40
0.8015448157
 40
0.9051725043
 40
1.0
 40
1.0
 40
1.0
 40
1.0
 10
10.2215474402
 20
8.7156846251
 30
0.0
 10
10.2187532296
 20
8.7155843694
 30
0.0
 10
10.2134593684
 20
8.7153310335
 30
0.0
 10
10.2070451171
 20
8.7148588215
 30
0.0
 10
10.2023822959
 20
8.7144116772
 30
0.0
 10
10.1992537374
 20
8.7140625746
 30
0.0
 10
10.1963760899
 20
8.7136917775
 30
0.0
 10
10.1945439622
 20
8.7134201809
 30
0.0
 10
10.1936701247
 20
8.7132804702
 30
0.0
  0
SPLINE
  5
3FF
100
AcDbEntity
  8
0
100
AcDbSpline
 62
7
  6
CONTINUOUS
 70
0
 71
3
 72
13
 73
9
 74
0
 42
0.0000001
 43
0.0000001
 44
0.0000000001
 40
0.0
 40
0.0
 40
0.0
 40
0.0
 40
0.2491317793
 40
0.4987244352
 40
0.6238271503
 40
0.7490714037
 40
0.8744704017
 40
1.0
 40
1.0
 40
1.0
 40
1.0
 10
10.1936701247
 20
8.7388520527
 30
0.0
 10
10.1953378517
 20
8.7362826068
 30
0.0
 10
10.1990102768
 20
8.7313460753
 30
0.0
 10
10.2044371373
 20
8.7258808306
 30
0.0
 10
10.2092677314
 20
8.7220689896
 30
0.0
 10
10.2131341113
 20
8.7195281721
 30
0.0
 10
10.2172255016
 20
8.7173564446
 30
0.0
 10
10.220088708
 20
8.7161889852
 30
0.0
 10
10.2215474402
 20
8.7156846251
 30
0.0
  0
SPLINE
  5
400
100
AcDbEntity
  8
0
100
AcDbSpline
 62
7
  6
CONTINUOUS
 70
0
 71
3
 72
14
 73
10
 74
0
 42
0.0000001
 43
0.0000001
 44
0.0000000001
 40
0.0
 40
0.0
 40
0.0
 40
0.0
 40
0.2980161379
 40
0.4358772262
 40
0.565597438
 40
0.686918895
 40
0.7997425032
 40
0.9040882235
 40
1.0
 40
1.0
 40
1.0
 40
1.0
 10
10.2215474402
 20
8.7428465207
 30
0.0
 10
10.218750654
 20
8.7426797938
 30
0.0
 10
10.2146640828
 20
8.7423549429
 30
0.0
 10
10.2093798295
 20
8.7417596268
 30
0.0
 10
10.2057563104
 20
8.7412692662
 30
0.0
 10
10.2023778089
 20
8.7407307468
 30
0.0
 10
10.1992485079
 20
8.7401504781
 30
0.0
 10
10.1963700098
 20
8.7395340482
 30
0.0
 10
10.1945416002
 20
8.7390835526
 30
0.0
 10
10.1936701247
 20
8.7388520527
 30
0.0
  0
SPLINE
  5
401
100
AcDbEntity
  8
0
100
AcDbSpline
 62
7
  6
CONTINUOUS
 70
0
 71
3
 72
13
 73
9
 74
0
 42
0.0000001
 43
0.0000001
 44
0.0000000001
 40
0.0
 40
0.0
 40
0.0
 40
0.0
 40
0.24833399
 40
0.497626432
 40
0.6227873771
 40
0.7482357908
 40
0.8739842414
 40
1.0
 40
1.0
 40
1.0
 40
1.0
 10
10.1936701247
 20
8.7656873475
 30
0.0
 10
10.1953393315
 20
8.7631518764
 30
0.0
 10
10.1990162914
 20
8.7582801863
 30
0.0
 10
10.2044417158
 20
8.7528951838
 30
0.0
 10
10.2092699023
 20
8.7491393362
 30
0.0
 10
10.2131364068
 20
8.7466345408
 30
0.0
 10
10.2172277972
 20
8.7444937163
 30
0.0
 10
10.2200894233
 20
8.7433435268
 30
0.0
 10
10.2215474402
 20
8.7428465207
 30
0.0
  0
SPLINE
  5
402
100
AcDbEntity
  8
0
100
AcDbSpline
 62
7
  6
CONTINUOUS
 70
0
 71
3
 72
14
 73
10
 74
0
 42
0.0000001
 43
0.0000001
 44
0.0000000001
 40
0.0
 40
0.0
 40
0.0
 40
0.0
 40
0.295744006
 40
0.4329500287
 40
0.5623832035
 40
0.6838196015
 40
0.7971931947
 40
0.9025592041
 40
1.0
 40
1.0
 40
1.0
 40
1.0
 10
10.2215474402
 20
8.7712535047
 30
0.0
 10
10.218746876
 20
8.7710208626
 30
0.0
 10
10.2146548432
 20
8.7705671897
 30
0.0
 10
10.2093750945
 20
8.7697381417
 30
0.0
 10
10.2057507944
 20
8.7690545319
 30
0.0
 10
10.2023714731
 20
8.7683037362
 30
0.0
 10
10.1992412333
 20
8.767494652
 30
0.0
 10
10.1963617017
 20
8.7666350467
 30
0.0
 10
10.1945384444
 20
8.7660087667
 30
0.0
 10
10.1936701247
 20
8.7656873475
 30
0.0
  0
SPLINE
  5
403
100
AcDbEntity
  8
0
100
AcDbSpline
 62
7
  6
CONTINUOUS
 70
0
 71
3
 72
13
 73
9
 74
0
 42
0.0000001
 43
0.0000001
 44
0.0000000001
 40
0.0
 40
0.0
 40
0.0
 40
0.0
 40
0.2472632384
 40
0.4961556629
 40
0.6213958224
 40
0.7471182993
 40
0.8733343827
 40
1.0
 40
1.0
 40
1.0
 40
1.0
 10
10.1936701247
 20
8.7936612363
 30
0.0
 10
10.1953413513
 20
8.7911708316
 30
0.0
 10
10.1990244489
 20
8.7863852234
 30
0.0
 10
10.204447867
 20
8.7811066195
 30
0.0
 10
10.2092728117
 20
8.7774249684
 30
0.0
 10
10.2131394596
 20
8.7749679467
 30
0.0
 10
10.2172308289
 20
8.7728681008
 30
0.0
 10
10.2200903625
 20
8.7717407728
 30
0.0
 10
10.2215474402
 20
8.7712535047
 30
0.0
  0
SPLINE
  5
404
100
AcDbEntity
  8
0
100
AcDbSpline
 62
7
  6
CONTINUOUS
 70
0
 71
3
 72
14
 73
10
 74
0
 42
0.0000001
 43
0.0000001
 44
0.0000000001
 40
0.0
 40
0.0
 40
0.0
 40
0.0
 40
0.2929199171
 40
0.4293186098
 40
0.5584046007
 40
0.6799933968
 40
0.7940557505
 40
0.9006843361
 40
1.0
 40
1.0
 40
1.0
 40
1.0
 10
10.2215474402
 20
8.8007731306
 30
0.0
 10
10.2187419941
 20
8.800475365
 30
0.0
 10
10.2146430405
 20
8.7998940711
 30
0.0
 10
10.2093691136
 20
8.7988356344
 30
0.0
 10
10.2057439134
 20
8.7979617078
 30
0.0
 10
10.2023636913
 20
8.7970018335
 30
0.0
 10
10.1992324692
 20
8.7959673404
 30
0.0
 10
10.1963519193
 20
8.7948681383
 30
0.0
 10
10.1945348296
 20
8.7940702048
 30
0.0
 10
10.1936701247
 20
8.7936612363
 30
0.0
  0
SPLINE
  5
405
100
AcDbEntity
  8
0
100
AcDbSpline
 62
7
  6
CONTINUOUS
 70
0
 71
3
 72
13
 73
9
 74
0
 42
0.0000001
 43
0.0000001
 44
0.0000000001
 40
0.0
 40
0.0
 40
0.0
 40
0.0
 40
0.2459141085
 40
0.4943064765
 40
0.6196481319
 40
0.7457163117
 40
0.8725199123
 40
1.0
 40
1.0
 40
1.0
 40
1.0
 10
10.1936701247
 20
8.8226432918
 30
0.0
 10
10.1953439524
 20
8.8202088499
 30
0.0
 10
10.1990348599
 20
8.8155302629
 30
0.0
 10
10.2044556122
 20
8.8103837119
 30
0.0
 10
10.2092764473
 20
8.8067940625
 30
0.0
 10
10.2131432474
 20
8.8043963414
 30
0.0
 10
10.2172345649
 20
8.8023473498
 30
0.0
 10
10.2200915136
 20
8.8012483333
 30
0.0
 10
10.2215474402
 20
8.8007731306
 30
0.0
  0
SPLINE
  5
406
100
AcDbEntity
  8
0
100
AcDbSpline
 62
7
  6
CONTINUOUS
 70
0
 71
3
 72
14
 73
10
 74
0
 42
0.0000001
 43
0.0000001
 44
0.0000000001
 40
0.0
 40
0.0
 40
0.0
 40
0.0
 40
0.2896829193
 40
0.4251656299
 40
0.553866631
 40
0.6756427332
 40
0.7905010544
 40
0.8985689678
 40
1.0
 40
1.0
 40
1.0
 40
1.0
 10
10.2215474402
 20
8.8312677644
 30
0.0
 10
10.2187361321
 20
8.8309059146
 30
0.0
 10
10.2146290693
 20
8.8301986496
 30
0.0
 10
10.2093621304
 20
8.8289163353
 30
0.0
 10
10.2057359986
 20
8.827855902
 30
0.0
 10
10.2023549041
 20
8.826691128
 30
0.0
 10
10.1992227925
 20
8.8254357175
 30
0.0
 10
10.196341398
 20
8.8241016867
 30
0.0
 10
10.194531057
 20
8.8231370772
 30
0.0
 10
10.1936701247
 20
8.8226432918
 30
0.0
  0
SPLINE
  5
407
100
AcDbEntity
  8
0
100
AcDbSpline
 62
7
  6
CONTINUOUS
 70
0
 71
3
 72
13
 73
9
 74
0
 42
0.0000001
 43
0.0000001
 44
0.0000000001
 40
0.0
 40
0.0
 40
0.0
 40
0.0
 40
0.2442806538
 40
0.4920735755
 40
0.6175405834
 40
0.7440279036
 40
0.8715403213
 40
1.0
 40
1.0
 40
1.0
 40
1.0
 10
10.1936701247
 20
8.8524983863
 30
0.0
 10
10.1953471874
 20
8.8501305662
 30
0.0
 10
10.1990476624
 20
8.8455795719
 30
0.0
 10
10.204464979
 20
8.8405900908
 30
0.0
 10
10.2092808036
 20
8.8371097498
 30
0.0
 10
10.2131477483
 20
8.8347825792
 30
0.0
 10
10.2172389676
 20
8.832794072
 30
0.0
 10
10.2200928619
 20
8.8317286436
 30
0.0
 10
10.2215474402
 20
8.8312677644
 30
0.0
  0
SPLINE
  5
408
100
AcDbEntity
  8
0
100
AcDbSpline
 62
7
  6
CONTINUOUS
 70
0
 71
3
 72
13
 73
9
 74
0
 42
0.0000001
 43
0.0000001
 44
0.0000000001
 40
0.0
 40
0.0
 40
0.0
 40
0.0
 40
0.2862007649
 40
0.4207148678
 40
0.5490266352
 40
0.6710328303
 40
0.7867731325
 40
1.0
 40
1.0
 40
1.0
 40
1.0
 10
10.2215474402
 20
8.8625952258
 30
0.0
 10
10.2187294345
 20
8.8621705919
 30
0.0
 10
10.2146133808
 20
8.86133952
 30
0.0
 10
10.2093543893
 20
8.8598399431
 30
0.0
 10
10.205727448
 20
8.8585977299
 30
0.0
 10
10.2023453396
 20
8.8572331313
 30
0.0
 10
10.1982794029
 20
8.8553242412
 30
0.0
 10
10.1954328122
 20
8.8536819659
 30
0.0
 10
10.1936701247
 20
8.8524983863
 30
0.0
  0
SPLINE
  5
409
100
AcDbEntity
  8
0
100
AcDbSpline
 62
7
  6
CONTINUOUS
 70
0
 71
3
 72
12
 73
8
 74
0
 42
0.0000001
 43
0.0000001
 44
0.0000000001
 40
0.0
 40
0.0
 40
0.0
 40
0.0
 40
0.2424098817
 40
0.4895590312
 40
0.7419962686
 40
0.8703676669
 40
1.0
 40
1.0
 40
1.0
 40
1.0
 10
10.1936701247
 20
8.8830873216
 30
0.0
 10
10.195351122
 20
8.8807965062
 30
0.0
 10
10.1990639352
 20
8.8763927032
 30
0.0
 10
10.2055882802
 20
8.8705961284
 30
0.0
 10
10.2118208948
 20
8.8666095902
 30
0.0
 10
10.2172438385
 20
8.8640664836
 30
0.0
 10
10.2200943885
 20
8.8630396061
 30
0.0
 10
10.2215474402
 20
8.8625952258
 30
0.0
  0
SPLINE
  5
40A
100
AcDbEntity
  8
0
100
AcDbSpline
 62
7
  6
CONTINUOUS
 70
0
 71
3
 72
13
 73
9
 74
0
 42
0.0000001
 43
0.0000001
 44
0.0000000001
 40
0.0
 40
0.0
 40
0.0
 40
0.0
 40
0.2825487554
 40
0.4160547777
 40
0.5439666637
 40
0.6662173073
 40
0.7828728328
 40
1.0
 40
1.0
 40
1.0
 40
1.0
 10
10.2215474402
 20
8.8946094519
 30
0.0
 10
10.2187220605
 20
8.8941236078
 30
0.0
 10
10.2145964141
 20
8.8931714541
 30
0.0
 10
10.2093461832
 20
8.8914622982
 30
0.0
 10
10.2057184681
 20
8.890043873
 30
0.0
 10
10.2023357764
 20
8.8884856749
 30
0.0
 10
10.1982561292
 20
8.8862990988
 30
0.0
 10
10.1954188366
 20
8.884427269
 30
0.0
 10
10.1936701247
 20
8.8830873216
 30
0.0
  0
SPLINE
  5
40B
100
AcDbEntity
  8
0
100
AcDbSpline
 62
7
  6
CONTINUOUS
 70
0
 71
3
 72
12
 73
8
 74
0
 42
0.0000001
 43
0.0000001
 44
0.0000000001
 40
0.0
 40
0.0
 40
0.0
 40
0.0
 40
0.2401898337
 40
0.4865441403
 40
0.7397363638
 40
0.8690605621
 40
1.0
 40
1.0
 40
1.0
 40
1.0
 10
10.1936701247
 20
8.9142674779
 30
0.0
 10
10.1953558348
 20
8.9120637423
 30
0.0
 10
10.199081958
 20
8.907827428
 30
0.0
 10
10.2056102816
 20
8.9022686838
 30
0.0
 10
10.2118345733
 20
8.8984537704
 30
0.0
 10
10.2172494157
 20
8.896018628
 30
0.0
 10
10.2200960716
 20
8.8950352512
 30
0.0
 10
10.2215474402
 20
8.8946094519
 30
0.0
  0
SPLINE
  5
40C
100
AcDbEntity
  8
0
100
AcDbSpline
 62
7
  6
CONTINUOUS
 70
0
 71
3
 72
11
 73
7
 74
0
 42
0.0000001
 43
0.0000001
 44
0.0000000001
 40
0.0
 40
0.0
 40
0.0
 40
0.0
 40
0.278933787
 40
0.5388970042
 40
0.7789313197
 40
1.0
 40
1.0
 40
1.0
 40
1.0
 10
10.2215474402
 20
8.9271611775
 30
0.0
 10
10.2187141785
 20
8.9266159829
 30
0.0
 10
10.2133001574
 20
8.9252153772
 30
0.0
 10
10.2057964346
 20
8.9222250487
 30
0.0
 10
10.1992543461
 20
8.9186024525
 30
0.0
 10
10.1954060395
 20
8.9157559567
 30
0.0
 10
10.1936701247
 20
8.9142674779
 30
0.0
  0
SPLINE
  5
40D
100
AcDbEntity
  8
0
100
AcDbSpline
 62
7
  6
CONTINUOUS
 70
0
 71
3
 72
12
 73
8
 74
0
 42
0.0000001
 43
0.0000001
 44
0.0000000001
 40
0.0
 40
0.0
 40
0.0
 40
0.0
 40
0.2376732073
 40
0.4831410192
 40
0.7371961774
 40
0.8675940821
 40
1.0
 40
1.0
 40
1.0
 40
1.0
 10
10.1936701247
 20
8.945893479
 30
0.0
 10
10.1953614177
 20
8.9437865656
 30
0.0
 10
10.1991028806
 20
8.9397369346
 30
0.0
 10
10.2056351354
 20
8.9344425387
 30
0.0
 10
10.2118496291
 20
8.9308174979
 30
0.0
 10
10.2172554786
 20
8.9285017171
 30
0.0
 10
10.220097885
 20
8.9275664184
 30
0.0
 10
10.2215474402
 20
8.9271611775
 30
0.0
  0
SPLINE
  5
40E
100
AcDbEntity
  8
0
100
AcDbSpline
 62
7
  6
CONTINUOUS
 70
0
 71
3
 72
11
 73
7
 74
0
 42
0.0000001
 43
0.0000001
 44
0.0000000001
 40
0.0
 40
0.0
 40
0.0
 40
0.0
 40
0.2753141642
 40
0.5339277721
 40
0.7751490931
 40
1.0
 40
1.0
 40
1.0
 40
1.0
 10
10.2215474402
 20
8.9600986315
 30
0.0
 10
10.2187059601
 20
8.9594962414
 30
0.0
 10
10.2132685811
 20
8.9579438699
 30
0.0
 10
10.2057607552
 20
8.9546420687
 30
0.0
 10
10.1992178639
 20
8.9506437906
 30
0.0
 10
10.1953945695
 20
8.9475225196
 30
0.0
 10
10.1936701247
 20
8.945893479
 30
0.0
  0
SPLINE
  5
40F
100
AcDbEntity
  8
0
100
AcDbSpline
 62
7
  6
CONTINUOUS
 70
0
 71
3
 72
11
 73
7
 74
0
 42
0.0000001
 43
0.0000001
 44
0.0000000001
 40
0.0
 40
0.0
 40
0.0
 40
0.0
 40
0.2349167468
 40
0.479469261
 40
0.7345555198
 40
1.0
 40
1.0
 40
1.0
 40
1.0
 10
10.1936701247
 20
8.9778178698
 30
0.0
 10
10.1953679734
 20
8.9758171755
 30
0.0
 10
10.1991265675
 20
8.9719730118
 30
0.0
 10
10.2056638839
 20
8.9669678205
 30
0.0
 10
10.2131765041
 20
8.9628270013
 30
0.0
 10
10.2186809616
 20
8.9608566523
 30
0.0
 10
10.2215474402
 20
8.9600986315
 30
0.0
  0
SPLINE
  5
410
100
AcDbEntity
  8
0
100
AcDbSpline
 62
7
  6
CONTINUOUS
 70
0
 71
3
 72
11
 73
7
 74
0
 42
0.0000001
 43
0.0000001
 44
0.0000000001
 40
0.0
 40
0.0
 40
0.0
 40
0.0
 40
0.2718250454
 40
0.529166114
 40
0.7715498927
 40
1.0
 40
1.0
 40
1.0
 40
1.0
 10
10.2215474402
 20
8.9932682443
 30
0.0
 10
10.2186975761
 20
8.9926111155
 30
0.0
 10
10.2132370405
 20
8.9909125358
 30
0.0
 10
10.2057264089
 20
8.9873140368
 30
0.0
 10
10.1991842497
 20
8.9829588239
 30
0.0
 10
10.1953844463
 20
8.9795793103
 30
0.0
 10
10.1936701247
 20
8.9778178698
 30
0.0
  0
SPLINE
  5
411
100
AcDbEntity
  8
0
100
AcDbSpline
 62
7
  6
CONTINUOUS
 70
0
 71
3
 72
11
 73
7
 74
0
 42
0.0000001
 43
0.0000001
 44
0.0000000001
 40
0.0
 40
0.0
 40
0.0
 40
0.0
 40
0.2318162727
 40
0.4753161479
 40
0.7314782069
 40
1.0
 40
1.0
 40
1.0
 40
1.0
 10
10.1936701247
 20
9.009891804
 30
0.0
 10
10.1953756128
 20
9.0080063784
 30
0.0
 10
10.199153789
 20
9.0043857223
 30
0.0
 10
10.2056939801
 20
8.9996942904
 30
0.0
 10
10.2132061662
 20
8.9958155889
 30
0.0
 10
10.2186891911
 20
8.9939773508
 30
0.0
 10
10.2215474402
 20
8.9932682443
 30
0.0
  0
SPLINE
  5
412
100
AcDbEntity
  8
0
100
AcDbSpline
 62
7
  6
CONTINUOUS
 70
0
 71
3
 72
14
 73
10
 74
0
 42
0.0000001
 43
0.0000001
 44
0.0000000001
 40
0.0
 40
0.0
 40
0.0
 40
0.0
 40
0.1337929911
 40
0.2653649856
 40
0.3944165024
 40
0.5207835232
 40
0.6444030413
 40
0.7653573377
 40
1.0
 40
1.0
 40
1.0
 40
1.0
 10
10.2489104116
 20
8.9600986315
 30
0.0
 10
10.2503173375
 20
8.9604583778
 30
0.0
 10
10.2530812375
 20
8.9612812033
 30
0.0
 10
10.2570799966
 20
8.9628214558
 30
0.0
 10
10.2608738659
 20
8.9646343535
 30
0.0
 10
10.2644390683
 20
8.9666957109
 30
0.0
 10
10.2677596433
 20
8.9689802308
 30
0.0
 10
10.2718100471
 20
8.972249071
 30
0.0
 10
10.2745478155
 20
8.9749925774
 30
0.0
 10
10.2762215566
 20
8.9769121745
 30
0.0
  0
SPLINE
  5
413
100
AcDbEntity
  8
0
100
AcDbSpline
 62
7
  6
CONTINUOUS
 70
0
 71
3
 72
13
 73
9
 74
0
 42
0.0000001
 43
0.0000001
 44
0.0000000001
 40
0.0
 40
0.0
 40
0.0
 40
0.0
 40
0.2748858153
 40
0.4066152099
 40
0.5339988043
 40
0.656878262
 40
0.7753281339
 40
1.0
 40
1.0
 40
1.0
 40
1.0
 10
10.2489104116
 20
8.9600986315
 30
0.0
 10
10.2516769724
 20
8.9595315231
 30
0.0
 10
10.2557240056
 20
8.9584338615
 30
0.0
 10
10.2608506038
 20
8.956472182
 30
0.0
 10
10.264414917
 20
8.9548220817
 30
0.0
 10
10.2677357615
 20
8.9529927002
 30
0.0
 10
10.2717589247
 20
8.9503927789
 30
0.0
 10
10.2745224319
 20
8.9481818007
 30
0.0
 10
10.2762215876
 20
8.9466195318
 30
0.0
  0
SPLINE
  5
414
100
AcDbEntity
  8
0
100
AcDbSpline
 62
7
  6
CONTINUOUS
 70
0
 71
3
 72
12
 73
8
 74
0
 42
0.0000001
 43
0.0000001
 44
0.0000000001
 40
0.0
 40
0.0
 40
0.0
 40
0.0
 40
0.2682878405
 40
0.5247386979
 40
0.6481562176
 40
0.7683635392
 40
1.0
 40
1.0
 40
1.0
 40
1.0
 10
10.2489104116
 20
8.9932682443
 30
0.0
 10
10.2516915747
 20
8.9939354051
 30
0.0
 10
10.2570446774
 20
8.9956391307
 30
0.0
 10
10.2632686606
 20
8.9987024858
 30
0.0
 10
10.2677522053
 20
9.0015954751
 30
0.0
 10
10.271794767
 20
9.0046550895
 30
0.0
 10
10.2745404346
 20
9.0072332814
 30
0.0
 10
10.2762215007
 20
9.0090420609
 30
0.0
  0
SPLINE
  5
415
100
AcDbEntity
  8
0
100
AcDbSpline
 62
7
  6
CONTINUOUS
 70
0
 71
3
 72
13
 73
9
 74
0
 42
0.0000001
 43
0.0000001
 44
0.0000000001
 40
0.0
 40
0.0
 40
0.0
 40
0.0
 40
0.2714758968
 40
0.402259832
 40
0.5292806443
 40
0.6524186515
 40
0.7717570574
 40
1.0
 40
1.0
 40
1.0
 40
1.0
 10
10.2489104116
 20
8.9932682443
 30
0.0
 10
10.2516842719
 20
8.9926497957
 30
0.0
 10
10.2557403696
 20
8.9914513392
 30
0.0
 10
10.2608585789
 20
8.9893202499
 30
0.0
 10
10.2644234706
 20
8.987524469
 30
0.0
 10
10.2677443505
 20
8.9855338282
 30
0.0
 10
10.27177771
 20
8.9826976576
 30
0.0
 10
10.2745320552
 20
8.9802971599
 30
0.0
 10
10.2762215713
 20
8.9786075826
 30
0.0
  0
SPLINE
  5
416
100
AcDbEntity
  8
0
100
AcDbSpline
 62
7
  6
CONTINUOUS
 70
0
 71
3
 72
15
 73
11
 74
0
 42
0.0000001
 43
0.0000001
 44
0.0000000001
 40
0.0
 40
0.0
 40
0.0
 40
0.0
 40
0.1321961482
 40
0.2625594922
 40
0.3908456368
 40
0.516929583
 40
0.6407674528
 40
0.7624344091
 40
0.882128344
 40
1.0
 40
1.0
 40
1.0
 40
1.0
 10
10.2489104116
 20
8.9271611775
 30
0.0
 10
10.2503189912
 20
8.9275419386
 30
0.0
 10
10.2530869574
 20
8.9284133976
 30
0.0
 10
10.2570864117
 20
8.930042579
 30
0.0
 10
10.2608807044
 20
8.9319600077
 30
0.0
 10
10.2644460474
 20
8.9341401042
 30
0.0
 10
10.2677660803
 20
8.9365556028
 30
0.0
 10
10.270835028
 20
8.9391749572
 30
0.0
 10
10.2736579658
 20
8.9419638525
 30
0.0
 10
10.2753937593
 20
8.9439323276
 30
0.0
 10
10.2762215722
 20
8.9449360186
 30
0.0
  0
SPLINE
  5
417
100
AcDbEntity
  8
0
100
AcDbSpline
 62
7
  6
CONTINUOUS
 70
0
 71
3
 72
13
 73
9
 74
0
 42
0.0000001
 43
0.0000001
 44
0.0000000001
 40
0.0
 40
0.0
 40
0.0
 40
0.0
 40
0.2784128515
 40
0.4111320603
 40
0.5389064494
 40
0.6615320456
 40
0.7790673834
 40
1.0
 40
1.0
 40
1.0
 40
1.0
 10
10.2489104116
 20
8.9271611775
 30
0.0
 10
10.2516697918
 20
8.9266477619
 30
0.0
 10
10.255707588
 20
8.9256552814
 30
0.0
 10
10.2608423589
 20
8.9238726754
 30
0.0
 10
10.2644058857
 20
8.9223758911
 30
0.0
 10
10.2677264671
 20
8.9207163169
 30
0.0
 10
10.271738337
 20
8.9183641011
 30
0.0
 10
10.2745113179
 20
8.9163537856
 30
0.0
 10
10.2762213248
 20
8.914926692
 30
0.0
  0
SPLINE
  5
418
100
AcDbEntity
  8
0
100
AcDbSpline
 62
7
  6
CONTINUOUS
 70
0
 71
3
 72
15
 73
11
 74
0
 42
0.0000001
 43
0.0000001
 44
0.0000000001
 40
0.0
 40
0.0
 40
0.0
 40
0.0
 40
0.1307642964
 40
0.2600519731
 40
0.3876675322
 40
0.51351988
 40
0.6375791195
 40
0.7599088704
 40
0.8806769139
 40
1.0
 40
1.0
 40
1.0
 40
1.0
 10
10.2489104116
 20
8.8946094519
 30
0.0
 10
10.2503205577
 20
8.8950094741
 30
0.0
 10
10.2530923251
 20
8.8959255658
 30
0.0
 10
10.2570923392
 20
8.8976360669
 30
0.0
 10
10.2608869396
 20
8.8996490619
 30
0.0
 10
10.2644522599
 20
8.9019376257
 30
0.0
 10
10.2677718921
 20
8.9044729822
 30
0.0
 10
10.2708401804
 20
8.9072218915
 30
0.0
 10
10.2736623689
 20
8.9101485809
 30
0.0
 10
10.275394984
 20
8.9122109959
 30
0.0
 10
10.2762214829
 20
8.9132626167
 30
0.0
  0
SPLINE
  5
419
100
AcDbEntity
  8
0
100
AcDbSpline
 62
7
  6
CONTINUOUS
 70
0
 71
3
 72
13
 73
9
 74
0
 42
0.0000001
 43
0.0000001
 44
0.0000000001
 40
0.0
 40
0.0
 40
0.0
 40
0.0
 40
0.2819851018
 40
0.4157189728
 40
0.5439053515
 40
0.6662882959
 40
0.7829025966
 40
1.0
 40
1.0
 40
1.0
 40
1.0
 10
10.2489104116
 20
8.8946094519
 30
0.0
 10
10.2516629065
 20
8.8941517957
 30
0.0
 10
10.2556915471
 20
8.8932682587
 30
0.0
 10
10.2608341425
 20
8.8916735623
 30
0.0
 10
10.2643967152
 20
8.8903369333
 30
0.0
 10
10.2677168123
 20
8.8888548356
 30
0.0
 10
10.2717164549
 20
8.8867602016
 30
0.0
 10
10.2744989631
 20
8.8849608844
 30
0.0
 10
10.2762210134
 20
8.8836766151
 30
0.0
  0
SPLINE
  5
41A
100
AcDbEntity
  8
0
100
AcDbSpline
 62
7
  6
CONTINUOUS
 70
0
 71
3
 72
15
 73
11
 74
0
 42
0.0000001
 43
0.0000001
 44
0.0000000001
 40
0.0
 40
0.0
 40
0.0
 40
0.0
 40
0.1294847783
 40
0.2578163524
 40
0.3848405245
 40
0.5104922513
 40
0.6347516676
 40
0.7576726211
 40
0.8793947014
 40
1.0
 40
1.0
 40
1.0
 40
1.0
 10
10.2489104116
 20
8.8625952258
 30
0.0
 10
10.2503219804
 20
8.8630126412
 30
0.0
 10
10.2530971935
 20
8.8639690827
 30
0.0
 10
10.2570976084
 20
8.8657528723
 30
0.0
 10
10.2608923671
 20
8.8678519686
 30
0.0
 10
10.2644575342
 20
8.8702381779
 30
0.0
 10
10.2677766877
 20
8.8728813855
 30
0.0
 10
10.2708442603
 20
8.8757469394
 30
0.0
 10
10.2736657916
 20
8.8787976398
 30
0.0
 10
10.2753956834
 20
8.880944573
 30
0.0
 10
10.2762210706
 20
8.8820393397
 30
0.0
  0
SPLINE
  5
41B
100
AcDbEntity
  8
0
100
AcDbSpline
 62
7
  6
CONTINUOUS
 70
0
 71
3
 72
14
 73
10
 74
0
 42
0.0000001
 43
0.0000001
 44
0.0000000001
 40
0.0
 40
0.0
 40
0.0
 40
0.0
 40
0.2854867959
 40
0.4202219957
 40
0.5488191129
 40
0.6709653394
 40
0.7866644206
 40
0.8962298995
 40
1.0
 40
1.0
 40
1.0
 40
1.0
 10
10.2489104116
 20
8.8625952258
 30
0.0
 10
10.2516565524
 20
8.8621951076
 30
0.0
 10
10.2556764916
 20
8.8614236517
 30
0.0
 10
10.2608265113
 20
8.8600247845
 30
0.0
 10
10.2643881469
 20
8.858854267
 30
0.0
 10
10.2677073923
 20
8.8575564536
 30
0.0
 10
10.2707786711
 20
8.8561475944
 30
0.0
 10
10.2736050326
 20
8.854646651
 30
0.0
 10
10.2753769773
 20
8.8535664119
 30
0.0
 10
10.2762213692
 20
8.8530145804
 30
0.0
  0
SPLINE
  5
41C
100
AcDbEntity
  8
0
100
AcDbSpline
 62
7
  6
CONTINUOUS
 70
0
 71
3
 72
15
 73
11
 74
0
 42
0.0000001
 43
0.0000001
 44
0.0000000001
 40
0.0
 40
0.0
 40
0.0
 40
0.0
 40
0.128363708
 40
0.2558601715
 40
0.3823707088
 40
0.5078523711
 40
0.632291939
 40
0.7557312334
 40
0.8782832843
 40
1.0
 40
1.0
 40
1.0
 40
1.0
 10
10.2489104116
 20
8.8312677644
 30
0.0
 10
10.2503233176
 20
8.8317006329
 30
0.0
 10
10.2531017078
 20
8.8326929609
 30
0.0
 10
10.2571025405
 20
8.8345417461
 30
0.0
 10
10.2608974774
 20
8.836717178
 30
0.0
 10
10.2644625348
 20
8.8391899525
 30
0.0
 10
10.267781286
 20
8.8419287553
 30
0.0
 10
10.2708482628
 20
8.8448976497
 30
0.0
 10
10.2736692185
 20
8.8480582269
 30
0.0
 10
10.2753968418
 20
8.8502799598
 30
0.0
 10
10.2762213184
 20
8.8514129292
 30
0.0
  0
SPLINE
  5
41D
100
AcDbEntity
  8
0
100
AcDbSpline
 62
7
  6
CONTINUOUS
 70
0
 71
3
 72
15
 73
11
 74
0
 42
0.0000001
 43
0.0000001
 44
0.0000000001
 40
0.0
 40
0.0
 40
0.0
 40
0.0
 40
0.1470978917
 40
0.2889111555
 40
0.4246212309
 40
0.5536321812
 40
0.6755717747
 40
0.7904067879
 40
0.8984379448
 40
1.0
 40
1.0
 40
1.0
 40
1.0
 10
10.2489104116
 20
8.8312677644
 30
0.0
 10
10.2503059301
 20
8.831094085
 30
0.0
 10
10.2530404587
 20
8.8306988333
 30
0.0
 10
10.2570318835
 20
8.8299524642
 30
0.0
 10
10.2608191676
 20
8.8290740039
 30
0.0
 10
10.2643795729
 20
8.8280749407
 30
0.0
 10
10.2676979871
 20
8.8269671582
 30
0.0
 10
10.2707687921
 20
8.8257645113
 30
0.0
 10
10.2735948695
 20
8.8244832097
 30
0.0
 10
10.2753733816
 20
8.8235575677
 30
0.0
 10
10.2762211846
 20
8.8230843024
 30
0.0
  0
SPLINE
  5
41E
100
AcDbEntity
  8
0
100
AcDbSpline
 62
7
  6
CONTINUOUS
 70
0
 71
3
 72
15
 73
11
 74
0
 42
0.0000001
 43
0.0000001
 44
0.0000000001
 40
0.0
 40
0.0
 40
0.0
 40
0.0
 40
0.127402759
 40
0.2541857575
 40
0.3802598689
 40
0.5055997708
 40
0.6301964247
 40
0.7540799001
 40
0.8773393221
 40
1.0
 40
1.0
 40
1.0
 40
1.0
 10
10.2489104116
 20
8.8007731306
 30
0.0
 10
10.2503244844
 20
8.8012194069
 30
0.0
 10
10.253105629
 20
8.8022428957
 30
0.0
 10
10.2571067515
 20
8.8041479687
 30
0.0
 10
10.260901767
 20
8.8063894868
 30
0.0
 10
10.2644666578
 20
8.8089371828
 30
0.0
 10
10.2677850034
 20
8.811758705
 30
0.0
 10
10.2708514305
 20
8.8148170099
 30
0.0
 10
10.2736718631
 20
8.818072664
 30
0.0
 10
10.2753975858
 20
8.8203590945
 30
0.0
 10
10.2762213049
 20
8.8215251205
 30
0.0
  0
SPLINE
  5
41F
100
AcDbEntity
  8
0
100
AcDbSpline
 62
7
  6
CONTINUOUS
 70
0
 71
3
 72
15
 73
11
 74
0
 42
0.0000001
 43
0.0000001
 44
0.0000000001
 40
0.0
 40
0.0
 40
0.0
 40
0.0
 40
0.1488302428
 40
0.2920037002
 40
0.4286293943
 40
0.5580438854
 40
0.6798161353
 40
0.7938725676
 40
0.9004934347
 40
1.0
 40
1.0
 40
1.0
 40
1.0
 10
10.2489104116
 20
8.8007731306
 30
0.0
 10
10.2503046895
 20
8.8006300389
 30
0.0
 10
10.2530359138
 20
8.8003045886
 30
0.0
 10
10.2570261697
 20
8.7996894827
 30
0.0
 10
10.2608122228
 20
8.7989655652
 30
0.0
 10
10.2643714206
 20
8.7981423143
 30
0.0
 10
10.2676888208
 20
8.7972294934
 30
0.0
 10
10.2707589224
 20
8.7962384708
 30
0.0
 10
10.2735844203
 20
8.7951826298
 30
0.0
 10
10.2753692692
 20
8.79441702
 30
0.0
 10
10.2762205092
 20
8.7940251739
 30
0.0
  0
SPLINE
  5
420
100
AcDbEntity
  8
0
100
AcDbSpline
 62
7
  6
CONTINUOUS
 70
0
 71
3
 72
15
 73
11
 74
0
 42
0.0000001
 43
0.0000001
 44
0.0000000001
 40
0.0
 40
0.0
 40
0.0
 40
0.0
 40
0.1266033096
 40
0.2527938488
 40
0.3785069514
 40
0.5037321312
 40
0.6284626733
 40
0.7527161136
 40
0.8765605107
 40
1.0
 40
1.0
 40
1.0
 40
1.0
 10
10.2489104116
 20
8.7712535047
 30
0.0
 10
10.250325473
 20
8.7717110701
 30
0.0
 10
10.2531089278
 20
8.7727608114
 30
0.0
 10
10.2571102305
 20
8.7747131898
 30
0.0
 10
10.2609052514
 20
8.7770102271
 30
0.0
 10
10.2644699513
 20
8.7796208765
 30
0.0
 10
10.2677879165
 20
8.7825119006
 30
0.0
 10
10.2708538993
 20
8.7856452593
 30
0.0
 10
10.2736738125
 20
8.7889807956
 30
0.0
 10
10.2753979412
 20
8.7913215478
 30
0.0
 10
10.2762210351
 20
8.7925153311
 30
0.0
  0
SPLINE
  5
421
100
AcDbEntity
  8
0
100
AcDbSpline
 62
7
  6
CONTINUOUS
 70
0
 71
3
 72
13
 73
9
 74
0
 42
0.0000001
 43
0.0000001
 44
0.0000000001
 40
0.0
 40
0.0
 40
0.0
 40
0.0
 40
0.2946888972
 40
0.4321278123
 40
0.5619119277
 40
0.7969090329
 40
0.902302041
 40
1.0
 40
1.0
 40
1.0
 40
1.0
 10
10.2489104116
 20
8.7712535047
 30
0.0
 10
10.2516414714
 20
8.77103414
 30
0.0
 10
10.2556396266
 20
8.7706126391
 30
0.0
 10
10.2608071598
 20
8.7698396552
 30
0.0
 10
10.2654023323
 20
8.7690079679
 30
0.0
 10
10.2696660056
 20
8.7680237489
 30
0.0
 10
10.2735762436
 20
8.7668806315
 30
0.0
 10
10.2753669879
 20
8.766279733
 30
0.0
 10
10.2762215609
 20
8.765971853
 30
0.0
  0
SPLINE
  5
422
100
AcDbEntity
  8
0
100
AcDbSpline
 62
7
  6
CONTINUOUS
 70
0
 71
3
 72
13
 73
9
 74
0
 42
0.0000001
 43
0.0000001
 44
0.0000000001
 40
0.0
 40
0.0
 40
0.0
 40
0.0
 40
0.1260157502
 40
0.2517642059
 40
0.3772126223
 40
0.5023735642
 40
0.7516660132
 40
1.0
 40
1.0
 40
1.0
 40
1.0
 10
10.2215474402
 20
9.2769370874
 30
0.0
 10
10.2200894234
 20
9.2764400813
 30
0.0
 10
10.2172277973
 20
9.2752898919
 30
0.0
 10
10.2131364069
 20
9.2731490674
 30
0.0
 10
10.2092699024
 20
9.270644272
 30
0.0
 10
10.2044417158
 20
9.2668884243
 30
0.0
 10
10.1990162914
 20
9.2615034218
 30
0.0
 10
10.1953393315
 20
9.2566317316
 30
0.0
 10
10.1936701247
 20
9.2540962606
 30
0.0
  0
SPLINE
  5
423
100
AcDbEntity
  8
0
100
AcDbSpline
 62
9
  6
CONTINUOUS
 70
0
 71
3
 72
39
 73
35
 74
0
 42
0.0000001
 43
0.0000001
 44
0.0000000001
 40
0.0
 40
0.0
 40
0.0
 40
0.0
 40
0.1813723101
 40
0.2693957733
 40
0.3552607658
 40
0.4386312238
 40
0.5191085894
 40
0.5962000797
 40
0.6693299492
 40
0.7377886124
 40
0.8007318371
 40
0.8298285321
 40
0.8571596892
 40
0.8825764667
 40
0.9059271979
 40
0.9270508838
 40
0.9457832673
 40
0.9619663085
 40
0.9690548181
 40
0.9754496322
 40
0.9811339247
 40
0.9860940867
 40
0.9903167968
 40
0.9937887213
 40
0.9952392212
 40
0.9964982488
 40
0.9975652417
 40
0.9984396377
 40
0.9991208741
 40
0.9996083884
 40
0.999779324
 40
0.9999016179
 40
0.9999752
 40
1.0
 40
1.0
 40
1.0
 40
1.0
 10
8.77286724
 20
8.5528837087
 30
0.0
 10
8.7702212521
 20
8.552288061
 30
0.0
 10
8.7663217543
 20
8.5512584175
 30
0.0
 10
8.7612635464
 20
8.5496323715
 30
0.0
 10
8.757642087
 20
8.5483322335
 30
0.0
 10
8.7541696147
 20
8.5469573227
 30
0.0
 10
8.7508619981
 20
8.5455272993
 30
0.0
 10
8.747736657
 20
8.5440655308
 30
0.0
 10
8.7448140671
 20
8.542597669
 30
0.0
 10
8.7421172605
 20
8.5411541543
 30
0.0
 10
8.7400289071
 20
8.5399708641
 30
0.0
 10
8.7384907726
 20
8.5390649714
 30
0.0
 10
8.7374426082
 20
8.5384330665
 30
0.0
 10
8.7364736697
 20
8.5378362794
 30
0.0
 10
8.7355886356
 20
8.5372803524
 30
0.0
 10
8.7347923141
 20
8.5367711796
 30
0.0
 10
8.7340895466
 20
8.5363147068
 30
0.0
 10
8.7335649503
 20
8.5359692565
 30
0.0
 10
8.7331954847
 20
8.5357236993
 30
0.0
 10
8.7329571523
 20
8.5355644709
 30
0.0
 10
8.7327455815
 20
8.5354224787
 30
0.0
 10
8.7325612257
 20
8.5352982233
 30
0.0
 10
8.7324044906
 20
8.5351921816
 30
0.0
 10
8.7322913364
 20
8.5351153837
 30
0.0
 10
8.7322148914
 20
8.5350634166
 30
0.0
 10
8.7321682012
 20
8.5350316474
 30
0.0
 10
8.7321286498
 20
8.535004702
 30
0.0
 10
8.7320962392
 20
8.5349826167
 30
0.0
 10
8.732071025
 20
8.5349653702
 30
0.0
 10
8.7320544426
 20
8.5349541124
 30
0.0
 10
8.7320448638
 20
8.5349474589
 30
0.0
 10
8.7320402445
 20
8.5349444599
 30
0.0
 10
8.7320376892
 20
8.5349424156
 30
0.0
 10
8.7320363039
 20
8.5349417673
 30
0.0
 10
8.7320360714
 20
8.5349414783
 30
0.0
  0
SPLINE
  5
424
100
AcDbEntity
  8
0
100
AcDbSpline
 62
7
  6
CONTINUOUS
 70
0
 71
3
 72
14
 73
10
 74
0
 42
0.0000001
 43
0.0000001
 44
0.0000000001
 40
0.0
 40
0.0
 40
0.0
 40
0.0
 40
0.0959117794
 40
0.2002575058
 40
0.3130811124
 40
0.4344025557
 40
0.5641227748
 40
0.7019838513
 40
1.0
 40
1.0
 40
1.0
 40
1.0
 10
10.1936701247
 20
9.2809315554
 30
0.0
 10
10.1945416003
 20
9.2807000555
 30
0.0
 10
10.1963700099
 20
9.2802495599
 30
0.0
 10
10.1992485081
 20
9.2796331299
 30
0.0
 10
10.202377809
 20
9.2790528613
 30
0.0
 10
10.2057563104
 20
9.2785143418
 30
0.0
 10
10.2093798294
 20
9.2780239814
 30
0.0
 10
10.2146640827
 20
9.2774286652
 30
0.0
 10
10.2187506539
 20
9.2771038143
 30
0.0
 10
10.2215474402
 20
9.2769370874
 30
0.0
  0
SPLINE
  5
425
100
AcDbEntity
  8
0
100
AcDbSpline
 62
7
  6
CONTINUOUS
 70
0
 71
3
 72
13
 73
9
 74
0
 42
0.0000001
 43
0.0000001
 44
0.0000000001
 40
0.0
 40
0.0
 40
0.0
 40
0.0
 40
0.1255295989
 40
0.2509285959
 40
0.3761728488
 40
0.5012755658
 40
0.7508682231
 40
1.0
 40
1.0
 40
1.0
 40
1.0
 10
10.2215474402
 20
9.304098983
 30
0.0
 10
10.2200887079
 20
9.3035946229
 30
0.0
 10
10.2172255016
 20
9.3024271635
 30
0.0
 10
10.2131341113
 20
9.300255436
 30
0.0
 10
10.2092677314
 20
9.2977146185
 30
0.0
 10
10.2044371373
 20
9.2939027775
 30
0.0
 10
10.1990102768
 20
9.2884375328
 30
0.0
 10
10.1953378517
 20
9.2835010012
 30
0.0
 10
10.1936701247
 20
9.2809315554
 30
0.0
  0
SPLINE
  5
426
100
AcDbEntity
  8
0
100
AcDbSpline
 62
7
  6
CONTINUOUS
 70
0
 71
3
 72
15
 73
11
 74
0
 42
0.0000001
 43
0.0000001
 44
0.0000000001
 40
0.0
 40
0.0
 40
0.0
 40
0.0
 40
0.1254859976
 40
0.2508519224
 40
0.3760655172
 40
0.5011340006
 40
0.6260524399
 40
0.7508218428
 40
0.8754803586
 40
1.0
 40
1.0
 40
1.0
 40
1.0
 10
10.2489104116
 20
8.6027485267
 30
0.0
 10
10.2503268713
 20
8.6032220726
 30
0.0
 10
10.2531135855
 20
8.6043090016
 30
0.0
 10
10.2571150655
 20
8.6063282299
 30
0.0
 10
10.2609100113
 20
8.6087037038
 30
0.0
 10
10.2644743581
 20
8.6114032361
 30
0.0
 10
10.26779172
 20
8.6143923621
 30
0.0
 10
10.270857002
 20
8.6176317237
 30
0.0
 10
10.2736762152
 20
8.6210800512
 30
0.0
 10
10.2753981789
 20
8.623497521
 30
0.0
 10
10.2762204302
 20
8.6247305188
 30
0.0
  0
SPLINE
  5
427
100
AcDbEntity
  8
0
100
AcDbSpline
 62
7
  6
CONTINUOUS
 70
0
 71
3
 72
13
 73
9
 74
0
 42
0.0000001
 43
0.0000001
 44
0.0000000001
 40
0.0
 40
0.0
 40
0.0
 40
0.0
 40
0.0948274962
 40
0.1984551873
 40
0.3108956917
 40
0.4321413586
 40
0.7003866516
 40
1.0
 40
1.0
 40
1.0
 40
1.0
 10
10.1936701247
 20
9.3065031379
 30
0.0
 10
10.1945439622
 20
9.3063634271
 30
0.0
 10
10.1963760899
 20
9.3060918306
 30
0.0
 10
10.1992537374
 20
9.3057210335
 30
0.0
 10
10.2023822959
 20
9.3053719309
 30
0.0
 10
10.2070451171
 20
9.3049247866
 30
0.0
 10
10.2134593684
 20
9.3044525746
 30
0.0
 10
10.2187532295
 20
9.3041992387
 30
0.0
 10
10.2215474402
 20
9.304098983
 30
0.0
  0
SPLINE
  5
428
100
AcDbEntity
  8
0
100
AcDbSpline
 62
7
  6
CONTINUOUS
 70
0
 71
3
 72
13
 73
9
 74
0
 42
0.0000001
 43
0.0000001
 44
0.0000000001
 40
0.0
 40
0.0
 40
0.0
 40
0.0
 40
0.1252060203
 40
0.2503733135
 40
0.375482522
 40
0.5005469451
 40
0.7503390453
 40
1.0
 40
1.0
 40
1.0
 40
1.0
 10
10.2215474402
 20
9.329889149
 30
0.0
 10
10.2200882274
 20
9.3293798625
 30
0.0
 10
10.2172239567
 20
9.3282008294
 30
0.0
 10
10.2131325662
 20
9.3260084118
 30
0.0
 10
10.2092662673
 20
9.3234434824
 30
0.0
 10
10.204434088
 20
9.3195941455
 30
0.0
 10
10.1990063095
 20
9.3140752037
 30
0.0
 10
10.1953368811
 20
9.3090953168
 30
0.0
 10
10.1936701247
 20
9.3065031379
 30
0.0
  0
SPLINE
  5
429
100
AcDbEntity
  8
0
100
AcDbSpline
 62
7
  6
CONTINUOUS
 70
0
 71
3
 72
15
 73
11
 74
0
 42
0.0000001
 43
0.0000001
 44
0.0000000001
 40
0.0
 40
0.0
 40
0.0
 40
0.0
 40
0.1259639319
 40
0.2516827987
 40
0.3771100977
 40
0.5022445928
 40
0.6270808792
 40
0.751629023
 40
0.8759406125
 40
1.0
 40
1.0
 40
1.0
 40
1.0
 10
10.2489104116
 20
8.7428465207
 30
0.0
 10
10.2503263156
 20
8.7433132076
 30
0.0
 10
10.2531117279
 20
8.7443841777
 30
0.0
 10
10.2571132825
 20
8.746374762
 30
0.0
 10
10.26090839
 20
8.7487166448
 30
0.0
 10
10.2644729944
 20
8.7513780895
 30
0.0
 10
10.2677907023
 20
8.7543251726
 30
0.0
 10
10.2708562891
 20
8.7575191882
 30
0.0
 10
10.2736759476
 20
8.7609191495
 30
0.0
 10
10.2753989491
 20
8.7633037273
 30
0.0
 10
10.2762215978
 20
8.7645199216
 30
0.0
  0
SPLINE
  5
42A
100
AcDbEntity
  8
0
100
AcDbSpline
 62
7
  6
CONTINUOUS
 70
0
 71
3
 72
15
 73
11
 74
0
 42
0.0000001
 43
0.0000001
 44
0.0000000001
 40
0.0
 40
0.0
 40
0.0
 40
0.0
 40
0.1274026896
 40
0.2541856386
 40
0.3802597378
 40
0.5055996553
 40
0.6301963588
 40
0.7540799071
 40
0.8773393605
 40
1.0
 40
1.0
 40
1.0
 40
1.0
 10
10.2489104116
 20
9.4628512769
 30
0.0
 10
10.2503244329
 20
9.4624050169
 30
0.0
 10
10.2531054777
 20
9.4613815703
 30
0.0
 10
10.2571064642
 20
9.4594765863
 30
0.0
 10
10.260901361
 20
9.4572351801
 30
0.0
 10
10.2644661516
 20
9.454687614
 30
0.0
 10
10.2677844164
 20
9.4518662366
 30
0.0
 10
10.2708507883
 20
9.448808094
 30
0.0
 10
10.2736711625
 20
9.4455525919
 30
0.0
 10
10.2753968328
 20
9.4432662498
 30
0.0
 10
10.2762205207
 20
9.4421002652
 30
0.0
  0
SPLINE
  5
42B
100
AcDbEntity
  8
0
100
AcDbSpline
 62
7
  6
CONTINUOUS
 70
0
 71
3
 72
13
 73
9
 74
0
 42
0.0000001
 43
0.0000001
 44
0.0000000001
 40
0.0
 40
0.0
 40
0.0
 40
0.0
 40
0.2968524481
 40
0.4349372768
 40
0.5650156448
 40
0.7993902044
 40
0.9037837931
 40
1.0
 40
1.0
 40
1.0
 40
1.0
 10
10.2489104116
 20
8.7428465207
 30
0.0
 10
10.2516380703
 20
8.742689293
 30
0.0
 10
10.255631136
 20
8.7423874236
 30
0.0
 10
10.2608021266
 20
8.7418324941
 30
0.0
 10
10.2653891258
 20
8.7412368156
 30
0.0
 10
10.2696487701
 20
8.7405321269
 30
0.0
 10
10.2735675023
 20
8.7397103382
 30
0.0
 10
10.2753629576
 20
8.7392781374
 30
0.0
 10
10.276220325
 20
8.739056468
 30
0.0
  0
SPLINE
  5
42C
100
AcDbEntity
  8
0
100
AcDbSpline
 62
7
  6
CONTINUOUS
 70
0
 71
3
 72
11
 73
7
 74
0
 42
0.0000001
 43
0.0000001
 44
0.0000000001
 40
0.0
 40
0.0
 40
0.0
 40
0.0
 40
0.1975180091
 40
0.4309670896
 40
0.6995642927
 40
1.0
 40
1.0
 40
1.0
 40
1.0
 10
10.1936701247
 20
9.3306917814
 30
0.0
 10
10.1955038097
 20
9.3305939049
 30
0.0
 10
10.199506459
 20
9.3304121745
 30
0.0
 10
10.2060065198
 20
9.3301903979
 30
0.0
 10
10.2134649227
 20
9.330007071
 30
0.0
 10
10.2187545349
 20
9.3299226039
 30
0.0
 10
10.2215474402
 20
9.329889149
 30
0.0
  0
SPLINE
  5
42D
100
AcDbEntity
  8
0
100
AcDbSpline
 62
7
  6
CONTINUOUS
 70
0
 71
3
 72
13
 73
9
 74
0
 42
0.0000001
 43
0.0000001
 44
0.0000000001
 40
0.0
 40
0.0
 40
0.0
 40
0.0
 40
0.1250444699
 40
0.2500960129
 40
0.3751378451
 40
0.5001833006
 40
0.7500752444
 40
1.0
 40
1.0
 40
1.0
 40
1.0
 10
10.2215474402
 20
9.3541873396
 30
0.0
 10
10.2200879853
 20
9.3536755826
 30
0.0
 10
10.2172231819
 20
9.352490745
 30
0.0
 10
10.213131795
 20
9.3502879594
 30
0.0
 10
10.2092655408
 20
9.3477109475
 30
0.0
 10
10.2044325711
 20
9.3438428138
 30
0.0
 10
10.1990043419
 20
9.338296959
 30
0.0
 10
10.1953364008
 20
9.3332953524
 30
0.0
 10
10.1936701247
 20
9.3306917814
 30
0.0
  0
SPLINE
  5
42E
100
AcDbEntity
  8
0
100
AcDbSpline
 62
7
  6
CONTINUOUS
 70
0
 71
3
 72
15
 73
11
 74
0
 42
0.0000001
 43
0.0000001
 44
0.0000000001
 40
0.0
 40
0.0
 40
0.0
 40
0.0
 40
0.1321964545
 40
0.2625594759
 40
0.3908452506
 40
0.5169297711
 40
0.6407692062
 40
0.7624370988
 40
0.8821297662
 40
1.0
 40
1.0
 40
1.0
 40
1.0
 10
10.2489104116
 20
8.525537108
 30
0.0
 10
10.2503189258
 20
8.5259178514
 30
0.0
 10
10.253086758
 20
8.5267892636
 30
0.0
 10
10.2570860225
 20
8.5284183399
 30
0.0
 10
10.2608801514
 20
8.5303356293
 30
0.0
 10
10.2644453624
 20
8.5325155905
 30
0.0
 10
10.2677652879
 20
8.5349309493
 30
0.0
 10
10.2708342077
 20
8.5375500559
 30
0.0
 10
10.2736569743
 20
8.5403388288
 30
0.0
 10
10.2753926149
 20
8.5423072268
 30
0.0
 10
10.2762203737
 20
8.5433108599
 30
0.0
  0
SPLINE
  5
42F
100
AcDbEntity
  8
0
100
AcDbSpline
 62
7
  6
CONTINUOUS
 70
0
 71
3
 72
11
 73
7
 74
0
 42
0.0000001
 43
0.0000001
 44
0.0000000001
 40
0.0
 40
0.0
 40
0.0
 40
0.0
 40
0.2654444766
 40
0.520530735
 40
0.7650832564
 40
1.0
 40
1.0
 40
1.0
 40
1.0
 10
10.2215474402
 20
9.0596849765
 30
0.0
 10
10.2186809616
 20
9.0589269558
 30
0.0
 10
10.2131765042
 20
9.0569566068
 30
0.0
 10
10.205663884
 20
9.0528157876
 30
0.0
 10
10.1991265675
 20
9.0478105963
 30
0.0
 10
10.1953679734
 20
9.0439664326
 30
0.0
 10
10.1936701247
 20
9.0419657383
 30
0.0
  0
SPLINE
  5
430
100
AcDbEntity
  8
0
100
AcDbSpline
 62
9
  6
CONTINUOUS
 70
0
 71
3
 72
33
 73
29
 74
0
 42
0.0000001
 43
0.0000001
 44
0.0000000001
 40
0.0
 40
0.0
 40
0.0
 40
0.0
 40
0.1974437704
 40
0.3827802526
 40
0.4697816368
 40
0.5523187483
 40
0.6298514733
 40
0.7017934778
 40
0.7675032218
 40
0.8263247398
 40
0.8775999331
 40
0.9002016254
 40
0.9206688318
 40
0.9389271182
 40
0.9549122632
 40
0.9685604607
 40
0.9798077341
 40
0.9845124074
 40
0.9885991456
 40
0.9920653972
 40
0.9949086098
 40
0.9971262299
 40
0.9979996445
 40
0.9987157031
 40
0.9992740862
 40
0.9996744747
 40
0.99991655
 40
1.0
 40
1.0
 40
1.0
 40
1.0
 10
8.8318198493
 20
8.4773617685
 30
0.0
 10
8.8308074345
 20
8.4767262322
 30
0.0
 10
8.8288871742
 20
8.4754253592
 30
0.0
 10
8.8266305329
 20
8.4736920144
 30
0.0
 10
8.8249773087
 20
8.4723195994
 30
0.0
 10
8.8238482686
 20
8.4713382208
 30
0.0
 10
8.8228073216
 20
8.4703949804
 30
0.0
 10
8.8218583967
 20
8.4695022746
 30
0.0
 10
8.8210057876
 20
8.4686727851
 30
0.0
 10
8.8202539023
 20
8.4679193838
 30
0.0
 10
8.8196937727
 20
8.4673434415
 30
0.0
 10
8.8192990954
 20
8.466930555
 30
0.0
 10
8.8190438487
 20
8.4666609187
 30
0.0
 10
8.8188171802
 20
8.4664193937
 30
0.0
 10
8.8186196115
 20
8.466207179
 30
0.0
 10
8.8184516046
 20
8.4660254384
 30
0.0
 10
8.8183303332
 20
8.4658935002
 30
0.0
 10
8.8182483555
 20
8.4658040702
 30
0.0
 10
8.8181982576
 20
8.4657493223
 30
0.0
 10
8.8181558071
 20
8.4657028516
 30
0.0
 10
8.8181210303
 20
8.4656646998
 30
0.0
 10
8.8180968426
 20
8.4656381315
 30
0.0
 10
8.8180813635
 20
8.4656210585
 30
0.0
 10
8.818072598
 20
8.4656114433
 30
0.0
 10
8.8180658758
 20
8.4656038771
 30
0.0
 10
8.8180608198
 20
8.4655985889
 30
0.0
 10
8.8180582104
 20
8.4655951268
 30
0.0
 10
8.8180565544
 20
8.4655938579
 30
0.0
 10
8.818056374
 20
8.465593386
 30
0.0
  0
SPLINE
  5
431
100
AcDbEntity
  8
0
100
AcDbSpline
 62
7
  6
CONTINUOUS
 70
0
 71
3
 72
15
 73
11
 74
0
 42
0.0000001
 43
0.0000001
 44
0.0000000001
 40
0.0
 40
0.0
 40
0.0
 40
0.0
 40
0.1254858783
 40
0.2508517331
 40
0.3760653683
 40
0.5011335555
 40
0.6260509511
 40
0.7508200259
 40
0.8754794452
 40
1.0
 40
1.0
 40
1.0
 40
1.0
 10
10.2489104116
 20
8.7156846251
 30
0.0
 10
10.2503268305
 20
8.7161581573
 30
0.0
 10
10.253113466
 20
8.7172450516
 30
0.0
 10
10.2571148425
 20
8.7192642039
 30
0.0
 10
10.2609096903
 20
8.7216395918
 30
0.0
 10
10.2644739535
 20
8.7243390008
 30
0.0
 10
10.2677912545
 20
8.7273279807
 30
0.0
 10
10.2708564549
 20
8.7305672404
 30
0.0
 10
10.2736756768
 20
8.734015422
 30
0.0
 10
10.2753976331
 20
8.7364328244
 30
0.0
 10
10.2762198674
 20
8.737665797
 30
0.0
  0
SPLINE
  5
432
100
AcDbEntity
  8
0
100
AcDbSpline
 62
9
  6
CONTINUOUS
 70
0
 71
3
 72
67
 73
63
 74
0
 42
0.0000001
 43
0.0000001
 44
0.0000000001
 40
0.0
 40
0.0
 40
0.0
 40
0.0
 40
0.000002429
 40
0.0000096394
 40
0.0000216296
 40
0.0000383981
 40
0.0000599435
 40
0.000086264
 40
0.0001532247
 40
0.0002392678
 40
0.000344381
 40
0.000468552
 40
0.0006117683
 40
0.0009552879
 40
0.0013748406
 40
0.0018702518
 40
0.0024411991
 40
0.0030873431
 40
0.0038083442
 40
0.0046038634
 40
0.0054735594
 40
0.0074336905
 40
0.0096846449
 40
0.012222214
 40
0.015041817
 40
0.0181381682
 40
0.0215059196
 40
0.0251394968
 40
0.029032862
 40
0.0375746157
 40
0.0470813757
 40
0.057502576
 40
0.0687880836
 40
0.0808891282
 40
0.093758926
 40
0.1073532057
 40
0.121630333
 40
0.1365514957
 40
0.1681808839
 40
0.2019794243
 40
0.2196185778
 40
0.2377110725
 40
0.2562273122
 40
0.2751372171
 40
0.3140059758
 40
0.3540571621
 40
0.3744414327
 40
0.3950154908
 40
0.436589305
 40
0.4785163083
 40
0.5205532521
 40
0.5624824048
 40
0.6041063205
 40
0.6452393647
 40
0.6856983913
 40
0.7252938564
 40
0.7638218927
 40
0.8010572986
 40
0.8367473265
 40
0.9023137403
 40
0.957804953
 40
1.0
 40
1.0
 40
1.0
 40
1.0
 10
9.2622075271
 20
8.5751039003
 30
0.0
 10
9.2622073218
 20
8.5751042145
 30
0.0
 10
9.2622056352
 20
8.5751044443
 30
0.0
 10
9.2622028946
 20
8.5751061618
 30
0.0
 10
9.2621976343
 20
8.5751082037
 30
0.0
 10
9.262190604
 20
8.5751114343
 30
0.0
 10
9.2621814378
 20
8.5751154299
 30
0.0
 10
9.2621652204
 20
8.5751226032
 30
0.0
 10
9.2621398578
 20
8.5751337602
 30
0.0
 10
9.2621033644
 20
8.5751498295
 30
0.0
 10
9.262058771
 20
8.5751694419
 30
0.0
 10
9.2620060896
 20
8.5751926017
 30
0.0
 10
9.2619196826
 20
8.5752305658
 30
0.0
 10
9.2617914806
 20
8.5752868486
 30
0.0
 10
9.2616134317
 20
8.5753649451
 30
0.0
 10
9.2614031716
 20
8.5754570748
 30
0.0
 10
9.2611607865
 20
8.5755631124
 30
0.0
 10
9.2608863894
 20
8.5756829304
 30
0.0
 10
9.2605800948
 20
8.5758163972
 30
0.0
 10
9.2602420171
 20
8.5759633806
 30
0.0
 10
9.2597281886
 20
8.576186249
 30
0.0
 10
9.2590076129
 20
8.5764975175
 30
0.0
 10
9.2580495167
 20
8.5769086995
 30
0.0
 10
9.2569681836
 20
8.5773693971
 30
0.0
 10
9.2557652002
 20
8.5778777638
 30
0.0
 10
9.254442208
 20
8.5784316126
 30
0.0
 10
9.2530010257
 20
8.5790287566
 30
0.0
 10
9.2514435471
 20
8.5796668644
 30
0.0
 10
9.249142298
 20
8.5805979242
 30
0.0
 10
9.2459907313
 20
8.5818464536
 30
0.0
 10
9.2418841667
 20
8.5834218723
 30
0.0
 10
9.2373608814
 20
8.5850935734
 30
0.0
 10
9.2324369665
 20
8.5868360949
 30
0.0
 10
9.2271282146
 20
8.5886232423
 30
0.0
 10
9.2214497973
 20
8.5904277733
 30
0.0
 10
9.2154163455
 20
8.5922217317
 30
0.0
 10
9.2090419571
 20
8.5939766864
 30
0.0
 10
9.1999283044
 20
8.5962707119
 30
0.0
 10
9.1877830528
 20
8.598862466
 30
0.0
 10
9.1750983004
 20
8.6008576704
 30
0.0
 10
9.1644218359
 20
8.602053096
 30
0.0
 10
9.1560665092
 20
8.6027240888
 30
0.0
 10
9.1474975987
 20
8.6031333766
 30
0.0
 10
9.1357101764
 20
8.6033048777
 30
0.0
 10
9.1205940538
 20
8.6027525465
 30
0.0
 10
9.1053236868
 20
8.6011573839
 30
0.0
 10
9.0929520493
 20
8.5992556563
 30
0.0
 10
9.0804149637
 20
8.5969228766
 30
0.0
 10
9.0647479141
 20
8.5932653227
 30
0.0
 10
9.0461205616
 20
8.587836137
 30
0.0
 10
9.0277220728
 20
8.5815101795
 30
0.0
 10
9.0096431806
 20
8.5744543276
 30
0.0
 10
8.9919497589
 20
8.566830495
 30
0.0
 10
8.9746933996
 20
8.5587893457
 30
0.0
 10
8.9579198807
 20
8.5504688541
 30
0.0
 10
8.9416760605
 20
8.5419957955
 30
0.0
 10
8.9260152138
 20
8.533488168
 30
0.0
 10
8.9110008501
 20
8.5250584308
 30
0.0
 10
8.8924661339
 20
8.5143695309
 30
0.0
 10
8.871656097
 20
8.5019836297
 30
0.0
 10
8.8501469834
 20
8.4888127491
 30
0.0
 10
8.8373409295
 20
8.4808275132
 30
0.0
 10
8.8318198493
 20
8.4773617685
 30
0.0
  0
SPLINE
  5
433
100
AcDbEntity
  8
0
100
AcDbSpline
 62
7
  6
CONTINUOUS
 70
0
 71
3
 72
11
 73
7
 74
0
 42
0.0000001
 43
0.0000001
 44
0.0000000001
 40
0.0
 40
0.0
 40
0.0
 40
0.0
 40
0.2983743109
 40
0.5671994991
 40
0.8011392661
 40
1.0
 40
1.0
 40
1.0
 40
1.0
 10
10.2489104116
 20
8.7156846251
 30
0.0
 10
10.2516359551
 20
8.7155900676
 30
0.0
 10
10.2568154136
 20
8.7153542883
 30
0.0
 10
10.2641208599
 20
8.7148417501
 30
0.0
 10
10.2705032445
 20
8.7142066023
 30
0.0
 10
10.2744253604
 20
8.713682859
 30
0.0
 10
10.2762213608
 20
8.7134033821
 30
0.0
  0
SPLINE
  5
434
100
AcDbEntity
  8
0
100
AcDbSpline
 62
7
  6
CONTINUOUS
 70
0
 71
3
 72
13
 73
9
 74
0
 42
0.0000001
 43
0.0000001
 44
0.0000000001
 40
0.0
 40
0.0
 40
0.0
 40
0.0
 40
0.1250444699
 40
0.2500960129
 40
0.3751378451
 40
0.5001833006
 40
0.7500752444
 40
1.0
 40
1.0
 40
1.0
 40
1.0
 10
10.2215474402
 20
9.3768802655
 30
0.0
 10
10.2200879853
 20
9.3763685085
 30
0.0
 10
10.2172231819
 20
9.3751836709
 30
0.0
 10
10.213131795
 20
9.3729808853
 30
0.0
 10
10.2092655408
 20
9.3704038734
 30
0.0
 10
10.2044325711
 20
9.3665357397
 30
0.0
 10
10.1990043419
 20
9.3609898849
 30
0.0
 10
10.1953364008
 20
9.3559882783
 30
0.0
 10
10.1936701247
 20
9.3533847073
 30
0.0
  0
SPLINE
  5
435
100
AcDbEntity
  8
0
100
AcDbSpline
 62
7
  6
CONTINUOUS
 70
0
 71
3
 72
15
 73
11
 74
0
 42
0.0000001
 43
0.0000001
 44
0.0000000001
 40
0.0
 40
0.0
 40
0.0
 40
0.0
 40
0.1251675306
 40
0.2502989779
 40
0.3753710645
 40
0.5003958082
 40
0.6253683426
 40
0.7502846475
 40
0.8751744001
 40
1.0
 40
1.0
 40
1.0
 40
1.0
 10
10.2489104116
 20
8.6898944591
 30
0.0
 10
10.2503273545
 20
8.6903726359
 30
0.0
 10
10.2531151582
 20
8.6914703541
 30
0.0
 10
10.2571168802
 20
8.6935089595
 30
0.0
 10
10.260911967
 20
8.6959071798
 30
0.0
 10
10.264476351
 20
8.6986324822
 30
0.0
 10
10.2677936575
 20
8.7016500476
 30
0.0
 10
10.2708587784
 20
8.7049201869
 30
0.0
 10
10.2736779447
 20
8.7084011351
 30
0.0
 10
10.2753994618
 20
8.7108407546
 30
0.0
 10
10.2762215277
 20
8.7120850962
 30
0.0
  0
SPLINE
  5
436
100
AcDbEntity
  8
0
100
AcDbSpline
 62
7
  6
CONTINUOUS
 70
0
 71
3
 72
11
 73
7
 74
0
 42
0.0000001
 43
0.0000001
 44
0.0000000001
 40
0.0
 40
0.0
 40
0.0
 40
0.0
 40
0.2991469539
 40
0.5683181469
 40
0.802038607
 40
1.0
 40
1.0
 40
1.0
 40
1.0
 10
10.2489104116
 20
8.6898944591
 30
0.0
 10
10.2516345419
 20
8.6898629073
 30
0.0
 10
10.2568096434
 20
8.689784278
 30
0.0
 10
10.2641118574
 20
8.6896133062
 30
0.0
 10
10.2704910741
 20
8.6894014742
 30
0.0
 10
10.2744186018
 20
8.6892265017
 30
0.0
 10
10.2762189962
 20
8.6891329688
 30
0.0
  0
SPLINE
  5
437
100
AcDbEntity
  8
0
100
AcDbSpline
 62
9
  6
CONTINUOUS
 70
0
 71
3
 72
25
 73
21
 74
0
 42
0.0000001
 43
0.0000001
 44
0.0000000001
 40
0.0
 40
0.0
 40
0.0
 40
0.0
 40
0.0600715218
 40
0.0903092351
 40
0.1206785283
 40
0.1818074432
 40
0.2434916838
 40
0.2745489807
 40
0.3057346669
 40
0.3684375613
 40
0.4315510668
 40
0.4949807965
 40
0.5586169245
 40
0.622339659
 40
0.6860250407
 40
0.749550952
 40
0.8128027643
 40
0.8756797819
 40
0.9380980917
 40
1.0
 40
1.0
 40
1.0
 40
1.0
 10
8.7728652131
 20
8.5528832532
 30
0.0
 10
8.7750517782
 20
8.5528913019
 30
0.0
 10
8.7783440746
 20
8.5527020784
 30
0.0
 10
8.7826910687
 20
8.5520580127
 30
0.0
 10
8.787030514
 20
8.5511494348
 30
0.0
 10
8.7923785933
 20
8.549525344
 30
0.0
 10
8.7975261517
 20
8.5472854458
 30
0.0
 10
8.8014967235
 20
8.5451403327
 30
0.0
 10
8.8053720216
 20
8.5427559838
 30
0.0
 10
8.8099816436
 20
8.5393565091
 30
0.0
 10
8.8150529922
 20
8.5346749087
 30
0.0
 10
8.8196089877
 20
8.5294450004
 30
0.0
 10
8.8235883058
 20
8.5237372179
 30
0.0
 10
8.8269378998
 20
8.5176279465
 30
0.0
 10
8.8296129261
 20
8.5111989882
 30
0.0
 10
8.8315775041
 20
8.504536336
 30
0.0
 10
8.8328052204
 20
8.4977292136
 30
0.0
 10
8.8332792566
 20
8.4908684472
 30
0.0
 10
8.8329932547
 20
8.4840470546
 30
0.0
 10
8.8322944482
 20
8.4795644235
 30
0.0
 10
8.8318198499
 20
8.4773617683
 30
0.0
  0
SPLINE
  5
438
100
AcDbEntity
  8
0
100
AcDbSpline
 62
7
  6
CONTINUOUS
 70
0
 71
3
 72
11
 73
7
 74
0
 42
0.0000001
 43
0.0000001
 44
0.0000000001
 40
0.0
 40
0.0
 40
0.0
 40
0.0
 40
0.22485091
 40
0.4660722239
 40
0.724685832
 40
1.0
 40
1.0
 40
1.0
 40
1.0
 10
10.1936701247
 20
9.0738901291
 30
0.0
 10
10.1953945696
 20
9.0722610885
 30
0.0
 10
10.1992178639
 20
9.0691398175
 30
0.0
 10
10.2057607551
 20
9.0651415395
 30
0.0
 10
10.213268581
 20
9.0618397382
 30
0.0
 10
10.2187059601
 20
9.0602873667
 30
0.0
 10
10.2215474402
 20
9.0596849765
 30
0.0
  0
SPLINE
  5
439
100
AcDbEntity
  8
0
100
AcDbSpline
 62
7
  6
CONTINUOUS
 70
0
 71
3
 72
15
 73
11
 74
0
 42
0.0000001
 43
0.0000001
 44
0.0000000001
 40
0.0
 40
0.0
 40
0.0
 40
0.0
 40
0.1294844234
 40
0.257815769
 40
0.384839881
 40
0.510491684
 40
0.6347513394
 40
0.7576726579
 40
0.8793949018
 40
1.0
 40
1.0
 40
1.0
 40
1.0
 10
10.2489104116
 20
9.4829550249
 30
0.0
 10
10.2503218404
 20
9.4825376509
 30
0.0
 10
10.253096783
 20
9.4815813164
 30
0.0
 10
10.2570968273
 20
9.4797977536
 30
0.0
 10
10.2608912622
 20
9.4776989432
 30
0.0
 10
10.2644561561
 20
9.4753130654
 30
0.0
 10
10.2677750887
 20
9.4726702273
 30
0.0
 10
10.2708425089
 20
9.4698050907
 30
0.0
 10
10.2736638788
 20
9.4667547792
 30
0.0
 10
10.2753936272
 20
9.46460807
 30
0.0
 10
10.2762189301
 20
9.4635134081
 30
0.0
  0
SPLINE
  5
43A
100
AcDbEntity
  8
0
100
AcDbSpline
 62
7
  6
CONTINUOUS
 70
0
 71
3
 72
15
 73
11
 74
0
 42
0.0000001
 43
0.0000001
 44
0.0000000001
 40
0.0
 40
0.0
 40
0.0
 40
0.0
 40
0.1250079645
 40
0.250022594
 40
0.3750245888
 40
0.5000271036
 40
0.6250254743
 40
0.75001492
 40
0.8750209017
 40
1.0
 40
1.0
 40
1.0
 40
1.0
 10
10.2489104116
 20
8.6655962685
 30
0.0
 10
10.2503274066
 20
8.6660767029
 30
0.0
 10
10.2531153965
 20
8.6671796657
 30
0.0
 10
10.2571167528
 20
8.6692276437
 30
0.0
 10
10.2609114832
 20
8.6716368372
 30
0.0
 10
10.2644755185
 20
8.6743745374
 30
0.0
 10
10.2677924962
 20
8.6774057738
 30
0.0
 10
10.2708573343
 20
8.6806907112
 30
0.0
 10
10.2736762581
 20
8.684187461
 30
0.0
 10
10.2753973186
 20
8.686637897
 30
0.0
 10
10.2762191853
 20
8.6878877744
 30
0.0
  0
SPLINE
  5
43B
100
AcDbEntity
  8
0
100
AcDbSpline
 62
7
  6
CONTINUOUS
 70
0
 71
3
 72
15
 73
11
 74
0
 42
0.0000001
 43
0.0000001
 44
0.0000000001
 40
0.0
 40
0.0
 40
0.0
 40
0.0
 40
0.1250079691
 40
0.2500226067
 40
0.3750245992
 40
0.5000271338
 40
0.6250255028
 40
0.7500149298
 40
0.87502093
 40
1.0
 40
1.0
 40
1.0
 40
1.0
 10
10.2489104116
 20
8.6429033426
 30
0.0
 10
10.2503275349
 20
8.6433838205
 30
0.0
 10
10.2531157731
 20
8.6444868963
 30
0.0
 10
10.2571174664
 20
8.6465351111
 30
0.0
 10
10.2609124904
 20
8.6489446035
 30
0.0
 10
10.2644767741
 20
8.6516826489
 30
0.0
 10
10.2677939533
 20
8.6547142699
 30
0.0
 10
10.2708589181
 20
8.6579996448
 30
0.0
 10
10.2736780018
 20
8.6614967836
 30
0.0
 10
10.2753992115
 20
8.6639474442
 30
0.0
 10
10.2762211562
 20
8.6651974319
 30
0.0
  0
SPLINE
  5
43C
100
AcDbEntity
  8
0
100
AcDbSpline
 62
7
  6
CONTINUOUS
 70
0
 71
3
 72
13
 73
9
 74
0
 42
0.0000001
 43
0.0000001
 44
0.0000000001
 40
0.0
 40
0.0
 40
0.0
 40
0.0
 40
0.1252060203
 40
0.2503733135
 40
0.375482522
 40
0.5005469451
 40
0.7503390453
 40
1.0
 40
1.0
 40
1.0
 40
1.0
 10
10.2215474402
 20
9.3978621218
 30
0.0
 10
10.2200882274
 20
9.3973528353
 30
0.0
 10
10.2172239567
 20
9.3961738022
 30
0.0
 10
10.2131325662
 20
9.3939813846
 30
0.0
 10
10.2092662673
 20
9.3914164552
 30
0.0
 10
10.204434088
 20
9.3875671183
 30
0.0
 10
10.1990063095
 20
9.3820481765
 30
0.0
 10
10.1953368811
 20
9.3770682896
 30
0.0
 10
10.1936701247
 20
9.3744761107
 30
0.0
  0
SPLINE
  5
43D
100
AcDbEntity
  8
0
100
AcDbSpline
 62
7
  6
CONTINUOUS
 70
0
 71
3
 72
12
 73
8
 74
0
 42
0.0000001
 43
0.0000001
 44
0.0000000001
 40
0.0
 40
0.0
 40
0.0
 40
0.0
 40
0.1324059091
 40
0.2628038191
 40
0.5168589768
 40
0.7623267959
 40
1.0
 40
1.0
 40
1.0
 40
1.0
 10
10.2215474402
 20
9.0926224305
 30
0.0
 10
10.2200978851
 20
9.0922171897
 30
0.0
 10
10.2172554787
 20
9.091281891
 30
0.0
 10
10.2118496293
 20
9.0889661103
 30
0.0
 10
10.2056351355
 20
9.0853410694
 30
0.0
 10
10.1991028806
 20
9.0800466735
 30
0.0
 10
10.1953614176
 20
9.0759970424
 30
0.0
 10
10.1936701247
 20
9.0738901291
 30
0.0
  0
SPLINE
  5
43E
100
AcDbEntity
  8
0
100
AcDbSpline
 62
7
  6
CONTINUOUS
 70
0
 71
3
 72
15
 73
11
 74
0
 42
0.0000001
 43
0.0000001
 44
0.0000000001
 40
0.0
 40
0.0
 40
0.0
 40
0.0
 40
0.1294847755
 40
0.257816348
 40
0.3848405197
 40
0.5104922472
 40
0.6347516655
 40
0.7576726224
 40
0.8793947034
 40
1.0
 40
1.0
 40
1.0
 40
1.0
 10
10.2489104116
 20
8.5368285832
 30
0.0
 10
10.2503219793
 20
8.5372459983
 30
0.0
 10
10.2530971901
 20
8.5382024389
 30
0.0
 10
10.257097602
 20
8.5399862266
 30
0.0
 10
10.260892358
 20
8.5420853206
 30
0.0
 10
10.2644575229
 20
8.5444715271
 30
0.0
 10
10.2677766745
 20
8.5471147317
 30
0.0
 10
10.2708442459
 20
8.5499802821
 30
0.0
 10
10.2736657758
 20
8.5530309794
 30
0.0
 10
10.2753956663
 20
8.555177911
 30
0.0
 10
10.2762210528
 20
8.5562726768
 30
0.0
  0
SPLINE
  5
43F
100
AcDbEntity
  8
0
100
AcDbSpline
 62
7
  6
CONTINUOUS
 70
0
 71
3
 72
13
 73
9
 74
0
 42
0.0000001
 43
0.0000001
 44
0.0000000001
 40
0.0
 40
0.0
 40
0.0
 40
0.0
 40
0.1255295305
 40
0.2509288162
 40
0.3761732478
 40
0.5012759429
 40
0.7508682589
 40
1.0
 40
1.0
 40
1.0
 40
1.0
 10
10.2215474402
 20
9.4170350814
 30
0.0
 10
10.2200887087
 20
9.4165307215
 30
0.0
 10
10.2172254997
 20
9.4153632616
 30
0.0
 10
10.2131341056
 20
9.4131915305
 30
0.0
 10
10.2092677209
 20
9.4106507104
 30
0.0
 10
10.2044371306
 20
9.4068388682
 30
0.0
 10
10.1990102735
 20
9.4013736273
 30
0.0
 10
10.1953378514
 20
9.3964370992
 30
0.0
 10
10.1936701247
 20
9.3938676538
 30
0.0
  0
SPLINE
  5
440
100
AcDbEntity
  8
0
100
AcDbSpline
 62
7
  6
CONTINUOUS
 70
0
 71
3
 72
11
 73
7
 74
0
 42
0.0000001
 43
0.0000001
 44
0.0000000001
 40
0.0
 40
0.0
 40
0.0
 40
0.0
 40
0.2685217894
 40
0.5246838481
 40
0.7681837305
 40
1.0
 40
1.0
 40
1.0
 40
1.0
 10
10.2215474402
 20
9.0265153638
 30
0.0
 10
10.2186891912
 20
9.0258062573
 30
0.0
 10
10.2132061662
 20
9.0239680192
 30
0.0
 10
10.2056939801
 20
9.0200893177
 30
0.0
 10
10.199153789
 20
9.0153978858
 30
0.0
 10
10.1953756128
 20
9.0117772297
 30
0.0
 10
10.1936701247
 20
9.009891804
 30
0.0
  0
SPLINE
  5
441
100
AcDbEntity
  8
0
100
AcDbSpline
 62
7
  6
CONTINUOUS
 70
0
 71
3
 72
13
 73
9
 74
0
 42
0.0000001
 43
0.0000001
 44
0.0000000001
 40
0.0
 40
0.0
 40
0.0
 40
0.0
 40
0.2748858242
 40
0.4066152204
 40
0.5339988111
 40
0.6568782621
 40
0.7753281289
 40
1.0
 40
1.0
 40
1.0
 40
1.0
 10
10.2489104116
 20
9.0596849765
 30
0.0
 10
10.2516769728
 20
9.0602520851
 30
0.0
 10
10.2557240065
 20
9.0613497469
 30
0.0
 10
10.2608506053
 20
9.0633114268
 30
0.0
 10
10.2644149188
 20
9.0649615272
 30
0.0
 10
10.2677357634
 20
9.066790909
 30
0.0
 10
10.2717589268
 20
9.0693908308
 30
0.0
 10
10.2745224342
 20
9.0716018092
 30
0.0
 10
10.2762215902
 20
9.0731640782
 30
0.0
  0
SPLINE
  5
442
100
AcDbEntity
  8
0
100
AcDbSpline
 62
7
  6
CONTINUOUS
 70
0
 71
3
 72
11
 73
7
 74
0
 42
0.0000001
 43
0.0000001
 44
0.0000000001
 40
0.0
 40
0.0
 40
0.0
 40
0.0
 40
0.2983718441
 40
0.5671968274
 40
0.8011391856
 40
1.0
 40
1.0
 40
1.0
 40
1.0
 10
10.2489104116
 20
9.304098983
 30
0.0
 10
10.2516358138
 20
9.3041935356
 30
0.0
 10
10.2568150224
 20
9.3044292999
 30
0.0
 10
10.2641201502
 20
9.304941804
 30
0.0
 10
10.2705022823
 20
9.3055768919
 30
0.0
 10
10.2744242537
 20
9.3061006016
 30
0.0
 10
10.2762201764
 20
9.3063800676
 30
0.0
  0
SPLINE
  5
443
100
AcDbEntity
  8
0
100
AcDbSpline
 62
7
  6
CONTINUOUS
 70
0
 71
3
 72
15
 73
11
 74
0
 42
0.0000001
 43
0.0000001
 44
0.0000000001
 40
0.0
 40
0.0
 40
0.0
 40
0.0
 40
0.1274032569
 40
0.2541860335
 40
0.3802597078
 40
0.5056000851
 40
0.6301980005
 40
0.7540817706
 40
0.8773402329
 40
1.0
 40
1.0
 40
1.0
 40
1.0
 10
10.2489104116
 20
8.5569323312
 30
0.0
 10
10.2503245062
 20
8.5573786143
 30
0.0
 10
10.2531056846
 20
8.5584021197
 30
0.0
 10
10.2571068485
 20
8.5603072194
 30
0.0
 10
10.2609019026
 20
8.5625487682
 30
0.0
 10
10.2644668319
 20
8.565096524
 30
0.0
 10
10.2677852107
 20
8.5679181196
 30
0.0
 10
10.2708516842
 20
8.5709764588
 30
0.0
 10
10.2736721024
 20
8.5742321669
 30
0.0
 10
10.2753978353
 20
8.5765186028
 30
0.0
 10
10.2762215581
 20
8.5776846331
 30
0.0
  0
SPLINE
  5
444
100
AcDbEntity
  8
0
100
AcDbSpline
 62
7
  6
CONTINUOUS
 70
0
 71
3
 72
15
 73
11
 74
0
 42
0.0000001
 43
0.0000001
 44
0.0000000001
 40
0.0
 40
0.0
 40
0.0
 40
0.0
 40
0.1254858758
 40
0.250851728
 40
0.3760653575
 40
0.5011335488
 40
0.6260509388
 40
0.7508199987
 40
0.8754794491
 40
1.0
 40
1.0
 40
1.0
 40
1.0
 10
10.2489104116
 20
9.304098983
 30
0.0
 10
10.2503268283
 20
9.3036254515
 30
0.0
 10
10.2531134593
 20
9.3025385591
 30
0.0
 10
10.25711483
 20
9.3005194113
 30
0.0
 10
10.2609096723
 20
9.2981440279
 30
0.0
 10
10.2644739314
 20
9.2954446257
 30
0.0
 10
10.2677912303
 20
9.2924556538
 30
0.0
 10
10.2708564196
 20
9.2892163935
 30
0.0
 10
10.2736756561
 20
9.2857682338
 30
0.0
 10
10.2753976291
 20
9.2833508481
 30
0.0
 10
10.2762198627
 20
9.2821178779
 30
0.0
  0
SPLINE
  5
445
100
AcDbEntity
  8
0
100
AcDbSpline
 62
7
  6
CONTINUOUS
 70
0
 71
3
 72
13
 73
9
 74
0
 42
0.0000001
 43
0.0000001
 44
0.0000000001
 40
0.0
 40
0.0
 40
0.0
 40
0.0
 40
0.1260157502
 40
0.2517642059
 40
0.3772126223
 40
0.5023735642
 40
0.7516660132
 40
1.0
 40
1.0
 40
1.0
 40
1.0
 10
10.2215474402
 20
9.434309751
 30
0.0
 10
10.2200894234
 20
9.4338127449
 30
0.0
 10
10.2172277973
 20
9.4326625555
 30
0.0
 10
10.2131364069
 20
9.430521731
 30
0.0
 10
10.2092699024
 20
9.4280169356
 30
0.0
 10
10.2044417158
 20
9.4242610879
 30
0.0
 10
10.1990162914
 20
9.4188760855
 30
0.0
 10
10.1953393315
 20
9.4140043953
 30
0.0
 10
10.1936701247
 20
9.4114689242
 30
0.0
  0
SPLINE
  5
446
100
AcDbEntity
  8
0
100
AcDbSpline
 62
7
  6
CONTINUOUS
 70
0
 71
3
 72
15
 73
11
 74
0
 42
0.0000001
 43
0.0000001
 44
0.0000000001
 40
0.0
 40
0.0
 40
0.0
 40
0.0
 40
0.1266026657
 40
0.2527933306
 40
0.3785068468
 40
0.5037315656
 40
0.628460932
 40
0.7527142256
 40
0.8765596556
 40
1.0
 40
1.0
 40
1.0
 40
1.0
 10
10.2489104116
 20
8.5701780198
 30
0.0
 10
10.2503252781
 20
8.5706355222
 30
0.0
 10
10.2531083644
 20
8.5716851014
 30
0.0
 10
10.2571091698
 20
8.5736371467
 30
0.0
 10
10.260903754
 20
8.5759337679
 30
0.0
 10
10.2644680797
 20
8.5785439096
 30
0.0
 10
10.2677857412
 20
8.5814343608
 30
0.0
 10
10.2708514905
 20
8.5845671291
 30
0.0
 10
10.2736712262
 20
8.5879020866
 30
0.0
 10
10.2753951726
 20
8.5902425257
 30
0.0
 10
10.2762181584
 20
8.5914361622
 30
0.0
  0
SPLINE
  5
447
100
AcDbEntity
  8
0
100
AcDbSpline
 62
7
  6
CONTINUOUS
 70
0
 71
3
 72
14
 73
10
 74
0
 42
0.0000001
 43
0.0000001
 44
0.0000000001
 40
0.0
 40
0.0
 40
0.0
 40
0.0
 40
0.1337929921
 40
0.2653649814
 40
0.3944164966
 40
0.5207835202
 40
0.6444030417
 40
0.7653573385
 40
1.0
 40
1.0
 40
1.0
 40
1.0
 10
10.2489104116
 20
9.0596849765
 30
0.0
 10
10.2503173379
 20
9.0593252302
 30
0.0
 10
10.2530812386
 20
9.0585024045
 30
0.0
 10
10.2570799986
 20
9.0569621515
 30
0.0
 10
10.2608738688
 20
9.0551492531
 30
0.0
 10
10.264439072
 20
9.0530878947
 30
0.0
 10
10.2677596478
 20
9.050803374
 30
0.0
 10
10.2718100522
 20
9.0475345323
 30
0.0
 10
10.2745478213
 20
9.0447910252
 30
0.0
 10
10.2762215629
 20
9.0428714276
 30
0.0
  0
SPLINE
  5
448
100
AcDbEntity
  8
0
100
AcDbSpline
 62
7
  6
CONTINUOUS
 70
0
 71
3
 72
15
 73
11
 74
0
 42
0.0000001
 43
0.0000001
 44
0.0000000001
 40
0.0
 40
0.0
 40
0.0
 40
0.0
 40
0.1250079653
 40
0.2500225919
 40
0.3750245824
 40
0.500027111
 40
0.6250254837
 40
0.7500149182
 40
0.8750209204
 40
1.0
 40
1.0
 40
1.0
 40
1.0
 10
10.2489104116
 20
9.3541873396
 30
0.0
 10
10.2503274501
 20
9.3537068905
 30
0.0
 10
10.2531155239
 20
9.3526038893
 30
0.0
 10
10.2571169943
 20
9.3505558315
 30
0.0
 10
10.260911824
 20
9.3481465364
 30
0.0
 10
10.2644759436
 20
9.3454087196
 30
0.0
 10
10.2677929906
 20
9.3423773537
 30
0.0
 10
10.2708578662
 20
9.3390922632
 30
0.0
 10
10.2736768547
 20
9.3355953909
 30
0.0
 10
10.2753979775
 20
9.3331448867
 30
0.0
 10
10.2762198709
 20
9.3318949722
 30
0.0
  0
SPLINE
  5
449
100
AcDbEntity
  8
0
100
AcDbSpline
 62
7
  6
CONTINUOUS
 70
0
 71
3
 72
15
 73
11
 74
0
 42
0.0000001
 43
0.0000001
 44
0.0000000001
 40
0.0
 40
0.0
 40
0.0
 40
0.0
 40
0.1283632208
 40
0.2558594791
 40
0.3823699121
 40
0.5078514121
 40
0.6322910571
 40
0.7557310406
 40
0.878283535
 40
1.0
 40
1.0
 40
1.0
 40
1.0
 10
10.2489104116
 20
8.5457985487
 30
0.0
 10
10.2503230786
 20
8.546231344
 30
0.0
 10
10.2531010083
 20
8.5472234828
 30
0.0
 10
10.2571012108
 20
8.5490718684
 30
0.0
 10
10.2608955948
 20
8.5512467961
 30
0.0
 10
10.2644601831
 20
8.5537189822
 30
0.0
 10
10.2677785612
 20
8.5564571267
 30
0.0
 10
10.2708452785
 20
8.5594252943
 30
0.0
 10
10.2736659657
 20
8.5625851907
 30
0.0
 10
10.2753933435
 20
8.564806532
 30
0.0
 10
10.2762176762
 20
8.565939316
 30
0.0
  0
SPLINE
  5
44A
100
AcDbEntity
  8
0
100
AcDbSpline
 62
7
  6
CONTINUOUS
 70
0
 71
3
 72
14
 73
10
 74
0
 42
0.0000001
 43
0.0000001
 44
0.0000000001
 40
0.0
 40
0.0
 40
0.0
 40
0.0
 40
0.1337072245
 40
0.2651726897
 40
0.3941414214
 40
0.5204601374
 40
0.6440808976
 40
0.7650923929
 40
1.0
 40
1.0
 40
1.0
 40
1.0
 10
10.2495556137
 20
9.4963462641
 30
0.0
 10
10.2509285517
 20
9.495977632
 30
0.0
 10
10.2536246513
 20
9.4951421145
 30
0.0
 10
10.2575239154
 20
9.4935966079
 30
0.0
 10
10.2612230924
 20
9.4917916392
 30
0.0
 10
10.2647002733
 20
9.4897496397
 30
0.0
 10
10.2679412546
 20
9.4874951434
 30
0.0
 10
10.2718999542
 20
9.4842770597
 30
0.0
 10
10.2745802265
 20
9.4815842486
 30
0.0
 10
10.2762215725
 20
9.4797018053
 30
0.0
  0
SPLINE
  5
44B
100
AcDbEntity
  8
0
100
AcDbSpline
 62
7
  6
CONTINUOUS
 70
0
 71
3
 72
14
 73
10
 74
0
 42
0.0000001
 43
0.0000001
 44
0.0000000001
 40
0.0
 40
0.0
 40
0.0
 40
0.0
 40
0.1337068887
 40
0.2651721565
 40
0.3941408477
 40
0.5204596498
 40
0.6440806736
 40
0.7650925678
 40
1.0
 40
1.0
 40
1.0
 40
1.0
 10
10.2495556104
 20
8.5234373431
 30
0.0
 10
10.2509284797
 20
8.5238059567
 30
0.0
 10
10.2536244469
 20
8.5246414272
 30
0.0
 10
10.2575235284
 20
8.5261868354
 30
0.0
 10
10.2612225456
 20
8.5279916807
 30
0.0
 10
10.2646995908
 20
8.5300335383
 30
0.0
 10
10.2679404619
 20
8.5322878766
 30
0.0
 10
10.271899057
 20
8.5355057122
 30
0.0
 10
10.2745792285
 20
8.5381983792
 30
0.0
 10
10.2762204917
 20
8.5400807346
 30
0.0
  0
SPLINE
  5
44C
100
AcDbEntity
  8
0
100
AcDbSpline
 62
7
  6
CONTINUOUS
 70
0
 71
3
 72
21
 73
17
 74
0
 42
0.0000001
 43
0.0000001
 44
0.0000000001
 40
0.0
 40
0.0
 40
0.0
 40
0.0
 40
0.1250403185
 40
0.1876843044
 40
0.2503216556
 40
0.3128891292
 40
0.3753501647
 40
0.4377070186
 40
0.5000000003
 40
0.5622929821
 40
0.6246498359
 40
0.6871108713
 40
0.7496783449
 40
0.8123156961
 40
0.874959682
 40
1.0
 40
1.0
 40
1.0
 40
1.0
 10
11.2594950876
 20
8.4181077781
 30
0.0
 10
11.2586004649
 20
8.4304653154
 30
0.0
 10
11.2565742602
 20
8.4489616272
 30
0.0
 10
11.2534599815
 20
8.4735672709
 30
0.0
 10
11.2511460866
 20
8.4920367103
 30
0.0
 10
11.2490743774
 20
8.5105171211
 30
0.0
 10
11.2474376918
 20
8.5290147266
 30
0.0
 10
11.2463892194
 20
8.5475290771
 30
0.0
 10
11.2460282244
 20
8.5660537847
 30
0.0
 10
11.2463892188
 20
8.5845784924
 30
0.0
 10
11.2474376914
 20
8.6030928428
 30
0.0
 10
11.2490743772
 20
8.6215904483
 30
0.0
 10
11.2511460866
 20
8.6400708591
 30
0.0
 10
11.2534599816
 20
8.6585402984
 30
0.0
 10
11.2565742602
 20
8.6831459421
 30
0.0
 10
11.2586004649
 20
8.7016422539
 30
0.0
 10
11.2594950876
 20
8.7139997911
 30
0.0
  0
SPLINE
  5
44D
100
AcDbEntity
  8
0
100
AcDbSpline
 62
7
  6
CONTINUOUS
 70
0
 71
3
 72
13
 73
9
 74
0
 42
0.0000001
 43
0.0000001
 44
0.0000000001
 40
0.0
 40
0.0
 40
0.0
 40
0.0
 40
0.2714759093
 40
0.4022598467
 40
0.529280655
 40
0.6524186547
 40
0.771757054
 40
1.0
 40
1.0
 40
1.0
 40
1.0
 10
10.2489104116
 20
9.0265153638
 30
0.0
 10
10.2516842728
 20
9.0271338126
 30
0.0
 10
10.2557403719
 20
9.0283322696
 30
0.0
 10
10.2608585826
 20
9.0304633598
 30
0.0
 10
10.2644234751
 20
9.0322591415
 30
0.0
 10
10.2677443556
 20
9.0342497831
 30
0.0
 10
10.2717777157
 20
9.0370859551
 30
0.0
 10
10.2745320615
 20
9.0394864537
 30
0.0
 10
10.2762215781
 20
9.0411760315
 30
0.0
  0
SPLINE
  5
44E
100
AcDbEntity
  8
0
100
AcDbSpline
 62
7
  6
CONTINUOUS
 70
0
 71
3
 72
15
 73
11
 74
0
 42
0.0000001
 43
0.0000001
 44
0.0000000001
 40
0.0
 40
0.0
 40
0.0
 40
0.0
 40
0.12500001
 40
0.2500000712
 40
0.375000273
 40
0.5000004501
 40
0.6250005354
 40
0.7500004936
 40
0.8750002412
 40
1.0
 40
1.0
 40
1.0
 40
1.0
 10
11.2594950876
 20
8.7139997911
 30
0.0
 10
11.2590485882
 20
8.7263348982
 30
0.0
 10
11.2579276128
 20
8.7509970142
 30
0.0
 10
11.2557985119
 20
8.7879656742
 30
0.0
 10
11.2534598118
 20
8.8249213693
 30
0.0
 10
11.2511448021
 20
8.861878576
 30
0.0
 10
11.2490727222
 20
8.8988506366
 30
0.0
 10
11.2474365536
 20
8.9358452368
 30
0.0
 10
11.2463889133
 20
8.9728616914
 30
0.0
 10
11.2461485149
 20
8.9975486433
 30
0.0
 10
11.2461485149
 20
9.009891804
 30
0.0
  0
SPLINE
  5
44F
100
AcDbEntity
  8
0
100
AcDbSpline
 62
7
  6
CONTINUOUS
 70
0
 71
3
 72
15
 73
11
 74
0
 42
0.0000001
 43
0.0000001
 44
0.0000000001
 40
0.0
 40
0.0
 40
0.0
 40
0.0
 40
0.1259639305
 40
0.2516827908
 40
0.3771100881
 40
0.5022445869
 40
0.6270808786
 40
0.7516290264
 40
0.8759406152
 40
1.0
 40
1.0
 40
1.0
 40
1.0
 10
10.2489104116
 20
9.434309751
 30
0.0
 10
10.2503263143
 20
9.4338430645
 30
0.0
 10
10.2531117239
 20
9.4327720957
 30
0.0
 10
10.2571132748
 20
9.4307815138
 30
0.0
 10
10.2609083792
 20
9.4284396341
 30
0.0
 10
10.2644729811
 20
9.4257781929
 30
0.0
 10
10.267790687
 20
9.4228311136
 30
0.0
 10
10.2708562726
 20
9.4196371025
 30
0.0
 10
10.2736759294
 20
9.4162371451
 30
0.0
 10
10.2753989292
 20
9.4138525696
 30
0.0
 10
10.2762215771
 20
9.4126363765
 30
0.0
  0
SPLINE
  5
450
100
AcDbEntity
  8
0
100
AcDbSpline
 62
7
  6
CONTINUOUS
 70
0
 71
3
 72
15
 73
11
 74
0
 42
0.0000001
 43
0.0000001
 44
0.0000000001
 40
0.0
 40
0.0
 40
0.0
 40
0.0
 40
0.1251670394
 40
0.2502987002
 40
0.3753712272
 40
0.5003954543
 40
0.6253667078
 40
0.7502827586
 40
0.8751734341
 40
1.0
 40
1.0
 40
1.0
 40
1.0
 10
10.2489104116
 20
8.6219214863
 30
0.0
 10
10.2503271703
 20
8.622399601
 30
0.0
 10
10.2531146262
 20
8.6234971591
 30
0.0
 10
10.2571158804
 20
8.6255354376
 30
0.0
 10
10.2609105566
 20
8.6279332486
 30
0.0
 10
10.2644745882
 20
8.6306580521
 30
0.0
 10
10.2677916073
 20
8.6336750557
 30
0.0
 10
10.2708565192
 20
8.6369446064
 30
0.0
 10
10.2736755005
 20
8.6404250074
 30
0.0
 10
10.2753968199
 20
8.6428643365
 30
0.0
 10
10.2762187832
 20
8.6441085344
 30
0.0
  0
SPLINE
  5
451
100
AcDbEntity
  8
0
100
AcDbSpline
 62
7
  6
CONTINUOUS
 70
0
 71
3
 72
15
 73
11
 74
0
 42
0.0000001
 43
0.0000001
 44
0.0000000001
 40
0.0
 40
0.0
 40
0.0
 40
0.0
 40
0.1249997588
 40
0.2499995064
 40
0.3749994647
 40
0.4999995499
 40
0.6249997271
 40
0.7499999288
 40
0.87499999
 40
1.0
 40
1.0
 40
1.0
 40
1.0
 10
11.2461485149
 20
9.009891804
 30
0.0
 10
11.2461485149
 20
9.0222349648
 30
0.0
 10
11.2463889133
 20
9.0469219167
 30
0.0
 10
11.2474365536
 20
9.0839383714
 30
0.0
 10
11.2490727222
 20
9.1209329715
 30
0.0
 10
11.2511448021
 20
9.1579050321
 30
0.0
 10
11.2534598118
 20
9.1948622388
 30
0.0
 10
11.2557985119
 20
9.2318179339
 30
0.0
 10
11.2579276128
 20
9.2687865939
 30
0.0
 10
11.2590485882
 20
9.2934487098
 30
0.0
 10
11.2594950876
 20
9.305783817
 30
0.0
  0
SPLINE
  5
452
100
AcDbEntity
  8
0
100
AcDbSpline
 62
7
  6
CONTINUOUS
 70
0
 71
3
 72
15
 73
11
 74
0
 42
0.0000001
 43
0.0000001
 44
0.0000000001
 40
0.0
 40
0.0
 40
0.0
 40
0.0
 40
0.1259638903
 40
0.2516827295
 40
0.3771100264
 40
0.5022445221
 40
0.62708084
 40
0.7516290404
 40
0.8759406298
 40
1.0
 40
1.0
 40
1.0
 40
1.0
 10
10.2489104116
 20
8.5854738571
 30
0.0
 10
10.2503262349
 20
8.5859405174
 30
0.0
 10
10.2531114911
 20
8.5870114184
 30
0.0
 10
10.2571128333
 20
8.5890018577
 30
0.0
 10
10.2609077556
 20
8.5913435575
 30
0.0
 10
10.2644722035
 20
8.5940047907
 30
0.0
 10
10.2677897843
 20
8.5969516383
 30
0.0
 10
10.2708552906
 20
8.6001453851
 30
0.0
 10
10.2736748483
 20
8.6035451078
 30
0.0
 10
10.2753977561
 20
8.6059295484
 30
0.0
 10
10.2762203557
 20
8.6071456752
 30
0.0
  0
SPLINE
  5
453
100
AcDbEntity
  8
0
100
AcDbSpline
 62
7
  6
CONTINUOUS
 70
0
 71
3
 72
15
 73
11
 74
0
 42
0.0000001
 43
0.0000001
 44
0.0000000001
 40
0.0
 40
0.0
 40
0.0
 40
0.0
 40
0.1307632454
 40
0.2600508118
 40
0.3876667344
 40
0.5135187597
 40
0.6375771606
 40
0.7599072002
 40
0.8806764061
 40
1.0
 40
1.0
 40
1.0
 40
1.0
 10
10.2489104116
 20
8.5300642568
 30
0.0
 10
10.2503203749
 20
8.5304642271
 30
0.0
 10
10.2530917976
 20
8.531380186
 30
0.0
 10
10.257091343
 20
8.5330904126
 30
0.0
 10
10.260885532
 20
8.535103064
 30
0.0
 10
10.2644504977
 20
8.5373912077
 30
0.0
 10
10.2677698397
 20
8.5399260898
 30
0.0
 10
10.2708379121
 20
8.5426744993
 30
0.0
 10
10.2736599118
 20
8.5456007185
 30
0.0
 10
10.2753923371
 20
8.5476628929
 30
0.0
 10
10.2762187344
 20
8.548714394
 30
0.0
  0
SPLINE
  5
454
100
AcDbEntity
  8
0
100
AcDbSpline
 62
7
  6
CONTINUOUS
 70
0
 71
3
 72
11
 73
7
 74
0
 42
0.0000001
 43
0.0000001
 44
0.0000000001
 40
0.0
 40
0.0
 40
0.0
 40
0.0
 40
0.2210686833
 40
0.4611029918
 40
0.7210662092
 40
1.0
 40
1.0
 40
1.0
 40
1.0
 10
10.1936701247
 20
9.1055161302
 30
0.0
 10
10.1954060395
 20
9.1040276514
 30
0.0
 10
10.1992543461
 20
9.1011811556
 30
0.0
 10
10.2057964346
 20
9.0975585594
 30
0.0
 10
10.2133001573
 20
9.0945682309
 30
0.0
 10
10.2187141784
 20
9.0931676252
 30
0.0
 10
10.2215474402
 20
9.0926224305
 30
0.0
  0
SPLINE
  5
455
100
AcDbEntity
  8
0
100
AcDbSpline
 62
7
  6
CONTINUOUS
 70
0
 71
3
 72
13
 73
9
 74
0
 42
0.0000001
 43
0.0000001
 44
0.0000000001
 40
0.0
 40
0.0
 40
0.0
 40
0.0
 40
0.1266656271
 40
0.2528817057
 40
0.3786041723
 40
0.5038443314
 40
0.7527367507
 40
1.0
 40
1.0
 40
1.0
 40
1.0
 10
10.2215474402
 20
9.4496055883
 30
0.0
 10
10.2200903624
 20
9.4491183202
 30
0.0
 10
10.2172308288
 20
9.4479909921
 30
0.0
 10
10.2131394595
 20
9.4458911463
 30
0.0
 10
10.2092728118
 20
9.4434341246
 30
0.0
 10
10.2044478672
 20
9.4397524737
 30
0.0
 10
10.1990244491
 20
9.4344738697
 30
0.0
 10
10.1953413514
 20
9.4296882616
 30
0.0
 10
10.1936701247
 20
9.4271978567
 30
0.0
  0
SPLINE
  5
456
100
AcDbEntity
  8
0
100
AcDbSpline
 62
7
  6
CONTINUOUS
 70
0
 71
3
 72
25
 73
21
 74
0
 42
0.0000001
 43
0.0000001
 44
0.0000000001
 40
0.0
 40
0.0
 40
0.0
 40
0.0
 40
0.1250390324
 40
0.1876824082
 40
0.2503191486
 40
0.3128859957
 40
0.3753463827
 40
0.406536834
 40
0.4377048762
 40
0.468856701
 40
0.5000000001
 40
0.5311432992
 40
0.562295124
 40
0.5934631663
 40
0.6246536175
 40
0.6871140046
 40
0.7496808516
 40
0.8123175921
 40
0.8749609679
 40
1.0
 40
1.0
 40
1.0
 40
1.0
 10
11.2594950876
 20
9.305783817
 30
0.0
 10
11.2586004649
 20
9.3181413542
 30
0.0
 10
11.2565742625
 20
9.3366376726
 30
0.0
 10
11.253459977
 20
9.3612433142
 30
0.0
 10
11.2511460814
 20
9.3797127857
 30
0.0
 10
11.2490742701
 20
9.3981930989
 30
0.0
 10
11.2477099832
 20
9.4136144714
 30
0.0
 10
11.2469126456
 20
9.4259573323
 30
0.0
 10
11.2464750987
 20
9.4352132574
 30
0.0
 10
11.246208235
 20
9.4444710456
 30
0.0
 10
11.2461187841
 20
9.4537298235
 30
0.0
 10
11.2462082347
 20
9.4629886015
 30
0.0
 10
11.2464750991
 20
9.4722463897
 30
0.0
 10
11.2469126453
 20
9.4815023148
 30
0.0
 10
11.2477099836
 20
9.4938451756
 30
0.0
 10
11.2490742699
 20
9.5092665482
 30
0.0
 10
11.2511460813
 20
9.5277468613
 30
0.0
 10
11.253459977
 20
9.5462163329
 30
0.0
 10
11.2565742625
 20
9.5708219744
 30
0.0
 10
11.2586004649
 20
9.5893182928
 30
0.0
 10
11.2594950876
 20
9.60167583
 30
0.0
  0
ENDSEC
  0
SECTION
  2
OBJECTS
  0
DICTIONARY
  5
C
100
AcDbDictionary
280
0
281
1
  3
ACAD_GROUP
350
D
  3
ACAD_MLINESTYLE
350
17
  3
ACAD_LAYOUT
350
1A
  3
ACAD_PLOTSETTINGS
350
19
  3
ACAD_PLOTSTYLENAME
350
E
  0
DICTIONARY
  5
D
102
{ACAD_REACTORS
330
C
102
}
100
AcDbDictionary
280
0
281
1
  0
ACDBDICTIONARYWDFLT
  5
E
102
{ACAD_REACTORS
330
C
102
}
100
AcDbDictionary
281
1
  3
Normal
350
F
100
AcDbDictionaryWithDefault
340
F
  0
DICTIONARY
  5
17
102
{ACAD_REACTORS
330
C
102
}
100
AcDbDictionary
280
0
281
1
  3
Standard
350
18
  0
DICTIONARY
  5
19
102
{ACAD_REACTORS
330
C
102
}
100
AcDbDictionary
281
1
  0
DICTIONARY
  5
1A
102
{ACAD_REACTORS
330
C
102
}
100
AcDbDictionary
281
1
  3
Model
350
457
  3
Layout1
350
458
  0
ACDBPLACEHOLDER
  5
F
102
{ACAD_REACTORS
330
E
102
}
  0
MLINESTYLE
  5
18
102
{ACAD_REACTORS
330
17
102
}
100
AcDbMlineStyle
  2
STANDARD
 70
0
  3

 62
256
 51
90.0
 52
90.0
 71
2
 49
0.5
 62
256
  6
BYLAYER
 49
-0.5
 62
256
  6
BYLAYER
  0
LAYOUT
  5
457
102
{ACAD_REACTORS
330
1A
102
}
100
AcDbPlotSettings
  1

  2
none_device
  4
ANSI_C_(22.00_x_17.00_Inches)
  6

 40
0.0
 41
0.0
 42
0.0
 43
0.0
 44
558.8
 45
431.8
 46
0.0
 47
0.0
 48
0.0
 49
0.0
140
0.0
141
0.0
142
1.0
143
1.0
 70
1024
 72
0
 73
0
 74
0
  7

 75
0
147
1.0
148
0.0
149
0.0
100
AcDbLayout
  1
Model
 70
0
 71
0
 10
0.0
 20
0.0
 11
22.0
 21
17.0
 12
0.0
 22
0.0
 32
0.0
 14
0.0
 24
0.0
 34
0.0
 15
0.0
 25
0.0
 35
0.0
146
0.0
 13
0.0
 23
0.0
 33
0.0
 16
1.0
 26
0.0
 36
0.0
 17
0.0
 27
1.0
 37
0.0
 76
0
330
205
345
0
346
0
  0
LAYOUT
  5
458
102
{ACAD_REACTORS
330
1A
102
}
100
AcDbPlotSettings
  1

  2
none_device
  4
ANSI_C_(22.00_x_17.00_Inches)
  6

 40
0.0
 41
0.0
 42
0.0
 43
0.0
 44
558.8
 45
431.8
 46
0.0
 47
0.0
 48
0.0
 49
0.0
140
0.0
141
0.0
142
1.0
143
1.0
 70
0
 72
0
 73
0
 74
0
  7

 75
0
147
1.0
148
0.0
149
0.0
100
AcDbLayout
  1
Layout1
 70
0
 71
1
 10
0.0
 20
0.0
 11
22.0
 21
17.0
 12
0.0
 22
0.0
 32
0.0
 14
0.0
 24
0.0
 34
0.0
 15
0.0
 25
0.0
 35
0.0
146
0.0
 13
0.0
 23
0.0
 33
0.0
 16
1.0
 26
0.0
 36
0.0
 17
0.0
 27
1.0
 37
0.0
 76
0
330
206
345
0
346
0
  0
ENDSEC
  0
EOF
