999
DXF file: E:\BT Custom\CADOUTPUT\_TOP.dxf
999
Pro/ENGINEER 2018400 by Parametric Technology Corporation
  0
SECTION
  2
HEADER
  9
$ACADVER
  1
AC1018
  9
$DWGCODEPAGE
  3
ANSI_1252
  9
$EXTMAX
 10
22.0
 20
17.0
 30
0.0
  9
$EXTMIN
 10
0.0
 20
0.0
 30
0.0
  9
$LIMMIN
 10
0.0
 20
0.0
  9
$LIMMAX
 10
22.0
 20
17.0
  9
$VIEWCTR
 10
11.0
 20
8.5
  9
$VIEWSIZE
 40
17.0
  9
$CLAYER
  8
0
  9
$LTSCALE
 40
1.21
  9
$CELTYPE
  6
BYLAYER
  9
$DIMSCALE
 40
1.0
  9
$DIMASZ
 40
0.1
  9
$DIMEXO
 40
0.0625
  9
$DIMDLI
 40
0.836
  9
$DIMEXE
 40
0.125
  9
$DIMCEN
 40
0.198
  9
$DIMLFAC
 40
1.0
  9
$DIMBLK
  1
_FILLED
  9
$DIMALT
 70
1
  9
$DIMALTD
 70
2
  9
$DIMALTTD
 70
2
  9
$DIMALTF
 40
25.4
  9
$DIMTXT
 40
0.08
  9
$DIMTOL
 70
1
  9
$DIMLIM
 70
0
  9
$DIMTFAC
 40
1.0
  9
$DIMTP
 40
0.001
  9
$DIMTM
 40
0.001
  9
$DIMGAP
 40
0.09
  9
$DIMDSEP
 70
46
  9
$AUNITS
 70
0
  9
$PDMODE
 70
3
  9
$PDSIZE
 40
0.06
  9
$HANDSEED
  5
253
  9
$TILEMODE
 70
1
  9
$MEASUREMENT
 70
0
  9
$INSUNITS
 70
1
  0
ENDSEC
  0
SECTION
  2
CLASSES
  0
CLASS
  1
ACDBDICTIONARYWDFLT
  2
AcDbDictionaryWithDefault
  3
AutoCAD 2000
 90
0
 91
1
280
0
281
0
  0
CLASS
  1
ACDBPLACEHOLDER
  2
AcDbPlaceHolder
  3
AutoCAD 2000
 90
0
 91
1
280
0
281
0
  0
CLASS
  1
LAYOUT
  2
AcDbLayout
  3
AutoCAD 2000
 90
0
 91
0
280
0
281
0
  0
ENDSEC
  0
SECTION
  2
TABLES
  0
TABLE
  2
VPORT
  5
8
100
AcDbSymbolTable
 70
2
  0
VPORT
  5
1F4
100
AcDbSymbolTableRecord
100
AcDbViewportTableRecord
  2
*ACTIVE
 70
0
 10
0.0
 20
0.0
 11
1.0
 21
1.0
 12
11.0
 22
8.5
 13
0.0
 23
0.0
 14
1.0
 24
1.0
 15
0.0
 25
0.0
 16
0.0
 26
0.0
 36
1.0
 17
0.0
 27
0.0
 37
0.0
 40
17.0
 41
1.2941176471
 42
50.0
 43
0.0
 44
0.0
 50
0.0
 51
0.0
 71
0
 72
100
 73
1
 74
1
 75
0
 76
0
 77
0
 78
0
  0
ENDTAB
  0
TABLE
  2
LTYPE
  5
5
100
AcDbSymbolTable
 70
6
  0
LTYPE
  5
14
100
AcDbSymbolTableRecord
100
AcDbLinetypeTableRecord
  2
BYBLOCK
 70
0
  3

 72
65
 73
0
 40
0.0
  0
LTYPE
  5
15
100
AcDbSymbolTableRecord
100
AcDbLinetypeTableRecord
  2
BYLAYER
 70
0
  3

 72
65
 73
0
 40
0.0
  0
LTYPE
  5
16
100
AcDbSymbolTableRecord
100
AcDbLinetypeTableRecord
  2
CONTINUOUS
 70
64
  3
Solid line
 72
65
 73
0
 40
0.0
  0
LTYPE
  5
1F5
100
AcDbSymbolTableRecord
100
AcDbLinetypeTableRecord
  2
CENTER
 70
64
  3
____ _ ____ _ ____ _ ____ _ ____ _ ____ _ ____
 72
65
 73
4
 40
0.6
 49
0.375
 74
0
 49
-0.075
 74
0
 49
0.075
 74
0
 49
-0.075
 74
0
  0
LTYPE
  5
1F6
100
AcDbSymbolTableRecord
100
AcDbLinetypeTableRecord
  2
HIDDEN
 70
64
  3
- - - - - - - - - - - - - - - - - - - -
 72
65
 73
2
 40
0.2
 49
0.1
 74
0
 49
-0.1
 74
0
  0
LTYPE
  5
1F7
100
AcDbSymbolTableRecord
100
AcDbLinetypeTableRecord
  2
PHANTOM
 70
64
  3
_____ _ _ _____ _ _ _____ _ _ _____
 72
65
 73
6
 40
0.8
 49
0.45
 74
0
 49
-0.05
 74
0
 49
0.1
 74
0
 49
-0.05
 74
0
 49
0.1
 74
0
 49
-0.05
 74
0
  0
LTYPE
  5
1F8
100
AcDbSymbolTableRecord
100
AcDbLinetypeTableRecord
  2
DOT
 70
64
  3
. . . . . . . . . . . . . . . . . . . .
 72
65
 73
2
 40
0.2
 49
0.1
 74
0
 49
-0.1
 74
0
  0
LTYPE
  5
1F9
100
AcDbSymbolTableRecord
100
AcDbLinetypeTableRecord
  2
DASHED
 70
64
  3
- - - - - - - - - - - - - - - - - - - -
 72
65
 73
2
 40
0.2
 49
0.1
 74
0
 49
-0.1
 74
0
  0
ENDTAB
  0
TABLE
  2
LAYER
  5
2
100
AcDbSymbolTable
 70
36
  0
LAYER
  5
10
100
AcDbSymbolTableRecord
100
AcDbLayerTableRecord
  2
0
 70
0
 62
7
  6
CONTINUOUS
370
-3
390
F
  0
LAYER
  5
1FA
100
AcDbSymbolTableRecord
100
AcDbLayerTableRecord
  2
DEFAULT_1
 70
0
 62
7
  6
CENTER
370
-3
390
F
  0
LAYER
  5
1FB
100
AcDbSymbolTableRecord
100
AcDbLayerTableRecord
  2
DEFAULT_2
 70
0
 62
8
  6
HIDDEN
370
-3
390
F
  0
LAYER
  5
1FC
100
AcDbSymbolTableRecord
100
AcDbLayerTableRecord
  2
DEFAULT_3
 70
0
 62
7
  6
PHANTOM
370
-3
390
F
  0
LAYER
  5
1FD
100
AcDbSymbolTableRecord
100
AcDbLayerTableRecord
  2
ALL_FEATURES
 70
0
 62
7
  6
CONTINUOUS
370
-3
390
F
  0
LAYER
  5
1FE
100
AcDbSymbolTableRecord
100
AcDbLayerTableRecord
  2
AXES_FEATURES
 70
0
 62
7
  6
CONTINUOUS
370
-3
390
F
  0
LAYER
  5
1FF
100
AcDbSymbolTableRecord
100
AcDbLayerTableRecord
  2
DEFAULT_COORDINATE_SYSTEM
 70
0
 62
7
  6
CONTINUOUS
370
-3
390
F
  0
LAYER
  5
200
100
AcDbSymbolTableRecord
100
AcDbLayerTableRecord
  2
DEFAULT_DATUM_AXES
 70
0
 62
7
  6
CONTINUOUS
370
-3
390
F
  0
LAYER
  5
201
100
AcDbSymbolTableRecord
100
AcDbLayerTableRecord
  2
DEFAULT_DATUM_PLANES
 70
0
 62
7
  6
CONTINUOUS
370
-3
390
F
  0
LAYER
  5
202
100
AcDbSymbolTableRecord
100
AcDbLayerTableRecord
  2
DIMENSIONS
 70
0
 62
7
  6
CONTINUOUS
370
-3
390
F
  0
ENDTAB
  0
TABLE
  2
STYLE
  5
3
100
AcDbSymbolTable
 70
1
  0
STYLE
  5
11
100
AcDbSymbolTableRecord
100
AcDbTextStyleTableRecord
  2
STANDARD
 70
0
 40
0.0
 41
0.8
 50
0.0
 71
0
 42
0.2
  3
txt
  4

  0
STYLE
  5
203
100
AcDbSymbolTableRecord
100
AcDbTextStyleTableRecord
  2
TEXTSTYLE_1
 70
0
 40
0.0
 41
0.8
 50
0.0
 71
0
 42
0.2
  3
gdt
  4

  0
ENDTAB
  0
TABLE
  2
VIEW
  5
6
100
AcDbSymbolTable
 70
0
  0
ENDTAB
  0
TABLE
  2
UCS
  5
7
100
AcDbSymbolTable
 70
0
  0
ENDTAB
  0
TABLE
  2
APPID
  5
9
100
AcDbSymbolTable
 70
1
  0
APPID
  5
204
100
AcDbSymbolTableRecord
100
AcDbRegAppTableRecord
  2
ACAD
 70
0
  0
ENDTAB
  0
TABLE
  2
BLOCK_RECORD
  5
1
100
AcDbSymbolTable
 70
0
  0
BLOCK_RECORD
  5
205
100
AcDbSymbolTableRecord
100
AcDbBlockTableRecord
  2
*Model_Space
  0
BLOCK_RECORD
  5
206
100
AcDbSymbolTableRecord
100
AcDbBlockTableRecord
  2
*Paper_Space
  0
BLOCK_RECORD
  5
207
100
AcDbSymbolTableRecord
100
AcDbBlockTableRecord
  2
_FILLED
  0
ENDTAB
  0
TABLE
  2
DIMSTYLE
  5
A
100
AcDbSymbolTable
 70
1
100
AcDbDimStyleTable
 71
0
  0
DIMSTYLE
105
208
100
AcDbSymbolTableRecord
100
AcDbDimStyleTableRecord
  2
STANDARD
 70
0
  3

  4

 40
1.0
 41
0.1
 42
0.0625
 43
0.38
 44
0.125
 45
0.0
 46
0.0
 47
0.001
 48
0.001
140
0.08
141
0.09
142
0.0
143
25.4
144
1.0
145
0.0
146
1.0
147
0.09
 71
1.0
 72
0.0
 73
1
 74
1
 75
0
 76
0
 77
0
 78
4
 79
1
170
1
171
2
172
0
173
0
174
0
175
0
176
0
177
0
178
0
270
2
179
3
271
3
272
3
273
2
274
2
275
0
280
0
281
0
282
0
283
1
284
4
285
0
286
0
287
3
288
0
340
11
278
46
341
207
342
207
343
207
344
207
  0
ENDTAB
  0
ENDSEC
  0
SECTION
  2
BLOCKS
  0
BLOCK
  5
20
100
AcDbEntity
  8
0
100
AcDbBlockBegin
  2
*Model_Space
 70
0
 10
0.0
 20
0.0
 30
0.0
  3
*Model_Space
  1

  0
ENDBLK
  5
21
100
AcDbEntity
  8
0
100
AcDbBlockEnd
  0
BLOCK
  5
1C
100
AcDbEntity
  8
0
100
AcDbBlockBegin
  2
*Paper_Space
 70
0
 10
0.0
 20
0.0
 30
0.0
  3
*Paper_Space
  1

  0
ENDBLK
  5
1D
100
AcDbEntity
  8
0
100
AcDbBlockEnd
  0
BLOCK
  5
209
100
AcDbEntity
  8
0
100
AcDbBlockBegin
  2
_FILLED
 70
64
 10
0.0
 20
0.0
  3
_FILLED
  1

  0
SOLID
  5
20A
100
AcDbEntity
  8
0
  6
BYBLOCK
 62
0
100
AcDbTrace
 10
0.0
 20
0.0
 11
-1.0
 21
0.2
 12
-1.0
 22
-0.2
 13
-1.0
 23
-0.2
  0
ENDBLK
  5
20B
100
AcDbEntity
  8
0
  6
BYBLOCK
 62
0
100
AcDbBlockEnd
  0
ENDSEC
  0
SECTION
  2
ENTITIES
  0
LINE
  5
20C
100
AcDbEntity
  8
0
100
AcDbLine
 62
7
  6
CONTINUOUS
 10
7.7973183383
 20
9.0508686
 11
7.7973183383
 21
9.1903318604
  0
LINE
  5
20D
100
AcDbEntity
  8
0
100
AcDbLine
 62
7
  6
CONTINUOUS
 10
12.2846944296
 20
5.7743318604
 11
9.809942247
 21
5.7743318604
  0
LINE
  5
20E
100
AcDbEntity
  8
0
100
AcDbLine
 62
7
  6
CONTINUOUS
 10
12.2846944296
 20
6.1743318604
 11
11.1365869089
 21
6.1743318604
  0
LINE
  5
20F
100
AcDbEntity
  8
0
100
AcDbLine
 62
7
  6
CONTINUOUS
 10
10.9580838595
 20
6.1743318604
 11
9.809942247
 21
6.1743318604
  0
LWPOLYLINE
  5
210
100
AcDbEntity
  8
0
100
AcDbPolyline
 62
7
  6
CONTINUOUS
 90
9
 70
0
 10
12.1607140144
 20
6.1743318604
 10
12.158582789
 20
6.1743618433
 10
12.1527575133
 20
6.1747276664
 10
12.1462701555
 20
6.1756068847
 10
12.1393930015
 20
6.1770871719
 10
12.1322984175
 20
6.1792306014
 10
12.1249720578
 20
6.1821495096
 10
12.1173316552
 20
6.1860413087
 10
12.1120656149
 20
6.1892951806
  0
LWPOLYLINE
  5
211
100
AcDbEntity
  8
0
100
AcDbPolyline
 62
7
  6
CONTINUOUS
 90
3
 70
0
 10
11.4500471564
 20
6.2043392953
 10
11.4545504459
 20
6.2041049653
 10
11.4591452387
 20
6.2033108987
  0
LWPOLYLINE
  5
212
100
AcDbEntity
  8
0
100
AcDbPolyline
 62
7
  6
CONTINUOUS
 90
5
 70
0
 10
10.64466062
 20
6.2043392863
 10
10.6519860942
 20
6.2037635294
 10
10.661359348
 20
6.2013881672
 10
10.6695835691
 20
6.1976348406
 10
10.6723183383
 20
6.1957881332
  0
LINE
  5
213
100
AcDbEntity
  8
0
100
AcDbLine
 62
7
  6
CONTINUOUS
 10
9.8598183383
 20
8.5023318604
 11
9.8598183383
 21
8.8773318604
  0
LWPOLYLINE
  5
214
100
AcDbEntity
  8
0
100
AcDbPolyline
 62
7
  6
CONTINUOUS
 90
3
 70
0
 10
10.6354667847
 20
6.2033027081
 10
10.6400545529
 20
6.2041001875
 10
10.6446063494
 20
6.2043392999
  0
LINE
  5
215
100
AcDbEntity
  8
0
100
AcDbLine
 62
7
  6
CONTINUOUS
 10
11.4591452387
 20
6.2033108987
 11
11.4607436607
 21
6.2028532993
  0
LINE
  5
216
100
AcDbEntity
  8
0
100
AcDbLine
 62
7
  6
CONTINUOUS
 10
10.6723192073
 20
6.7743318604
 11
11.4223174693
 21
6.7743318604
  0
LINE
  5
217
100
AcDbEntity
  8
0
100
AcDbLine
 62
7
  6
CONTINUOUS
 10
11.5035390389
 20
6.1743318604
 11
11.4607477283
 21
6.2028594007
  0
LINE
  5
218
100
AcDbEntity
  8
0
100
AcDbLine
 62
7
  6
CONTINUOUS
 10
10.3910683383
 20
7.3943318604
 11
10.3910683383
 21
8.5023318604
  0
LINE
  5
219
100
AcDbEntity
  8
0
100
AcDbLine
 62
7
  6
CONTINUOUS
 10
12.112061617
 20
6.1892977905
 11
11.4317838057
 21
6.6428163313
  0
LINE
  5
21A
100
AcDbEntity
  8
0
100
AcDbLine
 62
7
  6
CONTINUOUS
 10
10.6723183383
 20
6.1743318604
 11
10.6723183383
 21
6.3094048121
  0
LINE
  5
21B
100
AcDbEntity
  8
0
100
AcDbLine
 62
7
  6
CONTINUOUS
 10
10.6723184627
 20
6.6025248106
 11
10.6723183383
 21
6.7743318604
  0
LINE
  5
21C
100
AcDbEntity
  8
0
100
AcDbLine
 62
7
  6
CONTINUOUS
 10
10.7323183383
 20
6.7743318604
 11
10.7323183383
 21
7.3743318604
  0
LWPOLYLINE
  5
21D
100
AcDbEntity
  8
0
100
AcDbPolyline
 62
7
  6
CONTINUOUS
 90
3
 70
0
 10
11.4317653258
 20
6.6428285324
 10
11.4267014371
 20
6.6467745437
 10
11.4223183383
 20
6.6514869196
  0
LINE
  5
21E
100
AcDbEntity
  8
0
100
AcDbLine
 62
7
  6
CONTINUOUS
 10
10.8473183383
 20
7.3943318604
 11
10.8473183383
 21
7.3743318604
  0
LINE
  5
21F
100
AcDbEntity
  8
0
100
AcDbLine
 62
7
  6
CONTINUOUS
 10
10.8723184765
 20
6.468484717
 11
10.8723183383
 21
6.1743318604
  0
LINE
  5
220
100
AcDbEntity
  8
0
100
AcDbLine
 62
7
  6
CONTINUOUS
 10
10.7323200539
 20
7.3743318604
 11
11.3623166227
 21
7.3743318604
  0
LINE
  5
221
100
AcDbEntity
  8
0
100
AcDbLine
 62
7
  6
CONTINUOUS
 10
10.3910694131
 20
7.3943318604
 11
11.7035672652
 21
7.3943318604
  0
LINE
  5
222
100
AcDbEntity
  8
0
100
AcDbLine
 62
7
  6
CONTINUOUS
 10
11.2223183383
 20
6.1743318604
 11
11.2223183383
 21
6.4681986456
  0
LINE
  5
223
100
AcDbEntity
  8
0
100
AcDbLine
 62
7
  6
CONTINUOUS
 10
11.2473183383
 20
7.3943318604
 11
11.2473183383
 21
7.3743318604
  0
LINE
  5
224
100
AcDbEntity
  8
0
100
AcDbLine
 62
7
  6
CONTINUOUS
 10
11.3623183383
 20
6.7743318604
 11
11.3623183383
 21
7.3743318604
  0
LINE
  5
225
100
AcDbEntity
  8
0
100
AcDbLine
 62
7
  6
CONTINUOUS
 10
11.4223183382
 20
6.6031317147
 11
11.4223183383
 21
6.7743318604
  0
LINE
  5
226
100
AcDbEntity
  8
0
100
AcDbLine
 62
7
  6
CONTINUOUS
 10
11.4223183383
 20
6.3096190822
 11
11.4223183383
 21
6.1743318604
  0
LWPOLYLINE
  5
227
100
AcDbEntity
  8
0
100
AcDbPolyline
 62
7
  6
CONTINUOUS
 90
3
 70
0
 10
10.6723183383
 20
6.651485385
 10
10.6679147213
 20
6.6467556343
 10
10.6628724678
 20
6.6428290508
  0
LINE
  5
228
100
AcDbEntity
  8
0
100
AcDbLine
 62
7
  6
CONTINUOUS
 10
9.9825718832
 20
6.1892956722
 11
10.662853775
 21
6.6428169341
  0
LINE
  5
229
100
AcDbEntity
  8
0
100
AcDbLine
 62
7
  6
CONTINUOUS
 10
10.6628516402
 20
6.6428155109
 11
10.6628684422
 21
6.6428267039
  0
LINE
  5
22A
100
AcDbEntity
  8
0
100
AcDbLine
 62
7
  6
CONTINUOUS
 10
11.7035683383
 20
7.3943318604
 11
11.7035683383
 21
8.5023318604
  0
LWPOLYLINE
  5
22B
100
AcDbEntity
  8
0
100
AcDbPolyline
 62
7
  6
CONTINUOUS
 90
9
 70
0
 10
9.9825697985
 20
6.1892944158
 10
9.9772949701
 20
6.1860355979
 10
9.969642735
 20
6.1821396203
 10
9.9623038633
 20
6.1792185728
 10
9.9551973813
 20
6.1770752656
 10
9.9483101936
 20
6.1755972304
 10
9.9418126112
 20
6.1747215124
 10
9.9359730531
 20
6.1743600019
 10
9.9339026484
 20
6.1743318604
  0
LINE
  5
22C
100
AcDbEntity
  8
0
100
AcDbLine
 62
7
  6
CONTINUOUS
 10
10.5910976377
 20
6.1743318604
 11
10.6337801751
 21
6.2027868854
  0
LINE
  5
22D
100
AcDbEntity
  8
0
100
AcDbLine
 62
7
  6
CONTINUOUS
 10
12.2348183383
 20
8.5023318604
 11
12.2348183383
 21
8.8773318604
  0
LWPOLYLINE
  5
22E
100
AcDbEntity
  8
0
100
AcDbPolyline
 62
7
  6
CONTINUOUS
 90
3
 70
0
 10
10.6329898344
 20
6.2025225633
 10
10.633221358
 20
6.20261598
 10
10.6354667847
 20
6.2033027081
  0
LINE
  5
22F
100
AcDbEntity
  8
0
100
AcDbLine
 62
7
  6
CONTINUOUS
 10
9.8598183385
 20
8.5023318604
 11
12.2348183381
 21
8.5023318604
  0
LWPOLYLINE
  5
230
100
AcDbEntity
  8
0
100
AcDbPolyline
 62
7
  6
CONTINUOUS
 90
5
 70
0
 10
11.4223183383
 20
6.1957914371
 10
11.4249520245
 20
6.197577505
 10
11.4331386617
 20
6.2013386666
 10
11.4424852734
 20
6.2037377076
 10
11.4499733582
 20
6.2043392844
  0
LINE
  5
231
100
AcDbEntity
  8
0
100
AcDbLine
 62
7
  6
CONTINUOUS
 10
14.130161828
 20
8.8773318604
 11
7.9644748485
 21
8.8773318604
  0
LINE
  5
232
100
AcDbEntity
  8
0
100
AcDbLine
 62
9
  6
CONTINUOUS
 10
14.1895364896
 20
8.9192688701
 11
7.9051001869
 21
8.9192688701
  0
LINE
  5
233
100
AcDbEntity
  8
0
100
AcDbLine
 62
9
  6
CONTINUOUS
 10
14.2588700226
 20
8.9928495101
 11
7.8357666539
 21
8.9928495101
  0
LINE
  5
234
100
AcDbEntity
  8
0
100
AcDbLine
 62
9
  6
CONTINUOUS
 10
14.2973183383
 20
9.0508686
 11
7.7973183383
 21
9.0508686
  0
LINE
  5
235
100
AcDbEntity
  8
0
100
AcDbLine
 62
7
  6
CONTINUOUS
 10
7.7973197713
 20
9.1903318604
 11
14.2973169053
 21
9.1903318604
  0
LINE
  5
236
100
AcDbEntity
  8
0
100
AcDbLine
 62
7
  6
CONTINUOUS
 10
14.2973183383
 20
9.0508686
 11
14.2973183383
 21
9.1903318604
  0
ARC
  5
237
100
AcDbEntity
  8
0
100
AcDbCircle
 62
7
  6
CONTINUOUS
 10
12.2848183383
 20
5.9743318604
 40
0.2
100
AcDbArc
 50
270.0
 51
90.0
  0
ARC
  5
238
100
AcDbEntity
  8
0
100
AcDbCircle
 62
7
  6
CONTINUOUS
 10
9.8098183383
 20
5.9743318604
 40
0.2
100
AcDbArc
 50
90.0
 51
270.0
  0
ARC
  5
239
100
AcDbEntity
  8
0
100
AcDbCircle
 62
9
  6
CONTINUOUS
 10
10.562906925
 20
6.3149603541
 40
0.1326474272
100
AcDbArc
 50
302.1416313985
 51
303.6885454722
  0
ARC
  5
23A
100
AcDbEntity
  8
0
100
AcDbCircle
 62
7
  6
CONTINUOUS
 10
7.7868835557
 20
8.8773318604
 40
0.1254347826
100
AcDbArc
 50
19.5319940446
 51
67.0635891141
  0
ARC
  5
23B
100
AcDbEntity
  8
0
100
AcDbCircle
 62
7
  6
CONTINUOUS
 10
14.3077531209
 20
8.8773318604
 40
0.1254347826
100
AcDbArc
 50
112.9364108859
 51
160.4680059554
  0
ARC
  5
23C
100
AcDbEntity
  8
0
100
AcDbCircle
 62
9
  6
CONTINUOUS
 10
10.5707297174
 20
6.302582928
 40
0.1180051918
100
AcDbArc
 50
300.7694620701
 51
302.1227570766
  0
ARC
  5
23D
100
AcDbEntity
  8
0
100
AcDbCircle
 62
7
  6
CONTINUOUS
 10
14.2343183383
 20
9.0508686
 40
0.063
100
AcDbArc
 50
292.9364108859
 51
360.0
  0
ARC
  5
23E
100
AcDbEntity
  8
0
100
AcDbCircle
 62
7
  6
CONTINUOUS
 10
7.8603183383
 20
9.0508686
 40
0.063
100
AcDbArc
 50
180.0
 51
247.0635891141
  0
ARC
  5
23F
100
AcDbEntity
  8
0
100
AcDbCircle
 62
7
  6
CONTINUOUS
 10
14.130161828
 20
8.9403318604
 40
0.063
100
AcDbArc
 50
270.0
 51
340.4680059554
  0
ARC
  5
240
100
AcDbEntity
  8
0
100
AcDbCircle
 62
7
  6
CONTINUOUS
 10
7.9644748485
 20
8.9403318604
 40
0.063
100
AcDbArc
 50
199.5319940446
 51
270.0
  0
SPLINE
  5
241
100
AcDbEntity
  8
0
100
AcDbSpline
 62
9
  6
CONTINUOUS
 70
0
 71
3
 72
54
 73
50
 74
0
 42
0.0000001
 43
0.0000001
 44
0.0000000001
 40
0.0
 40
0.0
 40
0.0
 40
0.0
 40
0.008386079
 40
0.0168974764
 40
0.0256922741
 40
0.0349195234
 40
0.0447083999
 40
0.055165934
 40
0.0663782627
 40
0.0784100877
 40
0.091304927
 40
0.1050901363
 40
0.1197701254
 40
0.1353336319
 40
0.1517475329
 40
0.168959987
 40
0.1869024457
 40
0.2054889923
 40
0.2442125703
 40
0.2843426981
 40
0.3251681479
 40
0.3661448554
 40
0.4069091868
 40
0.4472334177
 40
0.526087682
 40
0.6021758877
 40
0.6751947959
 40
0.710436295
 40
0.7447360107
 40
0.7779981471
 40
0.8100821645
 40
0.8408096915
 40
0.8555919674
 40
0.8699401458
 40
0.8838079607
 40
0.8971526952
 40
0.9099203506
 40
0.9220576242
 40
0.9335158555
 40
0.9442543022
 40
0.954274066
 40
0.9636355537
 40
0.9681242446
 40
0.972525225
 40
0.9768853081
 40
0.9812583361
 40
0.9857009966
 40
0.990272258
 40
1.0
 40
1.0
 40
1.0
 40
1.0
 10
11.4317838003
 20
6.6428162841
 30
0.0
 10
11.4328828843
 20
6.6420834711
 30
0.0
 10
11.4349995985
 20
6.6404538516
 30
0.0
 10
11.4378540692
 20
6.6375692659
 30
0.0
 10
11.4403991405
 20
6.6342407454
 30
0.0
 10
11.4426470915
 20
6.6304708375
 30
0.0
 10
11.4446149289
 20
6.6262583871
 30
0.0
 10
11.4463224469
 20
6.621601149
 30
0.0
 10
11.4477947075
 20
6.616496926
 30
0.0
 10
11.4490552198
 20
6.6109430461
 30
0.0
 10
11.4501346537
 20
6.6049397846
 30
0.0
 10
11.4510617406
 20
6.5984900018
 30
0.0
 10
11.4518699169
 20
6.5916012558
 30
0.0
 10
11.4525930125
 20
6.5842871262
 30
0.0
 10
11.4532649568
 20
6.5765677821
 30
0.0
 10
11.4539204311
 20
6.5684710823
 30
0.0
 10
11.4545907764
 20
6.5600322471
 30
0.0
 10
11.4555561226
 20
6.5482177523
 30
0.0
 10
11.4569304767
 20
6.5329299308
 30
0.0
 10
11.4589632682
 20
6.5141865152
 30
0.0
 10
11.4614437777
 20
6.4951388905
 30
0.0
 10
11.4643518565
 20
6.4760509036
 30
0.0
 10
11.4676276665
 20
6.4571029915
 30
0.0
 10
11.4723527079
 20
6.4323545898
 30
0.0
 10
11.4787669155
 20
6.4022690888
 30
0.0
 10
11.4868079784
 20
6.3672721669
 30
0.0
 10
11.493385719
 20
6.3389879736
 30
0.0
 10
11.4982725733
 20
6.3170696444
 30
0.0
 10
11.5016284764
 20
6.301227067
 30
0.0
 10
11.5046419796
 20
6.2858217555
 30
0.0
 10
11.5072151506
 20
6.2709069833
 30
0.0
 10
11.5089234236
 20
6.2588010526
 30
0.0
 10
11.5099327982
 20
6.2494255065
 30
0.0
 10
11.5104840154
 20
6.2426739184
 30
0.0
 10
11.5108118096
 20
6.2361341653
 30
0.0
 10
11.5108906027
 20
6.2298351387
 30
0.0
 10
11.510687508
 20
6.2238107978
 30
0.0
 10
11.510166406
 20
6.2181027159
 30
0.0
 10
11.509288683
 20
6.2127601542
 30
0.0
 10
11.5080003542
 20
6.2078416565
 30
0.0
 10
11.5062505011
 20
6.2034169688
 30
0.0
 10
11.5043295035
 20
6.2001587657
 30
0.0
 10
11.5025104361
 20
6.1979261518
 30
0.0
 10
11.5010185546
 20
6.1964598268
 30
0.0
 10
11.4993749479
 20
6.1951945569
 30
0.0
 10
11.4975795295
 20
6.1941424691
 30
0.0
 10
11.4956344769
 20
6.193312828
 30
0.0
 10
11.492789992
 20
6.1925005346
 30
0.0
 10
11.4905236191
 20
6.1922817707
 30
0.0
 10
11.4889912942
 20
6.192281587
 30
0.0
  0
SPLINE
  5
242
100
AcDbEntity
  8
0
100
AcDbSpline
 62
9
  6
CONTINUOUS
 70
0
 71
3
 72
24
 73
20
 74
0
 42
0.0000001
 43
0.0000001
 44
0.0000000001
 40
0.0
 40
0.0
 40
0.0
 40
0.0
 40
0.0901685328
 40
0.175557816
 40
0.2566647832
 40
0.3339160924
 40
0.4076500847
 40
0.4781254282
 40
0.6099347796
 40
0.6714915889
 40
0.730106303
 40
0.7856533165
 40
0.8378647765
 40
0.8863083114
 40
0.930296418
 40
0.9502897005
 40
0.9687226773
 40
0.9853689937
 40
1.0
 40
1.0
 40
1.0
 40
1.0
 10
12.0057632152
 20
6.1744634131
 30
0.0
 10
12.0085728359
 20
6.176296417
 30
0.0
 10
12.0141780178
 20
6.1796636055
 30
0.0
 10
12.0227062842
 20
6.183975824
 30
0.0
 10
12.0310650178
 20
6.1875105324
 30
0.0
 10
12.0392267671
 20
6.1903470511
 30
0.0
 10
12.0471676207
 20
6.1925652879
 30
0.0
 10
12.057211761
 20
6.1947242753
 30
0.0
 10
12.0669757488
 20
6.1959620768
 30
0.0
 10
12.0763474544
 20
6.1963256058
 30
0.0
 10
12.0828876834
 20
6.1962064555
 30
0.0
 10
12.0890631104
 20
6.195736311
 30
0.0
 10
12.0948248011
 20
6.1949493878
 30
0.0
 10
12.1001031723
 20
6.1938829655
 30
0.0
 10
12.1041393202
 20
6.1927671301
 30
0.0
 10
12.1070350553
 20
6.1917561132
 30
0.0
 10
12.1089343512
 20
6.1909844152
 30
0.0
 10
12.1106028515
 20
6.1901839142
 30
0.0
 10
12.1116110402
 20
6.1895983405
 30
0.0
 10
12.1120640136
 20
6.1892964779
 30
0.0
  0
SPLINE
  5
243
100
AcDbEntity
  8
0
100
AcDbSpline
 62
9
  6
CONTINUOUS
 70
0
 71
3
 72
14
 73
10
 74
0
 42
0.0000001
 43
0.0000001
 44
0.0000000001
 40
0.0
 40
0.0
 40
0.0
 40
0.0
 40
0.1001775107
 40
0.20748054
 40
0.3221180205
 40
0.4441262191
 40
0.5733641503
 40
0.7094824536
 40
1.0
 40
1.0
 40
1.0
 40
1.0
 10
11.4889912942
 20
6.192281587
 30
0.0
 10
11.487973668
 20
6.1922816834
 30
0.0
 10
11.4858648347
 20
6.1924157981
 30
0.0
 10
11.4826341426
 20
6.1929637232
 30
0.0
 10
11.4792519099
 20
6.1938563947
 30
0.0
 10
11.4757384598
 20
6.1950779517
 30
0.0
 10
11.4721118913
 20
6.196611353
 30
0.0
 10
11.4670410031
 20
6.1991004108
 30
0.0
 10
11.4632941443
 20
6.2012921754
 30
0.0
 10
11.460799997
 20
6.2028696676
 30
0.0
  0
SPLINE
  5
244
100
AcDbEntity
  8
0
100
AcDbSpline
 62
9
  6
CONTINUOUS
 70
0
 71
3
 72
25
 73
21
 74
0
 42
0.0000001
 43
0.0000001
 44
0.0000000001
 40
0.0
 40
0.0
 40
0.0
 40
0.0
 40
0.0636489686
 40
0.1270692361
 40
0.1900360215
 40
0.2213188192
 40
0.2524500003
 40
0.3142410573
 40
0.3755165926
 40
0.4364839015
 40
0.4669564882
 40
0.4974711693
 40
0.5587623135
 40
0.6206647032
 40
0.6832981254
 40
0.7465674369
 40
0.8101974193
 40
0.8738403423
 40
0.9371840596
 40
1.0
 40
1.0
 40
1.0
 40
1.0
 10
11.0473183383
 20
6.6483882997
 30
0.0
 10
11.0412959704
 20
6.6483881888
 30
0.0
 10
11.0292666816
 20
6.6478893636
 30
0.0
 10
11.0114067921
 20
6.6456406187
 30
0.0
 10
10.9968005167
 20
6.6425002964
 30
0.0
 10
10.9853953226
 20
6.6392216577
 30
0.0
 10
10.974261194
 20
6.6354498491
 30
0.0
 10
10.9607916506
 20
6.62977504
 30
0.0
 10
10.9454995287
 20
6.6213804585
 30
0.0
 10
10.9336505782
 20
6.6130501831
 30
0.0
 10
10.9248250895
 20
6.6056069411
 30
0.0
 10
10.9164385109
 20
6.5976279689
 30
0.0
 10
10.9068349551
 20
6.5866532482
 30
0.0
 10
10.8969427038
 20
6.572065796
 30
0.0
 10
10.88877116
 20
6.5562411603
 30
0.0
 10
10.8823532019
 20
6.5394595349
 30
0.0
 10
10.8776273948
 20
6.5220333079
 30
0.0
 10
10.8744636725
 20
6.504255985
 30
0.0
 10
10.8726939679
 20
6.4863694105
 30
0.0
 10
10.8723240684
 20
6.4744288052
 30
0.0
 10
10.8723184514
 20
6.4684852599
 30
0.0
  0
SPLINE
  5
245
100
AcDbEntity
  8
0
100
AcDbSpline
 62
9
  6
CONTINUOUS
 70
0
 71
3
 72
30
 73
26
 74
0
 42
0.0000001
 43
0.0000001
 44
0.0000000001
 40
0.0
 40
0.0
 40
0.0
 40
0.0
 40
0.0511416273
 40
0.1009686381
 40
0.1486155532
 40
0.1938320719
 40
0.2366884235
 40
0.2773959581
 40
0.3162099291
 40
0.3533704332
 40
0.3890552313
 40
0.4234192065
 40
0.488688639
 40
0.5499696004
 40
0.6077955013
 40
0.6625798365
 40
0.7146736322
 40
0.7644314563
 40
0.81228142
 40
0.8587775498
 40
0.8817726505
 40
0.90475362
 40
0.9512764244
 40
0.975251731
 40
1.0
 40
1.0
 40
1.0
 40
1.0
 10
11.0473183383
 20
6.184782401
 30
0.0
 10
11.0502404854
 20
6.184782353
 30
0.0
 10
11.05601019
 20
6.1849027486
 30
0.0
 10
11.0644893842
 20
6.185391918
 30
0.0
 10
11.0726099294
 20
6.1861339632
 30
0.0
 10
11.0803119482
 20
6.187042448
 30
0.0
 10
11.0876025836
 20
6.1880402334
 30
0.0
 10
11.0945173785
 20
6.1890803794
 30
0.0
 10
11.1011026973
 20
6.1901209935
 30
0.0
 10
11.1074030118
 20
6.1911263055
 30
0.0
 10
11.113454029
 20
6.1920804691
 30
0.0
 10
11.1210981341
 20
6.1932420816
 30
0.0
 10
11.1302070676
 20
6.1944995802
 30
0.0
 10
11.1406851974
 20
6.1956145959
 30
0.0
 10
11.150604853
 20
6.1962454442
 30
0.0
 10
11.160021155
 20
6.19632912
 30
0.0
 10
11.1689639128
 20
6.1958030177
 30
0.0
 10
11.1774435116
 20
6.1945923293
 30
0.0
 10
11.1854531562
 20
6.1926164203
 30
0.0
 10
11.1917402736
 20
6.1902261389
 30
0.0
 10
11.1964546073
 20
6.1878297404
 30
0.0
 10
11.2009711615
 20
6.1850772401
 30
0.0
 10
11.205177716
 20
6.1817343714
 30
0.0
 10
11.2089478849
 20
6.1778015624
 30
0.0
 10
11.2106831837
 20
6.1756181612
 30
0.0
 10
11.2115114932
 20
6.1744720763
 30
0.0
  0
SPLINE
  5
246
100
AcDbEntity
  8
0
100
AcDbSpline
 62
9
  6
CONTINUOUS
 70
0
 71
3
 72
26
 73
22
 74
0
 42
0.0000001
 43
0.0000001
 44
0.0000000001
 40
0.0
 40
0.0
 40
0.0
 40
0.0
 40
0.0628071236
 40
0.1261433326
 40
0.1897823953
 40
0.2534124802
 40
0.3166849928
 40
0.3793234279
 40
0.4412296251
 40
0.4719521347
 40
0.502551335
 40
0.5330661262
 40
0.5635380306
 40
0.6245025487
 40
0.6857741534
 40
0.7475610496
 40
0.7786902727
 40
0.8099713457
 40
0.8729351663
 40
0.9363528498
 40
1.0
 40
1.0
 40
1.0
 40
1.0
 10
11.2223183228
 20
6.4682341416
 30
0.0
 10
11.2223176513
 20
6.4741822797
 30
0.0
 10
11.2219582316
 20
6.4861325527
 30
0.0
 10
11.2202033291
 20
6.5040351247
 30
0.0
 10
11.217054764
 20
6.5218307641
 30
0.0
 10
11.2123430689
 20
6.539277737
 30
0.0
 10
11.2059365074
 20
6.55608244
 30
0.0
 10
11.1977753001
 20
6.5719305721
 30
0.0
 10
11.1895114694
 20
6.5841413504
 30
0.0
 10
11.1821032625
 20
6.5931667139
 30
0.0
 10
11.1761798165
 20
6.5995427847
 30
0.0
 10
11.1698971431
 20
6.6055306187
 30
0.0
 10
11.1610696105
 20
6.6129868431
 30
0.0
 10
11.1492157423
 20
6.6213322715
 30
0.0
 10
11.1339148633
 20
6.6297419144
 30
0.0
 10
11.1204360856
 20
6.6354268879
 30
0.0
 10
11.1092936744
 20
6.6392053917
 30
0.0
 10
11.0978795382
 20
6.6424898795
 30
0.0
 10
11.0832611774
 20
6.6456357856
 30
0.0
 10
11.0653858954
 20
6.6478885223
 30
0.0
 10
11.053346031
 20
6.6483881864
 30
0.0
 10
11.0473183383
 20
6.6483882997
 30
0.0
  0
SPLINE
  5
247
100
AcDbEntity
  8
0
100
AcDbSpline
 62
9
  6
CONTINUOUS
 70
0
 71
3
 72
55
 73
51
 74
0
 42
0.0000001
 43
0.0000001
 44
0.0000000001
 40
0.0
 40
0.0
 40
0.0
 40
0.0
 40
0.0097278525
 40
0.0142991395
 40
0.0187417912
 40
0.0231148548
 40
0.0274750387
 40
0.0318760545
 40
0.036364781
 40
0.0457264866
 40
0.0557463177
 40
0.066484783
 40
0.077942943
 40
0.0900805043
 40
0.1028475809
 40
0.1161921125
 40
0.1300599859
 40
0.1444085001
 40
0.159191273
 40
0.1899181301
 40
0.2220017078
 40
0.255263519
 40
0.2895632413
 40
0.3248045113
 40
0.3978211426
 40
0.4739090031
 40
0.5527628852
 40
0.5930861199
 40
0.6338504327
 40
0.674827431
 40
0.6952901922
 40
0.7156534094
 40
0.7557829944
 40
0.7945079735
 40
0.8130943916
 40
0.8310364253
 40
0.8482489591
 40
0.86466382
 40
0.8802279374
 40
0.894908197
 40
0.9086935427
 40
0.9215887507
 40
0.9336209849
 40
0.9448335136
 40
0.9552909464
 40
0.9650793174
 40
0.9743059167
 40
0.9831006475
 40
0.9916128262
 40
1.0
 40
1.0
 40
1.0
 40
1.0
 10
10.6056453824
 20
6.192281587
 30
0.0
 10
10.6041130359
 20
6.1922817357
 30
0.0
 10
10.6018466304
 20
6.1925005069
 30
0.0
 10
10.5990021231
 20
6.1933128276
 30
0.0
 10
10.5970570822
 20
6.1941425393
 30
0.0
 10
10.5952616788
 20
6.1951946932
 30
0.0
 10
10.5936179843
 20
6.1964598983
 30
0.0
 10
10.5921260527
 20
6.1979262256
 30
0.0
 10
10.5903069842
 20
6.2001589087
 30
0.0
 10
10.5883859649
 20
6.2034171606
 30
0.0
 10
10.586636031
 20
6.2078418995
 30
0.0
 10
10.58534835
 20
6.2127606084
 30
0.0
 10
10.5844713514
 20
6.2181033145
 30
0.0
 10
10.5839492642
 20
6.2238112192
 30
0.0
 10
10.5837436261
 20
6.2298354153
 30
0.0
 10
10.5838215294
 20
6.2361343926
 30
0.0
 10
10.5841505939
 20
6.242674146
 30
0.0
 10
10.5847036953
 20
6.2494257371
 30
0.0
 10
10.5857145391
 20
6.2588011616
 30
0.0
 10
10.5874213049
 20
6.2709072082
 30
0.0
 10
10.5899928131
 20
6.2858220964
 30
0.0
 10
10.5930056403
 20
6.3012274712
 30
0.0
 10
10.5963630479
 20
6.3170696954
 30
0.0
 10
10.6012524472
 20
6.3389871138
 30
0.0
 10
10.6078312091
 20
6.3672706853
 30
0.0
 10
10.6158688652
 20
6.4022680129
 30
0.0
 10
10.6222829034
 20
6.4323533231
 30
0.0
 10
10.6270091975
 20
6.4571013509
 30
0.0
 10
10.6302841161
 20
6.4760493255
 30
0.0
 10
10.6327089591
 20
6.4919663211
 30
0.0
 10
10.6344425532
 20
6.5047351288
 30
0.0
 10
10.6360214723
 20
6.5173894877
 30
0.0
 10
10.637702462
 20
6.5329289708
 30
0.0
 10
10.6390800334
 20
6.5482166069
 30
0.0
 10
10.6400454032
 20
6.5600312772
 30
0.0
 10
10.6407146799
 20
6.5684701441
 30
0.0
 10
10.64137001
 20
6.5765669772
 30
0.0
 10
10.6420428736
 20
6.5842865252
 30
0.0
 10
10.6427666211
 20
6.591600899
 30
0.0
 10
10.6435748268
 20
6.5984898201
 30
0.0
 10
10.6445019872
 20
6.6049397356
 30
0.0
 10
10.6455816342
 20
6.6109431238
 30
0.0
 10
10.6468424037
 20
6.6164971192
 30
0.0
 10
10.6483147924
 20
6.6216013999
 30
0.0
 10
10.6500222283
 20
6.6262586114
 30
0.0
 10
10.6519898584
 20
6.6304709499
 30
0.0
 10
10.6542375418
 20
6.6342408102
 30
0.0
 10
10.6567826463
 20
6.6375693433
 30
0.0
 10
10.6596374034
 20
6.6404540627
 30
0.0
 10
10.6617543662
 20
6.6420838525
 30
0.0
 10
10.6628535956
 20
6.6428167648
 30
0.0
  0
SPLINE
  5
248
100
AcDbEntity
  8
0
100
AcDbSpline
 62
9
  6
CONTINUOUS
 70
0
 71
3
 72
11
 73
7
 74
0
 42
0.0000001
 43
0.0000001
 44
0.0000000001
 40
0.0
 40
0.0
 40
0.0
 40
0.0
 40
0.260567775
 40
0.5157711107
 40
0.7625202546
 40
1.0
 40
1.0
 40
1.0
 40
1.0
 10
11.0473183383
 20
6.1732234652
 30
0.0
 10
11.0550716817
 20
6.1732228905
 30
0.0
 10
11.0704188713
 20
6.1733392397
 30
0.0
 10
11.0931044114
 20
6.1737537579
 30
0.0
 10
11.1151022915
 20
6.1741875747
 30
0.0
 10
11.1295107503
 20
6.1743315092
 30
0.0
 10
11.1365770962
 20
6.174331532
 30
0.0
  0
SPLINE
  5
249
100
AcDbEntity
  8
0
100
AcDbSpline
 62
9
  6
CONTINUOUS
 70
0
 71
3
 72
37
 73
33
 74
0
 42
0.0000001
 43
0.0000001
 44
0.0000000001
 40
0.0
 40
0.0
 40
0.0
 40
0.0
 40
0.0317347357
 40
0.0634039015
 40
0.0949313051
 40
0.126277769
 40
0.1574142137
 40
0.1883388566
 40
0.2190739866
 40
0.2496596595
 40
0.2801522671
 40
0.310616462
 40
0.3411153903
 40
0.3717077684
 40
0.4024407693
 40
0.4333416966
 40
0.4644230496
 40
0.4956823095
 40
0.5271014914
 40
0.5586511819
 40
0.6219944095
 40
0.6537400463
 40
0.6854874366
 40
0.7172152075
 40
0.7489005175
 40
0.7805322743
 40
0.8120989316
 40
0.8435936837
 40
0.8750161823
 40
0.9376346929
 40
0.9688469565
 40
1.0
 40
1.0
 40
1.0
 40
1.0
 10
11.0473183383
 20
6.726330586
 30
0.0
 10
11.0412646308
 20
6.7263303142
 30
0.0
 10
11.0291632683
 20
6.7258001583
 30
0.0
 10
11.0111866514
 20
6.7234411112
 30
0.0
 10
10.9935550353
 20
6.7195376182
 30
0.0
 10
10.9764329129
 20
6.7141273489
 30
0.0
 10
10.9599599131
 20
6.707274247
 30
0.0
 10
10.9442626844
 20
6.6990415122
 30
0.0
 10
10.929447468
 20
6.6895037641
 30
0.0
 10
10.9155997081
 20
6.678743171
 30
0.0
 10
10.9027903387
 20
6.6668418563
 30
0.0
 10
10.8910686691
 20
6.6538917161
 30
0.0
 10
10.8804645406
 20
6.6399891505
 30
0.0
 10
10.8710027234
 20
6.6252258655
 30
0.0
 10
10.8626858623
 20
6.6097037397
 30
0.0
 10
10.8554892884
 20
6.5935315011
 30
0.0
 10
10.8493930596
 20
6.5768078014
 30
0.0
 10
10.8443710771
 20
6.5596296712
 30
0.0
 10
10.84036729
 20
6.5420957883
 30
0.0
 10
10.8363114644
 20
6.518334587
 30
0.0
 10
10.8340930976
 20
6.4942343972
 30
0.0
 10
10.833485267
 20
6.4700422289
 30
0.0
 10
10.8337856415
 20
6.4518748848
 30
0.0
 10
10.8348005381
 20
6.4337462279
 30
0.0
 10
10.8364874744
 20
6.4156900659
 30
0.0
 10
10.8388198493
 20
6.3977371638
 30
0.0
 10
10.8417687314
 20
6.3799123417
 30
0.0
 10
10.845314773
 20
6.3622370917
 30
0.0
 10
10.8508181955
 20
6.3389276128
 30
0.0
 10
10.8574719188
 20
6.3159561597
 30
0.0
 10
10.8652976705
 20
6.2934314316
 30
0.0
 10
10.869603608
 20
6.2823376217
 30
0.0
 10
10.8718584524
 20
6.2768392688
 30
0.0
  0
SPLINE
  5
24A
100
AcDbEntity
  8
0
100
AcDbSpline
 62
9
  6
CONTINUOUS
 70
0
 71
3
 72
36
 73
32
 74
0
 42
0.0000001
 43
0.0000001
 44
0.0000000001
 40
0.0
 40
0.0
 40
0.0
 40
0.0
 40
0.0311541781
 40
0.0623679634
 40
0.1249892082
 40
0.1879000208
 40
0.2194670216
 40
0.2510994356
 40
0.2827851277
 40
0.3145132661
 40
0.3779932105
 40
0.4413371637
 40
0.4728871195
 40
0.5043063172
 40
0.5355658444
 40
0.5666470185
 40
0.5975478385
 40
0.6282811047
 40
0.6435953266
 40
0.6588798468
 40
0.6893790682
 40
0.7198436847
 40
0.7503366916
 40
0.7809228611
 40
0.8116585172
 40
0.8425836453
 40
0.8737205799
 40
0.9050675251
 40
0.936595354
 40
0.9682648297
 40
1.0
 40
1.0
 40
1.0
 40
1.0
 10
11.2228032545
 20
6.2769003978
 30
0.0
 10
11.2250572948
 20
6.2823984602
 30
0.0
 10
11.229361481
 20
6.2934917229
 30
0.0
 10
11.2371840925
 20
6.3160157155
 30
0.0
 10
11.2455049344
 20
6.3447571894
 30
0.0
 10
11.2518973902
 20
6.3740560453
 30
0.0
 10
11.2558195372
 20
6.3977917504
 30
0.0
 10
11.2581503751
 20
6.4157427315
 30
0.0
 10
11.2598365615
 20
6.4337969909
 30
0.0
 10
11.26118906
 20
6.4579668068
 30
0.0
 10
11.261098117
 20
6.4882436602
 30
0.0
 10
11.2583208537
 20
6.5183741078
 30
0.0
 10
11.254262973
 20
6.5421325377
 30
0.0
 10
11.2502576381
 20
6.5596635987
 30
0.0
 10
11.2452345796
 20
6.5768389639
 30
0.0
 10
11.2391365324
 20
6.5935596143
 30
0.0
 10
11.2319380897
 20
6.6097279803
 30
0.0
 10
11.2249973835
 20
6.6226771269
 30
0.0
 10
11.2188767888
 20
6.6326495257
 30
0.0
 10
11.2123860662
 20
6.642331271
 30
0.0
 10
11.203554319
 20
6.6539082785
 30
0.0
 10
11.1918329364
 20
6.666855267
 30
0.0
 10
11.1790241632
 20
6.6787543357
 30
0.0
 10
11.1651769676
 20
6.689512255
 30
0.0
 10
11.1503628588
 20
6.6990479042
 30
0.0
 10
11.134667028
 20
6.7072788499
 30
0.0
 10
11.1181955672
 20
6.7141301852
 30
0.0
 10
11.1010752987
 20
6.7195392424
 30
0.0
 10
11.0834457031
 20
6.7234418281
 30
0.0
 10
11.0654712127
 20
6.725800209
 30
0.0
 10
11.0533713237
 20
6.7263303036
 30
0.0
 10
11.0473183383
 20
6.726330586
 30
0.0
  0
SPLINE
  5
24B
100
AcDbEntity
  8
0
100
AcDbSpline
 62
9
  6
CONTINUOUS
 70
0
 71
3
 72
20
 73
16
 74
0
 42
0.0000001
 43
0.0000001
 44
0.0000000001
 40
0.0
 40
0.0
 40
0.0
 40
0.0
 40
0.1218522414
 40
0.2464968889
 40
0.3733148893
 40
0.4373120944
 40
0.5015559957
 40
0.5658973087
 40
0.6301713622
 40
0.6941647452
 40
0.7576380153
 40
0.8202972195
 40
0.8818191123
 40
0.9418440972
 40
1.0
 40
1.0
 40
1.0
 40
1.0
 10
10.6723180777
 20
6.309412125
 30
0.0
 10
10.6723176399
 20
6.3213182142
 30
0.0
 10
10.6724815864
 20
6.345403155
 30
0.0
 10
10.6729370361
 20
6.3818765413
 30
0.0
 10
10.6733076303
 20
6.4126977226
 30
0.0
 10
10.6735116125
 20
6.4376185597
 30
0.0
 10
10.6735990606
 20
6.4564354814
 30
0.0
 10
10.6736111565
 20
6.4752796694
 30
0.0
 10
10.6735368315
 20
6.4940992392
 30
0.0
 10
10.6733837461
 20
6.5128335044
 30
0.0
 10
10.6731595846
 20
6.5314092379
 30
0.0
 10
10.6728937414
 20
6.5497428789
 30
0.0
 10
10.6726198998
 20
6.5677394363
 30
0.0
 10
10.6723953688
 20
6.5852966386
 30
0.0
 10
10.6723206857
 20
6.5968439625
 30
0.0
 10
10.6723183916
 20
6.6025263307
 30
0.0
  0
SPLINE
  5
24C
100
AcDbEntity
  8
0
100
AcDbSpline
 62
9
  6
CONTINUOUS
 70
0
 71
3
 72
29
 73
25
 74
0
 42
0.0000001
 43
0.0000001
 44
0.0000000001
 40
0.0
 40
0.0
 40
0.0
 40
0.0
 40
0.0247482686
 40
0.0487233199
 40
0.0952459864
 40
0.1182273272
 40
0.1412229021
 40
0.1877199519
 40
0.2355699765
 40
0.2853270717
 40
0.3374196502
 40
0.3922038155
 40
0.450031273
 40
0.5113090581
 40
0.5765792649
 40
0.6466304975
 40
0.6837895022
 40
0.7226037143
 40
0.7633119691
 40
0.8061674663
 40
0.851383811
 40
0.8990311655
 40
0.9488581055
 40
1.0
 40
1.0
 40
1.0
 40
1.0
 10
10.8831236208
 20
6.1744699
 30
0.0
 10
10.8839518822
 20
6.1756160459
 30
0.0
 10
10.885687092
 20
6.1777995548
 30
0.0
 10
10.8894571677
 20
6.1817325334
 30
0.0
 10
10.8936635991
 20
6.185075681
 30
0.0
 10
10.898180138
 20
6.1878284358
 30
0.0
 10
10.9028944685
 20
6.1902252337
 30
0.0
 10
10.9091816186
 20
6.19261596
 30
0.0
 10
10.917191321
 20
6.1945922523
 30
0.0
 10
10.9256709511
 20
6.1958029327
 30
0.0
 10
10.9346137338
 20
6.1963288724
 30
0.0
 10
10.9440301688
 20
6.1962451749
 30
0.0
 10
10.9539499384
 20
6.1956152392
 30
0.0
 10
10.9644280799
 20
6.1944991185
 30
0.0
 10
10.9755571772
 20
6.1929628552
 30
0.0
 10
10.9852938164
 20
6.1914364766
 30
0.0
 10
10.9935331679
 20
6.1901210471
 30
0.0
 10
11.0001185824
 20
6.1890805723
 30
0.0
 10
11.0070335199
 20
6.1880406467
 30
0.0
 10
11.0143241898
 20
6.1870424357
 30
0.0
 10
11.022026294
 20
6.1861339392
 30
0.0
 10
11.0301469782
 20
6.1853919819
 30
0.0
 10
11.0386263253
 20
6.1849026011
 30
0.0
 10
11.0443961321
 20
6.1847823438
 30
0.0
 10
11.0473183383
 20
6.184782401
 30
0.0
  0
SPLINE
  5
24D
100
AcDbEntity
  8
0
100
AcDbSpline
 62
9
  6
CONTINUOUS
 70
0
 71
3
 72
20
 73
16
 74
0
 42
0.0000001
 43
0.0000001
 44
0.0000000001
 40
0.0
 40
0.0
 40
0.0
 40
0.0
 40
0.0580948875
 40
0.1180765016
 40
0.1795673468
 40
0.2422059275
 40
0.3056689731
 40
0.3696624688
 40
0.4339436122
 40
0.4982962658
 40
0.5625546263
 40
0.6265687539
 40
0.7534242146
 40
0.8781069076
 40
1.0
 40
1.0
 40
1.0
 40
1.0
 10
11.4223184191
 20
6.603133324
 30
0.0
 10
11.4223185896
 20
6.5974488386
 30
0.0
 10
11.4222474318
 20
6.5858952636
 30
0.0
 10
11.4220252681
 20
6.5683262916
 30
0.0
 10
11.4217517471
 20
6.5503134117
 30
0.0
 10
11.4214843946
 20
6.5319597536
 30
0.0
 10
11.4212580156
 20
6.5133606149
 30
0.0
 10
11.4211027937
 20
6.4945999993
 30
0.0
 10
11.4210264843
 20
6.4757518397
 30
0.0
 10
11.4210365823
 20
6.4568776143
 30
0.0
 10
11.4211223833
 20
6.4380297242
 30
0.0
 10
11.4213251142
 20
6.4130666714
 30
0.0
 10
11.4216955786
 20
6.3821925726
 30
0.0
 10
11.4221525556
 20
6.3456559056
 30
0.0
 10
11.4223182559
 20
6.3215289809
 30
0.0
 10
11.422318612
 20
6.3096019504
 30
0.0
  0
SPLINE
  5
24E
100
AcDbEntity
  8
0
100
AcDbSpline
 62
9
  6
CONTINUOUS
 70
0
 71
3
 72
13
 73
9
 74
0
 42
0.0000001
 43
0.0000001
 44
0.0000000001
 40
0.0
 40
0.0
 40
0.0
 40
0.0
 40
0.2885842732
 40
0.5527079392
 40
0.6747871918
 40
0.7899501244
 40
0.8982621658
 40
1.0
 40
1.0
 40
1.0
 40
1.0
 10
10.6310994008
 20
6.20118901
 30
0.0
 10
10.6288457085
 20
6.1998481292
 30
0.0
 10
10.6244375625
 20
6.1974290055
 30
0.0
 10
10.6187968464
 20
6.194989271
 30
0.0
 10
10.6144578347
 20
6.1935891582
 30
0.0
 10
10.6114035262
 20
6.1928457058
 30
0.0
 10
10.6084796475
 20
6.1923913977
 30
0.0
 10
10.6065698936
 20
6.192281599
 30
0.0
 10
10.6056453824
 20
6.192281587
 30
0.0
  0
SPLINE
  5
24F
100
AcDbEntity
  8
0
100
AcDbSpline
 62
9
  6
CONTINUOUS
 70
0
 71
3
 72
11
 73
7
 74
0
 42
0.0000001
 43
0.0000001
 44
0.0000000001
 40
0.0
 40
0.0
 40
0.0
 40
0.0
 40
0.2374948046
 40
0.4842377848
 40
0.7394367248
 40
1.0
 40
1.0
 40
1.0
 40
1.0
 10
10.9580880534
 20
6.1743315426
 30
0.0
 10
10.9651525935
 20
6.1743313666
 30
0.0
 10
10.9795567193
 20
6.1741873598
 30
0.0
 10
11.0015477136
 20
6.1737534753
 30
0.0
 10
11.0242255705
 20
6.1733390757
 30
0.0
 10
11.0395676015
 20
6.1732228576
 30
0.0
 10
11.0473183383
 20
6.1732234652
 30
0.0
  0
SPLINE
  5
250
100
AcDbEntity
  8
0
100
AcDbSpline
 62
9
  6
CONTINUOUS
 70
0
 71
3
 72
24
 73
20
 74
0
 42
0.0000001
 43
0.0000001
 44
0.0000000001
 40
0.0
 40
0.0
 40
0.0
 40
0.0
 40
0.014634239
 40
0.0312807434
 40
0.0497130198
 40
0.0697074714
 40
0.1136993025
 40
0.1621419859
 40
0.2143536619
 40
0.2699023027
 40
0.3285179224
 40
0.3900752494
 40
0.5218854168
 40
0.5923605316
 40
0.6660936275
 40
0.7433435722
 40
0.8244487067
 40
0.9098351187
 40
1.0
 40
1.0
 40
1.0
 40
1.0
 10
9.9825725473
 20
6.1892964171
 30
0.0
 10
9.9830255569
 20
6.1895983002
 30
0.0
 10
9.9840337097
 20
6.1901838533
 30
0.0
 10
9.9857020575
 20
6.1909842882
 30
0.0
 10
9.9876011102
 20
6.1917558609
 30
0.0
 10
9.9904965438
 20
6.1927668597
 30
0.0
 10
9.9945321825
 20
6.1938828412
 30
0.0
 10
9.99980993
 20
6.1949490259
 30
0.0
 10
10.0055708057
 20
6.1957359151
 30
0.0
 10
10.0117454192
 20
6.1962062854
 30
0.0
 10
10.0182848139
 20
6.1963256232
 30
0.0
 10
10.0276552542
 20
6.19596239
 30
0.0
 10
10.0374179269
 20
6.1947253114
 30
0.0
 10
10.0474607476
 20
6.1925673224
 30
0.0
 10
10.0554005522
 20
6.1903501113
 30
0.0
 10
10.0635611759
 20
6.1875146196
 30
0.0
 10
10.0719187432
 20
6.1839811077
 30
0.0
 10
10.0804458327
 20
6.1796703227
 30
0.0
 10
10.0860503491
 20
6.1763043495
 30
0.0
 10
10.0888596809
 20
6.1744720397
 30
0.0
  0
ENDSEC
  0
SECTION
  2
OBJECTS
  0
DICTIONARY
  5
C
100
AcDbDictionary
280
0
281
1
  3
ACAD_GROUP
350
D
  3
ACAD_MLINESTYLE
350
17
  3
ACAD_LAYOUT
350
1A
  3
ACAD_PLOTSETTINGS
350
19
  3
ACAD_PLOTSTYLENAME
350
E
  0
DICTIONARY
  5
D
102
{ACAD_REACTORS
330
C
102
}
100
AcDbDictionary
280
0
281
1
  0
ACDBDICTIONARYWDFLT
  5
E
102
{ACAD_REACTORS
330
C
102
}
100
AcDbDictionary
281
1
  3
Normal
350
F
100
AcDbDictionaryWithDefault
340
F
  0
DICTIONARY
  5
17
102
{ACAD_REACTORS
330
C
102
}
100
AcDbDictionary
280
0
281
1
  3
Standard
350
18
  0
DICTIONARY
  5
19
102
{ACAD_REACTORS
330
C
102
}
100
AcDbDictionary
281
1
  0
DICTIONARY
  5
1A
102
{ACAD_REACTORS
330
C
102
}
100
AcDbDictionary
281
1
  3
Model
350
251
  3
Layout1
350
252
  0
ACDBPLACEHOLDER
  5
F
102
{ACAD_REACTORS
330
E
102
}
  0
MLINESTYLE
  5
18
102
{ACAD_REACTORS
330
17
102
}
100
AcDbMlineStyle
  2
STANDARD
 70
0
  3

 62
256
 51
90.0
 52
90.0
 71
2
 49
0.5
 62
256
  6
BYLAYER
 49
-0.5
 62
256
  6
BYLAYER
  0
LAYOUT
  5
251
102
{ACAD_REACTORS
330
1A
102
}
100
AcDbPlotSettings
  1

  2
none_device
  4
ANSI_C_(22.00_x_17.00_Inches)
  6

 40
0.0
 41
0.0
 42
0.0
 43
0.0
 44
558.8
 45
431.8
 46
0.0
 47
0.0
 48
0.0
 49
0.0
140
0.0
141
0.0
142
1.0
143
1.0
 70
1024
 72
0
 73
0
 74
0
  7

 75
0
147
1.0
148
0.0
149
0.0
100
AcDbLayout
  1
Model
 70
0
 71
0
 10
0.0
 20
0.0
 11
22.0
 21
17.0
 12
0.0
 22
0.0
 32
0.0
 14
0.0
 24
0.0
 34
0.0
 15
0.0
 25
0.0
 35
0.0
146
0.0
 13
0.0
 23
0.0
 33
0.0
 16
1.0
 26
0.0
 36
0.0
 17
0.0
 27
1.0
 37
0.0
 76
0
330
205
345
0
346
0
  0
LAYOUT
  5
252
102
{ACAD_REACTORS
330
1A
102
}
100
AcDbPlotSettings
  1

  2
none_device
  4
ANSI_C_(22.00_x_17.00_Inches)
  6

 40
0.0
 41
0.0
 42
0.0
 43
0.0
 44
558.8
 45
431.8
 46
0.0
 47
0.0
 48
0.0
 49
0.0
140
0.0
141
0.0
142
1.0
143
1.0
 70
0
 72
0
 73
0
 74
0
  7

 75
0
147
1.0
148
0.0
149
0.0
100
AcDbLayout
  1
Layout1
 70
0
 71
1
 10
0.0
 20
0.0
 11
22.0
 21
17.0
 12
0.0
 22
0.0
 32
0.0
 14
0.0
 24
0.0
 34
0.0
 15
0.0
 25
0.0
 35
0.0
146
0.0
 13
0.0
 23
0.0
 33
0.0
 16
1.0
 26
0.0
 36
0.0
 17
0.0
 27
1.0
 37
0.0
 76
0
330
206
345
0
346
0
  0
ENDSEC
  0
EOF
