999
DXF file: E:\BT Custom\CADOUTPUT\_RIGHT.dxf
999
Pro/ENGINEER 2018400 by Parametric Technology Corporation
  0
SECTION
  2
HEADER
  9
$ACADVER
  1
AC1018
  9
$DWGCODEPAGE
  3
ANSI_1252
  9
$EXTMAX
 10
22.0
 20
17.0
 30
0.0
  9
$EXTMIN
 10
0.0
 20
0.0
 30
0.0
  9
$LIMMIN
 10
0.0
 20
0.0
  9
$LIMMAX
 10
22.0
 20
17.0
  9
$VIEWCTR
 10
11.0
 20
8.5
  9
$VIEWSIZE
 40
17.0
  9
$CLAYER
  8
0
  9
$LTSCALE
 40
1.21
  9
$CELTYPE
  6
BYLAYER
  9
$DIMSCALE
 40
1.0
  9
$DIMASZ
 40
0.1
  9
$DIMEXO
 40
0.0625
  9
$DIMDLI
 40
0.836
  9
$DIMEXE
 40
0.125
  9
$DIMCEN
 40
0.198
  9
$DIMLFAC
 40
1.0
  9
$DIMBLK
  1
_FILLED
  9
$DIMALT
 70
1
  9
$DIMALTD
 70
2
  9
$DIMALTTD
 70
2
  9
$DIMALTF
 40
25.4
  9
$DIMTXT
 40
0.08
  9
$DIMTOL
 70
1
  9
$DIMLIM
 70
0
  9
$DIMTFAC
 40
1.0
  9
$DIMTP
 40
0.001
  9
$DIMTM
 40
0.001
  9
$DIMGAP
 40
0.09
  9
$DIMDSEP
 70
46
  9
$AUNITS
 70
0
  9
$PDMODE
 70
3
  9
$PDSIZE
 40
0.06
  9
$HANDSEED
  5
25F
  9
$TILEMODE
 70
1
  9
$MEASUREMENT
 70
0
  9
$INSUNITS
 70
1
  0
ENDSEC
  0
SECTION
  2
CLASSES
  0
CLASS
  1
ACDBDICTIONARYWDFLT
  2
AcDbDictionaryWithDefault
  3
AutoCAD 2000
 90
0
 91
1
280
0
281
0
  0
CLASS
  1
ACDBPLACEHOLDER
  2
AcDbPlaceHolder
  3
AutoCAD 2000
 90
0
 91
1
280
0
281
0
  0
CLASS
  1
LAYOUT
  2
AcDbLayout
  3
AutoCAD 2000
 90
0
 91
0
280
0
281
0
  0
ENDSEC
  0
SECTION
  2
TABLES
  0
TABLE
  2
VPORT
  5
8
100
AcDbSymbolTable
 70
2
  0
VPORT
  5
1F4
100
AcDbSymbolTableRecord
100
AcDbViewportTableRecord
  2
*ACTIVE
 70
0
 10
0.0
 20
0.0
 11
1.0
 21
1.0
 12
11.0
 22
8.5
 13
0.0
 23
0.0
 14
1.0
 24
1.0
 15
0.0
 25
0.0
 16
0.0
 26
0.0
 36
1.0
 17
0.0
 27
0.0
 37
0.0
 40
17.0
 41
1.2941176471
 42
50.0
 43
0.0
 44
0.0
 50
0.0
 51
0.0
 71
0
 72
100
 73
1
 74
1
 75
0
 76
0
 77
0
 78
0
  0
ENDTAB
  0
TABLE
  2
LTYPE
  5
5
100
AcDbSymbolTable
 70
6
  0
LTYPE
  5
14
100
AcDbSymbolTableRecord
100
AcDbLinetypeTableRecord
  2
BYBLOCK
 70
0
  3

 72
65
 73
0
 40
0.0
  0
LTYPE
  5
15
100
AcDbSymbolTableRecord
100
AcDbLinetypeTableRecord
  2
BYLAYER
 70
0
  3

 72
65
 73
0
 40
0.0
  0
LTYPE
  5
16
100
AcDbSymbolTableRecord
100
AcDbLinetypeTableRecord
  2
CONTINUOUS
 70
64
  3
Solid line
 72
65
 73
0
 40
0.0
  0
LTYPE
  5
1F5
100
AcDbSymbolTableRecord
100
AcDbLinetypeTableRecord
  2
CENTER
 70
64
  3
____ _ ____ _ ____ _ ____ _ ____ _ ____ _ ____
 72
65
 73
4
 40
0.6
 49
0.375
 74
0
 49
-0.075
 74
0
 49
0.075
 74
0
 49
-0.075
 74
0
  0
LTYPE
  5
1F6
100
AcDbSymbolTableRecord
100
AcDbLinetypeTableRecord
  2
HIDDEN
 70
64
  3
- - - - - - - - - - - - - - - - - - - -
 72
65
 73
2
 40
0.2
 49
0.1
 74
0
 49
-0.1
 74
0
  0
LTYPE
  5
1F7
100
AcDbSymbolTableRecord
100
AcDbLinetypeTableRecord
  2
PHANTOM
 70
64
  3
_____ _ _ _____ _ _ _____ _ _ _____
 72
65
 73
6
 40
0.8
 49
0.45
 74
0
 49
-0.05
 74
0
 49
0.1
 74
0
 49
-0.05
 74
0
 49
0.1
 74
0
 49
-0.05
 74
0
  0
LTYPE
  5
1F8
100
AcDbSymbolTableRecord
100
AcDbLinetypeTableRecord
  2
DOT
 70
64
  3
. . . . . . . . . . . . . . . . . . . .
 72
65
 73
2
 40
0.2
 49
0.1
 74
0
 49
-0.1
 74
0
  0
LTYPE
  5
1F9
100
AcDbSymbolTableRecord
100
AcDbLinetypeTableRecord
  2
DASHED
 70
64
  3
- - - - - - - - - - - - - - - - - - - -
 72
65
 73
2
 40
0.2
 49
0.1
 74
0
 49
-0.1
 74
0
  0
ENDTAB
  0
TABLE
  2
LAYER
  5
2
100
AcDbSymbolTable
 70
36
  0
LAYER
  5
10
100
AcDbSymbolTableRecord
100
AcDbLayerTableRecord
  2
0
 70
0
 62
7
  6
CONTINUOUS
370
-3
390
F
  0
LAYER
  5
1FA
100
AcDbSymbolTableRecord
100
AcDbLayerTableRecord
  2
DEFAULT_1
 70
0
 62
7
  6
CENTER
370
-3
390
F
  0
LAYER
  5
1FB
100
AcDbSymbolTableRecord
100
AcDbLayerTableRecord
  2
DEFAULT_2
 70
0
 62
8
  6
HIDDEN
370
-3
390
F
  0
LAYER
  5
1FC
100
AcDbSymbolTableRecord
100
AcDbLayerTableRecord
  2
DEFAULT_3
 70
0
 62
7
  6
PHANTOM
370
-3
390
F
  0
LAYER
  5
1FD
100
AcDbSymbolTableRecord
100
AcDbLayerTableRecord
  2
ALL_FEATURES
 70
0
 62
7
  6
CONTINUOUS
370
-3
390
F
  0
LAYER
  5
1FE
100
AcDbSymbolTableRecord
100
AcDbLayerTableRecord
  2
AXES_FEATURES
 70
0
 62
7
  6
CONTINUOUS
370
-3
390
F
  0
LAYER
  5
1FF
100
AcDbSymbolTableRecord
100
AcDbLayerTableRecord
  2
DEFAULT_COORDINATE_SYSTEM
 70
0
 62
7
  6
CONTINUOUS
370
-3
390
F
  0
LAYER
  5
200
100
AcDbSymbolTableRecord
100
AcDbLayerTableRecord
  2
DEFAULT_DATUM_AXES
 70
0
 62
7
  6
CONTINUOUS
370
-3
390
F
  0
LAYER
  5
201
100
AcDbSymbolTableRecord
100
AcDbLayerTableRecord
  2
DEFAULT_DATUM_PLANES
 70
0
 62
7
  6
CONTINUOUS
370
-3
390
F
  0
LAYER
  5
202
100
AcDbSymbolTableRecord
100
AcDbLayerTableRecord
  2
DIMENSIONS
 70
0
 62
7
  6
CONTINUOUS
370
-3
390
F
  0
ENDTAB
  0
TABLE
  2
STYLE
  5
3
100
AcDbSymbolTable
 70
1
  0
STYLE
  5
11
100
AcDbSymbolTableRecord
100
AcDbTextStyleTableRecord
  2
STANDARD
 70
0
 40
0.0
 41
0.8
 50
0.0
 71
0
 42
0.2
  3
txt
  4

  0
STYLE
  5
203
100
AcDbSymbolTableRecord
100
AcDbTextStyleTableRecord
  2
TEXTSTYLE_1
 70
0
 40
0.0
 41
0.8
 50
0.0
 71
0
 42
0.2
  3
gdt
  4

  0
ENDTAB
  0
TABLE
  2
VIEW
  5
6
100
AcDbSymbolTable
 70
0
  0
ENDTAB
  0
TABLE
  2
UCS
  5
7
100
AcDbSymbolTable
 70
0
  0
ENDTAB
  0
TABLE
  2
APPID
  5
9
100
AcDbSymbolTable
 70
1
  0
APPID
  5
204
100
AcDbSymbolTableRecord
100
AcDbRegAppTableRecord
  2
ACAD
 70
0
  0
ENDTAB
  0
TABLE
  2
BLOCK_RECORD
  5
1
100
AcDbSymbolTable
 70
0
  0
BLOCK_RECORD
  5
205
100
AcDbSymbolTableRecord
100
AcDbBlockTableRecord
  2
*Model_Space
  0
BLOCK_RECORD
  5
206
100
AcDbSymbolTableRecord
100
AcDbBlockTableRecord
  2
*Paper_Space
  0
BLOCK_RECORD
  5
207
100
AcDbSymbolTableRecord
100
AcDbBlockTableRecord
  2
_FILLED
  0
ENDTAB
  0
TABLE
  2
DIMSTYLE
  5
A
100
AcDbSymbolTable
 70
1
100
AcDbDimStyleTable
 71
0
  0
DIMSTYLE
105
208
100
AcDbSymbolTableRecord
100
AcDbDimStyleTableRecord
  2
STANDARD
 70
0
  3

  4

 40
1.0
 41
0.1
 42
0.0625
 43
0.38
 44
0.125
 45
0.0
 46
0.0
 47
0.001
 48
0.001
140
0.08
141
0.09
142
0.0
143
25.4
144
1.0
145
0.0
146
1.0
147
0.09
 71
1.0
 72
0.0
 73
1
 74
1
 75
0
 76
0
 77
0
 78
4
 79
1
170
1
171
2
172
0
173
0
174
0
175
0
176
0
177
0
178
0
270
2
179
3
271
3
272
3
273
2
274
2
275
0
280
0
281
0
282
0
283
1
284
4
285
0
286
0
287
3
288
0
340
11
278
46
341
207
342
207
343
207
344
207
  0
ENDTAB
  0
ENDSEC
  0
SECTION
  2
BLOCKS
  0
BLOCK
  5
20
100
AcDbEntity
  8
0
100
AcDbBlockBegin
  2
*Model_Space
 70
0
 10
0.0
 20
0.0
 30
0.0
  3
*Model_Space
  1

  0
ENDBLK
  5
21
100
AcDbEntity
  8
0
100
AcDbBlockEnd
  0
BLOCK
  5
1C
100
AcDbEntity
  8
0
100
AcDbBlockBegin
  2
*Paper_Space
 70
0
 10
0.0
 20
0.0
 30
0.0
  3
*Paper_Space
  1

  0
ENDBLK
  5
1D
100
AcDbEntity
  8
0
100
AcDbBlockEnd
  0
BLOCK
  5
209
100
AcDbEntity
  8
0
100
AcDbBlockBegin
  2
_FILLED
 70
64
 10
0.0
 20
0.0
  3
_FILLED
  1

  0
SOLID
  5
20A
100
AcDbEntity
  8
0
  6
BYBLOCK
 62
0
100
AcDbTrace
 10
0.0
 20
0.0
 11
-1.0
 21
0.2
 12
-1.0
 22
-0.2
 13
-1.0
 23
-0.2
  0
ENDBLK
  5
20B
100
AcDbEntity
  8
0
  6
BYBLOCK
 62
0
100
AcDbBlockEnd
  0
ENDSEC
  0
SECTION
  2
ENTITIES
  0
LINE
  5
20C
100
AcDbEntity
  8
0
100
AcDbLine
 62
7
  6
CONTINUOUS
 10
12.3014834891
 20
5.759891804
 11
12.1620202288
 21
5.759891804
  0
LINE
  5
20D
100
AcDbEntity
  8
0
100
AcDbLine
 62
7
  6
CONTINUOUS
 10
9.1184834891
 20
7.596891804
 11
9.1184834891
 21
10.422891804
  0
LINE
  5
20E
100
AcDbEntity
  8
0
100
AcDbLine
 62
9
  6
CONTINUOUS
 10
9.1484834891
 20
7.566891804
 11
9.1484834891
 21
10.452891804
  0
LINE
  5
20F
100
AcDbEntity
  8
0
100
AcDbLine
 62
7
  6
CONTINUOUS
 10
9.1484834891
 20
7.566891804
 11
9.4634834891
 21
7.566891804
  0
LINE
  5
210
100
AcDbEntity
  8
0
100
AcDbLine
 62
9
  6
CONTINUOUS
 10
9.4634834891
 20
10.452891804
 11
9.4634834891
 21
7.566891804
  0
LINE
  5
211
100
AcDbEntity
  8
0
100
AcDbLine
 62
7
  6
CONTINUOUS
 10
9.4934834891
 20
10.422891804
 11
9.4934834891
 21
7.596891804
  0
LINE
  5
212
100
AcDbEntity
  8
0
100
AcDbLine
 62
9
  6
CONTINUOUS
 10
9.5334834891
 20
9.322391804
 11
9.5334834891
 21
8.697391804
  0
LINE
  5
213
100
AcDbEntity
  8
0
100
AcDbLine
 62
9
  6
CONTINUOUS
 10
9.1484834891
 20
7.5953217254
 11
9.4634834891
 21
7.5953217254
  0
LINE
  5
214
100
AcDbEntity
  8
0
100
AcDbLine
 62
7
  6
CONTINUOUS
 10
11.9884834891
 20
7.909891804
 11
11.8314834891
 21
7.909891804
  0
LINE
  5
215
100
AcDbEntity
  8
0
100
AcDbLine
 62
7
  6
CONTINUOUS
 10
9.9104834891
 20
9.322391804
 11
9.9104834891
 21
8.697391804
  0
LINE
  5
216
100
AcDbEntity
  8
0
100
AcDbLine
 62
7
  6
CONTINUOUS
 10
9.9414834891
 20
8.4313629572
 11
9.9414834891
 21
9.5884206509
  0
LINE
  5
217
100
AcDbEntity
  8
0
100
AcDbLine
 62
9
  6
CONTINUOUS
 10
9.9733318057
 20
8.3983830599
 11
9.9733318057
 21
9.6214005482
  0
LINE
  5
218
100
AcDbEntity
  8
0
100
AcDbLine
 62
7
  6
CONTINUOUS
 10
11.744809544
 20
8.259891804
 11
11.7914834891
 21
8.259891804
  0
LINE
  5
219
100
AcDbEntity
  8
0
100
AcDbLine
 62
7
  6
CONTINUOUS
 10
11.8014834891
 20
8.372391804
 11
11.7914834891
 21
8.372391804
  0
LINE
  5
21A
100
AcDbEntity
  8
0
100
AcDbLine
 62
7
  6
CONTINUOUS
 10
11.6342754489
 20
8.3403816298
 11
9.9733318057
 21
8.3983830599
  0
LINE
  5
21B
100
AcDbEntity
  8
0
100
AcDbLine
 62
9
  6
CONTINUOUS
 10
9.1484834891
 20
8.6023395878
 11
9.4634834891
 21
8.6023395878
  0
LINE
  5
21C
100
AcDbEntity
  8
0
100
AcDbLine
 62
7
  6
CONTINUOUS
 10
9.9104834891
 20
8.697391804
 11
9.5334834891
 21
8.697391804
  0
LINE
  5
21D
100
AcDbEntity
  8
0
100
AcDbLine
 62
9
  6
CONTINUOUS
 10
9.1484834891
 20
8.7206262851
 11
9.4634834891
 21
8.7206262851
  0
LINE
  5
21E
100
AcDbEntity
  8
0
100
AcDbLine
 62
7
  6
CONTINUOUS
 10
9.9414834891
 20
8.747391804
 11
9.9104834891
 21
8.747391804
  0
LINE
  5
21F
100
AcDbEntity
  8
0
100
AcDbLine
 62
9
  6
CONTINUOUS
 10
9.1484834891
 20
8.773401855
 11
9.4634834891
 21
8.773401855
  0
LINE
  5
220
100
AcDbEntity
  8
0
100
AcDbLine
 62
9
  6
CONTINUOUS
 10
9.4934834891
 20
8.803360741
 11
9.1184834891
 21
8.803360741
  0
LINE
  5
221
100
AcDbEntity
  8
0
100
AcDbLine
 62
9
  6
CONTINUOUS
 10
9.1184834891
 20
9.216422867
 11
9.4934834891
 21
9.216422867
  0
LINE
  5
222
100
AcDbEntity
  8
0
100
AcDbLine
 62
9
  6
CONTINUOUS
 10
9.1484834891
 20
9.2463817531
 11
9.4634834891
 21
9.2463817531
  0
LINE
  5
223
100
AcDbEntity
  8
0
100
AcDbLine
 62
7
  6
CONTINUOUS
 10
9.9414834891
 20
9.272391804
 11
9.9104834891
 21
9.272391804
  0
LINE
  5
224
100
AcDbEntity
  8
0
100
AcDbLine
 62
9
  6
CONTINUOUS
 10
9.4634834891
 20
9.299157323
 11
9.1484834891
 21
9.299157323
  0
LINE
  5
225
100
AcDbEntity
  8
0
100
AcDbLine
 62
7
  6
CONTINUOUS
 10
9.9104834891
 20
9.322391804
 11
9.5334834891
 21
9.322391804
  0
LINE
  5
226
100
AcDbEntity
  8
0
100
AcDbLine
 62
9
  6
CONTINUOUS
 10
9.4634834891
 20
9.4174440203
 11
9.1484834891
 21
9.4174440203
  0
LINE
  5
227
100
AcDbEntity
  8
0
100
AcDbLine
 62
7
  6
CONTINUOUS
 10
11.6342754489
 20
9.6794019783
 11
9.9733318057
 21
9.6214005482
  0
LINE
  5
228
100
AcDbEntity
  8
0
100
AcDbLine
 62
7
  6
CONTINUOUS
 10
11.8014834891
 20
9.647391804
 11
11.7914834891
 21
9.647391804
  0
LINE
  5
229
100
AcDbEntity
  8
0
100
AcDbLine
 62
7
  6
CONTINUOUS
 10
11.744809544
 20
9.759891804
 11
11.7914834891
 21
9.759891804
  0
LINE
  5
22A
100
AcDbEntity
  8
0
100
AcDbLine
 62
9
  6
CONTINUOUS
 10
11.6342754489
 20
8.3403816298
 11
11.6342754489
 21
9.6794019783
  0
LINE
  5
22B
100
AcDbEntity
  8
0
100
AcDbLine
 62
9
  6
CONTINUOUS
 10
11.7070341924
 20
8.2867379906
 11
11.7070341924
 21
9.7330456175
  0
LINE
  5
22C
100
AcDbEntity
  8
0
100
AcDbLine
 62
9
  6
CONTINUOUS
 10
11.744809544
 20
8.259891804
 11
11.744809544
 21
9.759891804
  0
LINE
  5
22D
100
AcDbEntity
  8
0
100
AcDbLine
 62
7
  6
CONTINUOUS
 10
11.7914834891
 20
9.7598889249
 11
11.7914834891
 21
8.2598946832
  0
LINE
  5
22E
100
AcDbEntity
  8
0
100
AcDbLine
 62
7
  6
CONTINUOUS
 10
11.8014834891
 20
7.939891804
 11
11.8014834891
 21
10.079891804
  0
LINE
  5
22F
100
AcDbEntity
  8
0
100
AcDbLine
 62
9
  6
CONTINUOUS
 10
11.8314834891
 20
7.909891804
 11
11.8314834891
 21
10.109891804
  0
LINE
  5
230
100
AcDbEntity
  8
0
100
AcDbLine
 62
7
  6
CONTINUOUS
 10
11.9884834891
 20
10.109891804
 11
11.8314834891
 21
10.109891804
  0
LINE
  5
231
100
AcDbEntity
  8
0
100
AcDbLine
 62
7
  6
CONTINUOUS
 10
11.9884834891
 20
5.9270483143
 11
11.9884834891
 21
12.0927352938
  0
LINE
  5
232
100
AcDbEntity
  8
0
100
AcDbLine
 62
9
  6
CONTINUOUS
 10
12.0304204988
 20
5.8676736527
 11
12.0304204988
 21
12.1521099554
  0
LINE
  5
233
100
AcDbEntity
  8
0
100
AcDbLine
 62
9
  6
CONTINUOUS
 10
12.1040011388
 20
5.7983401197
 11
12.1040011388
 21
12.2214434884
  0
LINE
  5
234
100
AcDbEntity
  8
0
100
AcDbLine
 62
9
  6
CONTINUOUS
 10
12.1620202288
 20
5.759891804
 11
12.1620202288
 21
12.259891804
  0
LINE
  5
235
100
AcDbEntity
  8
0
100
AcDbLine
 62
9
  6
CONTINUOUS
 10
9.1484834891
 20
10.4244618827
 11
9.4634834891
 21
10.4244618827
  0
LINE
  5
236
100
AcDbEntity
  8
0
100
AcDbLine
 62
7
  6
CONTINUOUS
 10
9.1484834891
 20
10.452891804
 11
9.4634834891
 21
10.452891804
  0
LINE
  5
237
100
AcDbEntity
  8
0
100
AcDbLine
 62
7
  6
CONTINUOUS
 10
12.3014834891
 20
12.259891804
 11
12.3014834891
 21
5.759891804
  0
LINE
  5
238
100
AcDbEntity
  8
0
100
AcDbLine
 62
7
  6
CONTINUOUS
 10
12.3014834891
 20
12.259891804
 11
12.1620202288
 21
12.259891804
  0
ARC
  5
239
100
AcDbEntity
  8
0
100
AcDbCircle
 62
7
  6
CONTINUOUS
 10
9.5334834891
 20
8.657391804
 40
0.04
100
AcDbArc
 50
90.0
 51
179.9999999982
  0
ARC
  5
23A
100
AcDbEntity
  8
0
100
AcDbCircle
 62
7
  6
CONTINUOUS
 10
9.9744834891
 20
8.4313629572
 40
0.033
100
AcDbArc
 50
180.0
 51
268.0
  0
ARC
  5
23B
100
AcDbEntity
  8
0
100
AcDbCircle
 62
7
  6
CONTINUOUS
 10
9.4634834891
 20
7.596891804
 40
0.03
100
AcDbArc
 50
270.0
 51
360.0
  0
ARC
  5
23C
100
AcDbEntity
  8
0
100
AcDbCircle
 62
7
  6
CONTINUOUS
 10
9.1484834891
 20
7.596891804
 40
0.03
100
AcDbArc
 50
180.0
 51
270.0
  0
ARC
  5
23D
100
AcDbEntity
  8
0
100
AcDbCircle
 62
9
  6
CONTINUOUS
 10
9.1484609448
 20
8.7506084565
 40
0.0299798023
100
AcDbArc
 50
180.0445051763
 51
270.0430820385
  0
ARC
  5
23E
100
AcDbEntity
  8
0
100
AcDbCircle
 62
9
  6
CONTINUOUS
 10
9.4635060335
 20
8.7506084565
 40
0.0299798023
100
AcDbArc
 50
269.9569179254
 51
359.9554948475
  0
ARC
  5
23F
100
AcDbEntity
  8
0
100
AcDbCircle
 62
9
  6
CONTINUOUS
 10
9.1484609456
 20
8.8033840162
 40
0.0299797973
100
AcDbArc
 50
180.0444856319
 51
270.0430805658
  0
ARC
  5
240
100
AcDbEntity
  8
0
100
AcDbCircle
 62
9
  6
CONTINUOUS
 10
9.4635060326
 20
8.803384016
 40
0.0299797972
100
AcDbArc
 50
269.956919466
 51
359.9555146823
  0
ARC
  5
241
100
AcDbEntity
  8
0
100
AcDbCircle
 62
7
  6
CONTINUOUS
 10
9.5334834891
 20
9.362391804
 40
0.04
100
AcDbArc
 50
180.0000000018
 51
270.0
  0
ARC
  5
242
100
AcDbEntity
  8
0
100
AcDbCircle
 62
7
  6
CONTINUOUS
 10
9.9744834891
 20
9.5884206509
 40
0.033
100
AcDbArc
 50
92.0
 51
180.0
  0
ARC
  5
243
100
AcDbEntity
  8
0
100
AcDbCircle
 62
7
  6
CONTINUOUS
 10
9.4634834891
 20
10.422891804
 40
0.03
100
AcDbArc
 50
0.0
 51
90.0
  0
ARC
  5
244
100
AcDbEntity
  8
0
100
AcDbCircle
 62
7
  6
CONTINUOUS
 10
9.1484834891
 20
10.422891804
 40
0.03
100
AcDbArc
 50
90.0
 51
180.0
  0
ARC
  5
245
100
AcDbEntity
  8
0
100
AcDbCircle
 62
9
  6
CONTINUOUS
 10
9.4635060361
 20
9.269175154
 40
0.0299798023
100
AcDbArc
 50
0.0445005219
 51
90.0430872048
  0
ARC
  5
246
100
AcDbEntity
  8
0
100
AcDbCircle
 62
9
  6
CONTINUOUS
 10
9.1484609421
 20
9.269175154
 40
0.0299798023
100
AcDbArc
 50
89.9569127593
 51
179.9554995026
  0
ARC
  5
247
100
AcDbEntity
  8
0
100
AcDbCircle
 62
9
  6
CONTINUOUS
 10
9.4635060354
 20
9.2163995944
 40
0.0299797973
100
AcDbArc
 50
0.0444809554
 51
90.0430857707
  0
ARC
  5
248
100
AcDbEntity
  8
0
100
AcDbCircle
 62
9
  6
CONTINUOUS
 10
9.1484609429
 20
9.2163995945
 40
0.0299797972
100
AcDbArc
 50
89.9569142986
 51
179.9555193283
  0
ARC
  5
249
100
AcDbEntity
  8
0
100
AcDbCircle
 62
7
  6
CONTINUOUS
 10
11.9884834891
 20
5.7494570214
 40
0.1254347826
100
AcDbArc
 50
22.9364108859
 51
70.4680059554
  0
ARC
  5
24A
100
AcDbEntity
  8
0
100
AcDbCircle
 62
7
  6
CONTINUOUS
 10
11.6314834891
 20
8.2604303636
 40
0.08
100
AcDbArc
 50
19.1987071253
 51
88.0
  0
ARC
  5
24B
100
AcDbEntity
  8
0
100
AcDbCircle
 62
7
  6
CONTINUOUS
 10
12.1620202288
 20
5.822891804
 40
0.063
100
AcDbArc
 50
202.9364108859
 51
270.0
  0
ARC
  5
24C
100
AcDbEntity
  8
0
100
AcDbCircle
 62
7
  6
CONTINUOUS
 10
12.0514834891
 20
5.9270483143
 40
0.063
100
AcDbArc
 50
180.0
 51
250.4680059544
  0
ARC
  5
24D
100
AcDbEntity
  8
0
100
AcDbCircle
 62
7
  6
CONTINUOUS
 10
11.744809544
 20
8.299891804
 40
0.04
100
AcDbArc
 50
199.1987071253
 51
270.0
  0
ARC
  5
24E
100
AcDbEntity
  8
0
100
AcDbCircle
 62
7
  6
CONTINUOUS
 10
11.8314834891
 20
7.939891804
 40
0.03
100
AcDbArc
 50
180.0
 51
270.0
  0
ARC
  5
24F
100
AcDbEntity
  8
0
100
AcDbCircle
 62
7
  6
CONTINUOUS
 10
11.9884834891
 20
12.2703265867
 40
0.1254347826
100
AcDbArc
 50
289.5319940446
 51
337.0635891141
  0
ARC
  5
250
100
AcDbEntity
  8
0
100
AcDbCircle
 62
7
  6
CONTINUOUS
 10
11.6314834891
 20
9.7593532445
 40
0.08
100
AcDbArc
 50
272.0
 51
340.8012928747
  0
ARC
  5
251
100
AcDbEntity
  8
0
100
AcDbCircle
 62
7
  6
CONTINUOUS
 10
12.1620202288
 20
12.196891804
 40
0.063
100
AcDbArc
 50
90.0
 51
157.0635891141
  0
ARC
  5
252
100
AcDbEntity
  8
0
100
AcDbCircle
 62
7
  6
CONTINUOUS
 10
12.0514834891
 20
12.0927352938
 40
0.063
100
AcDbArc
 50
109.5319940456
 51
180.0
  0
ARC
  5
253
100
AcDbEntity
  8
0
100
AcDbCircle
 62
7
  6
CONTINUOUS
 10
11.744809544
 20
9.719891804
 40
0.04
100
AcDbArc
 50
90.0
 51
160.8012928747
  0
ARC
  5
254
100
AcDbEntity
  8
0
100
AcDbCircle
 62
7
  6
CONTINUOUS
 10
11.8314834891
 20
10.079891804
 40
0.03
100
AcDbArc
 50
90.0
 51
180.0
  0
SPLINE
  5
255
100
AcDbEntity
  8
0
100
AcDbSpline
 62
9
  6
CONTINUOUS
 70
0
 71
3
 72
25
 73
21
 74
0
 42
0.0000001
 43
0.0000001
 44
0.0000000001
 40
0.0
 40
0.0
 40
0.0
 40
0.0
 40
0.0028200479
 40
0.0047881641
 40
0.0072407724
 40
0.0137337269
 40
0.0224501245
 40
0.0334355159
 40
0.0466943027
 40
0.0622046131
 40
0.0799373044
 40
0.1219341625
 40
0.1723223382
 40
0.2306213455
 40
0.2962999486
 40
0.3687191553
 40
0.4472055271
 40
0.6192588067
 40
0.8059338539
 40
1.0
 40
1.0
 40
1.0
 40
1.0
 10
9.4934834891
 20
10.422891804
 30
0.0
 10
9.4934834891
 20
10.4229201501
 30
0.0
 10
9.4934554566
 20
10.4229662353
 30
0.0
 10
9.4933990694
 20
10.4230110902
 30
0.0
 10
9.493304151
 20
10.4230674067
 30
0.0
 10
9.4931385213
 20
10.4231327374
 30
0.0
 10
9.4928856853
 20
10.4232067994
 30
0.0
 10
9.4925624806
 20
10.4232803389
 30
0.0
 10
9.4921695768
 20
10.423353496
 30
0.0
 10
9.4917077318
 20
10.423425799
 30
0.0
 10
9.4909581457
 20
10.4235265359
 30
0.0
 10
9.4898574861
 20
10.4236451148
 30
0.0
 10
9.4883483517
 20
10.4237746579
 30
0.0
 10
9.4865998657
 20
10.4238964479
 30
0.0
 10
9.4846289347
 20
10.424009038
 30
0.0
 10
9.4824542862
 20
10.4241113446
 30
0.0
 10
9.4792103984
 20
10.4242362217
 30
0.0
 10
9.474817173
 20
10.4243561062
 30
0.0
 10
9.4692612671
 20
10.4244425259
 30
0.0
 10
9.4654341683
 20
10.4244618827
 30
0.0
 10
9.4634834891
 20
10.4244618827
 30
0.0
  0
SPLINE
  5
256
100
AcDbEntity
  8
0
100
AcDbSpline
 62
9
  6
CONTINUOUS
 70
0
 71
3
 72
25
 73
21
 74
0
 42
0.0000001
 43
0.0000001
 44
0.0000000001
 40
0.0
 40
0.0
 40
0.0
 40
0.0
 40
0.0028200263
 40
0.0047881029
 40
0.0072406551
 40
0.013733463
 40
0.0224496922
 40
0.0334348953
 40
0.046693313
 40
0.0622031325
 40
0.0799353249
 40
0.121931399
 40
0.1723182411
 40
0.2306164008
 40
0.2962941134
 40
0.3687121287
 40
0.4471967643
 40
0.6192462306
 40
0.8059271844
 40
1.0
 40
1.0
 40
1.0
 40
1.0
 10
9.1184834891
 20
8.6039096665
 30
0.0
 10
9.1184834891
 20
8.6038813207
 30
0.0
 10
9.1185115202
 20
8.6038352357
 30
0.0
 10
9.1185679061
 20
8.6037903807
 30
0.0
 10
9.1186628218
 20
8.6037340646
 30
0.0
 10
9.1188284478
 20
8.6036687344
 30
0.0
 10
9.1190812788
 20
8.6035946736
 30
0.0
 10
9.1194044766
 20
8.6035211363
 30
0.0
 10
9.1197973698
 20
8.6034479801
 30
0.0
 10
9.1202592012
 20
8.603375678
 30
0.0
 10
9.1210087694
 20
8.603274942
 30
0.0
 10
9.1221094029
 20
8.6031563656
 30
0.0
 10
9.1236185072
 20
8.6030268204
 30
0.0
 10
9.1253669625
 20
8.6029050328
 30
0.0
 10
9.1273378641
 20
8.602792442
 30
0.0
 10
9.1295124742
 20
8.6026901352
 30
0.0
 10
9.1327562943
 20
8.6025652582
 30
0.0
 10
9.1371495233
 20
8.6024453699
 30
0.0
 10
9.1427055175
 20
8.6023589479
 30
0.0
 10
9.1465327428
 20
8.6023395876
 30
0.0
 10
9.1484834891
 20
8.6023395876
 30
0.0
  0
SPLINE
  5
257
100
AcDbEntity
  8
0
100
AcDbSpline
 62
9
  6
CONTINUOUS
 70
0
 71
3
 72
25
 73
21
 74
0
 42
0.0000001
 43
0.0000001
 44
0.0000000001
 40
0.0
 40
0.0
 40
0.0
 40
0.0
 40
0.0028200263
 40
0.0047881029
 40
0.0072406551
 40
0.013733463
 40
0.0224496922
 40
0.0334348953
 40
0.046693313
 40
0.0622031325
 40
0.0799353249
 40
0.121931399
 40
0.1723182411
 40
0.2306164008
 40
0.2962941134
 40
0.3687121287
 40
0.4471967643
 40
0.6192462306
 40
0.8059271844
 40
1.0
 40
1.0
 40
1.0
 40
1.0
 10
9.4934834891
 20
9.4158739416
 30
0.0
 10
9.4934834891
 20
9.4159022874
 30
0.0
 10
9.493455458
 20
9.4159483724
 30
0.0
 10
9.4933990722
 20
9.4159932274
 30
0.0
 10
9.4933041564
 20
9.4160495435
 30
0.0
 10
9.4931385305
 20
9.4161148737
 30
0.0
 10
9.4928856995
 20
9.4161889345
 30
0.0
 10
9.4925625016
 20
9.4162624718
 30
0.0
 10
9.4921696085
 20
9.416335628
 30
0.0
 10
9.4917077771
 20
9.4164079301
 30
0.0
 10
9.4909582088
 20
9.4165086661
 30
0.0
 10
9.4898575754
 20
9.4166272425
 30
0.0
 10
9.488348471
 20
9.4167567877
 30
0.0
 10
9.4866000158
 20
9.4168785753
 30
0.0
 10
9.4846291142
 20
9.4169911661
 30
0.0
 10
9.4824545041
 20
9.4170934729
 30
0.0
 10
9.4792106839
 20
9.4172183499
 30
0.0
 10
9.4748174549
 20
9.4173382382
 30
0.0
 10
9.4692614608
 20
9.4174246602
 30
0.0
 10
9.4654342354
 20
9.4174440205
 30
0.0
 10
9.4634834891
 20
9.4174440205
 30
0.0
  0
SPLINE
  5
258
100
AcDbEntity
  8
0
100
AcDbSpline
 62
9
  6
CONTINUOUS
 70
0
 71
3
 72
25
 73
21
 74
0
 42
0.0000001
 43
0.0000001
 44
0.0000000001
 40
0.0
 40
0.0
 40
0.0
 40
0.0
 40
0.0028200263
 40
0.0047881029
 40
0.0072406551
 40
0.013733463
 40
0.0224496922
 40
0.0334348953
 40
0.046693313
 40
0.0622031325
 40
0.0799353249
 40
0.121931399
 40
0.1723182411
 40
0.2306164008
 40
0.2962941135
 40
0.3687121287
 40
0.4471967644
 40
0.6192462306
 40
0.8059271844
 40
1.0
 40
1.0
 40
1.0
 40
1.0
 10
9.4934834891
 20
8.6039096665
 30
0.0
 10
9.4934834891
 20
8.6038813207
 30
0.0
 10
9.493455458
 20
8.6038352357
 30
0.0
 10
9.4933990722
 20
8.6037903807
 30
0.0
 10
9.4933041564
 20
8.6037340646
 30
0.0
 10
9.4931385305
 20
8.6036687344
 30
0.0
 10
9.4928856995
 20
8.6035946736
 30
0.0
 10
9.4925625016
 20
8.6035211363
 30
0.0
 10
9.4921696085
 20
8.6034479801
 30
0.0
 10
9.4917077771
 20
8.603375678
 30
0.0
 10
9.4909582088
 20
8.603274942
 30
0.0
 10
9.4898575754
 20
8.6031563656
 30
0.0
 10
9.488348471
 20
8.6030268204
 30
0.0
 10
9.4866000158
 20
8.6029050328
 30
0.0
 10
9.4846291142
 20
8.602792442
 30
0.0
 10
9.4824545041
 20
8.6026901352
 30
0.0
 10
9.4792106839
 20
8.6025652582
 30
0.0
 10
9.4748174549
 20
8.6024453699
 30
0.0
 10
9.4692614608
 20
8.6023589478
 30
0.0
 10
9.4654342354
 20
8.6023395878
 30
0.0
 10
9.4634834891
 20
8.6023395878
 30
0.0
  0
SPLINE
  5
259
100
AcDbEntity
  8
0
100
AcDbSpline
 62
9
  6
CONTINUOUS
 70
0
 71
3
 72
25
 73
21
 74
0
 42
0.0000001
 43
0.0000001
 44
0.0000000001
 40
0.0
 40
0.0
 40
0.0
 40
0.0
 40
0.0028200263
 40
0.0047881029
 40
0.0072406551
 40
0.013733463
 40
0.0224496922
 40
0.0334348953
 40
0.046693313
 40
0.0622031325
 40
0.0799353249
 40
0.121931399
 40
0.1723182411
 40
0.2306164008
 40
0.2962941135
 40
0.3687121287
 40
0.4471967644
 40
0.6192462306
 40
0.8059271844
 40
1.0
 40
1.0
 40
1.0
 40
1.0
 10
9.1184834891
 20
9.4158739416
 30
0.0
 10
9.1184834891
 20
9.4159022874
 30
0.0
 10
9.1185115202
 20
9.4159483724
 30
0.0
 10
9.1185679061
 20
9.4159932274
 30
0.0
 10
9.1186628218
 20
9.4160495435
 30
0.0
 10
9.1188284478
 20
9.4161148737
 30
0.0
 10
9.1190812788
 20
9.4161889345
 30
0.0
 10
9.1194044766
 20
9.4162624718
 30
0.0
 10
9.1197973698
 20
9.416335628
 30
0.0
 10
9.1202592012
 20
9.4164079301
 30
0.0
 10
9.1210087694
 20
9.4165086661
 30
0.0
 10
9.1221094029
 20
9.4166272425
 30
0.0
 10
9.1236185072
 20
9.4167567877
 30
0.0
 10
9.1253669625
 20
9.4168785753
 30
0.0
 10
9.1273378641
 20
9.4169911661
 30
0.0
 10
9.1295124742
 20
9.4170934729
 30
0.0
 10
9.1327562943
 20
9.4172183499
 30
0.0
 10
9.1371495233
 20
9.4173382382
 30
0.0
 10
9.1427055175
 20
9.4174246603
 30
0.0
 10
9.1465327428
 20
9.4174440203
 30
0.0
 10
9.1484834891
 20
9.4174440203
 30
0.0
  0
SPLINE
  5
25A
100
AcDbEntity
  8
0
100
AcDbSpline
 62
9
  6
CONTINUOUS
 70
0
 71
3
 72
25
 73
21
 74
0
 42
0.0000001
 43
0.0000001
 44
0.0000000001
 40
0.0
 40
0.0
 40
0.0
 40
0.0
 40
0.0028200475
 40
0.004788163
 40
0.0072407703
 40
0.0137337221
 40
0.0224501162
 40
0.0334355034
 40
0.0466942819
 40
0.0622045817
 40
0.0799372626
 40
0.1219341067
 40
0.1723222593
 40
0.2306212527
 40
0.2962998408
 40
0.3687190259
 40
0.4472053662
 40
0.6192585991
 40
0.8059337672
 40
1.0
 40
1.0
 40
1.0
 40
1.0
 10
9.1184834891
 20
10.422891804
 30
0.0
 10
9.1184834891
 20
10.4229201501
 30
0.0
 10
9.1185115216
 20
10.4229662353
 30
0.0
 10
9.1185679089
 20
10.4230110902
 30
0.0
 10
9.1186628272
 20
10.4230674067
 30
0.0
 10
9.1188284568
 20
10.4231327374
 30
0.0
 10
9.1190812927
 20
10.4232067994
 30
0.0
 10
9.1194044973
 20
10.4232803388
 30
0.0
 10
9.1197974008
 20
10.4233534958
 30
0.0
 10
9.1202592455
 20
10.4234257989
 30
0.0
 10
9.1210088313
 20
10.4235265357
 30
0.0
 10
9.1221094904
 20
10.4236451146
 30
0.0
 10
9.1236186243
 20
10.4237746577
 30
0.0
 10
9.1253671097
 20
10.4238964477
 30
0.0
 10
9.1273380403
 20
10.4240090378
 30
0.0
 10
9.1295126881
 20
10.4241113445
 30
0.0
 10
9.1327565749
 20
10.4242362216
 30
0.0
 10
9.1371498007
 20
10.424356106
 30
0.0
 10
9.1427057082
 20
10.4244425258
 30
0.0
 10
9.1465328091
 20
10.424461883
 30
0.0
 10
9.1484834891
 20
10.424461883
 30
0.0
  0
SPLINE
  5
25B
100
AcDbEntity
  8
0
100
AcDbSpline
 62
9
  6
CONTINUOUS
 70
0
 71
3
 72
25
 73
21
 74
0
 42
0.0000001
 43
0.0000001
 44
0.0000000001
 40
0.0
 40
0.0
 40
0.0
 40
0.0
 40
0.0028200479
 40
0.0047881641
 40
0.0072407724
 40
0.0137337269
 40
0.0224501245
 40
0.0334355159
 40
0.0466943027
 40
0.0622046131
 40
0.0799373043
 40
0.1219341625
 40
0.1723223382
 40
0.2306213455
 40
0.2962999486
 40
0.3687191553
 40
0.4472055271
 40
0.6192588066
 40
0.8059338539
 40
1.0
 40
1.0
 40
1.0
 40
1.0
 10
9.4934834891
 20
7.596891804
 30
0.0
 10
9.4934834891
 20
7.596863458
 30
0.0
 10
9.4934554566
 20
7.5968173728
 30
0.0
 10
9.4933990694
 20
7.5967725179
 30
0.0
 10
9.493304151
 20
7.5967162014
 30
0.0
 10
9.4931385213
 20
7.5966508706
 30
0.0
 10
9.4928856853
 20
7.5965768087
 30
0.0
 10
9.4925624806
 20
7.5965032692
 30
0.0
 10
9.4921695768
 20
7.5964301121
 30
0.0
 10
9.4917077318
 20
7.5963578091
 30
0.0
 10
9.4909581457
 20
7.5962570722
 30
0.0
 10
9.4898574861
 20
7.5961384933
 30
0.0
 10
9.4883483517
 20
7.5960089502
 30
0.0
 10
9.4865998657
 20
7.5958871602
 30
0.0
 10
9.4846289346
 20
7.5957745701
 30
0.0
 10
9.4824542862
 20
7.5956722635
 30
0.0
 10
9.4792103984
 20
7.5955473863
 30
0.0
 10
9.474817173
 20
7.595427502
 30
0.0
 10
9.4692612671
 20
7.5953410823
 30
0.0
 10
9.4654341683
 20
7.5953217249
 30
0.0
 10
9.4634834891
 20
7.5953217249
 30
0.0
  0
SPLINE
  5
25C
100
AcDbEntity
  8
0
100
AcDbSpline
 62
9
  6
CONTINUOUS
 70
0
 71
3
 72
25
 73
21
 74
0
 42
0.0000001
 43
0.0000001
 44
0.0000000001
 40
0.0
 40
0.0
 40
0.0
 40
0.0
 40
0.0028200479
 40
0.0047881641
 40
0.0072407724
 40
0.0137337269
 40
0.0224501245
 40
0.0334355159
 40
0.0466943027
 40
0.0622046131
 40
0.0799373044
 40
0.1219341625
 40
0.1723223382
 40
0.2306213455
 40
0.2962999486
 40
0.3687191553
 40
0.4472055271
 40
0.6192588067
 40
0.8059338539
 40
1.0
 40
1.0
 40
1.0
 40
1.0
 10
9.1184834891
 20
7.596891804
 30
0.0
 10
9.1184834891
 20
7.596863458
 30
0.0
 10
9.1185115216
 20
7.5968173728
 30
0.0
 10
9.1185679089
 20
7.5967725179
 30
0.0
 10
9.1186628273
 20
7.5967162014
 30
0.0
 10
9.118828457
 20
7.5966508706
 30
0.0
 10
9.1190812929
 20
7.5965768087
 30
0.0
 10
9.1194044977
 20
7.5965032692
 30
0.0
 10
9.1197974014
 20
7.5964301121
 30
0.0
 10
9.1202592465
 20
7.5963578091
 30
0.0
 10
9.1210088326
 20
7.5962570722
 30
0.0
 10
9.1221094922
 20
7.5961384933
 30
0.0
 10
9.1236186266
 20
7.5960089502
 30
0.0
 10
9.1253671125
 20
7.5958871602
 30
0.0
 10
9.1273380436
 20
7.5957745701
 30
0.0
 10
9.1295126921
 20
7.5956722634
 30
0.0
 10
9.1327565799
 20
7.5955473864
 30
0.0
 10
9.1371498053
 20
7.5954275019
 30
0.0
 10
9.1427057111
 20
7.5953410822
 30
0.0
 10
9.1465328099
 20
7.5953217254
 30
0.0
 10
9.1484834891
 20
7.5953217254
 30
0.0
  0
ENDSEC
  0
SECTION
  2
OBJECTS
  0
DICTIONARY
  5
C
100
AcDbDictionary
280
0
281
1
  3
ACAD_GROUP
350
D
  3
ACAD_MLINESTYLE
350
17
  3
ACAD_LAYOUT
350
1A
  3
ACAD_PLOTSETTINGS
350
19
  3
ACAD_PLOTSTYLENAME
350
E
  0
DICTIONARY
  5
D
102
{ACAD_REACTORS
330
C
102
}
100
AcDbDictionary
280
0
281
1
  0
ACDBDICTIONARYWDFLT
  5
E
102
{ACAD_REACTORS
330
C
102
}
100
AcDbDictionary
281
1
  3
Normal
350
F
100
AcDbDictionaryWithDefault
340
F
  0
DICTIONARY
  5
17
102
{ACAD_REACTORS
330
C
102
}
100
AcDbDictionary
280
0
281
1
  3
Standard
350
18
  0
DICTIONARY
  5
19
102
{ACAD_REACTORS
330
C
102
}
100
AcDbDictionary
281
1
  0
DICTIONARY
  5
1A
102
{ACAD_REACTORS
330
C
102
}
100
AcDbDictionary
281
1
  3
Model
350
25D
  3
Layout1
350
25E
  0
ACDBPLACEHOLDER
  5
F
102
{ACAD_REACTORS
330
E
102
}
  0
MLINESTYLE
  5
18
102
{ACAD_REACTORS
330
17
102
}
100
AcDbMlineStyle
  2
STANDARD
 70
0
  3

 62
256
 51
90.0
 52
90.0
 71
2
 49
0.5
 62
256
  6
BYLAYER
 49
-0.5
 62
256
  6
BYLAYER
  0
LAYOUT
  5
25D
102
{ACAD_REACTORS
330
1A
102
}
100
AcDbPlotSettings
  1

  2
none_device
  4
ANSI_C_(22.00_x_17.00_Inches)
  6

 40
0.0
 41
0.0
 42
0.0
 43
0.0
 44
558.8
 45
431.8
 46
0.0
 47
0.0
 48
0.0
 49
0.0
140
0.0
141
0.0
142
1.0
143
1.0
 70
1024
 72
0
 73
0
 74
0
  7

 75
0
147
1.0
148
0.0
149
0.0
100
AcDbLayout
  1
Model
 70
0
 71
0
 10
0.0
 20
0.0
 11
22.0
 21
17.0
 12
0.0
 22
0.0
 32
0.0
 14
0.0
 24
0.0
 34
0.0
 15
0.0
 25
0.0
 35
0.0
146
0.0
 13
0.0
 23
0.0
 33
0.0
 16
1.0
 26
0.0
 36
0.0
 17
0.0
 27
1.0
 37
0.0
 76
0
330
205
345
0
346
0
  0
LAYOUT
  5
25E
102
{ACAD_REACTORS
330
1A
102
}
100
AcDbPlotSettings
  1

  2
none_device
  4
ANSI_C_(22.00_x_17.00_Inches)
  6

 40
0.0
 41
0.0
 42
0.0
 43
0.0
 44
558.8
 45
431.8
 46
0.0
 47
0.0
 48
0.0
 49
0.0
140
0.0
141
0.0
142
1.0
143
1.0
 70
0
 72
0
 73
0
 74
0
  7

 75
0
147
1.0
148
0.0
149
0.0
100
AcDbLayout
  1
Layout1
 70
0
 71
1
 10
0.0
 20
0.0
 11
22.0
 21
17.0
 12
0.0
 22
0.0
 32
0.0
 14
0.0
 24
0.0
 34
0.0
 15
0.0
 25
0.0
 35
0.0
146
0.0
 13
0.0
 23
0.0
 33
0.0
 16
1.0
 26
0.0
 36
0.0
 17
0.0
 27
1.0
 37
0.0
 76
0
330
206
345
0
346
0
  0
ENDSEC
  0
EOF
