999
DXF file: E:\BT Custom\CADOUTPUT\_TOP.dxf
999
Pro/ENGINEER 2018400 by Parametric Technology Corporation
  0
SECTION
  2
HEADER
  9
$ACADVER
  1
AC1018
  9
$DWGCODEPAGE
  3
ANSI_1252
  9
$EXTMAX
 10
22.0
 20
17.0
 30
0.0
  9
$EXTMIN
 10
0.0
 20
0.0
 30
0.0
  9
$LIMMIN
 10
0.0
 20
0.0
  9
$LIMMAX
 10
22.0
 20
17.0
  9
$VIEWCTR
 10
11.0
 20
8.5
  9
$VIEWSIZE
 40
17.0
  9
$CLAYER
  8
0
  9
$LTSCALE
 40
1.21
  9
$CELTYPE
  6
BYLAYER
  9
$DIMSCALE
 40
1.0
  9
$DIMASZ
 40
0.1
  9
$DIMEXO
 40
0.0625
  9
$DIMDLI
 40
0.836
  9
$DIMEXE
 40
0.125
  9
$DIMCEN
 40
0.198
  9
$DIMLFAC
 40
1.0
  9
$DIMBLK
  1
_FILLED
  9
$DIMALT
 70
1
  9
$DIMALTD
 70
2
  9
$DIMALTTD
 70
2
  9
$DIMALTF
 40
25.4
  9
$DIMTXT
 40
0.08
  9
$DIMTOL
 70
1
  9
$DIMLIM
 70
0
  9
$DIMTFAC
 40
1.0
  9
$DIMTP
 40
0.001
  9
$DIMTM
 40
0.001
  9
$DIMGAP
 40
0.09
  9
$DIMDSEP
 70
46
  9
$AUNITS
 70
0
  9
$PDMODE
 70
3
  9
$PDSIZE
 40
0.06
  9
$HANDSEED
  5
25F
  9
$TILEMODE
 70
1
  9
$MEASUREMENT
 70
0
  9
$INSUNITS
 70
1
  0
ENDSEC
  0
SECTION
  2
CLASSES
  0
CLASS
  1
ACDBDICTIONARYWDFLT
  2
AcDbDictionaryWithDefault
  3
AutoCAD 2000
 90
0
 91
1
280
0
281
0
  0
CLASS
  1
ACDBPLACEHOLDER
  2
AcDbPlaceHolder
  3
AutoCAD 2000
 90
0
 91
1
280
0
281
0
  0
CLASS
  1
LAYOUT
  2
AcDbLayout
  3
AutoCAD 2000
 90
0
 91
0
280
0
281
0
  0
ENDSEC
  0
SECTION
  2
TABLES
  0
TABLE
  2
VPORT
  5
8
100
AcDbSymbolTable
 70
2
  0
VPORT
  5
1F4
100
AcDbSymbolTableRecord
100
AcDbViewportTableRecord
  2
*ACTIVE
 70
0
 10
0.0
 20
0.0
 11
1.0
 21
1.0
 12
11.0
 22
8.5
 13
0.0
 23
0.0
 14
1.0
 24
1.0
 15
0.0
 25
0.0
 16
0.0
 26
0.0
 36
1.0
 17
0.0
 27
0.0
 37
0.0
 40
17.0
 41
1.2941176471
 42
50.0
 43
0.0
 44
0.0
 50
0.0
 51
0.0
 71
0
 72
100
 73
1
 74
1
 75
0
 76
0
 77
0
 78
0
  0
ENDTAB
  0
TABLE
  2
LTYPE
  5
5
100
AcDbSymbolTable
 70
6
  0
LTYPE
  5
14
100
AcDbSymbolTableRecord
100
AcDbLinetypeTableRecord
  2
BYBLOCK
 70
0
  3

 72
65
 73
0
 40
0.0
  0
LTYPE
  5
15
100
AcDbSymbolTableRecord
100
AcDbLinetypeTableRecord
  2
BYLAYER
 70
0
  3

 72
65
 73
0
 40
0.0
  0
LTYPE
  5
16
100
AcDbSymbolTableRecord
100
AcDbLinetypeTableRecord
  2
CONTINUOUS
 70
64
  3
Solid line
 72
65
 73
0
 40
0.0
  0
LTYPE
  5
1F5
100
AcDbSymbolTableRecord
100
AcDbLinetypeTableRecord
  2
CENTER
 70
64
  3
____ _ ____ _ ____ _ ____ _ ____ _ ____ _ ____
 72
65
 73
4
 40
0.6
 49
0.375
 74
0
 49
-0.075
 74
0
 49
0.075
 74
0
 49
-0.075
 74
0
  0
LTYPE
  5
1F6
100
AcDbSymbolTableRecord
100
AcDbLinetypeTableRecord
  2
HIDDEN
 70
64
  3
- - - - - - - - - - - - - - - - - - - -
 72
65
 73
2
 40
0.2
 49
0.1
 74
0
 49
-0.1
 74
0
  0
LTYPE
  5
1F7
100
AcDbSymbolTableRecord
100
AcDbLinetypeTableRecord
  2
PHANTOM
 70
64
  3
_____ _ _ _____ _ _ _____ _ _ _____
 72
65
 73
6
 40
0.8
 49
0.45
 74
0
 49
-0.05
 74
0
 49
0.1
 74
0
 49
-0.05
 74
0
 49
0.1
 74
0
 49
-0.05
 74
0
  0
LTYPE
  5
1F8
100
AcDbSymbolTableRecord
100
AcDbLinetypeTableRecord
  2
DOT
 70
64
  3
. . . . . . . . . . . . . . . . . . . .
 72
65
 73
2
 40
0.2
 49
0.1
 74
0
 49
-0.1
 74
0
  0
LTYPE
  5
1F9
100
AcDbSymbolTableRecord
100
AcDbLinetypeTableRecord
  2
DASHED
 70
64
  3
- - - - - - - - - - - - - - - - - - - -
 72
65
 73
2
 40
0.2
 49
0.1
 74
0
 49
-0.1
 74
0
  0
ENDTAB
  0
TABLE
  2
LAYER
  5
2
100
AcDbSymbolTable
 70
36
  0
LAYER
  5
10
100
AcDbSymbolTableRecord
100
AcDbLayerTableRecord
  2
0
 70
0
 62
7
  6
CONTINUOUS
370
-3
390
F
  0
LAYER
  5
1FA
100
AcDbSymbolTableRecord
100
AcDbLayerTableRecord
  2
DEFAULT_1
 70
0
 62
7
  6
CENTER
370
-3
390
F
  0
LAYER
  5
1FB
100
AcDbSymbolTableRecord
100
AcDbLayerTableRecord
  2
DEFAULT_2
 70
0
 62
8
  6
HIDDEN
370
-3
390
F
  0
LAYER
  5
1FC
100
AcDbSymbolTableRecord
100
AcDbLayerTableRecord
  2
DEFAULT_3
 70
0
 62
7
  6
PHANTOM
370
-3
390
F
  0
LAYER
  5
1FD
100
AcDbSymbolTableRecord
100
AcDbLayerTableRecord
  2
ALL_FEATURES
 70
0
 62
7
  6
CONTINUOUS
370
-3
390
F
  0
LAYER
  5
1FE
100
AcDbSymbolTableRecord
100
AcDbLayerTableRecord
  2
AXES_FEATURES
 70
0
 62
7
  6
CONTINUOUS
370
-3
390
F
  0
LAYER
  5
1FF
100
AcDbSymbolTableRecord
100
AcDbLayerTableRecord
  2
DEFAULT_COORDINATE_SYSTEM
 70
0
 62
7
  6
CONTINUOUS
370
-3
390
F
  0
LAYER
  5
200
100
AcDbSymbolTableRecord
100
AcDbLayerTableRecord
  2
DEFAULT_DATUM_AXES
 70
0
 62
7
  6
CONTINUOUS
370
-3
390
F
  0
LAYER
  5
201
100
AcDbSymbolTableRecord
100
AcDbLayerTableRecord
  2
DEFAULT_DATUM_PLANES
 70
0
 62
7
  6
CONTINUOUS
370
-3
390
F
  0
LAYER
  5
202
100
AcDbSymbolTableRecord
100
AcDbLayerTableRecord
  2
DIMENSIONS
 70
0
 62
7
  6
CONTINUOUS
370
-3
390
F
  0
ENDTAB
  0
TABLE
  2
STYLE
  5
3
100
AcDbSymbolTable
 70
1
  0
STYLE
  5
11
100
AcDbSymbolTableRecord
100
AcDbTextStyleTableRecord
  2
STANDARD
 70
0
 40
0.0
 41
0.8
 50
0.0
 71
0
 42
0.2
  3
txt
  4

  0
STYLE
  5
203
100
AcDbSymbolTableRecord
100
AcDbTextStyleTableRecord
  2
TEXTSTYLE_1
 70
0
 40
0.0
 41
0.8
 50
0.0
 71
0
 42
0.2
  3
gdt
  4

  0
ENDTAB
  0
TABLE
  2
VIEW
  5
6
100
AcDbSymbolTable
 70
0
  0
ENDTAB
  0
TABLE
  2
UCS
  5
7
100
AcDbSymbolTable
 70
0
  0
ENDTAB
  0
TABLE
  2
APPID
  5
9
100
AcDbSymbolTable
 70
1
  0
APPID
  5
204
100
AcDbSymbolTableRecord
100
AcDbRegAppTableRecord
  2
ACAD
 70
0
  0
ENDTAB
  0
TABLE
  2
BLOCK_RECORD
  5
1
100
AcDbSymbolTable
 70
0
  0
BLOCK_RECORD
  5
205
100
AcDbSymbolTableRecord
100
AcDbBlockTableRecord
  2
*Model_Space
  0
BLOCK_RECORD
  5
206
100
AcDbSymbolTableRecord
100
AcDbBlockTableRecord
  2
*Paper_Space
  0
BLOCK_RECORD
  5
207
100
AcDbSymbolTableRecord
100
AcDbBlockTableRecord
  2
_FILLED
  0
ENDTAB
  0
TABLE
  2
DIMSTYLE
  5
A
100
AcDbSymbolTable
 70
1
100
AcDbDimStyleTable
 71
0
  0
DIMSTYLE
105
208
100
AcDbSymbolTableRecord
100
AcDbDimStyleTableRecord
  2
STANDARD
 70
0
  3

  4

 40
1.0
 41
0.1
 42
0.0625
 43
0.38
 44
0.125
 45
0.0
 46
0.0
 47
0.001
 48
0.001
140
0.08
141
0.09
142
0.0
143
25.4
144
1.0
145
0.0
146
1.0
147
0.09
 71
1.0
 72
0.0
 73
1
 74
1
 75
0
 76
0
 77
0
 78
4
 79
1
170
1
171
2
172
0
173
0
174
0
175
0
176
0
177
0
178
0
270
2
179
3
271
3
272
3
273
2
274
2
275
0
280
0
281
0
282
0
283
1
284
4
285
0
286
0
287
3
288
0
340
11
278
46
341
207
342
207
343
207
344
207
  0
ENDTAB
  0
ENDSEC
  0
SECTION
  2
BLOCKS
  0
BLOCK
  5
20
100
AcDbEntity
  8
0
100
AcDbBlockBegin
  2
*Model_Space
 70
0
 10
0.0
 20
0.0
 30
0.0
  3
*Model_Space
  1

  0
ENDBLK
  5
21
100
AcDbEntity
  8
0
100
AcDbBlockEnd
  0
BLOCK
  5
1C
100
AcDbEntity
  8
0
100
AcDbBlockBegin
  2
*Paper_Space
 70
0
 10
0.0
 20
0.0
 30
0.0
  3
*Paper_Space
  1

  0
ENDBLK
  5
1D
100
AcDbEntity
  8
0
100
AcDbBlockEnd
  0
BLOCK
  5
209
100
AcDbEntity
  8
0
100
AcDbBlockBegin
  2
_FILLED
 70
64
 10
0.0
 20
0.0
  3
_FILLED
  1

  0
SOLID
  5
20A
100
AcDbEntity
  8
0
  6
BYBLOCK
 62
0
100
AcDbTrace
 10
0.0
 20
0.0
 11
-1.0
 21
0.2
 12
-1.0
 22
-0.2
 13
-1.0
 23
-0.2
  0
ENDBLK
  5
20B
100
AcDbEntity
  8
0
  6
BYBLOCK
 62
0
100
AcDbBlockEnd
  0
ENDSEC
  0
SECTION
  2
ENTITIES
  0
LINE
  5
20C
100
AcDbEntity
  8
0
100
AcDbLine
 62
7
  6
CONTINUOUS
 10
7.7973183383
 20
8.9343686
 11
7.7973183383
 21
9.0738318604
  0
LINE
  5
20D
100
AcDbEntity
  8
0
100
AcDbLine
 62
7
  6
CONTINUOUS
 10
9.6043183383
 20
5.9208318604
 11
9.6043183383
 21
6.2358318604
  0
LINE
  5
20E
100
AcDbEntity
  8
0
100
AcDbLine
 62
7
  6
CONTINUOUS
 10
12.4603183383
 20
5.8908318604
 11
9.6343183383
 21
5.8908318604
  0
LINE
  5
20F
100
AcDbEntity
  8
0
100
AcDbLine
 62
9
  6
CONTINUOUS
 10
12.4903183383
 20
5.9208318604
 11
9.6043183383
 21
5.9208318604
  0
LINE
  5
210
100
AcDbEntity
  8
0
100
AcDbLine
 62
9
  6
CONTINUOUS
 10
9.6327482596
 20
5.9208318604
 11
9.6327482596
 21
6.2358318604
  0
LINE
  5
211
100
AcDbEntity
  8
0
100
AcDbLine
 62
9
  6
CONTINUOUS
 10
9.6043183383
 20
6.2358318604
 11
12.4903183383
 21
6.2358318604
  0
LINE
  5
212
100
AcDbEntity
  8
0
100
AcDbLine
 62
7
  6
CONTINUOUS
 10
9.6343183383
 20
6.2658318604
 11
12.4603183383
 21
6.2658318604
  0
LINE
  5
213
100
AcDbEntity
  8
0
100
AcDbLine
 62
9
  6
CONTINUOUS
 10
10.7348183383
 20
6.3058318604
 11
11.3598183383
 21
6.3058318604
  0
LINE
  5
214
100
AcDbEntity
  8
0
100
AcDbLine
 62
7
  6
CONTINUOUS
 10
9.9473183383
 20
8.7608318604
 11
9.9473183383
 21
8.6038318604
  0
LINE
  5
215
100
AcDbEntity
  8
0
100
AcDbLine
 62
7
  6
CONTINUOUS
 10
10.2973183383
 20
8.5638318604
 11
10.2973183383
 21
8.5171579153
  0
LINE
  5
216
100
AcDbEntity
  8
0
100
AcDbLine
 62
7
  6
CONTINUOUS
 10
10.7348183383
 20
6.6828318604
 11
11.3598183383
 21
6.6828318604
  0
LINE
  5
217
100
AcDbEntity
  8
0
100
AcDbLine
 62
7
  6
CONTINUOUS
 10
11.6258471852
 20
6.7138318604
 11
10.4687894914
 21
6.7138318604
  0
LINE
  5
218
100
AcDbEntity
  8
0
100
AcDbLine
 62
9
  6
CONTINUOUS
 10
11.6588270824
 20
6.745680177
 11
10.4358095941
 21
6.745680177
  0
LINE
  5
219
100
AcDbEntity
  8
0
100
AcDbLine
 62
7
  6
CONTINUOUS
 10
10.377808164
 20
8.4066238201
 11
10.4358095941
 21
6.745680177
  0
LINE
  5
21A
100
AcDbEntity
  8
0
100
AcDbLine
 62
7
  6
CONTINUOUS
 10
10.4098183383
 20
8.5738318604
 11
10.4098183383
 21
8.5638318604
  0
LINE
  5
21B
100
AcDbEntity
  8
0
100
AcDbLine
 62
9
  6
CONTINUOUS
 10
10.6397661221
 20
5.9208318604
 11
10.6397661221
 21
6.2358318604
  0
LINE
  5
21C
100
AcDbEntity
  8
0
100
AcDbLine
 62
7
  6
CONTINUOUS
 10
10.7348183383
 20
6.3058318604
 11
10.7348183383
 21
6.6828318604
  0
LINE
  5
21D
100
AcDbEntity
  8
0
100
AcDbLine
 62
9
  6
CONTINUOUS
 10
10.7580528194
 20
5.9208318604
 11
10.7580528194
 21
6.2358318604
  0
LINE
  5
21E
100
AcDbEntity
  8
0
100
AcDbLine
 62
7
  6
CONTINUOUS
 10
10.7848183383
 20
6.6828318604
 11
10.7848183383
 21
6.7138318604
  0
LINE
  5
21F
100
AcDbEntity
  8
0
100
AcDbLine
 62
9
  6
CONTINUOUS
 10
10.8108283892
 20
5.9208318604
 11
10.8108283892
 21
6.2358318604
  0
LINE
  5
220
100
AcDbEntity
  8
0
100
AcDbLine
 62
9
  6
CONTINUOUS
 10
10.8407872753
 20
5.8908318604
 11
10.8407872753
 21
6.2658318604
  0
LINE
  5
221
100
AcDbEntity
  8
0
100
AcDbLine
 62
9
  6
CONTINUOUS
 10
11.2538494013
 20
5.8908318604
 11
11.2538494013
 21
6.2658318604
  0
LINE
  5
222
100
AcDbEntity
  8
0
100
AcDbLine
 62
9
  6
CONTINUOUS
 10
11.2838082873
 20
5.9208318604
 11
11.2838082873
 21
6.2358318604
  0
LINE
  5
223
100
AcDbEntity
  8
0
100
AcDbLine
 62
7
  6
CONTINUOUS
 10
11.3098183383
 20
6.6828318604
 11
11.3098183383
 21
6.7138318604
  0
LINE
  5
224
100
AcDbEntity
  8
0
100
AcDbLine
 62
9
  6
CONTINUOUS
 10
11.3365838572
 20
6.2358318604
 11
11.3365838572
 21
5.9208318604
  0
LINE
  5
225
100
AcDbEntity
  8
0
100
AcDbLine
 62
7
  6
CONTINUOUS
 10
11.3598183383
 20
6.3058318604
 11
11.3598183383
 21
6.6828318604
  0
LINE
  5
226
100
AcDbEntity
  8
0
100
AcDbLine
 62
9
  6
CONTINUOUS
 10
11.4548705545
 20
6.2358318604
 11
11.4548705545
 21
5.9208318604
  0
LINE
  5
227
100
AcDbEntity
  8
0
100
AcDbLine
 62
7
  6
CONTINUOUS
 10
11.6848183383
 20
8.5738318604
 11
11.6848183383
 21
8.5638318604
  0
LINE
  5
228
100
AcDbEntity
  8
0
100
AcDbLine
 62
7
  6
CONTINUOUS
 10
11.7973183383
 20
8.5638318604
 11
11.7973183383
 21
8.5171579153
  0
LINE
  5
229
100
AcDbEntity
  8
0
100
AcDbLine
 62
7
  6
CONTINUOUS
 10
11.7168285125
 20
8.4066238201
 11
11.6588270824
 21
6.745680177
  0
LINE
  5
22A
100
AcDbEntity
  8
0
100
AcDbLine
 62
9
  6
CONTINUOUS
 10
11.7168285125
 20
8.4066238201
 11
10.377808164
 21
8.4066238201
  0
LINE
  5
22B
100
AcDbEntity
  8
0
100
AcDbLine
 62
9
  6
CONTINUOUS
 10
11.7704721518
 20
8.4793825637
 11
10.3241645248
 21
8.4793825637
  0
LINE
  5
22C
100
AcDbEntity
  8
0
100
AcDbLine
 62
7
  6
CONTINUOUS
 10
12.1473183383
 20
8.7608318604
 11
12.1473183383
 21
8.6038318604
  0
LINE
  5
22D
100
AcDbEntity
  8
0
100
AcDbLine
 62
9
  6
CONTINUOUS
 10
11.7973183383
 20
8.5171579153
 11
10.2973183383
 21
8.5171579153
  0
LINE
  5
22E
100
AcDbEntity
  8
0
100
AcDbLine
 62
7
  6
CONTINUOUS
 10
10.2973183383
 20
8.5638318604
 11
11.7973183383
 21
8.5638318604
  0
LINE
  5
22F
100
AcDbEntity
  8
0
100
AcDbLine
 62
7
  6
CONTINUOUS
 10
12.1173183383
 20
8.5738318604
 11
9.9773183383
 21
8.5738318604
  0
LINE
  5
230
100
AcDbEntity
  8
0
100
AcDbLine
 62
9
  6
CONTINUOUS
 10
12.1473183383
 20
8.6038318604
 11
9.9473183383
 21
8.6038318604
  0
LINE
  5
231
100
AcDbEntity
  8
0
100
AcDbLine
 62
9
  6
CONTINUOUS
 10
12.461888417
 20
5.9208318604
 11
12.461888417
 21
6.2358318604
  0
LINE
  5
232
100
AcDbEntity
  8
0
100
AcDbLine
 62
7
  6
CONTINUOUS
 10
12.4903183383
 20
5.9208318604
 11
12.4903183383
 21
6.2358318604
  0
LINE
  5
233
100
AcDbEntity
  8
0
100
AcDbLine
 62
7
  6
CONTINUOUS
 10
14.1301593323
 20
8.7608318604
 11
7.9644773443
 21
8.7608318604
  0
LINE
  5
234
100
AcDbEntity
  8
0
100
AcDbLine
 62
9
  6
CONTINUOUS
 10
14.1895364896
 20
8.8027688701
 11
7.9051001869
 21
8.8027688701
  0
LINE
  5
235
100
AcDbEntity
  8
0
100
AcDbLine
 62
9
  6
CONTINUOUS
 10
14.2588700226
 20
8.8763495101
 11
7.8357666539
 21
8.8763495101
  0
LINE
  5
236
100
AcDbEntity
  8
0
100
AcDbLine
 62
9
  6
CONTINUOUS
 10
14.2973183383
 20
8.9343686
 11
7.7973183383
 21
8.9343686
  0
LINE
  5
237
100
AcDbEntity
  8
0
100
AcDbLine
 62
7
  6
CONTINUOUS
 10
7.7973183383
 20
9.0738318604
 11
14.2973183383
 21
9.0738318604
  0
LINE
  5
238
100
AcDbEntity
  8
0
100
AcDbLine
 62
7
  6
CONTINUOUS
 10
14.2973183383
 20
8.9343686
 11
14.2973183383
 21
9.0738318604
  0
ARC
  5
239
100
AcDbEntity
  8
0
100
AcDbCircle
 62
7
  6
CONTINUOUS
 10
10.6948183383
 20
6.3058318604
 40
0.04
100
AcDbArc
 50
270.0
 51
360.0
  0
ARC
  5
23A
100
AcDbEntity
  8
0
100
AcDbCircle
 62
7
  6
CONTINUOUS
 10
10.4687894914
 20
6.7468318604
 40
0.033
100
AcDbArc
 50
182.0
 51
270.0
  0
ARC
  5
23B
100
AcDbEntity
  8
0
100
AcDbCircle
 62
7
  6
CONTINUOUS
 10
9.6343183383
 20
6.2358318604
 40
0.03
100
AcDbArc
 50
90.0
 51
180.0
  0
ARC
  5
23C
100
AcDbEntity
  8
0
100
AcDbCircle
 62
7
  6
CONTINUOUS
 10
9.6343183383
 20
5.9208318604
 40
0.03
100
AcDbArc
 50
180.0
 51
270.0
  0
ARC
  5
23D
100
AcDbEntity
  8
0
100
AcDbCircle
 62
9
  6
CONTINUOUS
 10
10.7880349908
 20
5.9208093161
 40
0.0299798023
100
AcDbArc
 50
179.9569179293
 51
269.9554948448
  0
ARC
  5
23E
100
AcDbEntity
  8
0
100
AcDbCircle
 62
9
  6
CONTINUOUS
 10
10.7880349908
 20
6.2358544047
 40
0.0299798023
100
AcDbArc
 50
90.0445051765
 51
180.043082038
  0
ARC
  5
23F
100
AcDbEntity
  8
0
100
AcDbCircle
 62
9
  6
CONTINUOUS
 10
10.8408105504
 20
6.2358544039
 40
0.0299797973
100
AcDbArc
 50
90.0444856051
 51
180.0430806064
  0
ARC
  5
240
100
AcDbEntity
  8
0
100
AcDbCircle
 62
9
  6
CONTINUOUS
 10
10.8408105502
 20
5.9208093169
 40
0.0299797972
100
AcDbArc
 50
179.9569194655
 51
269.9555146825
  0
ARC
  5
241
100
AcDbEntity
  8
0
100
AcDbCircle
 62
7
  6
CONTINUOUS
 10
7.7868835557
 20
8.7608318604
 40
0.1254347826
100
AcDbArc
 50
19.5319940446
 51
67.0635891141
  0
ARC
  5
242
100
AcDbEntity
  8
0
100
AcDbCircle
 62
7
  6
CONTINUOUS
 10
10.2978568979
 20
8.4038318604
 40
0.08
100
AcDbArc
 50
2.0
 51
70.8012928747
  0
ARC
  5
243
100
AcDbEntity
  8
0
100
AcDbCircle
 62
7
  6
CONTINUOUS
 10
7.8603183383
 20
8.9343686
 40
0.063
100
AcDbArc
 50
180.0
 51
247.0635891141
  0
ARC
  5
244
100
AcDbEntity
  8
0
100
AcDbCircle
 62
7
  6
CONTINUOUS
 10
7.9644748485
 20
8.8238318604
 40
0.063
100
AcDbArc
 50
199.5319940446
 51
270.0
  0
ARC
  5
245
100
AcDbEntity
  8
0
100
AcDbCircle
 62
7
  6
CONTINUOUS
 10
10.3373183383
 20
8.5171579153
 40
0.04
100
AcDbArc
 50
180.0
 51
250.8012928749
  0
ARC
  5
246
100
AcDbEntity
  8
0
100
AcDbCircle
 62
7
  6
CONTINUOUS
 10
9.9773183383
 20
8.6038318604
 40
0.03
100
AcDbArc
 50
180.0
 51
270.0
  0
ARC
  5
247
100
AcDbEntity
  8
0
100
AcDbCircle
 62
7
  6
CONTINUOUS
 10
11.3998183383
 20
6.3058318604
 40
0.04
100
AcDbArc
 50
180.0
 51
270.0
  0
ARC
  5
248
100
AcDbEntity
  8
0
100
AcDbCircle
 62
7
  6
CONTINUOUS
 10
11.6258471852
 20
6.7468318604
 40
0.033
100
AcDbArc
 50
270.0
 51
358.0
  0
ARC
  5
249
100
AcDbEntity
  8
0
100
AcDbCircle
 62
7
  6
CONTINUOUS
 10
12.4603183383
 20
6.2358318604
 40
0.03
100
AcDbArc
 50
0.0
 51
90.0
  0
ARC
  5
24A
100
AcDbEntity
  8
0
100
AcDbCircle
 62
7
  6
CONTINUOUS
 10
12.4603183383
 20
5.9208318604
 40
0.03
100
AcDbArc
 50
270.0
 51
360.0
  0
ARC
  5
24B
100
AcDbEntity
  8
0
100
AcDbCircle
 62
9
  6
CONTINUOUS
 10
11.3066016882
 20
5.9208093134
 40
0.0299798023
100
AcDbArc
 50
270.0445005198
 51
0.0430872025
  0
ARC
  5
24C
100
AcDbEntity
  8
0
100
AcDbCircle
 62
9
  6
CONTINUOUS
 10
11.3066016883
 20
6.2358544074
 40
0.0299798023
100
AcDbArc
 50
359.956912765
 51
89.9554995014
  0
ARC
  5
24D
100
AcDbEntity
  8
0
100
AcDbCircle
 62
9
  6
CONTINUOUS
 10
11.2538261286
 20
5.9208093142
 40
0.0299797973
100
AcDbArc
 50
270.0444809795
 51
0.0430857266
  0
ARC
  5
24E
100
AcDbEntity
  8
0
100
AcDbCircle
 62
9
  6
CONTINUOUS
 10
11.2538261288
 20
6.2358544066
 40
0.0299797972
100
AcDbArc
 50
359.9569143045
 51
89.9555193347
  0
ARC
  5
24F
100
AcDbEntity
  8
0
100
AcDbCircle
 62
7
  6
CONTINUOUS
 10
14.3077531209
 20
8.7608318604
 40
0.1254347826
100
AcDbArc
 50
112.9364108859
 51
160.4680059554
  0
ARC
  5
250
100
AcDbEntity
  8
0
100
AcDbCircle
 62
7
  6
CONTINUOUS
 10
11.7967797787
 20
8.4038318604
 40
0.08
100
AcDbArc
 50
109.1987071253
 51
178.0
  0
ARC
  5
251
100
AcDbEntity
  8
0
100
AcDbCircle
 62
7
  6
CONTINUOUS
 10
14.2343183383
 20
8.9343686
 40
0.063
100
AcDbArc
 50
292.9364108859
 51
360.0
  0
ARC
  5
252
100
AcDbEntity
  8
0
100
AcDbCircle
 62
7
  6
CONTINUOUS
 10
14.130161828
 20
8.8238318604
 40
0.063
100
AcDbArc
 50
270.0
 51
340.4680059554
  0
ARC
  5
253
100
AcDbEntity
  8
0
100
AcDbCircle
 62
7
  6
CONTINUOUS
 10
11.7573183383
 20
8.5171579153
 40
0.04
100
AcDbArc
 50
289.1987071251
 51
360.0
  0
ARC
  5
254
100
AcDbEntity
  8
0
100
AcDbCircle
 62
7
  6
CONTINUOUS
 10
12.1173183383
 20
8.6038318604
 40
0.03
100
AcDbArc
 50
270.0
 51
360.0
  0
SPLINE
  5
255
100
AcDbEntity
  8
0
100
AcDbSpline
 62
9
  6
CONTINUOUS
 70
0
 71
3
 72
25
 73
21
 74
0
 42
0.0000001
 43
0.0000001
 44
0.0000000001
 40
0.0
 40
0.0
 40
0.0
 40
0.0
 40
0.0028200263
 40
0.0047881029
 40
0.0072406551
 40
0.013733463
 40
0.0224496922
 40
0.0334348953
 40
0.046693313
 40
0.0622031325
 40
0.0799353249
 40
0.121931399
 40
0.1723182411
 40
0.2306164008
 40
0.2962941134
 40
0.3687121287
 40
0.4471967643
 40
0.6192462306
 40
0.8059271843
 40
1.0
 40
1.0
 40
1.0
 40
1.0
 10
11.4533004758
 20
5.8908318604
 30
0.0
 10
11.4533288217
 20
5.8908318604
 30
0.0
 10
11.4533749066
 20
5.8908598915
 30
0.0
 10
11.4534197616
 20
5.8909162774
 30
0.0
 10
11.4534760778
 20
5.8910111931
 30
0.0
 10
11.453541408
 20
5.891176819
 30
0.0
 10
11.4536154688
 20
5.8914296501
 30
0.0
 10
11.4536890061
 20
5.8917528479
 30
0.0
 10
11.4537621622
 20
5.892145741
 30
0.0
 10
11.4538344643
 20
5.8926075724
 30
0.0
 10
11.4539352004
 20
5.8933571407
 30
0.0
 10
11.4540537767
 20
5.8944577742
 30
0.0
 10
11.4541833219
 20
5.8959668785
 30
0.0
 10
11.4543051096
 20
5.8977153337
 30
0.0
 10
11.4544177003
 20
5.8996862354
 30
0.0
 10
11.4545200071
 20
5.9018608455
 30
0.0
 10
11.4546448841
 20
5.9051046656
 30
0.0
 10
11.4547647725
 20
5.9094978946
 30
0.0
 10
11.4548511945
 20
5.9150538888
 30
0.0
 10
11.4548705547
 20
5.9188811141
 30
0.0
 10
11.4548705547
 20
5.9208318604
 30
0.0
  0
SPLINE
  5
256
100
AcDbEntity
  8
0
100
AcDbSpline
 62
9
  6
CONTINUOUS
 70
0
 71
3
 72
25
 73
21
 74
0
 42
0.0000001
 43
0.0000001
 44
0.0000000001
 40
0.0
 40
0.0
 40
0.0
 40
0.0
 40
0.0028200263
 40
0.0047881029
 40
0.0072406551
 40
0.013733463
 40
0.0224496922
 40
0.0334348953
 40
0.046693313
 40
0.0622031325
 40
0.0799353249
 40
0.121931399
 40
0.1723182411
 40
0.2306164008
 40
0.2962941135
 40
0.3687121287
 40
0.4471967644
 40
0.6192462306
 40
0.8059271844
 40
1.0
 40
1.0
 40
1.0
 40
1.0
 10
11.4533004758
 20
6.2658318604
 30
0.0
 10
11.4533288217
 20
6.2658318604
 30
0.0
 10
11.4533749066
 20
6.2658038293
 30
0.0
 10
11.4534197616
 20
6.2657474435
 30
0.0
 10
11.4534760778
 20
6.2656525277
 30
0.0
 10
11.453541408
 20
6.2654869018
 30
0.0
 10
11.4536154688
 20
6.2652340707
 30
0.0
 10
11.4536890061
 20
6.2649108729
 30
0.0
 10
11.4537621622
 20
6.2645179798
 30
0.0
 10
11.4538344643
 20
6.2640561484
 30
0.0
 10
11.4539352004
 20
6.2633065801
 30
0.0
 10
11.4540537767
 20
6.2622059466
 30
0.0
 10
11.4541833219
 20
6.2606968423
 30
0.0
 10
11.4543051096
 20
6.2589483871
 30
0.0
 10
11.4544177003
 20
6.2569774854
 30
0.0
 10
11.4545200071
 20
6.2548028753
 30
0.0
 10
11.4546448841
 20
6.2515590552
 30
0.0
 10
11.4547647725
 20
6.2471658262
 30
0.0
 10
11.4548511945
 20
6.241609832
 30
0.0
 10
11.4548705545
 20
6.2377826067
 30
0.0
 10
11.4548705545
 20
6.2358318604
 30
0.0
  0
SPLINE
  5
257
100
AcDbEntity
  8
0
100
AcDbSpline
 62
9
  6
CONTINUOUS
 70
0
 71
3
 72
25
 73
21
 74
0
 42
0.0000001
 43
0.0000001
 44
0.0000000001
 40
0.0
 40
0.0
 40
0.0
 40
0.0
 40
0.0028200475
 40
0.004788163
 40
0.0072407703
 40
0.0137337221
 40
0.0224501162
 40
0.0334355034
 40
0.0466942819
 40
0.0622045817
 40
0.0799372625
 40
0.1219341067
 40
0.1723222593
 40
0.2306212526
 40
0.2962998407
 40
0.3687190258
 40
0.4472053661
 40
0.619258599
 40
0.8059337671
 40
1.0
 40
1.0
 40
1.0
 40
1.0
 10
12.4603183383
 20
6.2658318604
 30
0.0
 10
12.4603466843
 20
6.2658318604
 30
0.0
 10
12.4603927695
 20
6.2658038279
 30
0.0
 10
12.4604376244
 20
6.2657474407
 30
0.0
 10
12.4604939409
 20
6.2656525223
 30
0.0
 10
12.4605592717
 20
6.2654868927
 30
0.0
 10
12.4606333336
 20
6.2652340569
 30
0.0
 10
12.4607068731
 20
6.2649108522
 30
0.0
 10
12.4607800301
 20
6.2645179488
 30
0.0
 10
12.4608523331
 20
6.264056104
 30
0.0
 10
12.4609530699
 20
6.2633065183
 30
0.0
 10
12.4610716489
 20
6.2622058591
 30
0.0
 10
12.461201192
 20
6.2606967253
 30
0.0
 10
12.4613229819
 20
6.2589482398
 30
0.0
 10
12.461435572
 20
6.2569773092
 30
0.0
 10
12.4615378787
 20
6.2548026615
 30
0.0
 10
12.4616627558
 20
6.2515587747
 30
0.0
 10
12.4617826403
 20
6.2471655489
 30
0.0
 10
12.46186906
 20
6.2416096414
 30
0.0
 10
12.4618884175
 20
6.2377825405
 30
0.0
 10
12.4618884175
 20
6.2358318604
 30
0.0
  0
SPLINE
  5
258
100
AcDbEntity
  8
0
100
AcDbSpline
 62
9
  6
CONTINUOUS
 70
0
 71
3
 72
25
 73
21
 74
0
 42
0.0000001
 43
0.0000001
 44
0.0000000001
 40
0.0
 40
0.0
 40
0.0
 40
0.0
 40
0.0028200263
 40
0.0047881029
 40
0.0072406551
 40
0.013733463
 40
0.0224496922
 40
0.0334348953
 40
0.046693313
 40
0.0622031325
 40
0.0799353249
 40
0.121931399
 40
0.1723182411
 40
0.2306164008
 40
0.2962941135
 40
0.3687121287
 40
0.4471967644
 40
0.6192462306
 40
0.8059271844
 40
1.0
 40
1.0
 40
1.0
 40
1.0
 10
10.6413362007
 20
5.8908318604
 30
0.0
 10
10.6413078549
 20
5.8908318604
 30
0.0
 10
10.64126177
 20
5.8908598915
 30
0.0
 10
10.6412169149
 20
5.8909162774
 30
0.0
 10
10.6411605988
 20
5.8910111931
 30
0.0
 10
10.6410952686
 20
5.891176819
 30
0.0
 10
10.6410212078
 20
5.8914296501
 30
0.0
 10
10.6409476705
 20
5.8917528479
 30
0.0
 10
10.6408745144
 20
5.892145741
 30
0.0
 10
10.6408022122
 20
5.8926075724
 30
0.0
 10
10.6407014762
 20
5.8933571407
 30
0.0
 10
10.6405828998
 20
5.8944577742
 30
0.0
 10
10.6404533547
 20
5.8959668785
 30
0.0
 10
10.640331567
 20
5.8977153337
 30
0.0
 10
10.6402189762
 20
5.8996862354
 30
0.0
 10
10.6401166694
 20
5.9018608455
 30
0.0
 10
10.6399917925
 20
5.9051046656
 30
0.0
 10
10.6398719041
 20
5.9094978946
 30
0.0
 10
10.6397854821
 20
5.9150538888
 30
0.0
 10
10.6397661221
 20
5.9188811141
 30
0.0
 10
10.6397661221
 20
5.9208318604
 30
0.0
  0
SPLINE
  5
259
100
AcDbEntity
  8
0
100
AcDbSpline
 62
9
  6
CONTINUOUS
 70
0
 71
3
 72
25
 73
21
 74
0
 42
0.0000001
 43
0.0000001
 44
0.0000000001
 40
0.0
 40
0.0
 40
0.0
 40
0.0
 40
0.0028200475
 40
0.004788163
 40
0.0072407703
 40
0.0137337221
 40
0.0224501162
 40
0.0334355034
 40
0.0466942819
 40
0.0622045817
 40
0.0799372626
 40
0.1219341067
 40
0.1723222593
 40
0.2306212527
 40
0.2962998408
 40
0.3687190259
 40
0.4472053662
 40
0.6192585991
 40
0.8059337672
 40
1.0
 40
1.0
 40
1.0
 40
1.0
 10
9.6343183383
 20
5.8908318604
 30
0.0
 10
9.6342899922
 20
5.8908318604
 30
0.0
 10
9.6342439071
 20
5.8908598929
 30
0.0
 10
9.6341990521
 20
5.8909162801
 30
0.0
 10
9.6341427357
 20
5.8910111985
 30
0.0
 10
9.6340774049
 20
5.8911768281
 30
0.0
 10
9.6340033429
 20
5.8914296639
 30
0.0
 10
9.6339298035
 20
5.8917528686
 30
0.0
 10
9.6338566465
 20
5.892145772
 30
0.0
 10
9.6337843435
 20
5.8926076168
 30
0.0
 10
9.6336836066
 20
5.8933572025
 30
0.0
 10
9.6335650277
 20
5.8944578617
 30
0.0
 10
9.6334354846
 20
5.8959669955
 30
0.0
 10
9.6333136946
 20
5.897715481
 30
0.0
 10
9.6332011045
 20
5.8996864116
 30
0.0
 10
9.6330987979
 20
5.9018610593
 30
0.0
 10
9.6329739207
 20
5.9051049462
 30
0.0
 10
9.6328540363
 20
5.9094981719
 30
0.0
 10
9.6327676166
 20
5.9150540794
 30
0.0
 10
9.6327482594
 20
5.9188811803
 30
0.0
 10
9.6327482594
 20
5.9208318604
 30
0.0
  0
SPLINE
  5
25A
100
AcDbEntity
  8
0
100
AcDbSpline
 62
9
  6
CONTINUOUS
 70
0
 71
3
 72
25
 73
21
 74
0
 42
0.0000001
 43
0.0000001
 44
0.0000000001
 40
0.0
 40
0.0
 40
0.0
 40
0.0
 40
0.0028200479
 40
0.0047881641
 40
0.0072407724
 40
0.0137337269
 40
0.0224501245
 40
0.0334355159
 40
0.0466943027
 40
0.0622046131
 40
0.0799373044
 40
0.1219341625
 40
0.1723223382
 40
0.2306213455
 40
0.2962999486
 40
0.3687191553
 40
0.4472055271
 40
0.6192588067
 40
0.8059338539
 40
1.0
 40
1.0
 40
1.0
 40
1.0
 10
9.6343183383
 20
6.2658318604
 30
0.0
 10
9.6342899922
 20
6.2658318604
 30
0.0
 10
9.6342439071
 20
6.2658038279
 30
0.0
 10
9.6341990521
 20
6.2657474406
 30
0.0
 10
9.6341427357
 20
6.2656525222
 30
0.0
 10
9.6340774049
 20
6.2654868926
 30
0.0
 10
9.6340033429
 20
6.2652340566
 30
0.0
 10
9.6339298034
 20
6.2649108518
 30
0.0
 10
9.6338566464
 20
6.2645179481
 30
0.0
 10
9.6337843433
 20
6.2640561031
 30
0.0
 10
9.6336836065
 20
6.263306517
 30
0.0
 10
9.6335650275
 20
6.2622058573
 30
0.0
 10
9.6334354844
 20
6.260696723
 30
0.0
 10
9.6333136944
 20
6.258948237
 30
0.0
 10
9.6332011043
 20
6.2569773059
 30
0.0
 10
9.6330987977
 20
6.2548026575
 30
0.0
 10
9.6329739206
 20
6.2515587696
 30
0.0
 10
9.6328540362
 20
6.2471655443
 30
0.0
 10
9.6327676165
 20
6.2416096384
 30
0.0
 10
9.6327482596
 20
6.2377825396
 30
0.0
 10
9.6327482596
 20
6.2358318604
 30
0.0
  0
SPLINE
  5
25B
100
AcDbEntity
  8
0
100
AcDbSpline
 62
9
  6
CONTINUOUS
 70
0
 71
3
 72
25
 73
21
 74
0
 42
0.0000001
 43
0.0000001
 44
0.0000000001
 40
0.0
 40
0.0
 40
0.0
 40
0.0
 40
0.0028200263
 40
0.0047881029
 40
0.0072406551
 40
0.013733463
 40
0.0224496922
 40
0.0334348953
 40
0.046693313
 40
0.0622031325
 40
0.0799353249
 40
0.121931399
 40
0.1723182411
 40
0.2306164008
 40
0.2962941134
 40
0.3687121287
 40
0.4471967643
 40
0.6192462306
 40
0.8059271843
 40
1.0
 40
1.0
 40
1.0
 40
1.0
 10
10.6413362007
 20
6.2658318604
 30
0.0
 10
10.6413078549
 20
6.2658318604
 30
0.0
 10
10.64126177
 20
6.2658038293
 30
0.0
 10
10.6412169149
 20
6.2657474435
 30
0.0
 10
10.6411605988
 20
6.2656525277
 30
0.0
 10
10.6410952686
 20
6.2654869018
 30
0.0
 10
10.6410212078
 20
6.2652340707
 30
0.0
 10
10.6409476705
 20
6.2649108729
 30
0.0
 10
10.6408745144
 20
6.2645179798
 30
0.0
 10
10.6408022122
 20
6.2640561484
 30
0.0
 10
10.6407014762
 20
6.2633065801
 30
0.0
 10
10.6405828998
 20
6.2622059466
 30
0.0
 10
10.6404533547
 20
6.2606968423
 30
0.0
 10
10.640331567
 20
6.2589483871
 30
0.0
 10
10.6402189762
 20
6.2569774854
 30
0.0
 10
10.6401166694
 20
6.2548028753
 30
0.0
 10
10.6399917924
 20
6.2515590552
 30
0.0
 10
10.6398719041
 20
6.2471658262
 30
0.0
 10
10.6397854821
 20
6.241609832
 30
0.0
 10
10.6397661218
 20
6.2377826067
 30
0.0
 10
10.6397661218
 20
6.2358318604
 30
0.0
  0
SPLINE
  5
25C
100
AcDbEntity
  8
0
100
AcDbSpline
 62
9
  6
CONTINUOUS
 70
0
 71
3
 72
25
 73
21
 74
0
 42
0.0000001
 43
0.0000001
 44
0.0000000001
 40
0.0
 40
0.0
 40
0.0
 40
0.0
 40
0.0028200479
 40
0.0047881641
 40
0.0072407724
 40
0.0137337269
 40
0.0224501245
 40
0.0334355159
 40
0.0466943027
 40
0.0622046131
 40
0.0799373044
 40
0.1219341625
 40
0.1723223382
 40
0.2306213455
 40
0.2962999486
 40
0.3687191553
 40
0.4472055271
 40
0.6192588067
 40
0.8059338539
 40
1.0
 40
1.0
 40
1.0
 40
1.0
 10
12.4603183383
 20
5.8908318604
 30
0.0
 10
12.4603466843
 20
5.8908318604
 30
0.0
 10
12.4603927695
 20
5.8908598929
 30
0.0
 10
12.4604376244
 20
5.8909162802
 30
0.0
 10
12.4604939409
 20
5.8910111986
 30
0.0
 10
12.4605592717
 20
5.8911768282
 30
0.0
 10
12.4606333337
 20
5.8914296642
 30
0.0
 10
12.4607068731
 20
5.891752869
 30
0.0
 10
12.4607800302
 20
5.8921457727
 30
0.0
 10
12.4608523332
 20
5.8926076178
 30
0.0
 10
12.4609530701
 20
5.8933572039
 30
0.0
 10
12.4610716491
 20
5.8944578635
 30
0.0
 10
12.4612011921
 20
5.8959669978
 30
0.0
 10
12.4613229821
 20
5.8977154838
 30
0.0
 10
12.4614355722
 20
5.8996864149
 30
0.0
 10
12.4615378789
 20
5.9018610634
 30
0.0
 10
12.461662756
 20
5.9051049512
 30
0.0
 10
12.4617826404
 20
5.9094981765
 30
0.0
 10
12.4618690601
 20
5.9150540824
 30
0.0
 10
12.461888417
 20
5.9188811812
 30
0.0
 10
12.461888417
 20
5.9208318604
 30
0.0
  0
ENDSEC
  0
SECTION
  2
OBJECTS
  0
DICTIONARY
  5
C
100
AcDbDictionary
280
0
281
1
  3
ACAD_GROUP
350
D
  3
ACAD_MLINESTYLE
350
17
  3
ACAD_LAYOUT
350
1A
  3
ACAD_PLOTSETTINGS
350
19
  3
ACAD_PLOTSTYLENAME
350
E
  0
DICTIONARY
  5
D
102
{ACAD_REACTORS
330
C
102
}
100
AcDbDictionary
280
0
281
1
  0
ACDBDICTIONARYWDFLT
  5
E
102
{ACAD_REACTORS
330
C
102
}
100
AcDbDictionary
281
1
  3
Normal
350
F
100
AcDbDictionaryWithDefault
340
F
  0
DICTIONARY
  5
17
102
{ACAD_REACTORS
330
C
102
}
100
AcDbDictionary
280
0
281
1
  3
Standard
350
18
  0
DICTIONARY
  5
19
102
{ACAD_REACTORS
330
C
102
}
100
AcDbDictionary
281
1
  0
DICTIONARY
  5
1A
102
{ACAD_REACTORS
330
C
102
}
100
AcDbDictionary
281
1
  3
Model
350
25D
  3
Layout1
350
25E
  0
ACDBPLACEHOLDER
  5
F
102
{ACAD_REACTORS
330
E
102
}
  0
MLINESTYLE
  5
18
102
{ACAD_REACTORS
330
17
102
}
100
AcDbMlineStyle
  2
STANDARD
 70
0
  3

 62
256
 51
90.0
 52
90.0
 71
2
 49
0.5
 62
256
  6
BYLAYER
 49
-0.5
 62
256
  6
BYLAYER
  0
LAYOUT
  5
25D
102
{ACAD_REACTORS
330
1A
102
}
100
AcDbPlotSettings
  1

  2
none_device
  4
ANSI_C_(22.00_x_17.00_Inches)
  6

 40
0.0
 41
0.0
 42
0.0
 43
0.0
 44
558.8
 45
431.8
 46
0.0
 47
0.0
 48
0.0
 49
0.0
140
0.0
141
0.0
142
1.0
143
1.0
 70
1024
 72
0
 73
0
 74
0
  7

 75
0
147
1.0
148
0.0
149
0.0
100
AcDbLayout
  1
Model
 70
0
 71
0
 10
0.0
 20
0.0
 11
22.0
 21
17.0
 12
0.0
 22
0.0
 32
0.0
 14
0.0
 24
0.0
 34
0.0
 15
0.0
 25
0.0
 35
0.0
146
0.0
 13
0.0
 23
0.0
 33
0.0
 16
1.0
 26
0.0
 36
0.0
 17
0.0
 27
1.0
 37
0.0
 76
0
330
205
345
0
346
0
  0
LAYOUT
  5
25E
102
{ACAD_REACTORS
330
1A
102
}
100
AcDbPlotSettings
  1

  2
none_device
  4
ANSI_C_(22.00_x_17.00_Inches)
  6

 40
0.0
 41
0.0
 42
0.0
 43
0.0
 44
558.8
 45
431.8
 46
0.0
 47
0.0
 48
0.0
 49
0.0
140
0.0
141
0.0
142
1.0
143
1.0
 70
0
 72
0
 73
0
 74
0
  7

 75
0
147
1.0
148
0.0
149
0.0
100
AcDbLayout
  1
Layout1
 70
0
 71
1
 10
0.0
 20
0.0
 11
22.0
 21
17.0
 12
0.0
 22
0.0
 32
0.0
 14
0.0
 24
0.0
 34
0.0
 15
0.0
 25
0.0
 35
0.0
146
0.0
 13
0.0
 23
0.0
 33
0.0
 16
1.0
 26
0.0
 36
0.0
 17
0.0
 27
1.0
 37
0.0
 76
0
330
206
345
0
346
0
  0
ENDSEC
  0
EOF
