999
DXF file: E:\BT Custom\CADOUTPUT\_RIGHT.dxf
999
Pro/ENGINEER 2018400 by Parametric Technology Corporation
  0
SECTION
  2
HEADER
  9
$ACADVER
  1
AC1018
  9
$DWGCODEPAGE
  3
ANSI_1252
  9
$EXTMAX
 10
22.0
 20
17.0
 30
0.0
  9
$EXTMIN
 10
0.0
 20
0.0
 30
0.0
  9
$LIMMIN
 10
0.0
 20
0.0
  9
$LIMMAX
 10
22.0
 20
17.0
  9
$VIEWCTR
 10
11.0
 20
8.5
  9
$VIEWSIZE
 40
17.0
  9
$CLAYER
  8
0
  9
$LTSCALE
 40
1.21
  9
$CELTYPE
  6
BYLAYER
  9
$DIMSCALE
 40
1.0
  9
$DIMASZ
 40
0.1
  9
$DIMEXO
 40
0.0625
  9
$DIMDLI
 40
0.836
  9
$DIMEXE
 40
0.125
  9
$DIMCEN
 40
0.198
  9
$DIMLFAC
 40
1.0
  9
$DIMBLK
  1
_FILLED
  9
$DIMALT
 70
1
  9
$DIMALTD
 70
2
  9
$DIMALTTD
 70
2
  9
$DIMALTF
 40
25.4
  9
$DIMTXT
 40
0.08
  9
$DIMTOL
 70
1
  9
$DIMLIM
 70
0
  9
$DIMTFAC
 40
1.0
  9
$DIMTP
 40
0.001
  9
$DIMTM
 40
0.001
  9
$DIMGAP
 40
0.09
  9
$DIMDSEP
 70
46
  9
$AUNITS
 70
0
  9
$PDMODE
 70
3
  9
$PDSIZE
 40
0.06
  9
$HANDSEED
  5
2D0
  9
$TILEMODE
 70
1
  9
$MEASUREMENT
 70
0
  9
$INSUNITS
 70
1
  0
ENDSEC
  0
SECTION
  2
CLASSES
  0
CLASS
  1
ACDBDICTIONARYWDFLT
  2
AcDbDictionaryWithDefault
  3
AutoCAD 2000
 90
0
 91
1
280
0
281
0
  0
CLASS
  1
ACDBPLACEHOLDER
  2
AcDbPlaceHolder
  3
AutoCAD 2000
 90
0
 91
1
280
0
281
0
  0
CLASS
  1
LAYOUT
  2
AcDbLayout
  3
AutoCAD 2000
 90
0
 91
0
280
0
281
0
  0
ENDSEC
  0
SECTION
  2
TABLES
  0
TABLE
  2
VPORT
  5
8
100
AcDbSymbolTable
 70
2
  0
VPORT
  5
1F4
100
AcDbSymbolTableRecord
100
AcDbViewportTableRecord
  2
*ACTIVE
 70
0
 10
0.0
 20
0.0
 11
1.0
 21
1.0
 12
11.0
 22
8.5
 13
0.0
 23
0.0
 14
1.0
 24
1.0
 15
0.0
 25
0.0
 16
0.0
 26
0.0
 36
1.0
 17
0.0
 27
0.0
 37
0.0
 40
17.0
 41
1.2941176471
 42
50.0
 43
0.0
 44
0.0
 50
0.0
 51
0.0
 71
0
 72
100
 73
1
 74
1
 75
0
 76
0
 77
0
 78
0
  0
ENDTAB
  0
TABLE
  2
LTYPE
  5
5
100
AcDbSymbolTable
 70
6
  0
LTYPE
  5
14
100
AcDbSymbolTableRecord
100
AcDbLinetypeTableRecord
  2
BYBLOCK
 70
0
  3

 72
65
 73
0
 40
0.0
  0
LTYPE
  5
15
100
AcDbSymbolTableRecord
100
AcDbLinetypeTableRecord
  2
BYLAYER
 70
0
  3

 72
65
 73
0
 40
0.0
  0
LTYPE
  5
16
100
AcDbSymbolTableRecord
100
AcDbLinetypeTableRecord
  2
CONTINUOUS
 70
64
  3
Solid line
 72
65
 73
0
 40
0.0
  0
LTYPE
  5
1F5
100
AcDbSymbolTableRecord
100
AcDbLinetypeTableRecord
  2
CENTER
 70
64
  3
____ _ ____ _ ____ _ ____ _ ____ _ ____ _ ____
 72
65
 73
4
 40
0.6
 49
0.375
 74
0
 49
-0.075
 74
0
 49
0.075
 74
0
 49
-0.075
 74
0
  0
LTYPE
  5
1F6
100
AcDbSymbolTableRecord
100
AcDbLinetypeTableRecord
  2
HIDDEN
 70
64
  3
- - - - - - - - - - - - - - - - - - - -
 72
65
 73
2
 40
0.2
 49
0.1
 74
0
 49
-0.1
 74
0
  0
LTYPE
  5
1F7
100
AcDbSymbolTableRecord
100
AcDbLinetypeTableRecord
  2
PHANTOM
 70
64
  3
_____ _ _ _____ _ _ _____ _ _ _____
 72
65
 73
6
 40
0.8
 49
0.45
 74
0
 49
-0.05
 74
0
 49
0.1
 74
0
 49
-0.05
 74
0
 49
0.1
 74
0
 49
-0.05
 74
0
  0
LTYPE
  5
1F8
100
AcDbSymbolTableRecord
100
AcDbLinetypeTableRecord
  2
DOT
 70
64
  3
. . . . . . . . . . . . . . . . . . . .
 72
65
 73
2
 40
0.2
 49
0.1
 74
0
 49
-0.1
 74
0
  0
LTYPE
  5
1F9
100
AcDbSymbolTableRecord
100
AcDbLinetypeTableRecord
  2
DASHED
 70
64
  3
- - - - - - - - - - - - - - - - - - - -
 72
65
 73
2
 40
0.2
 49
0.1
 74
0
 49
-0.1
 74
0
  0
ENDTAB
  0
TABLE
  2
LAYER
  5
2
100
AcDbSymbolTable
 70
36
  0
LAYER
  5
10
100
AcDbSymbolTableRecord
100
AcDbLayerTableRecord
  2
0
 70
0
 62
7
  6
CONTINUOUS
370
-3
390
F
  0
LAYER
  5
1FA
100
AcDbSymbolTableRecord
100
AcDbLayerTableRecord
  2
DEFAULT_1
 70
0
 62
7
  6
CENTER
370
-3
390
F
  0
LAYER
  5
1FB
100
AcDbSymbolTableRecord
100
AcDbLayerTableRecord
  2
DEFAULT_2
 70
0
 62
8
  6
HIDDEN
370
-3
390
F
  0
LAYER
  5
1FC
100
AcDbSymbolTableRecord
100
AcDbLayerTableRecord
  2
DEFAULT_3
 70
0
 62
7
  6
PHANTOM
370
-3
390
F
  0
LAYER
  5
1FD
100
AcDbSymbolTableRecord
100
AcDbLayerTableRecord
  2
ALL_FEATURES
 70
0
 62
7
  6
CONTINUOUS
370
-3
390
F
  0
LAYER
  5
1FE
100
AcDbSymbolTableRecord
100
AcDbLayerTableRecord
  2
AXES_FEATURES
 70
0
 62
7
  6
CONTINUOUS
370
-3
390
F
  0
LAYER
  5
1FF
100
AcDbSymbolTableRecord
100
AcDbLayerTableRecord
  2
DEFAULT_COORDINATE_SYSTEM
 70
0
 62
7
  6
CONTINUOUS
370
-3
390
F
  0
LAYER
  5
200
100
AcDbSymbolTableRecord
100
AcDbLayerTableRecord
  2
DEFAULT_DATUM_AXES
 70
0
 62
7
  6
CONTINUOUS
370
-3
390
F
  0
LAYER
  5
201
100
AcDbSymbolTableRecord
100
AcDbLayerTableRecord
  2
DEFAULT_DATUM_PLANES
 70
0
 62
7
  6
CONTINUOUS
370
-3
390
F
  0
LAYER
  5
202
100
AcDbSymbolTableRecord
100
AcDbLayerTableRecord
  2
DIMENSIONS
 70
0
 62
7
  6
CONTINUOUS
370
-3
390
F
  0
ENDTAB
  0
TABLE
  2
STYLE
  5
3
100
AcDbSymbolTable
 70
1
  0
STYLE
  5
11
100
AcDbSymbolTableRecord
100
AcDbTextStyleTableRecord
  2
STANDARD
 70
0
 40
0.0
 41
0.8
 50
0.0
 71
0
 42
0.2
  3
txt
  4

  0
STYLE
  5
203
100
AcDbSymbolTableRecord
100
AcDbTextStyleTableRecord
  2
TEXTSTYLE_1
 70
0
 40
0.0
 41
0.8
 50
0.0
 71
0
 42
0.2
  3
gdt
  4

  0
ENDTAB
  0
TABLE
  2
VIEW
  5
6
100
AcDbSymbolTable
 70
0
  0
ENDTAB
  0
TABLE
  2
UCS
  5
7
100
AcDbSymbolTable
 70
0
  0
ENDTAB
  0
TABLE
  2
APPID
  5
9
100
AcDbSymbolTable
 70
1
  0
APPID
  5
204
100
AcDbSymbolTableRecord
100
AcDbRegAppTableRecord
  2
ACAD
 70
0
  0
ENDTAB
  0
TABLE
  2
BLOCK_RECORD
  5
1
100
AcDbSymbolTable
 70
0
  0
BLOCK_RECORD
  5
205
100
AcDbSymbolTableRecord
100
AcDbBlockTableRecord
  2
*Model_Space
  0
BLOCK_RECORD
  5
206
100
AcDbSymbolTableRecord
100
AcDbBlockTableRecord
  2
*Paper_Space
  0
BLOCK_RECORD
  5
207
100
AcDbSymbolTableRecord
100
AcDbBlockTableRecord
  2
_FILLED
  0
ENDTAB
  0
TABLE
  2
DIMSTYLE
  5
A
100
AcDbSymbolTable
 70
1
100
AcDbDimStyleTable
 71
0
  0
DIMSTYLE
105
208
100
AcDbSymbolTableRecord
100
AcDbDimStyleTableRecord
  2
STANDARD
 70
0
  3

  4

 40
1.0
 41
0.1
 42
0.0625
 43
0.38
 44
0.125
 45
0.0
 46
0.0
 47
0.001
 48
0.001
140
0.08
141
0.09
142
0.0
143
25.4
144
1.0
145
0.0
146
1.0
147
0.09
 71
1.0
 72
0.0
 73
1
 74
1
 75
0
 76
0
 77
0
 78
4
 79
1
170
1
171
2
172
0
173
0
174
0
175
0
176
0
177
0
178
0
270
2
179
3
271
3
272
3
273
2
274
2
275
0
280
0
281
0
282
0
283
1
284
4
285
0
286
0
287
3
288
0
340
11
278
46
341
207
342
207
343
207
344
207
  0
ENDTAB
  0
ENDSEC
  0
SECTION
  2
BLOCKS
  0
BLOCK
  5
20
100
AcDbEntity
  8
0
100
AcDbBlockBegin
  2
*Model_Space
 70
0
 10
0.0
 20
0.0
 30
0.0
  3
*Model_Space
  1

  0
ENDBLK
  5
21
100
AcDbEntity
  8
0
100
AcDbBlockEnd
  0
BLOCK
  5
1C
100
AcDbEntity
  8
0
100
AcDbBlockBegin
  2
*Paper_Space
 70
0
 10
0.0
 20
0.0
 30
0.0
  3
*Paper_Space
  1

  0
ENDBLK
  5
1D
100
AcDbEntity
  8
0
100
AcDbBlockEnd
  0
BLOCK
  5
209
100
AcDbEntity
  8
0
100
AcDbBlockBegin
  2
_FILLED
 70
64
 10
0.0
 20
0.0
  3
_FILLED
  1

  0
SOLID
  5
20A
100
AcDbEntity
  8
0
  6
BYBLOCK
 62
0
100
AcDbTrace
 10
0.0
 20
0.0
 11
-1.0
 21
0.2
 12
-1.0
 22
-0.2
 13
-1.0
 23
-0.2
  0
ENDBLK
  5
20B
100
AcDbEntity
  8
0
  6
BYBLOCK
 62
0
100
AcDbBlockEnd
  0
ENDSEC
  0
SECTION
  2
ENTITIES
  0
LINE
  5
20C
100
AcDbEntity
  8
0
100
AcDbLine
 62
7
  6
CONTINUOUS
 10
12.4927334891
 20
5.759891804
 11
12.6807334891
 21
5.759891804
  0
LINE
  5
20D
100
AcDbEntity
  8
0
100
AcDbLine
 62
7
  6
CONTINUOUS
 10
8.7392334891
 20
9.323391804
 11
8.7392334891
 21
8.696391804
  0
LINE
  5
20E
100
AcDbEntity
  8
0
100
AcDbLine
 62
9
  6
CONTINUOUS
 10
8.7692334891
 20
8.666391804
 11
8.7692334891
 21
9.353391804
  0
LINE
  5
20F
100
AcDbEntity
  8
0
100
AcDbLine
 62
9
  6
CONTINUOUS
 10
8.7727334891
 20
8.7898918037
 11
8.7727334891
 21
9.2298918043
  0
LINE
  5
210
100
AcDbEntity
  8
0
100
AcDbLine
 62
7
  6
CONTINUOUS
 10
8.8327334891
 20
10.417391804
 11
8.8327334891
 21
9.413391804
  0
LINE
  5
211
100
AcDbEntity
  8
0
100
AcDbLine
 62
7
  6
CONTINUOUS
 10
8.8327334891
 20
9.229891804
 11
8.8327334891
 21
8.789891804
  0
LINE
  5
212
100
AcDbEntity
  8
0
100
AcDbLine
 62
7
  6
CONTINUOUS
 10
8.8327334891
 20
8.606391804
 11
8.8327334891
 21
7.602391804
  0
LINE
  5
213
100
AcDbEntity
  8
0
100
AcDbLine
 62
9
  6
CONTINUOUS
 10
8.8627334891
 20
7.572391804
 11
8.8627334891
 21
8.666391804
  0
LINE
  5
214
100
AcDbEntity
  8
0
100
AcDbLine
 62
9
  6
CONTINUOUS
 10
8.8627334891
 20
8.699891804
 11
8.8627334891
 21
9.319891804
  0
LINE
  5
215
100
AcDbEntity
  8
0
100
AcDbLine
 62
9
  6
CONTINUOUS
 10
8.8627334891
 20
9.353391804
 11
8.8627334891
 21
10.447391804
  0
LINE
  5
216
100
AcDbEntity
  8
0
100
AcDbLine
 62
9
  6
CONTINUOUS
 10
9.3027334891
 20
10.447391804
 11
9.3027334891
 21
9.353391804
  0
LINE
  5
217
100
AcDbEntity
  8
0
100
AcDbLine
 62
9
  6
CONTINUOUS
 10
9.3027334891
 20
7.572391804
 11
9.3027334891
 21
8.666391804
  0
LINE
  5
218
100
AcDbEntity
  8
0
100
AcDbLine
 62
9
  6
CONTINUOUS
 10
9.3027334891
 20
8.699891804
 11
9.3027334891
 21
9.319891804
  0
LINE
  5
219
100
AcDbEntity
  8
0
100
AcDbLine
 62
7
  6
CONTINUOUS
 10
9.3327334891
 20
10.417391804
 11
9.3327334891
 21
9.413391804
  0
LINE
  5
21A
100
AcDbEntity
  8
0
100
AcDbLine
 62
7
  6
CONTINUOUS
 10
9.3327334891
 20
8.606391804
 11
9.3327334891
 21
7.602391804
  0
LINE
  5
21B
100
AcDbEntity
  8
0
100
AcDbLine
 62
7
  6
CONTINUOUS
 10
9.3327334891
 20
8.789891804
 11
9.3327334891
 21
9.229891804
  0
LINE
  5
21C
100
AcDbEntity
  8
0
100
AcDbLine
 62
9
  6
CONTINUOUS
 10
9.3927334891
 20
9.2298918044
 11
9.3927334891
 21
8.7898918038
  0
LINE
  5
21D
100
AcDbEntity
  8
0
100
AcDbLine
 62
9
  6
CONTINUOUS
 10
9.3962334891
 20
9.353391804
 11
9.3962334891
 21
9.2110733141
  0
LINE
  5
21E
100
AcDbEntity
  8
0
100
AcDbLine
 62
9
  6
CONTINUOUS
 10
9.3962334891
 20
8.808710294
 11
9.3962334891
 21
8.666391804
  0
LINE
  5
21F
100
AcDbEntity
  8
0
100
AcDbLine
 62
7
  6
CONTINUOUS
 10
9.4262334891
 20
9.323391804
 11
9.4262334891
 21
9.2110733147
  0
LINE
  5
220
100
AcDbEntity
  8
0
100
AcDbLine
 62
7
  6
CONTINUOUS
 10
9.4262334891
 20
8.8087102935
 11
9.4262334891
 21
8.696391804
  0
LINE
  5
221
100
AcDbEntity
  8
0
100
AcDbLine
 62
7
  6
CONTINUOUS
 10
9.3027334891
 20
7.572391804
 11
8.8627334891
 21
7.572391804
  0
LINE
  5
222
100
AcDbEntity
  8
0
100
AcDbLine
 62
9
  6
CONTINUOUS
 10
9.3327334891
 20
7.602391804
 11
8.8327334891
 21
7.602391804
  0
LINE
  5
223
100
AcDbEntity
  8
0
100
AcDbLine
 62
9
  6
CONTINUOUS
 10
9.4862334891
 20
9.322391804
 11
9.4862334891
 21
8.697391804
  0
LINE
  5
224
100
AcDbEntity
  8
0
100
AcDbLine
 62
7
  6
CONTINUOUS
 10
11.9877334891
 20
7.814891804
 11
12.0908881232
 21
7.814891804
  0
LINE
  5
225
100
AcDbEntity
  8
0
100
AcDbLine
 62
7
  6
CONTINUOUS
 10
12.1883560666
 20
7.864891804
 11
12.3677334891
 21
7.864891804
  0
LINE
  5
226
100
AcDbEntity
  8
0
100
AcDbLine
 62
9
  6
CONTINUOUS
 10
11.9577334891
 20
7.874891804
 11
12.0882176362
 21
7.874891804
  0
LINE
  5
227
100
AcDbEntity
  8
0
100
AcDbLine
 62
9
  6
CONTINUOUS
 10
12.0908881232
 20
7.9248918598
 11
12.3677334891
 21
7.924891804
  0
LINE
  5
228
100
AcDbEntity
  8
0
100
AcDbLine
 62
9
  6
CONTINUOUS
 10
12.0893061154
 20
7.8830733991
 11
12.1149971582
 21
7.8810271637
  0
LINE
  5
229
100
AcDbEntity
  8
0
100
AcDbLine
 62
7
  6
CONTINUOUS
 10
9.7912334891
 20
9.322391804
 11
9.7912334891
 21
8.697391804
  0
LINE
  5
22A
100
AcDbEntity
  8
0
100
AcDbLine
 62
7
  6
CONTINUOUS
 10
9.8222334891
 20
8.500891804
 11
9.8222334891
 21
9.518891804
  0
LINE
  5
22B
100
AcDbEntity
  8
0
100
AcDbLine
 62
9
  6
CONTINUOUS
 10
9.8522334891
 20
8.470891804
 11
9.8522334891
 21
9.548891804
  0
LINE
  5
22C
100
AcDbEntity
  8
0
100
AcDbLine
 62
9
  6
CONTINUOUS
 10
9.979159272
 20
9.4071308686
 11
9.9791590793
 21
8.6126464317
  0
LINE
  5
22D
100
AcDbEntity
  8
0
100
AcDbLine
 62
7
  6
CONTINUOUS
 10
11.7902334891
 20
8.137391804
 11
11.9477334891
 21
8.137391804
  0
LINE
  5
22E
100
AcDbEntity
  8
0
100
AcDbLine
 62
9
  6
CONTINUOUS
 10
11.7602334891
 20
8.197391804
 11
11.9477334891
 21
8.197391804
  0
LINE
  5
22F
100
AcDbEntity
  8
0
100
AcDbLine
 62
7
  6
CONTINUOUS
 10
11.9577334891
 20
8.259891804
 11
11.9477334891
 21
8.259891804
  0
LINE
  5
230
100
AcDbEntity
  8
0
100
AcDbLine
 62
9
  6
CONTINUOUS
 10
12.0882176362
 20
7.874891804
 11
12.1146788741
 21
7.8702414543
  0
LINE
  5
231
100
AcDbEntity
  8
0
100
AcDbLine
 62
9
  6
CONTINUOUS
 10
10.0077801088
 20
9.4071309546
 11
10.0077800904
 21
8.6126450049
  0
LINE
  5
232
100
AcDbEntity
  8
0
100
AcDbLine
 62
9
  6
CONTINUOUS
 10
10.1092718251
 20
8.6126506636
 11
10.1092718251
 21
9.4071329445
  0
LINE
  5
233
100
AcDbEntity
  8
0
100
AcDbLine
 62
9
  6
CONTINUOUS
 10
11.7602334891
 20
8.3259128218
 11
11.7354429345
 21
8.3259128218
  0
LINE
  5
234
100
AcDbEntity
  8
0
100
AcDbLine
 62
7
  6
CONTINUOUS
 10
9.8522334891
 20
8.470891804
 11
9.9791589424
 21
8.470891804
  0
LINE
  5
235
100
AcDbEntity
  8
0
100
AcDbLine
 62
9
  6
CONTINUOUS
 10
11.9577334891
 20
8.489891804
 11
11.9477334891
 21
8.489891804
  0
LINE
  5
236
100
AcDbEntity
  8
0
100
AcDbLine
 62
9
  6
CONTINUOUS
 10
9.8222334891
 20
8.530891804
 11
9.9740291625
 21
8.530891804
  0
LINE
  5
237
100
AcDbEntity
  8
0
100
AcDbLine
 62
9
  6
CONTINUOUS
 10
10.0039331031
 20
8.5294785945
 11
9.9740291625
 21
8.5308918042
  0
LINE
  5
238
100
AcDbEntity
  8
0
100
AcDbLine
 62
7
  6
CONTINUOUS
 10
11.7354429345
 20
8.2668243566
 11
10.1092718251
 21
8.5535621984
  0
LINE
  5
239
100
AcDbEntity
  8
0
100
AcDbLine
 62
9
  6
CONTINUOUS
 10
11.7354429345
 20
8.3259128218
 11
10.1092718251
 21
8.6126506636
  0
LINE
  5
23A
100
AcDbEntity
  8
0
100
AcDbLine
 62
9
  6
CONTINUOUS
 10
8.8327334891
 20
8.606391804
 11
9.3327334891
 21
8.606391804
  0
LINE
  5
23B
100
AcDbEntity
  8
0
100
AcDbLine
 62
9
  6
CONTINUOUS
 10
10.1092718251
 20
8.6126558269
 11
9.9791590793
 21
8.6126464317
  0
LINE
  5
23C
100
AcDbEntity
  8
0
100
AcDbLine
 62
7
  6
CONTINUOUS
 10
9.4181658734
 20
8.666391804
 11
8.7692334891
 21
8.666391804
  0
LINE
  5
23D
100
AcDbEntity
  8
0
100
AcDbLine
 62
9
  6
CONTINUOUS
 10
9.4262334891
 20
8.696391804
 11
8.7392334891
 21
8.696391804
  0
LINE
  5
23E
100
AcDbEntity
  8
0
100
AcDbLine
 62
7
  6
CONTINUOUS
 10
9.4862334891
 20
8.697391804
 11
9.7912334891
 21
8.697391804
  0
LINE
  5
23F
100
AcDbEntity
  8
0
100
AcDbLine
 62
9
  6
CONTINUOUS
 10
9.3027334895
 20
8.699891804
 11
8.8627334888
 21
8.699891804
  0
LINE
  5
240
100
AcDbEntity
  8
0
100
AcDbLine
 62
7
  6
CONTINUOUS
 10
9.8222334891
 20
8.756891804
 11
9.7912334891
 21
8.756891804
  0
LINE
  5
241
100
AcDbEntity
  8
0
100
AcDbLine
 62
7
  6
CONTINUOUS
 10
8.8627334891
 20
8.759891804
 11
9.3027334891
 21
8.759891804
  0
LINE
  5
242
100
AcDbEntity
  8
0
100
AcDbLine
 62
9
  6
CONTINUOUS
 10
8.7727334891
 20
8.789891804
 11
9.3927334891
 21
8.789891804
  0
LINE
  5
243
100
AcDbEntity
  8
0
100
AcDbLine
 62
9
  6
CONTINUOUS
 10
9.4262334891
 20
8.808710294
 11
9.3962334891
 21
8.808710294
  0
LINE
  5
244
100
AcDbEntity
  8
0
100
AcDbLine
 62
9
  6
CONTINUOUS
 10
9.4262334891
 20
9.2110733141
 11
9.3962334891
 21
9.2110733141
  0
LINE
  5
245
100
AcDbEntity
  8
0
100
AcDbLine
 62
9
  6
CONTINUOUS
 10
8.7727334891
 20
9.229891804
 11
9.3927334891
 21
9.229891804
  0
LINE
  5
246
100
AcDbEntity
  8
0
100
AcDbLine
 62
7
  6
CONTINUOUS
 10
9.3027334891
 20
9.259891804
 11
8.8627334891
 21
9.259891804
  0
LINE
  5
247
100
AcDbEntity
  8
0
100
AcDbLine
 62
7
  6
CONTINUOUS
 10
9.8222334891
 20
9.262891804
 11
9.7912334891
 21
9.262891804
  0
LINE
  5
248
100
AcDbEntity
  8
0
100
AcDbLine
 62
9
  6
CONTINUOUS
 10
11.7354429345
 20
9.6938707863
 11
10.1092718251
 21
9.4071329445
  0
LINE
  5
249
100
AcDbEntity
  8
0
100
AcDbLine
 62
9
  6
CONTINUOUS
 10
10.0039331635
 20
9.4903019504
 11
9.9740292159
 21
9.4888918041
  0
LINE
  5
24A
100
AcDbEntity
  8
0
100
AcDbLine
 62
9
  6
CONTINUOUS
 10
8.8627334888
 20
9.319891804
 11
9.3027334894
 21
9.319891804
  0
LINE
  5
24B
100
AcDbEntity
  8
0
100
AcDbLine
 62
7
  6
CONTINUOUS
 10
9.4862334891
 20
9.322391804
 11
9.7912334891
 21
9.322391804
  0
LINE
  5
24C
100
AcDbEntity
  8
0
100
AcDbLine
 62
9
  6
CONTINUOUS
 10
8.7392334891
 20
9.323391804
 11
9.4262334891
 21
9.323391804
  0
LINE
  5
24D
100
AcDbEntity
  8
0
100
AcDbLine
 62
7
  6
CONTINUOUS
 10
8.7692334891
 20
9.353391804
 11
9.4182702638
 21
9.353391804
  0
LINE
  5
24E
100
AcDbEntity
  8
0
100
AcDbLine
 62
9
  6
CONTINUOUS
 10
10.1092718251
 20
9.4071344785
 11
9.979159272
 21
9.4071308686
  0
LINE
  5
24F
100
AcDbEntity
  8
0
100
AcDbLine
 62
9
  6
CONTINUOUS
 10
9.3327334891
 20
9.413391804
 11
8.8327334891
 21
9.413391804
  0
LINE
  5
250
100
AcDbEntity
  8
0
100
AcDbLine
 62
9
  6
CONTINUOUS
 10
9.8222334891
 20
9.488891804
 11
9.9740292159
 21
9.488891804
  0
LINE
  5
251
100
AcDbEntity
  8
0
100
AcDbLine
 62
9
  6
CONTINUOUS
 10
11.9577334891
 20
9.529891804
 11
11.9477334891
 21
9.529891804
  0
LINE
  5
252
100
AcDbEntity
  8
0
100
AcDbLine
 62
7
  6
CONTINUOUS
 10
9.8522334891
 20
9.548891804
 11
9.9791592424
 21
9.548891804
  0
LINE
  5
253
100
AcDbEntity
  8
0
100
AcDbLine
 62
7
  6
CONTINUOUS
 10
11.7354429345
 20
9.7529592515
 11
10.1092718251
 21
9.4662214097
  0
LINE
  5
254
100
AcDbEntity
  8
0
100
AcDbLine
 62
9
  6
CONTINUOUS
 10
11.7602334891
 20
9.6938707863
 11
11.7354429345
 21
9.6938707863
  0
LINE
  5
255
100
AcDbEntity
  8
0
100
AcDbLine
 62
7
  6
CONTINUOUS
 10
11.9577334891
 20
9.759891804
 11
11.9477334891
 21
9.759891804
  0
LINE
  5
256
100
AcDbEntity
  8
0
100
AcDbLine
 62
9
  6
CONTINUOUS
 10
11.7354429345
 20
8.3259128218
 11
11.7354429345
 21
9.6938707863
  0
LINE
  5
257
100
AcDbEntity
  8
0
100
AcDbLine
 62
9
  6
CONTINUOUS
 10
12.088217597
 20
10.1448918037
 11
12.114678869
 21
10.1495419072
  0
LINE
  5
258
100
AcDbEntity
  8
0
100
AcDbLine
 62
9
  6
CONTINUOUS
 10
12.0893061108
 20
10.136710267
 11
12.1149975065
 21
10.1387573786
  0
LINE
  5
259
100
AcDbEntity
  8
0
100
AcDbLine
 62
9
  6
CONTINUOUS
 10
11.7602334891
 20
9.822391804
 11
11.9477334891
 21
9.822391804
  0
LINE
  5
25A
100
AcDbEntity
  8
0
100
AcDbLine
 62
7
  6
CONTINUOUS
 10
11.7902334891
 20
9.882391804
 11
11.9477334891
 21
9.882391804
  0
LINE
  5
25B
100
AcDbEntity
  8
0
100
AcDbLine
 62
7
  6
CONTINUOUS
 10
11.7602334891
 20
8.167391804
 11
11.7602334891
 21
9.852391804
  0
LINE
  5
25C
100
AcDbEntity
  8
0
100
AcDbLine
 62
9
  6
CONTINUOUS
 10
11.7902334891
 20
8.137391804
 11
11.7902334891
 21
9.882391804
  0
LINE
  5
25D
100
AcDbEntity
  8
0
100
AcDbLine
 62
7
  6
CONTINUOUS
 10
11.9477334891
 20
8.137391804
 11
11.9477334891
 21
9.882391804
  0
LINE
  5
25E
100
AcDbEntity
  8
0
100
AcDbLine
 62
7
  6
CONTINUOUS
 10
11.9577334891
 20
7.844891804
 11
11.9577334891
 21
10.174891804
  0
LINE
  5
25F
100
AcDbEntity
  8
0
100
AcDbLine
 62
9
  6
CONTINUOUS
 10
11.9877334891
 20
7.814891804
 11
11.9877334891
 21
10.204891804
  0
LINE
  5
260
100
AcDbEntity
  8
0
100
AcDbLine
 62
9
  6
CONTINUOUS
 10
12.3677334891
 20
10.094891804
 11
12.0908881232
 21
10.094891743
  0
LINE
  5
261
100
AcDbEntity
  8
0
100
AcDbLine
 62
9
  6
CONTINUOUS
 10
11.9577334891
 20
10.144891804
 11
12.088217597
 21
10.144891804
  0
LINE
  5
262
100
AcDbEntity
  8
0
100
AcDbLine
 62
7
  6
CONTINUOUS
 10
12.1883560666
 20
10.154891804
 11
12.3677334891
 21
10.154891804
  0
LINE
  5
263
100
AcDbEntity
  8
0
100
AcDbLine
 62
7
  6
CONTINUOUS
 10
12.0908881232
 20
10.204891804
 11
12.0886703446
 21
10.204891804
  0
LINE
  5
264
100
AcDbEntity
  8
0
100
AcDbLine
 62
7
  6
CONTINUOUS
 10
11.9877334891
 20
10.204891804
 11
12.0882176362
 21
10.204891804
  0
LINE
  5
265
100
AcDbEntity
  8
0
100
AcDbLine
 62
9
  6
CONTINUOUS
 10
12.0908881232
 20
7.9248918598
 11
12.0908881232
 21
10.094891743
  0
LINE
  5
266
100
AcDbEntity
  8
0
100
AcDbLine
 62
9
  6
CONTINUOUS
 10
12.115255109
 20
7.924891804
 11
12.115255109
 21
10.0948918958
  0
LINE
  5
267
100
AcDbEntity
  8
0
100
AcDbLine
 62
9
  6
CONTINUOUS
 10
12.1883560666
 20
7.924891804
 11
12.1883560666
 21
10.094891804
  0
LINE
  5
268
100
AcDbEntity
  8
0
100
AcDbLine
 62
9
  6
CONTINUOUS
 10
8.8327334891
 20
10.417391804
 11
9.3327334891
 21
10.417391804
  0
LINE
  5
269
100
AcDbEntity
  8
0
100
AcDbLine
 62
7
  6
CONTINUOUS
 10
8.8627334891
 20
10.447391804
 11
9.3027334891
 21
10.447391804
  0
LINE
  5
26A
100
AcDbEntity
  8
0
100
AcDbLine
 62
7
  6
CONTINUOUS
 10
12.3677334891
 20
5.874891804
 11
12.3677334891
 21
12.144891804
  0
LINE
  5
26B
100
AcDbEntity
  8
0
100
AcDbLine
 62
7
  6
CONTINUOUS
 10
12.4927334891
 20
5.759891804
 11
12.4927334891
 21
12.259891804
  0
LINE
  5
26C
100
AcDbEntity
  8
0
100
AcDbLine
 62
7
  6
CONTINUOUS
 10
12.6807334891
 20
5.759891804
 11
12.6807334891
 21
12.259891804
  0
LINE
  5
26D
100
AcDbEntity
  8
0
100
AcDbLine
 62
7
  6
CONTINUOUS
 10
12.4927334891
 20
12.259891804
 11
12.6807334891
 21
12.259891804
  0
ARC
  5
26E
100
AcDbEntity
  8
0
100
AcDbCircle
 62
7
  6
CONTINUOUS
 10
9.3027334891
 20
7.602391804
 40
0.03
100
AcDbArc
 50
270.0
 51
360.0
  0
ARC
  5
26F
100
AcDbEntity
  8
0
100
AcDbCircle
 62
7
  6
CONTINUOUS
 10
8.8627334891
 20
7.602391804
 40
0.03
100
AcDbArc
 50
180.0
 51
270.0
  0
ARC
  5
270
100
AcDbEntity
  8
0
100
AcDbCircle
 62
9
  6
CONTINUOUS
 10
8.8627334891
 20
8.789891804
 40
0.09
100
AcDbArc
 50
180.0000002049
 51
269.9999998169
  0
ARC
  5
271
100
AcDbEntity
  8
0
100
AcDbCircle
 62
9
  6
CONTINUOUS
 10
9.3027334891
 20
8.789891804
 40
0.09
100
AcDbArc
 50
270.0000002049
 51
359.9999998169
  0
ARC
  5
272
100
AcDbEntity
  8
0
100
AcDbCircle
 62
7
  6
CONTINUOUS
 10
8.7727334891
 20
8.606391804
 40
0.06
100
AcDbArc
 50
0.0
 51
90.0
  0
ARC
  5
273
100
AcDbEntity
  8
0
100
AcDbCircle
 62
7
  6
CONTINUOUS
 10
9.3927334891
 20
8.606391804
 40
0.06
100
AcDbArc
 50
90.0
 51
180.0
  0
ARC
  5
274
100
AcDbEntity
  8
0
100
AcDbCircle
 62
7
  6
CONTINUOUS
 10
9.4182702166
 20
8.696391804
 40
0.03
100
AcDbArc
 50
270.0000000076
 51
319.038209657
  0
ARC
  5
275
100
AcDbEntity
  8
0
100
AcDbCircle
 62
7
  6
CONTINUOUS
 10
8.8627334891
 20
8.789891804
 40
0.03
100
AcDbArc
 50
180.0
 51
270.0
  0
ARC
  5
276
100
AcDbEntity
  8
0
100
AcDbCircle
 62
7
  6
CONTINUOUS
 10
9.3027334891
 20
8.789891804
 40
0.03
100
AcDbArc
 50
270.0
 51
360.0
  0
ARC
  5
277
100
AcDbEntity
  8
0
100
AcDbCircle
 62
7
  6
CONTINUOUS
 10
8.7692334891
 20
8.696391804
 40
0.03
100
AcDbArc
 50
180.0
 51
270.0
  0
ARC
  5
278
100
AcDbEntity
  8
0
100
AcDbCircle
 62
7
  6
CONTINUOUS
 10
9.3962334891
 20
8.696391804
 40
0.03
100
AcDbArc
 50
270.0
 51
360.0
  0
ARC
  5
279
100
AcDbEntity
  8
0
100
AcDbCircle
 62
7
  6
CONTINUOUS
 10
10.0936434891
 20
8.4649295492
 40
0.0899999713
100
AcDbArc
 50
79.9999946318
 51
162.5612911559
  0
ARC
  5
27A
100
AcDbEntity
  8
0
100
AcDbCircle
 62
7
  6
CONTINUOUS
 10
9.4862334891
 20
8.637391804
 40
0.06
100
AcDbArc
 50
90.0
 51
139.0382420891
  0
ARC
  5
27B
100
AcDbEntity
  8
0
100
AcDbCircle
 62
7
  6
CONTINUOUS
 10
9.8522334891
 20
8.500891804
 40
0.03
100
AcDbArc
 50
180.0
 51
270.0
  0
ARC
  5
27C
100
AcDbEntity
  8
0
100
AcDbCircle
 62
7
  6
CONTINUOUS
 10
9.9791589368
 20
8.500891804
 40
0.03
100
AcDbArc
 50
270.0000107216
 51
342.5612700751
  0
ARC
  5
27D
100
AcDbEntity
  8
0
100
AcDbCircle
 62
9
  6
CONTINUOUS
 10
9.9740110219
 20
8.5008705391
 40
0.0299800076
100
AcDbArc
 50
270.0321382946
 51
356.3330021356
  0
ARC
  5
27E
100
AcDbEntity
  8
0
100
AcDbCircle
 62
9
  6
CONTINUOUS
 10
9.3027334891
 20
9.229891804
 40
0.09
100
AcDbArc
 50
0.0000002049
 51
89.9999998169
  0
ARC
  5
27F
100
AcDbEntity
  8
0
100
AcDbCircle
 62
9
  6
CONTINUOUS
 10
8.8627334891
 20
9.229891804
 40
0.09
100
AcDbArc
 50
90.0000002049
 51
179.9999998169
  0
ARC
  5
280
100
AcDbEntity
  8
0
100
AcDbCircle
 62
7
  6
CONTINUOUS
 10
10.0936434891
 20
9.5548533735
 40
0.0899995663
100
AcDbArc
 50
197.4388007452
 51
280.0000811384
  0
ARC
  5
281
100
AcDbEntity
  8
0
100
AcDbCircle
 62
7
  6
CONTINUOUS
 10
9.4862334891
 20
9.382391804
 40
0.06
100
AcDbArc
 50
220.9617885523
 51
270.0
  0
ARC
  5
282
100
AcDbEntity
  8
0
100
AcDbCircle
 62
7
  6
CONTINUOUS
 10
9.3927334891
 20
9.413391804
 40
0.06
100
AcDbArc
 50
180.0
 51
270.0
  0
ARC
  5
283
100
AcDbEntity
  8
0
100
AcDbCircle
 62
7
  6
CONTINUOUS
 10
8.7727334891
 20
9.413391804
 40
0.06
100
AcDbArc
 50
270.0
 51
360.0
  0
ARC
  5
284
100
AcDbEntity
  8
0
100
AcDbCircle
 62
7
  6
CONTINUOUS
 10
9.9791592424
 20
9.518891804
 40
0.03
100
AcDbArc
 50
17.4387176713
 51
89.9999999614
  0
ARC
  5
285
100
AcDbEntity
  8
0
100
AcDbCircle
 62
7
  6
CONTINUOUS
 10
9.8522334891
 20
9.518891804
 40
0.03
100
AcDbArc
 50
90.0
 51
180.0
  0
ARC
  5
286
100
AcDbEntity
  8
0
100
AcDbCircle
 62
7
  6
CONTINUOUS
 10
9.4182702638
 20
9.323391804
 40
0.03
100
AcDbArc
 50
40.9617885792
 51
90.0
  0
ARC
  5
287
100
AcDbEntity
  8
0
100
AcDbCircle
 62
7
  6
CONTINUOUS
 10
9.3027334891
 20
9.229891804
 40
0.03
100
AcDbArc
 50
0.0
 51
90.0
  0
ARC
  5
288
100
AcDbEntity
  8
0
100
AcDbCircle
 62
7
  6
CONTINUOUS
 10
8.8627334891
 20
9.229891804
 40
0.03
100
AcDbArc
 50
90.0
 51
180.0
  0
ARC
  5
289
100
AcDbEntity
  8
0
100
AcDbCircle
 62
7
  6
CONTINUOUS
 10
8.7692334891
 20
9.323391804
 40
0.03
100
AcDbArc
 50
90.0
 51
180.0
  0
ARC
  5
28A
100
AcDbEntity
  8
0
100
AcDbCircle
 62
7
  6
CONTINUOUS
 10
9.3962334891
 20
9.323391804
 40
0.03
100
AcDbArc
 50
0.0
 51
90.0
  0
ARC
  5
28B
100
AcDbEntity
  8
0
100
AcDbCircle
 62
7
  6
CONTINUOUS
 10
9.3027334891
 20
10.417391804
 40
0.03
100
AcDbArc
 50
0.0
 51
90.0
  0
ARC
  5
28C
100
AcDbEntity
  8
0
100
AcDbCircle
 62
7
  6
CONTINUOUS
 10
8.8627334891
 20
10.417391804
 40
0.03
100
AcDbArc
 50
90.0
 51
180.0
  0
ARC
  5
28D
100
AcDbEntity
  8
0
100
AcDbCircle
 62
9
  6
CONTINUOUS
 10
9.9740112594
 20
9.5189128793
 40
0.0299801914
100
AcDbArc
 50
3.6739467012
 51
89.9679758559
  0
ARC
  5
28E
100
AcDbEntity
  8
0
100
AcDbCircle
 62
7
  6
CONTINUOUS
 10
12.3677334891
 20
5.7494570214
 40
0.1254347826
100
AcDbArc
 50
4.7718880608
 51
90.0
  0
ARC
  5
28F
100
AcDbEntity
  8
0
100
AcDbCircle
 62
7
  6
CONTINUOUS
 10
12.1883560666
 20
7.774891804
 40
0.09
100
AcDbArc
 50
89.9999999999
 51
144.314665288
  0
ARC
  5
290
100
AcDbEntity
  8
0
100
AcDbCircle
 62
7
  6
CONTINUOUS
 10
12.0908881232
 20
7.844891804
 40
0.03
100
AcDbArc
 50
270.0000000002
 51
324.3146652875
  0
ARC
  5
291
100
AcDbEntity
  8
0
100
AcDbCircle
 62
7
  6
CONTINUOUS
 10
11.9877334891
 20
7.844891804
 40
0.03
100
AcDbArc
 50
180.0
 51
270.0
  0
ARC
  5
292
100
AcDbEntity
  8
0
100
AcDbCircle
 62
7
  6
CONTINUOUS
 10
11.7902334891
 20
8.167391804
 40
0.03
100
AcDbArc
 50
180.0
 51
270.0
  0
ARC
  5
293
100
AcDbEntity
  8
0
100
AcDbCircle
 62
7
  6
CONTINUOUS
 10
11.7302334891
 20
8.237280124
 40
0.03
100
AcDbArc
 50
0.0
 51
79.9999999999
  0
ARC
  5
294
100
AcDbEntity
  8
0
100
AcDbCircle
 62
9
  6
CONTINUOUS
 10
12.0892878253
 20
7.8447774272
 40
0.0298863988
100
AcDbArc
 50
270.0350564681
 51
329.3414417686
  0
ARC
  5
295
100
AcDbEntity
  8
0
100
AcDbCircle
 62
9
  6
CONTINUOUS
 10
12.0882068577
 20
7.8440859939
 40
0.0291941919
100
AcDbArc
 50
270.0210767013
 51
286.1143739826
  0
ARC
  5
296
100
AcDbEntity
  8
0
100
AcDbCircle
 62
7
  6
CONTINUOUS
 10
12.3677334891
 20
12.2703265867
 40
0.1254347826
100
AcDbArc
 50
270.0
 51
355.2281119392
  0
ARC
  5
297
100
AcDbEntity
  8
0
100
AcDbCircle
 62
7
  6
CONTINUOUS
 10
12.1883560666
 20
10.244891804
 40
0.09
100
AcDbArc
 50
215.685334712
 51
270.0000000001
  0
ARC
  5
298
100
AcDbEntity
  8
0
100
AcDbCircle
 62
7
  6
CONTINUOUS
 10
12.0908881232
 20
10.174891804
 40
0.03
100
AcDbArc
 50
35.6853347126
 51
89.9999999999
  0
ARC
  5
299
100
AcDbEntity
  8
0
100
AcDbCircle
 62
7
  6
CONTINUOUS
 10
11.9877334891
 20
10.174891804
 40
0.03
100
AcDbArc
 50
90.0
 51
180.0
  0
ARC
  5
29A
100
AcDbEntity
  8
0
100
AcDbCircle
 62
7
  6
CONTINUOUS
 10
11.7902334891
 20
9.852391804
 40
0.03
100
AcDbArc
 50
90.0
 51
180.0
  0
ARC
  5
29B
100
AcDbEntity
  8
0
100
AcDbCircle
 62
7
  6
CONTINUOUS
 10
11.7302334891
 20
9.7825034841
 40
0.03
100
AcDbArc
 50
280.0
 51
360.0
  0
ARC
  5
29C
100
AcDbEntity
  8
0
100
AcDbCircle
 62
9
  6
CONTINUOUS
 10
12.0892878874
 20
10.1750061554
 40
0.0298864186
100
AcDbArc
 50
30.6601680143
 51
89.9650538192
  0
ARC
  5
29D
100
AcDbEntity
  8
0
100
AcDbCircle
 62
9
  6
CONTINUOUS
 10
12.0882068971
 20
10.1756976682
 40
0.0291941378
100
AcDbArc
 50
73.8855477678
 51
89.9789236354
  0
SPLINE
  5
29E
100
AcDbEntity
  8
0
100
AcDbSpline
 62
9
  6
CONTINUOUS
 70
0
 71
3
 72
13
 73
9
 74
0
 42
0.0000001
 43
0.0000001
 44
0.0000000001
 40
0.0
 40
0.0
 40
0.0
 40
0.0
 40
0.0692931597
 40
0.1451355301
 40
0.2350096004
 40
0.3434670461
 40
0.6249500862
 40
1.0
 40
1.0
 40
1.0
 40
1.0
 10
12.088217597
 20
7.814891804
 30
0.0
 10
12.0881608828
 20
7.8148918189
 30
0.0
 10
12.0880409757
 20
7.8149156978
 30
0.0
 10
12.0878762366
 20
7.8150209778
 30
0.0
 10
12.0877242562
 20
7.8151884311
 30
0.0
 10
12.0875161562
 20
7.815523104
 30
0.0
 10
12.0872912006
 20
7.8161118489
 30
0.0
 10
12.0871598969
 20
7.8166331399
 30
0.0
 10
12.0870948581
 20
7.8169331368
 30
0.0
  0
SPLINE
  5
29F
100
AcDbEntity
  8
0
100
AcDbSpline
 62
9
  6
CONTINUOUS
 70
0
 71
3
 72
16
 73
12
 74
0
 42
0.0000001
 43
0.0000001
 44
0.0000000001
 40
0.0
 40
0.0
 40
0.0
 40
0.0
 40
0.0255543921
 40
0.0574515827
 40
0.0955535921
 40
0.1396763388
 40
0.2447964766
 40
0.3701156852
 40
0.5122426034
 40
0.6674079804
 40
1.0
 40
1.0
 40
1.0
 40
1.0
 10
12.0870948581
 20
7.8169331368
 30
0.0
 10
12.086990074
 20
7.8174164618
 30
0.0
 10
12.0868113394
 20
7.8185151601
 30
0.0
 10
12.0866128757
 20
7.8203540482
 30
0.0
 10
12.0864556452
 20
7.8225574582
 30
0.0
 10
12.0862905435
 20
7.8261796197
 30
0.0
 10
12.0862069565
 20
7.8314935834
 30
0.0
 10
12.0862669737
 20
7.8387039652
 30
0.0
 10
12.0864878426
 20
7.8468802495
 30
0.0
 10
12.0870149272
 20
7.8590592237
 30
0.0
 10
12.0876568557
 20
7.8684796396
 30
0.0
 10
12.0882176362
 20
7.874891804
 30
0.0
  0
LINE
  5
2A0
100
AcDbEntity
  8
0
100
AcDbLine
 62
9
  6
CONTINUOUS
 10
12.1920703042
 20
10.1514603465
 11
12.1883560666
 21
10.154891804
  0
SPLINE
  5
2A1
100
AcDbEntity
  8
0
100
AcDbSpline
 62
9
  6
CONTINUOUS
 70
0
 71
3
 72
17
 73
13
 74
0
 42
0.0000001
 43
0.0000001
 44
0.0000000001
 40
0.0
 40
0.0
 40
0.0
 40
0.0
 40
0.1663347602
 40
0.3242122362
 40
0.4708959204
 40
0.604754677
 40
0.7243174423
 40
0.8288987555
 40
0.8758005092
 40
0.9195165152
 40
0.9606403554
 40
1.0
 40
1.0
 40
1.0
 40
1.0
 10
12.1920703042
 20
10.114891804
 30
0.0
 10
12.1927208246
 20
10.1168778732
 30
0.0
 10
12.1938079547
 20
10.1208104532
 30
0.0
 10
12.1949036039
 20
10.1266304435
 30
0.0
 10
12.195510021
 20
10.1321106441
 30
0.0
 10
12.1956976707
 20
10.1371383966
 30
0.0
 10
12.195550205
 20
10.1416379504
 30
0.0
 10
12.1950718417
 20
10.1450228614
 30
0.0
 10
12.1944095796
 20
10.1473881326
 30
0.0
 10
12.1937939112
 20
10.1489288371
 30
0.0
 10
12.1930307302
 20
10.15029546
 30
0.0
 10
12.1924063466
 20
10.1510975316
 30
0.0
 10
12.1920703042
 20
10.1514603465
 30
0.0
  0
SPLINE
  5
2A2
100
AcDbEntity
  8
0
100
AcDbSpline
 62
9
  6
CONTINUOUS
 70
0
 71
3
 72
10
 73
6
 74
0
 42
0.0000001
 43
0.0000001
 44
0.0000000001
 40
0.0
 40
0.0
 40
0.0
 40
0.0
 40
0.2543394428
 40
0.5068732018
 40
1.0
 40
1.0
 40
1.0
 40
1.0
 10
12.1883560666
 20
10.094891804
 30
0.0
 10
12.1883560638
 20
10.0966232442
 30
0.0
 10
12.1885441356
 20
10.1000765038
 30
0.0
 10
12.1896030633
 20
10.106810645
 30
0.0
 10
12.1910197349
 20
10.1117034178
 30
0.0
 10
12.1920703042
 20
10.114891804
 30
0.0
  0
SPLINE
  5
2A3
100
AcDbEntity
  8
0
100
AcDbSpline
 62
9
  6
CONTINUOUS
 70
0
 71
3
 72
11
 73
7
 74
0
 42
0.0000001
 43
0.0000001
 44
0.0000000001
 40
0.0
 40
0.0
 40
0.0
 40
0.0
 40
0.2489664904
 40
0.4984703299
 40
0.7489654438
 40
1.0
 40
1.0
 40
1.0
 40
1.0
 10
12.0963099341
 20
10.2037447442
 30
0.0
 10
12.0982795634
 20
10.2031756785
 30
0.0
 10
12.1021139458
 20
10.2016128285
 30
0.0
 10
12.1072508794
 20
10.1981214342
 30
0.0
 10
12.1115648531
 20
10.1936296814
 30
0.0
 10
12.1137702628
 20
10.1900969357
 30
0.0
 10
12.1146788741
 20
10.1882401049
 30
0.0
  0
SPLINE
  5
2A4
100
AcDbEntity
  8
0
100
AcDbSpline
 62
9
  6
CONTINUOUS
 70
0
 71
3
 72
10
 73
6
 74
0
 42
0.0000001
 43
0.0000001
 44
0.0000000001
 40
0.0
 40
0.0
 40
0.0
 40
0.0
 40
0.4931266222
 40
0.7456604252
 40
1.0
 40
1.0
 40
1.0
 40
1.0
 10
12.1920703042
 20
7.904891804
 30
0.0
 10
12.1910192046
 20
7.9080800127
 30
0.0
 10
12.1896032205
 20
7.9129730096
 30
0.0
 10
12.1885441693
 20
7.919707099
 30
0.0
 10
12.1883560692
 20
7.9231603637
 30
0.0
 10
12.1883560666
 20
7.924891804
 30
0.0
  0
SPLINE
  5
2A5
100
AcDbEntity
  8
0
100
AcDbSpline
 62
9
  6
CONTINUOUS
 70
0
 71
3
 72
17
 73
13
 74
0
 42
0.0000001
 43
0.0000001
 44
0.0000000001
 40
0.0
 40
0.0
 40
0.0
 40
0.0
 40
0.0393609617
 40
0.0804845398
 40
0.1241999283
 40
0.1711012917
 40
0.2756824854
 40
0.3952452815
 40
0.5291041865
 40
0.6757878152
 40
0.8336651344
 40
1.0
 40
1.0
 40
1.0
 40
1.0
 10
12.1920703042
 20
7.8683232616
 30
0.0
 10
12.1924063921
 20
7.868686057
 30
0.0
 10
12.1930308291
 20
7.8694881109
 30
0.0
 10
12.1937939888
 20
7.8708547564
 30
0.0
 10
12.1944095712
 20
7.8723954793
 30
0.0
 10
12.1950717207
 20
7.8747607655
 30
0.0
 10
12.1955500923
 20
7.878145661
 30
0.0
 10
12.1956976784
 20
7.8826452128
 30
0.0
 10
12.1955101428
 20
7.8876729733
 30
0.0
 10
12.194903718
 20
7.8931531788
 30
0.0
 10
12.1938078389
 20
7.898973128
 30
0.0
 10
12.1927207142
 20
7.9029056969
 30
0.0
 10
12.1920703042
 20
7.904891804
 30
0.0
  0
LINE
  5
2A6
100
AcDbEntity
  8
0
100
AcDbLine
 62
9
  6
CONTINUOUS
 10
12.1883560666
 20
7.864891804
 11
12.1920703042
 21
7.8683232616
  0
SPLINE
  5
2A7
100
AcDbEntity
  8
0
100
AcDbSpline
 62
9
  6
CONTINUOUS
 70
0
 71
3
 72
18
 73
14
 74
0
 42
0.0000001
 43
0.0000001
 44
0.0000000001
 40
0.0
 40
0.0
 40
0.0
 40
0.0
 40
0.184004161
 40
0.3586309241
 40
0.5193128211
 40
0.6627211284
 40
0.7856783694
 40
0.8385025551
 40
0.8850219486
 40
0.924836025
 40
0.9575395711
 40
0.9827104386
 40
1.0
 40
1.0
 40
1.0
 40
1.0
 10
10.0039330996
 20
8.5294784863
 30
0.0
 10
10.0038614126
 20
8.5276066296
 30
0.0
 10
10.0037631674
 20
8.5239567029
 30
0.0
 10
10.0036938496
 20
8.5186703022
 30
0.0
 10
10.003667945
 20
8.513796829
 30
0.0
 10
10.003661307
 20
8.5094493379
 30
0.0
 10
10.0036665051
 20
8.5061998527
 30
0.0
 10
10.0036797048
 20
8.5039368026
 30
0.0
 10
10.0036964653
 20
8.5025201647
 30
0.0
 10
10.0037237617
 20
8.5013087361
 30
0.0
 10
10.0037632732
 20
8.5003145555
 30
0.0
 10
10.0038223493
 20
8.4995522482
 30
0.0
 10
10.0038845124
 20
8.4991223567
 30
0.0
 10
10.0039317958
 20
8.4989528126
 30
0.0
  0
SPLINE
  5
2A8
100
AcDbEntity
  8
0
100
AcDbSpline
 62
9
  6
CONTINUOUS
 70
0
 71
3
 72
26
 73
22
 74
0
 42
0.0000001
 43
0.0000001
 44
0.0000000001
 40
0.0
 40
0.0
 40
0.0
 40
0.0
 40
0.1840223931
 40
0.3665006608
 40
0.539136738
 40
0.619184825
 40
0.6938048611
 40
0.7620433373
 40
0.8229297319
 40
0.8755499647
 40
0.9193985997
 40
0.9379232947
 40
0.954122619
 40
0.9679522738
 40
0.9793678858
 40
0.9883250104
 40
0.9947791339
 40
0.9970536422
 40
0.9986856776
 40
0.9996696579
 40
1.0
 40
1.0
 40
1.0
 40
1.0
 10
10.0039317958
 20
8.4989528126
 30
0.0
 10
10.0040650332
 20
8.4984760854
 30
0.0
 10
10.00440071
 20
8.4975458652
 30
0.0
 10
10.0050268433
 20
8.4962364411
 30
0.0
 10
10.0055990581
 20
8.4952146066
 30
0.0
 10
10.0060551069
 20
8.4944614845
 30
0.0
 10
10.0063756567
 20
8.4939547308
 30
0.0
 10
10.0066759633
 20
8.4934962657
 30
0.0
 10
10.0069488962
 20
8.4930906677
 30
0.0
 10
10.0071877946
 20
8.4927412646
 30
0.0
 10
10.0073640088
 20
8.492487044
 30
0.0
 10
10.0074852918
 20
8.4923139586
 30
0.0
 10
10.0075605672
 20
8.4922072252
 30
0.0
 10
10.0076251194
 20
8.4921163521
 30
0.0
 10
10.0076785701
 20
8.4920414254
 30
0.0
 10
10.0077207996
 20
8.4919830319
 30
0.0
 10
10.0077484828
 20
8.4919440919
 30
0.0
 10
10.0077651594
 20
8.4919220995
 30
0.0
 10
10.007772454
 20
8.4919105769
 30
0.0
 10
10.0077779635
 20
8.4919057823
 30
0.0
 10
10.0077792048
 20
8.4919012744
 30
0.0
 10
10.0077800931
 20
8.4919012505
 30
0.0
  0
LINE
  5
2A9
100
AcDbEntity
  8
0
100
AcDbLine
 62
9
  6
CONTINUOUS
 10
12.0882176362
 20
7.874891804
 11
12.0893061154
 21
7.8830733991
  0
SPLINE
  5
2AA
100
AcDbEntity
  8
0
100
AcDbSpline
 62
9
  6
CONTINUOUS
 70
0
 71
3
 72
12
 73
8
 74
0
 42
0.0000001
 43
0.0000001
 44
0.0000000001
 40
0.0
 40
0.0
 40
0.0
 40
0.0
 40
0.2510262283
 40
0.3763685625
 40
0.5014812094
 40
0.7510785023
 40
1.0
 40
1.0
 40
1.0
 40
1.0
 10
10.0077803814
 20
8.6126450049
 30
0.0
 10
10.0077797028
 20
8.6056774998
 30
0.0
 10
10.0075787513
 20
8.595230146
 30
0.0
 10
10.0069858113
 20
8.581323419
 30
0.0
 10
10.0062063825
 20
8.5674653715
 30
0.0
 10
10.0050253444
 20
8.5501966338
 30
0.0
 10
10.0041976425
 20
8.5363825059
 30
0.0
 10
10.0039330996
 20
8.5294784863
 30
0.0
  0
SPLINE
  5
2AB
100
AcDbEntity
  8
0
100
AcDbSpline
 62
9
  6
CONTINUOUS
 70
0
 71
3
 72
13
 73
9
 74
0
 42
0.0000001
 43
0.0000001
 44
0.0000000001
 40
0.0
 40
0.0
 40
0.0
 40
0.0
 40
0.2489221348
 40
0.3736239582
 40
0.4985208034
 40
0.6236327298
 40
0.7489743256
 40
1.0
 40
1.0
 40
1.0
 40
1.0
 10
10.0039331261
 20
9.4903029846
 30
0.0
 10
10.0041969532
 20
9.4833984585
 30
0.0
 10
10.00481714
 20
9.4730443154
 30
0.0
 10
10.0057359761
 20
9.4592372701
 30
0.0
 10
10.0064011627
 20
9.4488572899
 30
0.0
 10
10.0069866606
 20
9.4384545539
 30
0.0
 10
10.0075796193
 20
9.4245469228
 30
0.0
 10
10.0077806085
 20
9.4140989094
 30
0.0
 10
10.00778077
 20
9.4071309546
 30
0.0
  0
SPLINE
  5
2AC
100
AcDbEntity
  8
0
100
AcDbSpline
 62
9
  6
CONTINUOUS
 70
0
 71
3
 72
26
 73
22
 74
0
 42
0.0000001
 43
0.0000001
 44
0.0000000001
 40
0.0
 40
0.0
 40
0.0
 40
0.0
 40
0.000321111
 40
0.001296875
 40
0.0029217471
 40
0.0051901025
 40
0.0116347479
 40
0.0205858084
 40
0.0319983451
 40
0.0458274923
 40
0.0620284623
 40
0.0805565482
 40
0.1244156063
 40
0.1770486289
 40
0.2379536822
 40
0.3062166566
 40
0.3808621826
 40
0.4609313271
 40
0.6335728584
 40
0.8160050399
 40
1.0
 40
1.0
 40
1.0
 40
1.0
 10
10.0077807025
 20
9.5278823277
 30
0.0
 10
10.0077815657
 20
9.5278823512
 30
0.0
 10
10.0077762884
 20
9.5278776619
 30
0.0
 10
10.0077748656
 20
9.5278730777
 30
0.0
 10
10.0077654057
 20
9.5278614503
 30
0.0
 10
10.0077502084
 20
9.5278395345
 30
0.0
 10
10.0077216226
 20
9.5278005576
 30
0.0
 10
10.007679968
 20
9.5277422162
 30
0.0
 10
10.0076263949
 20
9.5276673065
 30
0.0
 10
10.0075619502
 20
9.5275764628
 30
0.0
 10
10.0074866775
 20
9.5274697526
 30
0.0
 10
10.007365424
 20
9.5272966947
 30
0.0
 10
10.0071892285
 20
9.5270425038
 30
0.0
 10
10.0069504116
 20
9.5266930927
 30
0.0
 10
10.0066776003
 20
9.5262874408
 30
0.0
 10
10.0063773792
 20
9.525828933
 30
0.0
 10
10.0060568315
 20
9.5253222054
 30
0.0
 10
10.0056006643
 20
9.5245693601
 30
0.0
 10
10.0050277251
 20
9.5235484905
 30
0.0
 10
10.004400134
 20
9.5222405391
 30
0.0
 10
10.0040645419
 20
9.5213107658
 30
0.0
 10
10.0039319489
 20
9.5208341185
 30
0.0
  0
SPLINE
  5
2AD
100
AcDbEntity
  8
0
100
AcDbSpline
 62
9
  6
CONTINUOUS
 70
0
 71
3
 72
18
 73
14
 74
0
 42
0.0000001
 43
0.0000001
 44
0.0000000001
 40
0.0
 40
0.0
 40
0.0
 40
0.0
 40
0.0173060254
 40
0.0425034133
 40
0.0752280018
 40
0.1150460324
 40
0.1615560678
 40
0.2143661853
 40
0.3373074963
 40
0.4807142162
 40
0.6413948521
 40
0.8160089519
 40
1.0
 40
1.0
 40
1.0
 40
1.0
 10
10.0039319489
 20
9.5208341185
 30
0.0
 10
10.0038848655
 20
9.5206643127
 30
0.0
 10
10.0038230222
 20
9.5202338757
 30
0.0
 10
10.0037641388
 20
9.5194707636
 30
0.0
 10
10.0037246215
 20
9.5184758883
 30
0.0
 10
10.0036970825
 20
9.5172640932
 30
0.0
 10
10.0036799518
 20
9.51584741
 30
0.0
 10
10.0036662033
 20
9.513584367
 30
0.0
 10
10.0036605646
 20
9.5103346338
 30
0.0
 10
10.0036674645
 20
9.5059865711
 30
0.0
 10
10.0036945063
 20
9.5011124077
 30
0.0
 10
10.0037639602
 20
9.4958253624
 30
0.0
 10
10.0038616426
 20
9.4921750441
 30
0.0
 10
10.0039331261
 20
9.4903029846
 30
0.0
  0
SPLINE
  5
2AE
100
AcDbEntity
  8
0
100
AcDbSpline
 62
9
  6
CONTINUOUS
 70
0
 71
3
 72
9
 73
5
 74
0
 42
0.0000001
 43
0.0000001
 44
0.0000000001
 40
0.0
 40
0.0
 40
0.0
 40
0.0
 40
0.4999972581
 40
1.0
 40
1.0
 40
1.0
 40
1.0
 10
12.0893061154
 20
7.8830733991
 30
0.0
 10
12.0898598367
 20
7.8900274126
 30
0.0
 10
12.0906377828
 20
7.9039626623
 30
0.0
 10
12.090888487
 20
7.9179157593
 30
0.0
 10
12.0908881232
 20
7.9248918598
 30
0.0
  0
SPLINE
  5
2AF
100
AcDbEntity
  8
0
100
AcDbSpline
 62
9
  6
CONTINUOUS
 70
0
 71
3
 72
9
 73
5
 74
0
 42
0.0000001
 43
0.0000001
 44
0.0000000001
 40
0.0
 40
0.0
 40
0.0
 40
0.0
 40
0.5000029073
 40
1.0
 40
1.0
 40
1.0
 40
1.0
 10
12.0908881232
 20
10.094891743
 30
0.0
 10
12.090888048
 20
10.1018678543
 30
0.0
 10
12.0906374787
 20
10.1158209594
 30
0.0
 10
12.089859616
 20
10.1297562301
 30
0.0
 10
12.0893061108
 20
10.136710267
 30
0.0
  0
LINE
  5
2B0
100
AcDbEntity
  8
0
100
AcDbLine
 62
9
  6
CONTINUOUS
 10
9.9740280154
 20
9.548891804
 11
9.9737796725
 21
9.5468525969
  0
SPLINE
  5
2B1
100
AcDbEntity
  8
0
100
AcDbSpline
 62
9
  6
CONTINUOUS
 70
0
 71
3
 72
14
 73
10
 74
0
 42
0.0000001
 43
0.0000001
 44
0.0000000001
 40
0.0
 40
0.0
 40
0.0
 40
0.0
 40
0.0569845061
 40
0.1391465876
 40
0.2443199647
 40
0.3697097833
 40
0.5119064693
 40
0.6671510024
 40
1.0
 40
1.0
 40
1.0
 40
1.0
 10
9.9737796725
 20
9.5468525969
 30
0.0
 10
9.9737387978
 20
9.5457523419
 30
0.0
 10
9.97370085
 20
9.5430637277
 30
0.0
 10
9.9736751889
 20
9.5383433823
 30
0.0
 10
9.9736678375
 20
9.5323010528
 30
0.0
 10
9.9736711431
 20
9.5250988784
 30
0.0
 10
9.973691268
 20
9.5169292351
 30
0.0
 10
9.9737572628
 20
9.5047514431
 30
0.0
 10
9.9738783803
 20
9.495321106
 30
0.0
 10
9.9740292159
 20
9.488891804
 30
0.0
  0
SPLINE
  5
2B2
100
AcDbEntity
  8
0
100
AcDbSpline
 62
9
  6
CONTINUOUS
 70
0
 71
3
 72
27
 73
23
 74
0
 42
0.0000001
 43
0.0000001
 44
0.0000000001
 40
0.0
 40
0.0
 40
0.0
 40
0.0
 40
0.1948932546
 40
0.3824491633
 40
0.4710839061
 40
0.5551809386
 40
0.6339507356
 40
0.706628278
 40
0.7724804868
 40
0.8309017156
 40
0.881319844
 40
0.9232403529
 40
0.9408972843
 40
0.9562923808
 40
0.9693818407
 40
0.9801341785
 40
0.9885384657
 40
0.9945927656
 40
0.9967450772
 40
0.9983260987
 40
0.999368274
 40
1.0
 40
1.0
 40
1.0
 40
1.0
 10
9.9740291625
 20
8.530891804
 30
0.0
 10
9.9739374017
 20
8.526992155
 30
0.0
 10
9.9738079193
 20
8.5193384632
 30
0.0
 10
9.973727063
 20
8.5099101611
 30
0.0
 10
9.9736933289
 20
8.5026991885
 30
0.0
 10
9.9736786456
 20
8.4976654814
 30
0.0
 10
9.9736712116
 20
8.492951138
 30
0.0
 10
9.9736694814
 20
8.4886019539
 30
0.0
 10
9.973671461
 20
8.4846600409
 30
0.0
 10
9.9736786652
 20
8.4811636467
 30
0.0
 10
9.9736925064
 20
8.4781462658
 30
0.0
 10
9.9737120692
 20
8.4759448027
 30
0.0
 10
9.9737366436
 20
8.474444445
 30
0.0
 10
9.9737582533
 20
8.4735211757
 30
0.0
 10
9.9737846252
 20
8.4727362965
 30
0.0
 10
9.9738162231
 20
8.4720916049
 30
0.0
 10
9.9738535815
 20
8.471588399
 30
0.0
 10
9.9738924738
 20
8.4712578801
 30
0.0
 10
9.9739301441
 20
8.4710655267
 30
0.0
 10
9.9739583583
 20
8.4709738257
 30
0.0
 10
9.9739846146
 20
8.4709143671
 30
0.0
 10
9.9740151938
 20
8.4708918162
 30
0.0
 10
9.9740278376
 20
8.470891804
 30
0.0
  0
SPLINE
  5
2B3
100
AcDbEntity
  8
0
100
AcDbSpline
 62
9
  6
CONTINUOUS
 70
0
 71
3
 72
24
 73
20
 74
0
 42
0.0000001
 43
0.0000001
 44
0.0000000001
 40
0.0
 40
0.0
 40
0.0
 40
0.0
 40
0.1904060822
 40
0.3755778295
 40
0.5469512043
 40
0.6247860558
 40
0.6959813377
 40
0.7596168578
 40
0.7884297723
 40
0.815170591
 40
0.862280982
 40
0.9010691729
 40
0.9175621126
 40
0.9322863297
 40
0.957226465
 40
0.9681853338
 40
0.9786664779
 40
0.9891284103
 40
1.0
 40
1.0
 40
1.0
 40
1.0
 10
10.1092718992
 20
9.4071329576
 30
0.0
 10
10.110194093
 20
9.4109906572
 30
0.0
 10
10.1118608736
 20
9.418637602
 30
0.0
 10
10.1138025245
 20
9.4298681626
 30
0.0
 10
10.1148868571
 20
9.4388579028
 30
0.0
 10
10.1153362113
 20
9.445518647
 30
0.0
 10
10.1154547422
 20
9.4499485487
 30
0.0
 10
10.1153734792
 20
9.4533585824
 30
0.0
 10
10.1151920202
 20
9.4558353131
 30
0.0
 10
10.1149571314
 20
9.4579613807
 30
0.0
 10
10.1145580507
 20
9.4602769442
 30
0.0
 10
10.1139533619
 20
9.4623308705
 30
0.0
 10
10.1133555593
 20
9.4636642968
 30
0.0
 10
10.1127656075
 20
9.4646747244
 30
0.0
 10
10.1120569307
 20
9.4654862148
 30
0.0
 10
10.1112291937
 20
9.465997201
 30
0.0
 10
10.110597234
 20
9.4662196445
 30
0.0
 10
10.1099342538
 20
9.4662986227
 30
0.0
 10
10.109488349
 20
9.4662595186
 30
0.0
 10
10.1092653089
 20
9.4662202607
 30
0.0
  0
SPLINE
  5
2B4
100
AcDbEntity
  8
0
100
AcDbSpline
 62
9
  6
CONTINUOUS
 70
0
 71
3
 72
25
 73
21
 74
0
 42
0.0000001
 43
0.0000001
 44
0.0000000001
 40
0.0
 40
0.0
 40
0.0
 40
0.0
 40
0.1950117879
 40
0.3834205101
 40
0.4726238682
 40
0.5572471807
 40
0.6363888146
 40
0.7091703506
 40
0.7747669297
 40
0.8325551703
 40
0.8819740717
 40
0.9226249149
 40
0.9396078687
 40
0.9543433144
 40
0.9668300738
 40
0.9771035625
 40
0.9852540075
 40
0.9914547624
 40
0.996087027
 40
1.0
 40
1.0
 40
1.0
 40
1.0
 10
11.7354429345
 20
9.6938707863
 30
0.0
 10
11.7357581885
 20
9.697736127
 30
0.0
 10
11.7363236761
 20
9.7053404828
 30
0.0
 10
11.7368720209
 20
9.7147239955
 30
0.0
 10
11.7371904028
 20
9.7219207919
 30
0.0
 10
11.7373609553
 20
9.7269487518
 30
0.0
 10
11.7374656469
 20
9.7316518765
 30
0.0
 10
11.7375033777
 20
9.735977665
 30
0.0
 10
11.7374726975
 20
9.7398788829
 30
0.0
 10
11.7373757364
 20
9.7433143793
 30
0.0
 10
11.7372143125
 20
9.7462507331
 30
0.0
 10
11.737019618
 20
9.7483716801
 30
0.0
 10
11.7368237319
 20
9.7497977445
 30
0.0
 10
11.736671358
 20
9.7506637991
 30
0.0
 10
11.7365051442
 20
9.751391196
 30
0.0
 10
11.7363258948
 20
9.751979816
 30
0.0
 10
11.7361341585
 20
9.7524322531
 30
0.0
 10
11.735929863
 20
9.7527519463
 30
0.0
 10
11.7356997609
 20
9.7529487011
 30
0.0
 10
11.7355195751
 20
9.7529727299
 30
0.0
 10
11.7354429345
 20
9.7529592515
 30
0.0
  0
SPLINE
  5
2B5
100
AcDbEntity
  8
0
100
AcDbSpline
 62
9
  6
CONTINUOUS
 70
0
 71
3
 72
23
 73
19
 74
0
 42
0.0000001
 43
0.0000001
 44
0.0000000001
 40
0.0
 40
0.0
 40
0.0
 40
0.0
 40
0.0108387475
 40
0.0212720876
 40
0.0317316518
 40
0.0426770898
 40
0.0676110316
 40
0.0823373994
 40
0.098833582
 40
0.1376285845
 40
0.1847458381
 40
0.2402982008
 40
0.3039425339
 40
0.3751471974
 40
0.4529921421
 40
0.6243848545
 40
0.8095745888
 40
1.0
 40
1.0
 40
1.0
 40
1.0
 10
10.1092735077
 20
8.5535619017
 30
0.0
 10
10.109495821
 20
8.5535226604
 30
0.0
 10
10.1099404063
 20
8.5534836633
 30
0.0
 10
10.1106015183
 20
8.5535630652
 30
0.0
 10
10.1112317776
 20
8.5537860709
 30
0.0
 10
10.1120577181
 20
8.5542980259
 30
0.0
 10
10.1127648967
 20
8.5551099412
 30
0.0
 10
10.113354361
 20
8.5561204073
 30
0.0
 10
10.1139520788
 20
8.5574538869
 30
0.0
 10
10.1145573316
 20
8.559507696
 30
0.0
 10
10.1150585866
 20
8.5624151924
 30
0.0
 10
10.1153597866
 20
8.5658692472
 30
0.0
 10
10.1154547996
 20
8.5698357907
 30
0.0
 10
10.1153357932
 20
8.5742657465
 30
0.0
 10
10.1148859169
 20
8.5809261801
 30
0.0
 10
10.1138012738
 20
8.5899155046
 30
0.0
 10
10.1118600525
 20
8.6011455436
 30
0.0
 10
10.110194818
 20
8.6087923591
 30
0.0
 10
10.1092742469
 20
8.6126502366
 30
0.0
  0
SPLINE
  5
2B6
100
AcDbEntity
  8
0
100
AcDbSpline
 62
9
  6
CONTINUOUS
 70
0
 71
3
 72
25
 73
21
 74
0
 42
0.0000001
 43
0.0000001
 44
0.0000000001
 40
0.0
 40
0.0
 40
0.0
 40
0.0
 40
0.0039125967
 40
0.0085448243
 40
0.014745669
 40
0.0228962167
 40
0.0331697843
 40
0.0456565933
 40
0.0603920698
 40
0.0773750485
 40
0.1180259382
 40
0.1674448878
 40
0.2252332057
 40
0.2908298282
 40
0.3636113827
 40
0.4427530279
 40
0.5273762926
 40
0.6165795559
 40
0.8049881869
 40
1.0
 40
1.0
 40
1.0
 40
1.0
 10
11.7354429345
 20
8.2668243566
 30
0.0
 10
11.7355195674
 20
8.2668108774
 30
0.0
 10
11.7356997444
 20
8.2668349116
 30
0.0
 10
11.7359298392
 20
8.2670316612
 30
0.0
 10
11.7361341491
 20
8.2673513483
 30
0.0
 10
11.736325906
 20
8.2678037829
 30
0.0
 10
11.7365051761
 20
8.2683924015
 30
0.0
 10
11.7366714023
 20
8.2691197991
 30
0.0
 10
11.7368237791
 20
8.2699858555
 30
0.0
 10
11.7370196602
 20
8.2714119227
 30
0.0
 10
11.7372143368
 20
8.2735328738
 30
0.0
 10
11.7373757462
 20
8.2764692316
 30
0.0
 10
11.7374727004
 20
8.2799047315
 30
0.0
 10
11.7375033775
 20
8.2838059521
 30
0.0
 10
11.7374656435
 20
8.2881317421
 30
0.0
 10
11.7373609444
 20
8.2928348663
 30
0.0
 10
11.7371903765
 20
8.297862823
 30
0.0
 10
11.7368719644
 20
8.3050596134
 30
0.0
 10
11.7363236598
 20
8.3144431244
 30
0.0
 10
11.7357582358
 20
8.3220474844
 30
0.0
 10
11.7354429345
 20
8.3259128218
 30
0.0
  0
LINE
  5
2B7
100
AcDbEntity
  8
0
100
AcDbLine
 62
9
  6
CONTINUOUS
 10
12.0893061108
 20
10.136710267
 11
12.088217597
 21
10.144891804
  0
SPLINE
  5
2B8
100
AcDbEntity
  8
0
100
AcDbSpline
 62
9
  6
CONTINUOUS
 70
0
 71
3
 72
23
 73
19
 74
0
 42
0.0000001
 43
0.0000001
 44
0.0000000001
 40
0.0
 40
0.0
 40
0.0
 40
0.0
 40
0.0016594763
 40
0.0065457165
 40
0.0145408383
 40
0.0255276689
 40
0.0560113117
 40
0.0970757845
 40
0.14781543
 40
0.2072814069
 40
0.2741289256
 40
0.3468861168
 40
0.5045799688
 40
0.670445693
 40
0.7537738938
 40
0.8363211095
 40
0.9180991244
 40
1.0
 40
1.0
 40
1.0
 40
1.0
 10
9.4409246509
 20
8.676725113
 30
0.0
 10
9.4409124846
 20
8.6767321453
 30
0.0
 10
9.4408668889
 20
8.6767637905
 30
0.0
 10
9.4407633801
 20
8.6768303965
 30
0.0
 10
9.4405961397
 20
8.6769439691
 30
0.0
 10
9.4402503716
 20
8.6771803658
 30
0.0
 10
9.4396799014
 20
8.6775842627
 30
0.0
 10
9.4388458359
 20
8.6781980866
 30
0.0
 10
9.437830381
 20
8.6789790976
 30
0.0
 10
9.4366626319
 20
8.679919672
 30
0.0
 10
9.4353804324
 20
8.6810145251
 30
0.0
 10
9.43352438
 20
8.6827161864
 30
0.0
 10
9.4312000433
 20
8.6851436258
 30
0.0
 10
9.4291137434
 20
8.6879033266
 30
0.0
 10
9.4277291191
 20
8.6903527039
 30
0.0
 10
9.4269077514
 20
8.6922884642
 30
0.0
 10
9.426365197
 20
8.694309514
 30
0.0
 10
9.4262334932
 20
8.6956982657
 30
0.0
 10
9.4262334891
 20
8.696391804
 30
0.0
  0
LINE
  5
2B9
100
AcDbEntity
  8
0
100
AcDbLine
 62
9
  6
CONTINUOUS
 10
12.1152551098
 20
10.0948918958
 11
12.1149970612
 21
10.1387569773
  0
SPLINE
  5
2BA
100
AcDbEntity
  8
0
100
AcDbSpline
 62
9
  6
CONTINUOUS
 70
0
 71
3
 72
15
 73
11
 74
0
 42
0.0000001
 43
0.0000001
 44
0.0000000001
 40
0.0
 40
0.0
 40
0.0
 40
0.0
 40
0.1438023565
 40
0.2862850175
 40
0.4251151369
 40
0.5583261051
 40
0.6840082785
 40
0.8004197604
 40
0.9061574694
 40
1.0
 40
1.0
 40
1.0
 40
1.0
 10
12.1920703042
 20
10.114891804
 30
0.0
 10
12.1881977445
 20
10.1153451883
 30
0.0
 10
12.1805066149
 20
10.1164141002
 30
0.0
 10
12.1691650821
 20
10.1184897892
 30
0.0
 10
12.1582069113
 20
10.1210056316
 30
0.0
 10
12.1478191911
 20
10.123917743
 30
0.0
 10
12.138173324
 20
10.1271751173
 30
0.0
 10
12.129428235
 20
10.1307245137
 30
0.0
 10
12.1217315477
 20
10.1345053856
 30
0.0
 10
12.1170910199
 20
10.1373105752
 30
0.0
 10
12.1149974965
 20
10.1387566766
 30
0.0
  0
SPLINE
  5
2BB
100
AcDbEntity
  8
0
100
AcDbSpline
 62
9
  6
CONTINUOUS
 70
0
 71
3
 72
9
 73
5
 74
0
 42
0.0000001
 43
0.0000001
 44
0.0000000001
 40
0.0
 40
0.0
 40
0.0
 40
0.0
 40
0.5305156952
 40
1.0
 40
1.0
 40
1.0
 40
1.0
 10
12.1146790367
 20
10.1882406255
 30
0.0
 10
12.1148054443
 20
10.1885794045
 30
0.0
 10
12.1149968774
 20
10.1892374032
 30
0.0
 10
12.1150352648
 20
10.1899285936
 30
0.0
 10
12.1149975215
 20
10.1902463554
 30
0.0
  0
SPLINE
  5
2BC
100
AcDbEntity
  8
0
100
AcDbSpline
 62
9
  6
CONTINUOUS
 70
0
 71
3
 72
17
 73
13
 74
0
 42
0.0000001
 43
0.0000001
 44
0.0000000001
 40
0.0
 40
0.0
 40
0.0
 40
0.0
 40
0.1801656989
 40
0.3517250651
 40
0.5102033615
 40
0.6519865563
 40
0.7738908696
 40
0.8734912074
 40
0.9143017316
 40
0.9489809374
 40
0.9775262235
 40
1.0
 40
1.0
 40
1.0
 40
1.0
 10
12.1146788371
 20
10.1495418847
 30
0.0
 10
12.1145053187
 20
10.1518663616
 30
0.0
 10
12.1141984196
 20
10.1564067282
 30
0.0
 10
12.1138526828
 20
10.1629988553
 30
0.0
 10
12.1136400336
 20
10.1690997989
 30
0.0
 10
12.1135619997
 20
10.1745616967
 30
0.0
 10
12.1136199313
 20
10.1792619539
 30
0.0
 10
12.1137838879
 20
10.1826533829
 30
0.0
 10
12.1140010448
 20
10.1849086279
 30
0.0
 10
12.1141846207
 20
10.186242657
 30
0.0
 10
12.1143973913
 20
10.1873312671
 30
0.0
 10
12.1145776048
 20
10.1879681307
 30
0.0
 10
12.1146790367
 20
10.1882406255
 30
0.0
  0
SPLINE
  5
2BD
100
AcDbEntity
  8
0
100
AcDbSpline
 62
9
  6
CONTINUOUS
 70
0
 71
3
 72
9
 73
5
 74
0
 42
0.0000001
 43
0.0000001
 44
0.0000000001
 40
0.0
 40
0.0
 40
0.0
 40
0.0
 40
0.2506274819
 40
1.0
 40
1.0
 40
1.0
 40
1.0
 10
12.1149974965
 20
10.1387566766
 30
0.0
 10
12.1150153193
 20
10.1396581148
 30
0.0
 10
12.1150388156
 20
10.1432557504
 30
0.0
 10
12.1148797461
 20
10.1468535678
 30
0.0
 10
12.1146788371
 20
10.1495418847
 30
0.0
  0
SPLINE
  5
2BE
100
AcDbEntity
  8
0
100
AcDbSpline
 62
9
  6
CONTINUOUS
 70
0
 71
3
 72
15
 73
11
 74
0
 42
0.0000001
 43
0.0000001
 44
0.0000000001
 40
0.0
 40
0.0
 40
0.0
 40
0.0
 40
0.1283309886
 40
0.2559171374
 40
0.3824399618
 40
0.5078984677
 40
0.6322818589
 40
0.7556490567
 40
0.878210476
 40
1.0
 40
1.0
 40
1.0
 40
1.0
 10
12.1920703042
 20
10.1514603465
 30
0.0
 10
12.1882108778
 20
10.1513005792
 30
0.0
 10
12.180486134
 20
10.1514574684
 30
0.0
 10
12.1690666013
 20
10.1531222112
 30
0.0
 10
12.1580301741
 20
10.1561960934
 30
0.0
 10
12.1475692413
 20
10.1606260275
 30
0.0
 10
12.1378563805
 20
10.1663343804
 30
0.0
 10
12.1290569724
 20
10.1732318157
 30
0.0
 10
12.1213267588
 20
10.1811987554
 30
0.0
 10
12.1169566492
 20
10.187148756
 30
0.0
 10
12.1149971536
 20
10.1902469371
 30
0.0
  0
LINE
  5
2BF
100
AcDbEntity
  8
0
100
AcDbLine
 62
9
  6
CONTINUOUS
 10
12.1149971536
 20
10.1902469371
 11
12.1152551103
 21
10.1923918023
  0
SPLINE
  5
2C0
100
AcDbEntity
  8
0
100
AcDbSpline
 62
9
  6
CONTINUOUS
 70
0
 71
3
 72
12
 73
8
 74
0
 42
0.0000001
 43
0.0000001
 44
0.0000000001
 40
0.0
 40
0.0
 40
0.0
 40
0.0
 40
0.2500026367
 40
0.3750086117
 40
0.4999991927
 40
0.7500160923
 40
1.0
 40
1.0
 40
1.0
 40
1.0
 10
9.9791590793
 20
8.6126464317
 30
0.0
 10
9.9791583976
 20
8.6058184041
 30
0.0
 10
9.9788593731
 20
8.5955745857
 30
0.0
 10
9.9780002923
 20
8.5819454805
 30
0.0
 10
9.9769118481
 20
8.5683320437
 30
0.0
 10
9.9753521494
 20
8.5513345533
 30
0.0
 10
9.9743514232
 20
8.5377117105
 30
0.0
 10
9.9740291625
 20
8.530891804
 30
0.0
  0
SPLINE
  5
2C1
100
AcDbEntity
  8
0
100
AcDbSpline
 62
9
  6
CONTINUOUS
 70
0
 71
3
 72
12
 73
8
 74
0
 42
0.0000001
 43
0.0000001
 44
0.0000000001
 40
0.0
 40
0.0
 40
0.0
 40
0.0
 40
0.2499833895
 40
0.5000017751
 40
0.624992489
 40
0.7499976672
 40
1.0
 40
1.0
 40
1.0
 40
1.0
 10
9.9740292159
 20
9.488891804
 30
0.0
 10
9.9743509786
 20
9.4820713624
 30
0.0
 10
9.9753525797
 20
9.468447484
 30
0.0
 10
9.9769121653
 20
9.451448644
 30
0.0
 10
9.9780000838
 20
9.4378340895
 30
0.0
 10
9.978859915
 20
9.4242040135
 30
0.0
 10
9.9791590686
 20
9.4139594132
 30
0.0
 10
9.979159272
 20
9.4071308686
 30
0.0
  0
SPLINE
  5
2C2
100
AcDbEntity
  8
0
100
AcDbSpline
 62
9
  6
CONTINUOUS
 70
0
 71
3
 72
11
 73
7
 74
0
 42
0.0000001
 43
0.0000001
 44
0.0000000001
 40
0.0
 40
0.0
 40
0.0
 40
0.0
 40
0.2489664938
 40
0.4984703459
 40
0.7489654772
 40
1.0
 40
1.0
 40
1.0
 40
1.0
 10
12.0963098714
 20
7.8160388549
 30
0.0
 10
12.0982795045
 20
7.8166079188
 30
0.0
 10
12.1021138951
 20
7.8181707655
 30
0.0
 10
12.1072508427
 20
7.8216621564
 30
0.0
 10
12.1115648317
 20
7.8261539073
 30
0.0
 10
12.1137702526
 20
7.8296866534
 30
0.0
 10
12.114678869
 20
7.8315434849
 30
0.0
  0
LINE
  5
2C3
100
AcDbEntity
  8
0
100
AcDbLine
 62
9
  6
CONTINUOUS
 10
12.1152551098
 20
7.8273918051
 11
12.1149970612
 21
7.8295364778
  0
SPLINE
  5
2C4
100
AcDbEntity
  8
0
100
AcDbSpline
 62
9
  6
CONTINUOUS
 70
0
 71
3
 72
25
 73
21
 74
0
 42
0.0000001
 43
0.0000001
 44
0.0000000001
 40
0.0
 40
0.0
 40
0.0
 40
0.0
 40
0.0620252391
 40
0.1242139901
 40
0.1865517021
 40
0.2490010436
 40
0.3115764018
 40
0.3429200109
 40
0.3743031485
 40
0.4371371516
 40
0.5000001016
 40
0.5628629338
 40
0.62569686
 40
0.6570800654
 40
0.6884237794
 40
0.7509991465
 40
0.8134483611
 40
0.8757859789
 40
0.9379747367
 40
1.0
 40
1.0
 40
1.0
 40
1.0
 10
9.4262334891
 20
9.2110733141
 30
0.0
 10
9.4262334979
 20
9.2027279946
 30
0.0
 10
9.4267651797
 20
9.18601364
 30
0.0
 10
9.4286897621
 20
9.1609833988
 30
0.0
 10
9.431267991
 20
9.1359575226
 30
0.0
 10
9.4340840821
 20
9.1109064879
 30
0.0
 10
9.4363430154
 20
9.089988617
 30
0.0
 10
9.4379192668
 20
9.0732030195
 30
0.0
 10
9.4392875136
 20
9.0563643199
 30
0.0
 10
9.4405433133
 20
9.0352631878
 30
0.0
 10
9.4411153389
 20
9.0098917802
 30
0.0
 10
9.4405435234
 20
8.984520372
 30
0.0
 10
9.4392874523
 20
8.9634192715
 30
0.0
 10
9.4379191556
 20
8.9465805642
 30
0.0
 10
9.4363429742
 20
8.9297949355
 30
0.0
 10
9.4340840593
 20
8.9088770641
 30
0.0
 10
9.4312679846
 20
8.8838260564
 30
0.0
 10
9.4286897721
 20
8.8588002075
 30
0.0
 10
9.426765182
 20
8.8337699756
 30
0.0
 10
9.4262334958
 20
8.8170556167
 30
0.0
 10
9.4262334891
 20
8.808710294
 30
0.0
  0
SPLINE
  5
2C5
100
AcDbEntity
  8
0
100
AcDbSpline
 62
9
  6
CONTINUOUS
 70
0
 71
3
 72
15
 73
11
 74
0
 42
0.0000001
 43
0.0000001
 44
0.0000000001
 40
0.0
 40
0.0
 40
0.0
 40
0.0
 40
0.1283310881
 40
0.2559173906
 40
0.3824404188
 40
0.5078991198
 40
0.6322826403
 40
0.7556498294
 40
0.8782110147
 40
1.0
 40
1.0
 40
1.0
 40
1.0
 10
12.1920703042
 20
7.8683232616
 30
0.0
 10
12.188210903
 20
7.8684830124
 30
0.0
 10
12.1804862106
 20
7.8683261012
 30
0.0
 10
12.1690667531
 20
7.8666613497
 30
0.0
 10
12.1580303945
 20
7.8635874818
 30
0.0
 10
12.1475695193
 20
7.8591575918
 30
0.0
 10
12.1378567025
 20
7.8534493139
 30
0.0
 10
12.1290573232
 20
7.846551985
 30
0.0
 10
12.1213271207
 20
7.8385851845
 30
0.0
 10
12.1169570005
 20
7.83263529
 30
0.0
 10
12.1149974965
 20
7.8295371659
 30
0.0
  0
SPLINE
  5
2C6
100
AcDbEntity
  8
0
100
AcDbSpline
 62
9
  6
CONTINUOUS
 70
0
 71
3
 72
24
 73
20
 74
0
 42
0.0000001
 43
0.0000001
 44
0.0000000001
 40
0.0
 40
0.0
 40
0.0
 40
0.0
 40
0.1249741124
 40
0.1874665005
 40
0.2499470438
 40
0.3124617127
 40
0.374968233
 40
0.4062103489
 40
0.4374596803
 40
0.4687279047
 40
0.5000057635
 40
0.5625379318
 40
0.5937835441
 40
0.6250257699
 40
0.6875375329
 40
0.7500544108
 40
0.8125342769
 40
0.8750257696
 40
1.0
 40
1.0
 40
1.0
 40
1.0
 10
9.3962334891
 20
9.2110733141
 30
0.0
 10
9.3962335402
 20
9.1941935672
 30
0.0
 10
9.3982979622
 20
9.1688721465
 30
0.0
 10
9.4031396621
 20
9.1354684593
 30
0.0
 10
9.4073062357
 20
9.1104876635
 30
0.0
 10
9.4115001223
 20
9.0855131863
 30
0.0
 10
9.4145498802
 20
9.0646239564
 30
0.0
 10
9.4164199788
 20
9.0478429811
 30
0.0
 10
9.4174576203
 20
9.0352197412
 30
0.0
 10
9.4180780657
 20
9.0225638925
 30
0.0
 10
9.4183572297
 20
9.005670274
 30
0.0
 10
9.4178103469
 20
8.9887735091
 30
0.0
 10
9.4164197388
 20
8.9719428067
 30
0.0
 10
9.4145473148
 20
8.9551617479
 30
0.0
 10
9.4114983413
 20
8.9342714893
 30
0.0
 10
9.4073077899
 20
8.9092954923
 30
0.0
 10
9.4031405804
 20
8.8843147341
 30
0.0
 10
9.398297294
 20
8.8509114583
 30
0.0
 10
9.3962335109
 20
8.8255900568
 30
0.0
 10
9.3962334891
 20
8.808710294
 30
0.0
  0
SPLINE
  5
2C7
100
AcDbEntity
  8
0
100
AcDbSpline
 62
9
  6
CONTINUOUS
 70
0
 71
3
 72
30
 73
26
 74
0
 42
0.0000001
 43
0.0000001
 44
0.0000000001
 40
0.0
 40
0.0
 40
0.0
 40
0.0
 40
0.0819152904
 40
0.1637089874
 40
0.3293476619
 40
0.4128171997
 40
0.4953411391
 40
0.5758289716
 40
0.6531083762
 40
0.7258750466
 40
0.7927264988
 40
0.8521878887
 40
0.8787094488
 40
0.9029257938
 40
0.9247248258
 40
0.9439933176
 40
0.9606169978
 40
0.9744806296
 40
0.9854680818
 40
0.9898467314
 40
0.9934624126
 40
0.9963003856
 40
0.9983458663
 40
0.9995840273
 40
1.0
 40
1.0
 40
1.0
 40
1.0
 10
9.4262334891
 20
9.323391804
 30
0.0
 10
9.426233494
 20
9.3240853896
 30
0.0
 10
9.4263652627
 20
9.3254743347
 30
0.0
 10
9.4270911034
 20
9.3281767829
 30
0.0
 10
9.4283747496
 20
9.3307005788
 30
0.0
 10
9.429971103
 20
9.3330110764
 30
0.0
 10
9.4312783275
 20
9.3346404647
 30
0.0
 10
9.4326448647
 20
9.3361490045
 30
0.0
 10
9.4340270824
 20
9.3375282916
 30
0.0
 10
9.4353810926
 20
9.3387696724
 30
0.0
 10
9.4366631981
 20
9.3398644353
 30
0.0
 10
9.4376710488
 20
9.3406763596
 30
0.0
 10
9.4384078458
 20
9.3412488777
 30
0.0
 10
9.4388969744
 20
9.3416203359
 30
0.0
 10
9.4393407093
 20
9.341949983
 30
0.0
 10
9.4397357482
 20
9.3422372845
 30
0.0
 10
9.4400789315
 20
9.3424817575
 30
0.0
 10
9.4403666551
 20
9.3426827896
 30
0.0
 10
9.4405712485
 20
9.3428228033
 30
0.0
 10
9.4407037945
 20
9.3429125404
 30
0.0
 10
9.4407814532
 20
9.3429639255
 30
0.0
 10
9.4408377218
 20
9.3430026547
 30
0.0
 10
9.4408895423
 20
9.3430334761
 30
0.0
 10
9.4409007221
 20
9.3430463978
 30
0.0
 10
9.4409281927
 20
9.3430583626
 30
0.0
 10
9.4409246722
 20
9.3430584707
 30
0.0
  0
SPLINE
  5
2C8
100
AcDbEntity
  8
0
100
AcDbSpline
 62
9
  6
CONTINUOUS
 70
0
 71
3
 72
9
 73
5
 74
0
 42
0.0000001
 43
0.0000001
 44
0.0000000001
 40
0.0
 40
0.0
 40
0.0
 40
0.0
 40
0.2495173116
 40
1.0
 40
1.0
 40
1.0
 40
1.0
 10
12.1146790367
 20
7.8702438735
 30
0.0
 10
12.1147459015
 20
7.8711387744
 30
0.0
 10
12.1149776787
 20
7.8747277998
 30
0.0
 10
12.1150508738
 20
7.8783279922
 30
0.0
 10
12.1149975215
 20
7.8810265951
 30
0.0
  0
SPLINE
  5
2C9
100
AcDbEntity
  8
0
100
AcDbSpline
 62
9
  6
CONTINUOUS
 70
0
 71
3
 72
17
 73
13
 74
0
 42
0.0000001
 43
0.0000001
 44
0.0000000001
 40
0.0
 40
0.0
 40
0.0
 40
0.0
 40
0.0224723014
 40
0.0510201159
 40
0.0857040377
 40
0.1265192746
 40
0.2261227733
 40
0.3480252074
 40
0.4898065059
 40
0.6482833293
 40
0.8198405991
 40
1.0
 40
1.0
 40
1.0
 40
1.0
 10
12.1146788371
 20
7.8315434138
 30
0.0
 10
12.114577352
 20
7.8318158821
 30
0.0
 10
12.1143971175
 20
7.8324527915
 30
0.0
 10
12.1141844083
 20
7.8335415382
 30
0.0
 10
12.1140009282
 20
7.834875797
 30
0.0
 10
12.1137839054
 20
7.8371313172
 30
0.0
 10
12.1136199677
 20
7.8405229709
 30
0.0
 10
12.1135619963
 20
7.8452234267
 30
0.0
 10
12.1136399946
 20
7.8506854972
 30
0.0
 10
12.1138527035
 20
7.8567866374
 30
0.0
 10
12.114198658
 20
7.8633789158
 30
0.0
 10
12.1145055837
 20
7.8679193708
 30
0.0
 10
12.1146790367
 20
7.8702438735
 30
0.0
  0
SPLINE
  5
2CA
100
AcDbEntity
  8
0
100
AcDbSpline
 62
9
  6
CONTINUOUS
 70
0
 71
3
 72
9
 73
5
 74
0
 42
0.0000001
 43
0.0000001
 44
0.0000000001
 40
0.0
 40
0.0
 40
0.0
 40
0.0
 40
0.4695292455
 40
1.0
 40
1.0
 40
1.0
 40
1.0
 10
12.1149974965
 20
7.8295371659
 30
0.0
 10
12.1150352563
 20
7.829855046
 30
0.0
 10
12.1149969902
 20
7.8305464444
 30
0.0
 10
12.1148053119
 20
7.8312045854
 30
0.0
 10
12.1146788371
 20
7.8315434138
 30
0.0
  0
SPLINE
  5
2CB
100
AcDbEntity
  8
0
100
AcDbSpline
 62
9
  6
CONTINUOUS
 70
0
 71
3
 72
15
 73
11
 74
0
 42
0.0000001
 43
0.0000001
 44
0.0000000001
 40
0.0
 40
0.0
 40
0.0
 40
0.0
 40
0.1438027498
 40
0.2862858275
 40
0.425116349
 40
0.5583276373
 40
0.6840099594
 40
0.8004213303
 40
0.9061585551
 40
1.0
 40
1.0
 40
1.0
 40
1.0
 10
12.1920703042
 20
7.904891804
 30
0.0
 10
12.1881977176
 20
7.904438373
 30
0.0
 10
12.180506535
 20
7.9033693749
 30
0.0
 10
12.1691649284
 20
7.901293553
 30
0.0
 10
12.1582066948
 20
7.8987775703
 30
0.0
 10
12.1478189229
 20
7.8958653372
 30
0.0
 10
12.138173018
 20
7.8926078713
 30
0.0
 10
12.1294279073
 20
7.8890584248
 30
0.0
 10
12.1217312189
 20
7.885277554
 30
0.0
 10
12.1170906832
 20
7.8824724062
 30
0.0
 10
12.1149971536
 20
7.8810263409
 30
0.0
  0
LINE
  5
2CC
100
AcDbEntity
  8
0
100
AcDbLine
 62
9
  6
CONTINUOUS
 10
12.1149971536
 20
7.8810263409
 11
12.1152551103
 21
7.924891804
  0
SPLINE
  5
2CD
100
AcDbEntity
  8
0
100
AcDbSpline
 62
9
  6
CONTINUOUS
 70
0
 71
3
 72
25
 73
21
 74
0
 42
0.0000001
 43
0.0000001
 44
0.0000000001
 40
0.0
 40
0.0
 40
0.0
 40
0.0
 40
0.1936118316
 40
0.3799669331
 40
0.4680413292
 40
0.5516044053
 40
0.6298677471
 40
0.7020693479
 40
0.7674829484
 40
0.8255181061
 40
0.8756267158
 40
0.9173599177
 40
0.9349959862
 40
0.9504399405
 40
0.9636747525
 40
0.9747122176
 40
0.9836148673
 40
0.9905192795
 40
0.9957389134
 40
1.0
 40
1.0
 40
1.0
 40
1.0
 10
12.088217597
 20
10.144891804
 30
0.0
 10
12.0878772581
 20
10.1487822845
 30
0.0
 10
12.087300793
 20
10.1564256221
 30
0.0
 10
12.0867840692
 20
10.1658529493
 30
0.0
 10
12.0864968076
 20
10.1730683924
 30
0.0
 10
12.0863459824
 20
10.1781069658
 30
0.0
 10
12.0862545852
 20
10.1828267495
 30
0.0
 10
12.0862223714
 20
10.1871812335
 30
0.0
 10
12.0862488557
 20
10.1911277503
 30
0.0
 10
12.0863337341
 20
10.1946278013
 30
0.0
 10
12.086476694
 20
10.1976478461
 30
0.0
 10
12.0866515105
 20
10.1998499469
 30
0.0
 10
12.0868315369
 20
10.2013484481
 30
0.0
 10
12.0869746068
 20
10.2022718681
 30
0.0
 10
12.0871334116
 20
10.2030575101
 30
0.0
 10
12.0873081373
 20
10.2037040246
 30
0.0
 10
12.0874985413
 20
10.2042124791
 30
0.0
 10
12.0877061732
 20
10.2045843768
 30
0.0
 10
12.0879388695
 20
10.2048291914
 30
0.0
 10
12.088131686
 20
10.2048917892
 30
0.0
 10
12.0882176362
 20
10.204891804
 30
0.0
  0
ENDSEC
  0
SECTION
  2
OBJECTS
  0
DICTIONARY
  5
C
100
AcDbDictionary
280
0
281
1
  3
ACAD_GROUP
350
D
  3
ACAD_MLINESTYLE
350
17
  3
ACAD_LAYOUT
350
1A
  3
ACAD_PLOTSETTINGS
350
19
  3
ACAD_PLOTSTYLENAME
350
E
  0
DICTIONARY
  5
D
102
{ACAD_REACTORS
330
C
102
}
100
AcDbDictionary
280
0
281
1
  0
ACDBDICTIONARYWDFLT
  5
E
102
{ACAD_REACTORS
330
C
102
}
100
AcDbDictionary
281
1
  3
Normal
350
F
100
AcDbDictionaryWithDefault
340
F
  0
DICTIONARY
  5
17
102
{ACAD_REACTORS
330
C
102
}
100
AcDbDictionary
280
0
281
1
  3
Standard
350
18
  0
DICTIONARY
  5
19
102
{ACAD_REACTORS
330
C
102
}
100
AcDbDictionary
281
1
  0
DICTIONARY
  5
1A
102
{ACAD_REACTORS
330
C
102
}
100
AcDbDictionary
281
1
  3
Model
350
2CE
  3
Layout1
350
2CF
  0
ACDBPLACEHOLDER
  5
F
102
{ACAD_REACTORS
330
E
102
}
  0
MLINESTYLE
  5
18
102
{ACAD_REACTORS
330
17
102
}
100
AcDbMlineStyle
  2
STANDARD
 70
0
  3

 62
256
 51
90.0
 52
90.0
 71
2
 49
0.5
 62
256
  6
BYLAYER
 49
-0.5
 62
256
  6
BYLAYER
  0
LAYOUT
  5
2CE
102
{ACAD_REACTORS
330
1A
102
}
100
AcDbPlotSettings
  1

  2
none_device
  4
ANSI_C_(22.00_x_17.00_Inches)
  6

 40
0.0
 41
0.0
 42
0.0
 43
0.0
 44
558.8
 45
431.8
 46
0.0
 47
0.0
 48
0.0
 49
0.0
140
0.0
141
0.0
142
1.0
143
1.0
 70
1024
 72
0
 73
0
 74
0
  7

 75
0
147
1.0
148
0.0
149
0.0
100
AcDbLayout
  1
Model
 70
0
 71
0
 10
0.0
 20
0.0
 11
22.0
 21
17.0
 12
0.0
 22
0.0
 32
0.0
 14
0.0
 24
0.0
 34
0.0
 15
0.0
 25
0.0
 35
0.0
146
0.0
 13
0.0
 23
0.0
 33
0.0
 16
1.0
 26
0.0
 36
0.0
 17
0.0
 27
1.0
 37
0.0
 76
0
330
205
345
0
346
0
  0
LAYOUT
  5
2CF
102
{ACAD_REACTORS
330
1A
102
}
100
AcDbPlotSettings
  1

  2
none_device
  4
ANSI_C_(22.00_x_17.00_Inches)
  6

 40
0.0
 41
0.0
 42
0.0
 43
0.0
 44
558.8
 45
431.8
 46
0.0
 47
0.0
 48
0.0
 49
0.0
140
0.0
141
0.0
142
1.0
143
1.0
 70
0
 72
0
 73
0
 74
0
  7

 75
0
147
1.0
148
0.0
149
0.0
100
AcDbLayout
  1
Layout1
 70
0
 71
1
 10
0.0
 20
0.0
 11
22.0
 21
17.0
 12
0.0
 22
0.0
 32
0.0
 14
0.0
 24
0.0
 34
0.0
 15
0.0
 25
0.0
 35
0.0
146
0.0
 13
0.0
 23
0.0
 33
0.0
 16
1.0
 26
0.0
 36
0.0
 17
0.0
 27
1.0
 37
0.0
 76
0
330
206
345
0
346
0
  0
ENDSEC
  0
EOF
