999
DXF file: 4-3234bp_right.dxf
999
Pro/ENGINEER 2023134 by Parametric Technology Corporation
  0
SECTION
  2
HEADER
  9
$ACADVER
  1
AC1032
  9
$DWGCODEPAGE
  3
ANSI_1252
  9
$EXTMAX
 10
11.0
 20
8.5
 30
0.0
  9
$EXTMIN
 10
0.0
 20
0.0
 30
0.0
  9
$LIMMIN
 10
0.0
 20
0.0
  9
$LIMMAX
 10
11.0
 20
8.5
  9
$VIEWCTR
 10
5.5
 20
4.25
  9
$VIEWSIZE
 40
8.5
  9
$CLAYER
  8
0
  9
$LTSCALE
 40
0.605
  9
$CELTYPE
  6
BYLAYER
  9
$DIMSCALE
 40
1.0
  9
$DIMASZ
 40
0.1
  9
$DIMEXO
 40
0.0625
  9
$DIMDLI
 40
0.418
  9
$DIMEXE
 40
0.125
  9
$DIMCEN
 40
0.099
  9
$DIMLFAC
 40
1.0
  9
$DIMBLK
  1
_FILLED
  9
$DIMALT
 70
1
  9
$DIMALTD
 70
2
  9
$DIMALTTD
 70
2
  9
$DIMALTF
 40
25.4
  9
$DIMTXT
 40
0.08
  9
$DIMTOL
 70
1
  9
$DIMLIM
 70
0
  9
$DIMTFAC
 40
1.0
  9
$DIMTP
 40
0.001
  9
$DIMTM
 40
0.001
  9
$DIMGAP
 40
0.09
  9
$DIMDSEP
 70
46
  9
$AUNITS
 70
0
  9
$PDMODE
 70
3
  9
$PDSIZE
 40
0.3125
  9
$HANDSEED
  5
362
  9
$TILEMODE
 70
1
  9
$MEASUREMENT
 70
0
  9
$INSUNITS
 70
1
  0
ENDSEC
  0
SECTION
  2
CLASSES
  0
CLASS
  1
ACDBDICTIONARYWDFLT
  2
AcDbDictionaryWithDefault
  3
AutoCAD 2000
 90
0
 91
1
280
0
281
0
  0
CLASS
  1
ACDBPLACEHOLDER
  2
AcDbPlaceHolder
  3
AutoCAD 2000
 90
0
 91
1
280
0
281
0
  0
CLASS
  1
LAYOUT
  2
AcDbLayout
  3
AutoCAD 2000
 90
0
 91
0
280
0
281
0
  0
ENDSEC
  0
SECTION
  2
TABLES
  0
TABLE
  2
VPORT
  5
8
100
AcDbSymbolTable
 70
2
  0
VPORT
  5
1F4
100
AcDbSymbolTableRecord
100
AcDbViewportTableRecord
  2
*ACTIVE
 70
0
 10
0.0
 20
0.0
 11
1.0
 21
1.0
 12
5.5
 22
4.25
 13
0.0
 23
0.0
 14
1.0
 24
1.0
 15
0.0
 25
0.0
 16
0.0
 26
0.0
 36
1.0
 17
0.0
 27
0.0
 37
0.0
 40
8.5
 41
1.2941176471
 42
50.0
 43
0.0
 44
0.0
 50
0.0
 51
0.0
 71
0
 72
100
 73
1
 74
1
 75
0
 76
0
 77
0
 78
0
  0
ENDTAB
  0
TABLE
  2
LTYPE
  5
5
100
AcDbSymbolTable
 70
6
  0
LTYPE
  5
14
100
AcDbSymbolTableRecord
100
AcDbLinetypeTableRecord
  2
BYBLOCK
 70
0
  3

 72
65
 73
0
 40
0.0
  0
LTYPE
  5
15
100
AcDbSymbolTableRecord
100
AcDbLinetypeTableRecord
  2
BYLAYER
 70
0
  3

 72
65
 73
0
 40
0.0
  0
LTYPE
  5
16
100
AcDbSymbolTableRecord
100
AcDbLinetypeTableRecord
  2
CONTINUOUS
 70
64
  3
Solid line
 72
65
 73
0
 40
0.0
  0
LTYPE
  5
1F5
100
AcDbSymbolTableRecord
100
AcDbLinetypeTableRecord
  2
CENTER
 70
64
  3
____ _ ____ _ ____ _ ____ _ ____ _ ____ _ ____
 72
65
 73
4
 40
0.6
 49
0.375
 74
0
 49
-0.075
 74
0
 49
0.075
 74
0
 49
-0.075
 74
0
  0
LTYPE
  5
1F6
100
AcDbSymbolTableRecord
100
AcDbLinetypeTableRecord
  2
HIDDEN
 70
64
  3
- - - - - - - - - - - - - - - - - - - -
 72
65
 73
2
 40
0.2
 49
0.1
 74
0
 49
-0.1
 74
0
  0
LTYPE
  5
1F7
100
AcDbSymbolTableRecord
100
AcDbLinetypeTableRecord
  2
PHANTOM
 70
64
  3
_____ _ _ _____ _ _ _____ _ _ _____
 72
65
 73
6
 40
0.8
 49
0.45
 74
0
 49
-0.05
 74
0
 49
0.1
 74
0
 49
-0.05
 74
0
 49
0.1
 74
0
 49
-0.05
 74
0
  0
LTYPE
  5
1F8
100
AcDbSymbolTableRecord
100
AcDbLinetypeTableRecord
  2
DOT
 70
64
  3
. . . . . . . . . . . . . . . . . . . .
 72
65
 73
2
 40
0.2
 49
0.1
 74
0
 49
-0.1
 74
0
  0
LTYPE
  5
1F9
100
AcDbSymbolTableRecord
100
AcDbLinetypeTableRecord
  2
DASHED
 70
64
  3
- - - - - - - - - - - - - - - - - - - -
 72
65
 73
2
 40
0.2
 49
0.1
 74
0
 49
-0.1
 74
0
  0
ENDTAB
  0
TABLE
  2
LAYER
  5
2
100
AcDbSymbolTable
 70
36
  0
LAYER
  5
10
100
AcDbSymbolTableRecord
100
AcDbLayerTableRecord
  2
0
 70
0
 62
7
  6
CONTINUOUS
370
-3
390
F
  0
LAYER
  5
1FA
100
AcDbSymbolTableRecord
100
AcDbLayerTableRecord
  2
DEFAULT_1
 70
0
 62
7
  6
CENTER
370
-3
390
F
  0
LAYER
  5
1FB
100
AcDbSymbolTableRecord
100
AcDbLayerTableRecord
  2
DEFAULT_2
 70
0
 62
8
  6
HIDDEN
370
-3
390
F
  0
LAYER
  5
1FC
100
AcDbSymbolTableRecord
100
AcDbLayerTableRecord
  2
DEFAULT_3
 70
0
 62
7
  6
PHANTOM
370
-3
390
F
  0
LAYER
  5
1FD
100
AcDbSymbolTableRecord
100
AcDbLayerTableRecord
  2
DEFAULT_COORDINATE_SYSTEM
 70
0
 62
7
  6
CONTINUOUS
370
-3
390
F
  0
LAYER
  5
1FE
100
AcDbSymbolTableRecord
100
AcDbLayerTableRecord
  2
DEFAULT_DATUM_AXES
 70
0
 62
7
  6
CONTINUOUS
370
-3
390
F
  0
LAYER
  5
1FF
100
AcDbSymbolTableRecord
100
AcDbLayerTableRecord
  2
DEFAULT_DATUM_CURVES
 70
0
 62
7
  6
CONTINUOUS
370
-3
390
F
  0
LAYER
  5
200
100
AcDbSymbolTableRecord
100
AcDbLayerTableRecord
  2
DEFAULT_DATUM_PLANES
 70
0
 62
7
  6
CONTINUOUS
370
-3
390
F
  0
ENDTAB
  0
TABLE
  2
STYLE
  5
3
100
AcDbSymbolTable
 70
1
  0
STYLE
  5
11
100
AcDbSymbolTableRecord
100
AcDbTextStyleTableRecord
  2
STANDARD
 70
0
 40
0.0
 41
0.8
 50
0.0
 71
0
 42
0.2
  3
txt
  4

  0
STYLE
  5
201
100
AcDbSymbolTableRecord
100
AcDbTextStyleTableRecord
  2
TEXTSTYLE_1
 70
0
 40
0.0
 41
0.8
 50
0.0
 71
0
 42
0.2
  3
gdt
  4

  0
ENDTAB
  0
TABLE
  2
VIEW
  5
6
100
AcDbSymbolTable
 70
0
  0
ENDTAB
  0
TABLE
  2
UCS
  5
7
100
AcDbSymbolTable
 70
0
  0
ENDTAB
  0
TABLE
  2
APPID
  5
9
100
AcDbSymbolTable
 70
1
  0
APPID
  5
202
100
AcDbSymbolTableRecord
100
AcDbRegAppTableRecord
  2
ACAD
 70
0
  0
ENDTAB
  0
TABLE
  2
BLOCK_RECORD
  5
1
100
AcDbSymbolTable
 70
0
  0
BLOCK_RECORD
  5
203
100
AcDbSymbolTableRecord
100
AcDbBlockTableRecord
  2
*Model_Space
  0
BLOCK_RECORD
  5
204
100
AcDbSymbolTableRecord
100
AcDbBlockTableRecord
  2
*Paper_Space
  0
BLOCK_RECORD
  5
205
100
AcDbSymbolTableRecord
100
AcDbBlockTableRecord
  2
_FILLED
  0
ENDTAB
  0
TABLE
  2
DIMSTYLE
  5
A
100
AcDbSymbolTable
 70
1
100
AcDbDimStyleTable
 71
0
  0
DIMSTYLE
105
206
100
AcDbSymbolTableRecord
100
AcDbDimStyleTableRecord
  2
STANDARD
 70
0
  3

  4

 40
1.0
 41
0.1
 42
0.0625
 43
0.38
 44
0.125
 45
0.0
 46
0.0
 47
0.001
 48
0.001
140
0.08
141
0.09
142
0.0
143
25.4
144
1.0
145
0.0
146
1.0
147
0.09
 71
1
 72
0
 73
1
 74
1
 75
0
 76
0
 77
0
 78
4
 79
1
170
1
171
2
172
0
173
0
174
0
175
0
176
0
177
0
178
0
270
2
179
3
271
3
272
3
273
2
274
2
275
0
280
0
281
0
282
0
283
1
284
4
285
0
286
0
287
3
288
0
340
11
278
46
341
205
342
205
343
205
344
205
  0
ENDTAB
  0
ENDSEC
  0
SECTION
  2
BLOCKS
  0
BLOCK
  5
20
100
AcDbEntity
  8
0
100
AcDbBlockBegin
  2
*Model_Space
 70
0
 10
0.0
 20
0.0
 30
0.0
  3
*Model_Space
  1

  0
ENDBLK
  5
21
100
AcDbEntity
  8
0
100
AcDbBlockEnd
  0
BLOCK
  5
1C
100
AcDbEntity
  8
0
100
AcDbBlockBegin
  2
*Paper_Space
 70
0
 10
0.0
 20
0.0
 30
0.0
  3
*Paper_Space
  1

  0
ENDBLK
  5
1D
100
AcDbEntity
  8
0
100
AcDbBlockEnd
  0
BLOCK
  5
207
100
AcDbEntity
  8
0
100
AcDbBlockBegin
  2
_FILLED
 70
64
 10
0.0
 20
0.0
  3
_FILLED
  1

  0
SOLID
  5
208
100
AcDbEntity
  8
0
  6
BYBLOCK
 62
0
100
AcDbTrace
 10
0.0
 20
0.0
 11
-1.0
 21
0.2
 12
-1.0
 22
-0.2
 13
-1.0
 23
-0.2
  0
ENDBLK
  5
209
100
AcDbEntity
  8
0
  6
BYBLOCK
 62
0
100
AcDbBlockEnd
  0
ENDSEC
  0
SECTION
  2
ENTITIES
  0
MTEXT
  5
20A
100
AcDbEntity
  8
0
100
AcDbMText
 62
2
  6
CONTINUOUS
  7
STANDARD
 71
3
 72
1
 10
5.3609795574
 20
0.6333818493
 30
0.0
 11
1.0
 21
0.0
 31
0.0
 73
2
 44
0.9
  1
SCALE 1.000
 40
0.08
 41
0.704
  0
LINE
  5
20B
100
AcDbEntity
  8
0
100
AcDbLine
 62
7
  6
CONTINUOUS
 10
0.0
 20
0.0
 11
0.0
 21
8.5
  0
LINE
  5
20C
100
AcDbEntity
  8
0
100
AcDbLine
 62
7
  6
CONTINUOUS
 10
0.0
 20
0.0
 11
11.0
 21
0.0
  0
LINE
  5
20D
100
AcDbEntity
  8
0
100
AcDbLine
 62
7
  6
CONTINUOUS
 10
0.0
 20
8.5
 11
11.0
 21
8.5
  0
LINE
  5
20E
100
AcDbEntity
  8
0
100
AcDbLine
 62
7
  6
CONTINUOUS
 10
11.0
 20
0.0
 11
11.0
 21
8.5
  0
LINE
  5
20F
100
AcDbEntity
  8
0
100
AcDbLine
 62
7
  6
CONTINUOUS
 10
6.8929160959
 20
1.2369434932
 11
6.7534528355
 21
1.2369434932
  0
LINE
  5
210
100
AcDbEntity
  8
0
100
AcDbLine
 62
7
  6
CONTINUOUS
 10
3.4539160959
 20
1.6869434932
 11
4.0639160959
 21
1.6869434932
  0
LINE
  5
211
100
AcDbEntity
  8
0
100
AcDbLine
 62
7
  6
CONTINUOUS
 10
4.0839160959
 20
1.7069434932
 11
3.4339160959
 21
1.7069434932
  0
LINE
  5
212
100
AcDbEntity
  8
0
100
AcDbLine
 62
7
  6
CONTINUOUS
 10
3.3789160959
 20
4.0169434932
 11
3.3789160959
 21
4.9569434932
  0
LINE
  5
213
100
AcDbEntity
  8
0
100
AcDbLine
 62
7
  6
CONTINUOUS
 10
3.4089160959
 20
3.990731866
 11
3.4089160959
 21
3.9942654956
  0
LINE
  5
214
100
AcDbEntity
  8
0
100
AcDbLine
 62
7
  6
CONTINUOUS
 10
3.4089160959
 20
3.9870997676
 11
3.4089160959
 21
3.9882814375
  0
LINE
  5
215
100
AcDbEntity
  8
0
100
AcDbLine
 62
7
  6
CONTINUOUS
 10
3.4089160959
 20
3.9991427536
 11
3.4089160959
 21
4.0049943121
  0
LINE
  5
216
100
AcDbEntity
  8
0
100
AcDbLine
 62
7
  6
CONTINUOUS
 10
3.4089160959
 20
4.012251429
 11
3.4089160959
 21
4.0203645627
  0
LINE
  5
217
100
AcDbEntity
  8
0
100
AcDbLine
 62
7
  6
CONTINUOUS
 10
3.4089160959
 20
4.0299316485
 11
3.4089160959
 21
4.0402282235
  0
LINE
  5
218
100
AcDbEntity
  8
0
100
AcDbLine
 62
7
  6
CONTINUOUS
 10
3.4089160959
 20
4.0520131419
 11
3.4089160959
 21
4.0643939965
  0
LINE
  5
219
100
AcDbEntity
  8
0
100
AcDbLine
 62
7
  6
CONTINUOUS
 10
3.4089160959
 20
4.0782832523
 11
3.4089160959
 21
4.0926291522
  0
LINE
  5
21A
100
AcDbEntity
  8
0
100
AcDbLine
 62
7
  6
CONTINUOUS
 10
3.4089160959
 20
4.1084889843
 11
3.4089160959
 21
4.1246617705
  0
LINE
  5
21B
100
AcDbEntity
  8
0
100
AcDbLine
 62
7
  6
CONTINUOUS
 10
3.4089160959
 20
4.14233944
 11
3.4089160959
 21
4.1601833598
  0
LINE
  5
21C
100
AcDbEntity
  8
0
100
AcDbLine
 62
7
  6
CONTINUOUS
 10
3.4089160959
 20
4.1795086212
 11
3.4089160959
 21
4.1988518279
  0
LINE
  5
21D
100
AcDbEntity
  8
0
100
AcDbLine
 62
7
  6
CONTINUOUS
 10
3.4089160959
 20
4.2196385682
 11
3.4089160959
 21
4.2402947762
  0
LINE
  5
21E
100
AcDbEntity
  8
0
100
AcDbLine
 62
7
  6
CONTINUOUS
 10
3.4089160959
 20
4.2623428078
 11
3.4089160959
 21
4.2841130864
  0
LINE
  5
21F
100
AcDbEntity
  8
0
100
AcDbLine
 62
7
  6
CONTINUOUS
 10
3.4089160959
 20
4.3072100748
 11
3.4089160959
 21
4.3298847644
  0
LINE
  5
220
100
AcDbEntity
  8
0
100
AcDbLine
 62
7
  6
CONTINUOUS
 10
3.4089160959
 20
4.3538082728
 11
3.4089160959
 21
4.3771690038
  0
LINE
  5
221
100
AcDbEntity
  8
0
100
AcDbLine
 62
7
  6
CONTINUOUS
 10
3.4089160959
 20
4.4016886358
 11
3.4089160959
 21
4.4255104315
  0
LINE
  5
222
100
AcDbEntity
  8
0
100
AcDbLine
 62
7
  6
CONTINUOUS
 10
3.4089160959
 20
4.4503900496
 11
3.4089160959
 21
4.4744434932
  0
LINE
  5
223
100
AcDbEntity
  8
0
100
AcDbLine
 62
7
  6
CONTINUOUS
 10
3.4089160959
 20
4.4994434932
 11
3.4089160959
 21
4.5234969367
  0
LINE
  5
224
100
AcDbEntity
  8
0
100
AcDbLine
 62
7
  6
CONTINUOUS
 10
3.4089160959
 20
4.5483765548
 11
3.4089160959
 21
4.5721983505
  0
LINE
  5
225
100
AcDbEntity
  8
0
100
AcDbLine
 62
7
  6
CONTINUOUS
 10
3.4089160959
 20
4.5967179825
 11
3.4089160959
 21
4.6200787135
  0
LINE
  5
226
100
AcDbEntity
  8
0
100
AcDbLine
 62
7
  6
CONTINUOUS
 10
3.4089160959
 20
4.6440022219
 11
3.4089160959
 21
4.6666769115
  0
LINE
  5
227
100
AcDbEntity
  8
0
100
AcDbLine
 62
7
  6
CONTINUOUS
 10
3.4089160959
 20
4.6897738999
 11
3.4089160959
 21
4.7115441785
  0
LINE
  5
228
100
AcDbEntity
  8
0
100
AcDbLine
 62
7
  6
CONTINUOUS
 10
3.4089160959
 20
4.7335922101
 11
3.4089160959
 21
4.7542484181
  0
LINE
  5
229
100
AcDbEntity
  8
0
100
AcDbLine
 62
7
  6
CONTINUOUS
 10
3.4089160959
 20
4.7750351584
 11
3.4089160959
 21
4.7943783651
  0
LINE
  5
22A
100
AcDbEntity
  8
0
100
AcDbLine
 62
7
  6
CONTINUOUS
 10
3.4089160959
 20
4.8137036265
 11
3.4089160959
 21
4.8315475463
  0
LINE
  5
22B
100
AcDbEntity
  8
0
100
AcDbLine
 62
7
  6
CONTINUOUS
 10
3.4089160959
 20
4.8492252158
 11
3.4089160959
 21
4.865398002
  0
LINE
  5
22C
100
AcDbEntity
  8
0
100
AcDbLine
 62
7
  6
CONTINUOUS
 10
3.4089160959
 20
4.8812578341
 11
3.4089160959
 21
4.895603734
  0
LINE
  5
22D
100
AcDbEntity
  8
0
100
AcDbLine
 62
7
  6
CONTINUOUS
 10
3.4089160959
 20
4.9094929898
 11
3.4089160959
 21
4.9218738444
  0
LINE
  5
22E
100
AcDbEntity
  8
0
100
AcDbLine
 62
7
  6
CONTINUOUS
 10
3.4089160959
 20
4.9336587628
 11
3.4089160959
 21
4.9439553378
  0
LINE
  5
22F
100
AcDbEntity
  8
0
100
AcDbLine
 62
7
  6
CONTINUOUS
 10
3.4089160959
 20
4.9535224236
 11
3.4089160959
 21
4.9616355573
  0
LINE
  5
230
100
AcDbEntity
  8
0
100
AcDbLine
 62
7
  6
CONTINUOUS
 10
3.4089160959
 20
4.9688926742
 11
3.4089160959
 21
4.9747442327
  0
LINE
  5
231
100
AcDbEntity
  8
0
100
AcDbLine
 62
7
  6
CONTINUOUS
 10
3.4089160959
 20
4.9796214907
 11
3.4089160959
 21
4.9831551203
  0
LINE
  5
232
100
AcDbEntity
  8
0
100
AcDbLine
 62
7
  6
CONTINUOUS
 10
3.4089160959
 20
4.9856055488
 11
3.4089160959
 21
4.9867872187
  0
LINE
  5
233
100
AcDbEntity
  8
0
100
AcDbLine
 62
7
  6
CONTINUOUS
 10
3.4339160959
 20
1.7069434932
 11
3.4339160959
 21
3.9991427536
  0
LINE
  5
234
100
AcDbEntity
  8
0
100
AcDbLine
 62
7
  6
CONTINUOUS
 10
3.4539160959
 20
1.6869434932
 11
3.4539160959
 21
4.0028205749
  0
LINE
  5
235
100
AcDbEntity
  8
0
100
AcDbLine
 62
7
  6
CONTINUOUS
 10
4.0639160959
 20
4.0028205749
 11
4.0639160959
 21
1.6869434932
  0
LINE
  5
236
100
AcDbEntity
  8
0
100
AcDbLine
 62
7
  6
CONTINUOUS
 10
4.0839160959
 20
3.9991427536
 11
4.0839160959
 21
1.7069434932
  0
LINE
  5
237
100
AcDbEntity
  8
0
100
AcDbLine
 62
7
  6
CONTINUOUS
 10
6.5799160959
 20
3.3619434932
 11
6.357968223
 21
3.3619434932
  0
LINE
  5
238
100
AcDbEntity
  8
0
100
AcDbLine
 62
7
  6
CONTINUOUS
 10
4.2789160959
 20
4.9867872187
 11
4.2789160959
 21
4.9856055488
  0
LINE
  5
239
100
AcDbEntity
  8
0
100
AcDbLine
 62
7
  6
CONTINUOUS
 10
4.2789160959
 20
4.9831551203
 11
4.2789160959
 21
4.9796214907
  0
LINE
  5
23A
100
AcDbEntity
  8
0
100
AcDbLine
 62
7
  6
CONTINUOUS
 10
4.2789160959
 20
4.9747442327
 11
4.2789160959
 21
4.9688926742
  0
LINE
  5
23B
100
AcDbEntity
  8
0
100
AcDbLine
 62
7
  6
CONTINUOUS
 10
4.2789160959
 20
4.9616355573
 11
4.2789160959
 21
4.9535224236
  0
LINE
  5
23C
100
AcDbEntity
  8
0
100
AcDbLine
 62
7
  6
CONTINUOUS
 10
4.2789160959
 20
4.9439553378
 11
4.2789160959
 21
4.9336587628
  0
LINE
  5
23D
100
AcDbEntity
  8
0
100
AcDbLine
 62
7
  6
CONTINUOUS
 10
4.2789160959
 20
4.9218738444
 11
4.2789160959
 21
4.9094929898
  0
LINE
  5
23E
100
AcDbEntity
  8
0
100
AcDbLine
 62
7
  6
CONTINUOUS
 10
4.2789160959
 20
4.895603734
 11
4.2789160959
 21
4.8812578341
  0
LINE
  5
23F
100
AcDbEntity
  8
0
100
AcDbLine
 62
7
  6
CONTINUOUS
 10
4.2789160959
 20
4.865398002
 11
4.2789160959
 21
4.8492252158
  0
LINE
  5
240
100
AcDbEntity
  8
0
100
AcDbLine
 62
7
  6
CONTINUOUS
 10
4.2789160959
 20
4.8315475463
 11
4.2789160959
 21
4.8137036265
  0
LINE
  5
241
100
AcDbEntity
  8
0
100
AcDbLine
 62
7
  6
CONTINUOUS
 10
4.2789160959
 20
4.7943783651
 11
4.2789160959
 21
4.7750351584
  0
LINE
  5
242
100
AcDbEntity
  8
0
100
AcDbLine
 62
7
  6
CONTINUOUS
 10
4.2789160959
 20
4.7542484181
 11
4.2789160959
 21
4.7335922101
  0
LINE
  5
243
100
AcDbEntity
  8
0
100
AcDbLine
 62
7
  6
CONTINUOUS
 10
4.2789160959
 20
4.7115441785
 11
4.2789160959
 21
4.6897738999
  0
LINE
  5
244
100
AcDbEntity
  8
0
100
AcDbLine
 62
7
  6
CONTINUOUS
 10
4.2789160959
 20
4.6666769115
 11
4.2789160959
 21
4.6440022219
  0
LINE
  5
245
100
AcDbEntity
  8
0
100
AcDbLine
 62
7
  6
CONTINUOUS
 10
4.2789160959
 20
4.6200787135
 11
4.2789160959
 21
4.5967179825
  0
LINE
  5
246
100
AcDbEntity
  8
0
100
AcDbLine
 62
7
  6
CONTINUOUS
 10
4.2789160959
 20
4.5721983505
 11
4.2789160959
 21
4.5483765548
  0
LINE
  5
247
100
AcDbEntity
  8
0
100
AcDbLine
 62
7
  6
CONTINUOUS
 10
4.2789160959
 20
4.5234969367
 11
4.2789160959
 21
4.4994434932
  0
LINE
  5
248
100
AcDbEntity
  8
0
100
AcDbLine
 62
7
  6
CONTINUOUS
 10
4.2789160959
 20
4.4744434932
 11
4.2789160959
 21
4.4503900496
  0
LINE
  5
249
100
AcDbEntity
  8
0
100
AcDbLine
 62
7
  6
CONTINUOUS
 10
4.2789160959
 20
4.4255104315
 11
4.2789160959
 21
4.4016886358
  0
LINE
  5
24A
100
AcDbEntity
  8
0
100
AcDbLine
 62
7
  6
CONTINUOUS
 10
4.2789160959
 20
4.3771690038
 11
4.2789160959
 21
4.3538082728
  0
LINE
  5
24B
100
AcDbEntity
  8
0
100
AcDbLine
 62
7
  6
CONTINUOUS
 10
4.2789160959
 20
4.3298847644
 11
4.2789160959
 21
4.3072100748
  0
LINE
  5
24C
100
AcDbEntity
  8
0
100
AcDbLine
 62
7
  6
CONTINUOUS
 10
4.2789160959
 20
4.2841130864
 11
4.2789160959
 21
4.2623428078
  0
LINE
  5
24D
100
AcDbEntity
  8
0
100
AcDbLine
 62
7
  6
CONTINUOUS
 10
4.2789160959
 20
4.2402947762
 11
4.2789160959
 21
4.2196385682
  0
LINE
  5
24E
100
AcDbEntity
  8
0
100
AcDbLine
 62
7
  6
CONTINUOUS
 10
4.2789160959
 20
4.1988518279
 11
4.2789160959
 21
4.1795086212
  0
LINE
  5
24F
100
AcDbEntity
  8
0
100
AcDbLine
 62
7
  6
CONTINUOUS
 10
4.2789160959
 20
4.1601833598
 11
4.2789160959
 21
4.14233944
  0
LINE
  5
250
100
AcDbEntity
  8
0
100
AcDbLine
 62
7
  6
CONTINUOUS
 10
4.2789160959
 20
4.1246617705
 11
4.2789160959
 21
4.1084889843
  0
LINE
  5
251
100
AcDbEntity
  8
0
100
AcDbLine
 62
7
  6
CONTINUOUS
 10
4.2789160959
 20
4.0926291522
 11
4.2789160959
 21
4.0782832523
  0
LINE
  5
252
100
AcDbEntity
  8
0
100
AcDbLine
 62
7
  6
CONTINUOUS
 10
4.2789160959
 20
4.0643939965
 11
4.2789160959
 21
4.0520131419
  0
LINE
  5
253
100
AcDbEntity
  8
0
100
AcDbLine
 62
7
  6
CONTINUOUS
 10
4.2789160959
 20
4.0402282235
 11
4.2789160959
 21
4.0299316485
  0
LINE
  5
254
100
AcDbEntity
  8
0
100
AcDbLine
 62
7
  6
CONTINUOUS
 10
4.2789160959
 20
4.0203645627
 11
4.2789160959
 21
4.012251429
  0
LINE
  5
255
100
AcDbEntity
  8
0
100
AcDbLine
 62
7
  6
CONTINUOUS
 10
4.2789160959
 20
4.0049943121
 11
4.2789160959
 21
3.9991427536
  0
LINE
  5
256
100
AcDbEntity
  8
0
100
AcDbLine
 62
7
  6
CONTINUOUS
 10
4.2789160959
 20
3.9942654956
 11
4.2789160959
 21
3.990731866
  0
LINE
  5
257
100
AcDbEntity
  8
0
100
AcDbLine
 62
7
  6
CONTINUOUS
 10
4.2789160959
 20
3.9882814375
 11
4.2789160959
 21
3.9870997676
  0
LINE
  5
258
100
AcDbEntity
  8
0
100
AcDbLine
 62
7
  6
CONTINUOUS
 10
4.3089160959
 20
4.9569434932
 11
4.3089160959
 21
4.0169434932
  0
LINE
  5
259
100
AcDbEntity
  8
0
100
AcDbLine
 62
7
  6
CONTINUOUS
 10
4.3399160959
 20
4.0169434932
 11
4.3399160959
 21
4.9569434932
  0
LINE
  5
25A
100
AcDbEntity
  8
0
100
AcDbLine
 62
7
  6
CONTINUOUS
 10
4.3699160959
 20
3.9869434932
 11
4.3699160959
 21
4.9869434932
  0
LINE
  5
25B
100
AcDbEntity
  8
0
100
AcDbLine
 62
7
  6
CONTINUOUS
 10
6.0399160959
 20
3.9869434932
 11
4.3699160959
 21
3.9869434932
  0
LINE
  5
25C
100
AcDbEntity
  8
0
100
AcDbLine
 62
7
  6
CONTINUOUS
 10
4.2789160959
 20
3.9870997676
 11
4.0839160959
 21
3.9870997676
  0
LINE
  5
25D
100
AcDbEntity
  8
0
100
AcDbLine
 62
7
  6
CONTINUOUS
 10
3.4339160959
 20
3.9870997676
 11
3.4089160959
 21
3.9870997676
  0
LINE
  5
25E
100
AcDbEntity
  8
0
100
AcDbLine
 62
7
  6
CONTINUOUS
 10
4.2789160959
 20
3.9882814375
 11
4.0839160959
 21
3.9882814375
  0
LINE
  5
25F
100
AcDbEntity
  8
0
100
AcDbLine
 62
7
  6
CONTINUOUS
 10
3.4339160959
 20
3.9882814375
 11
3.4089160959
 21
3.9882814375
  0
LINE
  5
260
100
AcDbEntity
  8
0
100
AcDbLine
 62
7
  6
CONTINUOUS
 10
4.2789160959
 20
3.990731866
 11
4.0839160959
 21
3.990731866
  0
LINE
  5
261
100
AcDbEntity
  8
0
100
AcDbLine
 62
7
  6
CONTINUOUS
 10
3.4339160959
 20
3.990731866
 11
3.4089160959
 21
3.990731866
  0
LINE
  5
262
100
AcDbEntity
  8
0
100
AcDbLine
 62
7
  6
CONTINUOUS
 10
4.2789160959
 20
3.9942654956
 11
4.0839160959
 21
3.9942654956
  0
LINE
  5
263
100
AcDbEntity
  8
0
100
AcDbLine
 62
7
  6
CONTINUOUS
 10
3.4339160959
 20
3.9942654956
 11
3.4089160959
 21
3.9942654956
  0
LINE
  5
264
100
AcDbEntity
  8
0
100
AcDbLine
 62
7
  6
CONTINUOUS
 10
4.2789160959
 20
3.9991427536
 11
4.0833378428
 21
3.9991427536
  0
LINE
  5
265
100
AcDbEntity
  8
0
100
AcDbLine
 62
7
  6
CONTINUOUS
 10
3.434494349
 20
3.9991427536
 11
3.4089160959
 21
3.9991427536
  0
LINE
  5
266
100
AcDbEntity
  8
0
100
AcDbLine
 62
7
  6
CONTINUOUS
 10
4.0639160959
 20
4.0028205749
 11
3.4539160959
 21
4.0028205749
  0
LINE
  5
267
100
AcDbEntity
  8
0
100
AcDbLine
 62
7
  6
CONTINUOUS
 10
4.2789160959
 20
4.0049943121
 11
3.4089160959
 21
4.0049943121
  0
LINE
  5
268
100
AcDbEntity
  8
0
100
AcDbLine
 62
7
  6
CONTINUOUS
 10
4.2789160959
 20
4.012251429
 11
3.4089160959
 21
4.012251429
  0
LINE
  5
269
100
AcDbEntity
  8
0
100
AcDbLine
 62
7
  6
CONTINUOUS
 10
4.2789160959
 20
4.0203645627
 11
3.4089160959
 21
4.0203645627
  0
LINE
  5
26A
100
AcDbEntity
  8
0
100
AcDbLine
 62
7
  6
CONTINUOUS
 10
4.2789160959
 20
4.0299316485
 11
3.4089160959
 21
4.0299316485
  0
LINE
  5
26B
100
AcDbEntity
  8
0
100
AcDbLine
 62
7
  6
CONTINUOUS
 10
4.2789160959
 20
4.0402282235
 11
3.4089160959
 21
4.0402282235
  0
LINE
  5
26C
100
AcDbEntity
  8
0
100
AcDbLine
 62
7
  6
CONTINUOUS
 10
4.2789160959
 20
4.0520131419
 11
3.4089160959
 21
4.0520131419
  0
LINE
  5
26D
100
AcDbEntity
  8
0
100
AcDbLine
 62
7
  6
CONTINUOUS
 10
6.0699160959
 20
4.0619434932
 11
6.0799160959
 21
4.0619434932
  0
LINE
  5
26E
100
AcDbEntity
  8
0
100
AcDbLine
 62
7
  6
CONTINUOUS
 10
4.2789160959
 20
4.0643939965
 11
3.4089160959
 21
4.0643939965
  0
LINE
  5
26F
100
AcDbEntity
  8
0
100
AcDbLine
 62
7
  6
CONTINUOUS
 10
4.2789160959
 20
4.0782832523
 11
3.4089160959
 21
4.0782832523
  0
LINE
  5
270
100
AcDbEntity
  8
0
100
AcDbLine
 62
7
  6
CONTINUOUS
 10
4.2789160959
 20
4.0926291522
 11
3.4089160959
 21
4.0926291522
  0
LINE
  5
271
100
AcDbEntity
  8
0
100
AcDbLine
 62
7
  6
CONTINUOUS
 10
4.2789160959
 20
4.1084889843
 11
3.4089160959
 21
4.1084889843
  0
LINE
  5
272
100
AcDbEntity
  8
0
100
AcDbLine
 62
7
  6
CONTINUOUS
 10
4.2789160959
 20
4.1246617705
 11
3.4089160959
 21
4.1246617705
  0
LINE
  5
273
100
AcDbEntity
  8
0
100
AcDbLine
 62
7
  6
CONTINUOUS
 10
4.2789160959
 20
4.14233944
 11
3.4089160959
 21
4.14233944
  0
LINE
  5
274
100
AcDbEntity
  8
0
100
AcDbLine
 62
7
  6
CONTINUOUS
 10
4.2789160959
 20
4.1601833598
 11
3.4089160959
 21
4.1601833598
  0
LINE
  5
275
100
AcDbEntity
  8
0
100
AcDbLine
 62
7
  6
CONTINUOUS
 10
4.3049274972
 20
4.1792964965
 11
3.3829046945
 21
4.1792964965
  0
LINE
  5
276
100
AcDbEntity
  8
0
100
AcDbLine
 62
7
  6
CONTINUOUS
 10
4.2789160959
 20
4.1795086212
 11
3.4089160959
 21
4.1795086212
  0
LINE
  5
277
100
AcDbEntity
  8
0
100
AcDbLine
 62
7
  6
CONTINUOUS
 10
4.2789160959
 20
4.1988518279
 11
3.4089160959
 21
4.1988518279
  0
LINE
  5
278
100
AcDbEntity
  8
0
100
AcDbLine
 62
7
  6
CONTINUOUS
 10
4.3049274972
 20
4.2175214833
 11
3.3829046945
 21
4.2175214833
  0
LINE
  5
279
100
AcDbEntity
  8
0
100
AcDbLine
 62
7
  6
CONTINUOUS
 10
4.2789160959
 20
4.2196385682
 11
3.4089160959
 21
4.2196385682
  0
LINE
  5
27A
100
AcDbEntity
  8
0
100
AcDbLine
 62
7
  6
CONTINUOUS
 10
4.3089160959
 20
4.2269434932
 11
4.3399160959
 21
4.2269434932
  0
LINE
  5
27B
100
AcDbEntity
  8
0
100
AcDbLine
 62
7
  6
CONTINUOUS
 10
4.2789160959
 20
4.2402947762
 11
3.4089160959
 21
4.2402947762
  0
LINE
  5
27C
100
AcDbEntity
  8
0
100
AcDbLine
 62
7
  6
CONTINUOUS
 10
4.3049274972
 20
4.2583411514
 11
3.3829046945
 21
4.2583411514
  0
LINE
  5
27D
100
AcDbEntity
  8
0
100
AcDbLine
 62
7
  6
CONTINUOUS
 10
4.2789160959
 20
4.2623428078
 11
3.4089160959
 21
4.2623428078
  0
LINE
  5
27E
100
AcDbEntity
  8
0
100
AcDbLine
 62
7
  6
CONTINUOUS
 10
4.2789160959
 20
4.2841130864
 11
3.4089160959
 21
4.2841130864
  0
LINE
  5
27F
100
AcDbEntity
  8
0
100
AcDbLine
 62
7
  6
CONTINUOUS
 10
4.3049274972
 20
4.301362385
 11
3.3829046945
 21
4.301362385
  0
LINE
  5
280
100
AcDbEntity
  8
0
100
AcDbLine
 62
7
  6
CONTINUOUS
 10
4.2789160959
 20
4.3072100748
 11
3.4089160959
 21
4.3072100748
  0
LINE
  5
281
100
AcDbEntity
  8
0
100
AcDbLine
 62
7
  6
CONTINUOUS
 10
4.2789160959
 20
4.3298847644
 11
3.4089160959
 21
4.3298847644
  0
LINE
  5
282
100
AcDbEntity
  8
0
100
AcDbLine
 62
7
  6
CONTINUOUS
 10
4.3049274972
 20
4.3461708662
 11
3.3829046945
 21
4.3461708662
  0
LINE
  5
283
100
AcDbEntity
  8
0
100
AcDbLine
 62
7
  6
CONTINUOUS
 10
4.2789160959
 20
4.3538082728
 11
3.4089160959
 21
4.3538082728
  0
LINE
  5
284
100
AcDbEntity
  8
0
100
AcDbLine
 62
7
  6
CONTINUOUS
 10
4.2789160959
 20
4.3771690038
 11
3.4089160959
 21
4.3771690038
  0
LINE
  5
285
100
AcDbEntity
  8
0
100
AcDbLine
 62
7
  6
CONTINUOUS
 10
4.3049274972
 20
4.3923350647
 11
3.3829046945
 21
4.3923350647
  0
LINE
  5
286
100
AcDbEntity
  8
0
100
AcDbLine
 62
7
  6
CONTINUOUS
 10
4.2789160959
 20
4.4016886358
 11
3.4089160959
 21
4.4016886358
  0
LINE
  5
287
100
AcDbEntity
  8
0
100
AcDbLine
 62
7
  6
CONTINUOUS
 10
4.2789160959
 20
4.4255104315
 11
3.4089160959
 21
4.4255104315
  0
LINE
  5
288
100
AcDbEntity
  8
0
100
AcDbLine
 62
7
  6
CONTINUOUS
 10
4.3049274972
 20
4.439410394
 11
3.3829046945
 21
4.439410394
  0
LINE
  5
289
100
AcDbEntity
  8
0
100
AcDbLine
 62
7
  6
CONTINUOUS
 10
4.2789160959
 20
4.4503900496
 11
3.4089160959
 21
4.4503900496
  0
LINE
  5
28A
100
AcDbEntity
  8
0
100
AcDbLine
 62
7
  6
CONTINUOUS
 10
4.2789160959
 20
4.4744434932
 11
3.4089160959
 21
4.4744434932
  0
LINE
  5
28B
100
AcDbEntity
  8
0
100
AcDbLine
 62
7
  6
CONTINUOUS
 10
4.3049274972
 20
4.4869434932
 11
3.3829046945
 21
4.4869434932
  0
LINE
  5
28C
100
AcDbEntity
  8
0
100
AcDbLine
 62
7
  6
CONTINUOUS
 10
4.2789160959
 20
4.4994434932
 11
3.4089160959
 21
4.4994434932
  0
LINE
  5
28D
100
AcDbEntity
  8
0
100
AcDbLine
 62
7
  6
CONTINUOUS
 10
4.2789160959
 20
4.5234969367
 11
3.4089160959
 21
4.5234969367
  0
LINE
  5
28E
100
AcDbEntity
  8
0
100
AcDbLine
 62
7
  6
CONTINUOUS
 10
4.3049274972
 20
4.5344765923
 11
3.3829046945
 21
4.5344765923
  0
LINE
  5
28F
100
AcDbEntity
  8
0
100
AcDbLine
 62
7
  6
CONTINUOUS
 10
4.2789160959
 20
4.5483765548
 11
3.4089160959
 21
4.5483765548
  0
LINE
  5
290
100
AcDbEntity
  8
0
100
AcDbLine
 62
7
  6
CONTINUOUS
 10
4.2789160959
 20
4.5721983505
 11
3.4089160959
 21
4.5721983505
  0
LINE
  5
291
100
AcDbEntity
  8
0
100
AcDbLine
 62
7
  6
CONTINUOUS
 10
4.3049274972
 20
4.5815519216
 11
3.3829046945
 21
4.5815519216
  0
LINE
  5
292
100
AcDbEntity
  8
0
100
AcDbLine
 62
7
  6
CONTINUOUS
 10
4.2789160959
 20
4.5967179825
 11
3.4089160959
 21
4.5967179825
  0
LINE
  5
293
100
AcDbEntity
  8
0
100
AcDbLine
 62
7
  6
CONTINUOUS
 10
4.2789160959
 20
4.6200787135
 11
3.4089160959
 21
4.6200787135
  0
LINE
  5
294
100
AcDbEntity
  8
0
100
AcDbLine
 62
7
  6
CONTINUOUS
 10
4.3049274972
 20
4.6277161201
 11
3.3829046945
 21
4.6277161201
  0
LINE
  5
295
100
AcDbEntity
  8
0
100
AcDbLine
 62
7
  6
CONTINUOUS
 10
4.2789160959
 20
4.6440022219
 11
3.4089160959
 21
4.6440022219
  0
LINE
  5
296
100
AcDbEntity
  8
0
100
AcDbLine
 62
7
  6
CONTINUOUS
 10
4.2789160959
 20
4.6666769115
 11
3.4089160959
 21
4.6666769115
  0
LINE
  5
297
100
AcDbEntity
  8
0
100
AcDbLine
 62
7
  6
CONTINUOUS
 10
4.3049274972
 20
4.6725246013
 11
3.3829046945
 21
4.6725246013
  0
LINE
  5
298
100
AcDbEntity
  8
0
100
AcDbLine
 62
7
  6
CONTINUOUS
 10
4.2789160959
 20
4.6897738999
 11
3.4089160959
 21
4.6897738999
  0
LINE
  5
299
100
AcDbEntity
  8
0
100
AcDbLine
 62
7
  6
CONTINUOUS
 10
4.2789160959
 20
4.7115441785
 11
3.4089160959
 21
4.7115441785
  0
LINE
  5
29A
100
AcDbEntity
  8
0
100
AcDbLine
 62
7
  6
CONTINUOUS
 10
4.3049274972
 20
4.7155458349
 11
3.3829046945
 21
4.7155458349
  0
LINE
  5
29B
100
AcDbEntity
  8
0
100
AcDbLine
 62
7
  6
CONTINUOUS
 10
4.2789160959
 20
4.7335922101
 11
3.4089160959
 21
4.7335922101
  0
LINE
  5
29C
100
AcDbEntity
  8
0
100
AcDbLine
 62
7
  6
CONTINUOUS
 10
4.3089160959
 20
4.7469434932
 11
4.3399160959
 21
4.7469434932
  0
LINE
  5
29D
100
AcDbEntity
  8
0
100
AcDbLine
 62
7
  6
CONTINUOUS
 10
4.2789160959
 20
4.7542484181
 11
3.4089160959
 21
4.7542484181
  0
LINE
  5
29E
100
AcDbEntity
  8
0
100
AcDbLine
 62
7
  6
CONTINUOUS
 10
4.3049274972
 20
4.756365503
 11
3.3829046945
 21
4.756365503
  0
LINE
  5
29F
100
AcDbEntity
  8
0
100
AcDbLine
 62
7
  6
CONTINUOUS
 10
4.2789160959
 20
4.7750351584
 11
3.4089160959
 21
4.7750351584
  0
LINE
  5
2A0
100
AcDbEntity
  8
0
100
AcDbLine
 62
7
  6
CONTINUOUS
 10
4.2789160959
 20
4.7943783651
 11
3.4089160959
 21
4.7943783651
  0
LINE
  5
2A1
100
AcDbEntity
  8
0
100
AcDbLine
 62
7
  6
CONTINUOUS
 10
4.3049274972
 20
4.7945904898
 11
3.3829046945
 21
4.7945904898
  0
LINE
  5
2A2
100
AcDbEntity
  8
0
100
AcDbLine
 62
7
  6
CONTINUOUS
 10
4.2789160959
 20
4.8137036265
 11
3.4089160959
 21
4.8137036265
  0
LINE
  5
2A3
100
AcDbEntity
  8
0
100
AcDbLine
 62
7
  6
CONTINUOUS
 10
4.2789160959
 20
4.8315475463
 11
3.4089160959
 21
4.8315475463
  0
LINE
  5
2A4
100
AcDbEntity
  8
0
100
AcDbLine
 62
7
  6
CONTINUOUS
 10
4.2789160959
 20
4.8492252158
 11
3.4089160959
 21
4.8492252158
  0
LINE
  5
2A5
100
AcDbEntity
  8
0
100
AcDbLine
 62
7
  6
CONTINUOUS
 10
4.2789160959
 20
4.865398002
 11
3.4089160959
 21
4.865398002
  0
LINE
  5
2A6
100
AcDbEntity
  8
0
100
AcDbLine
 62
7
  6
CONTINUOUS
 10
4.2789160959
 20
4.8812578341
 11
3.4089160959
 21
4.8812578341
  0
LINE
  5
2A7
100
AcDbEntity
  8
0
100
AcDbLine
 62
7
  6
CONTINUOUS
 10
4.2789160959
 20
4.895603734
 11
3.4089160959
 21
4.895603734
  0
LINE
  5
2A8
100
AcDbEntity
  8
0
100
AcDbLine
 62
7
  6
CONTINUOUS
 10
4.2789160959
 20
4.9094929898
 11
3.4089160959
 21
4.9094929898
  0
LINE
  5
2A9
100
AcDbEntity
  8
0
100
AcDbLine
 62
7
  6
CONTINUOUS
 10
6.0699160959
 20
4.9119434932
 11
6.0799160959
 21
4.9119434932
  0
LINE
  5
2AA
100
AcDbEntity
  8
0
100
AcDbLine
 62
7
  6
CONTINUOUS
 10
4.2789160959
 20
4.9218738444
 11
3.4089160959
 21
4.9218738444
  0
LINE
  5
2AB
100
AcDbEntity
  8
0
100
AcDbLine
 62
7
  6
CONTINUOUS
 10
4.2789160959
 20
4.9336587628
 11
3.4089160959
 21
4.9336587628
  0
LINE
  5
2AC
100
AcDbEntity
  8
0
100
AcDbLine
 62
7
  6
CONTINUOUS
 10
4.2789160959
 20
4.9439553378
 11
3.4089160959
 21
4.9439553378
  0
LINE
  5
2AD
100
AcDbEntity
  8
0
100
AcDbLine
 62
7
  6
CONTINUOUS
 10
4.2789160959
 20
4.9535224236
 11
3.4089160959
 21
4.9535224236
  0
LINE
  5
2AE
100
AcDbEntity
  8
0
100
AcDbLine
 62
7
  6
CONTINUOUS
 10
4.2789160959
 20
4.9616355573
 11
3.4089160959
 21
4.9616355573
  0
LINE
  5
2AF
100
AcDbEntity
  8
0
100
AcDbLine
 62
7
  6
CONTINUOUS
 10
4.2789160959
 20
4.9688926742
 11
3.4089160959
 21
4.9688926742
  0
LINE
  5
2B0
100
AcDbEntity
  8
0
100
AcDbLine
 62
7
  6
CONTINUOUS
 10
4.2789160959
 20
4.9747442327
 11
3.4089160959
 21
4.9747442327
  0
LINE
  5
2B1
100
AcDbEntity
  8
0
100
AcDbLine
 62
7
  6
CONTINUOUS
 10
4.2789160959
 20
4.9796214907
 11
3.4089160959
 21
4.9796214907
  0
LINE
  5
2B2
100
AcDbEntity
  8
0
100
AcDbLine
 62
7
  6
CONTINUOUS
 10
4.2789160959
 20
4.9831551203
 11
3.4089160959
 21
4.9831551203
  0
LINE
  5
2B3
100
AcDbEntity
  8
0
100
AcDbLine
 62
7
  6
CONTINUOUS
 10
4.2789160959
 20
4.9856055488
 11
3.4089160959
 21
4.9856055488
  0
LINE
  5
2B4
100
AcDbEntity
  8
0
100
AcDbLine
 62
7
  6
CONTINUOUS
 10
4.2789160959
 20
4.9867872187
 11
3.4089160959
 21
4.9867872187
  0
LINE
  5
2B5
100
AcDbEntity
  8
0
100
AcDbLine
 62
7
  6
CONTINUOUS
 10
6.0399160959
 20
4.9869434932
 11
4.3699160959
 21
4.9869434932
  0
LINE
  5
2B6
100
AcDbEntity
  8
0
100
AcDbLine
 62
7
  6
CONTINUOUS
 10
6.0399160959
 20
4.9869434932
 11
6.0399160959
 21
3.9869434932
  0
LINE
  5
2B7
100
AcDbEntity
  8
0
100
AcDbLine
 62
7
  6
CONTINUOUS
 10
6.0699160959
 20
4.9569434932
 11
6.0699160959
 21
4.0169434932
  0
LINE
  5
2B8
100
AcDbEntity
  8
0
100
AcDbLine
 62
7
  6
CONTINUOUS
 10
6.0799160959
 20
4.0147364911
 11
6.0799160959
 21
4.9591504952
  0
LINE
  5
2B9
100
AcDbEntity
  8
0
100
AcDbLine
 62
7
  6
CONTINUOUS
 10
6.105525852
 20
3.985059467
 11
6.105525852
 21
4.9888275193
  0
LINE
  5
2BA
100
AcDbEntity
  8
0
100
AcDbLine
 62
7
  6
CONTINUOUS
 10
6.2489153191
 20
5.1165093369
 11
6.2489153191
 21
3.8573776494
  0
LINE
  5
2BB
100
AcDbEntity
  8
0
100
AcDbLine
 62
7
  6
CONTINUOUS
 10
6.3280473433
 20
3.389766119
 11
6.3280473433
 21
5.5841208673
  0
LINE
  5
2BC
100
AcDbEntity
  8
0
100
AcDbLine
 62
7
  6
CONTINUOUS
 10
6.357968223
 20
3.3619434932
 11
6.357968223
 21
5.6119434932
  0
LINE
  5
2BD
100
AcDbEntity
  8
0
100
AcDbLine
 62
7
  6
CONTINUOUS
 10
6.5799160959
 20
5.6119434932
 11
6.357968223
 21
5.6119434932
  0
LINE
  5
2BE
100
AcDbEntity
  8
0
100
AcDbLine
 62
7
  6
CONTINUOUS
 10
6.5799160959
 20
1.4041000034
 11
6.5799160959
 21
7.5697869829
  0
LINE
  5
2BF
100
AcDbEntity
  8
0
100
AcDbLine
 62
7
  6
CONTINUOUS
 10
6.6218531056
 20
1.3447253418
 11
6.6218531056
 21
7.6291616445
  0
LINE
  5
2C0
100
AcDbEntity
  8
0
100
AcDbLine
 62
7
  6
CONTINUOUS
 10
6.6954337456
 20
1.2753918088
 11
6.6954337456
 21
7.6984951775
  0
LINE
  5
2C1
100
AcDbEntity
  8
0
100
AcDbLine
 62
7
  6
CONTINUOUS
 10
6.7534528355
 20
1.2369434932
 11
6.7534528355
 21
7.7369434932
  0
LINE
  5
2C2
100
AcDbEntity
  8
0
100
AcDbLine
 62
7
  6
CONTINUOUS
 10
6.8929160959
 20
7.7369434932
 11
6.8929160959
 21
1.2369434932
  0
LINE
  5
2C3
100
AcDbEntity
  8
0
100
AcDbLine
 62
7
  6
CONTINUOUS
 10
6.8929160959
 20
7.7369434932
 11
6.7534528355
 21
7.7369434932
  0
ARC
  5
2C4
100
AcDbEntity
  8
0
100
AcDbCircle
 62
7
  6
CONTINUOUS
 10
3.8346407018
 20
5.7655687121
 40
2.5
100
AcDbArc
 50
344.9522620167
 51
355.8378620776
  0
ARC
  5
2C5
100
AcDbEntity
  8
0
100
AcDbCircle
 62
7
  6
CONTINUOUS
 10
3.8346407018
 20
3.2083182742
 40
2.5
100
AcDbArc
 50
4.1621379224
 51
15.0477379833
  0
ARC
  5
2C6
100
AcDbEntity
  8
0
100
AcDbCircle
 62
7
  6
CONTINUOUS
 10
6.0799160959
 20
3.8119434932
 40
0.175
100
AcDbArc
 50
15.0477379833
 51
81.5850319153
  0
ARC
  5
2C7
100
AcDbEntity
  8
0
100
AcDbCircle
 62
7
  6
CONTINUOUS
 10
6.0799160959
 20
5.1619434932
 40
0.175
100
AcDbArc
 50
278.4149680847
 51
344.9522620167
  0
ARC
  5
2C8
100
AcDbEntity
  8
0
100
AcDbCircle
 62
7
  6
CONTINUOUS
 10
6.5799160959
 20
1.2265087105
 40
0.1254347826
100
AcDbArc
 50
22.9364108859
 51
70.4680059554
  0
ARC
  5
2C9
100
AcDbEntity
  8
0
100
AcDbCircle
 62
7
  6
CONTINUOUS
 10
6.5799160959
 20
7.7473782758
 40
0.1254347826
100
AcDbArc
 50
289.5319940446
 51
337.0635891141
  0
ARC
  5
2CA
100
AcDbEntity
  8
0
100
AcDbCircle
 62
7
  6
CONTINUOUS
 10
6.6429160959
 20
7.5697869829
 40
0.063
100
AcDbArc
 50
109.5319940456
 51
180.0
  0
ARC
  5
2CB
100
AcDbEntity
  8
0
100
AcDbCircle
 62
7
  6
CONTINUOUS
 10
6.6429160959
 20
1.4041000034
 40
0.063
100
AcDbArc
 50
180.0
 51
250.4680059544
  0
ARC
  5
2CC
100
AcDbEntity
  8
0
100
AcDbCircle
 62
7
  6
CONTINUOUS
 10
6.7534528355
 20
7.6739434932
 40
0.063
100
AcDbArc
 50
90.0
 51
157.0635891141
  0
ARC
  5
2CD
100
AcDbEntity
  8
0
100
AcDbCircle
 62
7
  6
CONTINUOUS
 10
6.7534528355
 20
1.2999434932
 40
0.063
100
AcDbArc
 50
202.9364108859
 51
270.0
  0
ARC
  5
2CE
100
AcDbEntity
  8
0
100
AcDbCircle
 62
7
  6
CONTINUOUS
 10
4.2789160959
 20
4.0169434932
 40
0.03
100
AcDbArc
 50
330.1172410133
 51
360.0
  0
ARC
  5
2CF
100
AcDbEntity
  8
0
100
AcDbCircle
 62
7
  6
CONTINUOUS
 10
4.2789160959
 20
4.9569434932
 40
0.03
100
AcDbArc
 50
0.0
 51
29.8827589867
  0
ARC
  5
2D0
100
AcDbEntity
  8
0
100
AcDbCircle
 62
7
  6
CONTINUOUS
 10
3.4089160959
 20
4.9569434932
 40
0.03
100
AcDbArc
 50
150.1172410361
 51
180.0
  0
ARC
  5
2D1
100
AcDbEntity
  8
0
100
AcDbCircle
 62
7
  6
CONTINUOUS
 10
3.4089160959
 20
4.0169434932
 40
0.03
100
AcDbArc
 50
180.0
 51
209.8827589639
  0
ARC
  5
2D2
100
AcDbEntity
  8
0
100
AcDbCircle
 62
7
  6
CONTINUOUS
 10
6.0399160959
 20
4.0169434932
 40
0.03
100
AcDbArc
 50
270.0
 51
360.0
  0
ARC
  5
2D3
100
AcDbEntity
  8
0
100
AcDbCircle
 62
7
  6
CONTINUOUS
 10
6.0399160959
 20
4.9569434932
 40
0.03
100
AcDbArc
 50
0.0
 51
90.0
  0
ARC
  5
2D4
100
AcDbEntity
  8
0
100
AcDbCircle
 62
7
  6
CONTINUOUS
 10
4.3699160959
 20
4.9569434932
 40
0.03
100
AcDbArc
 50
90.0
 51
180.0
  0
ARC
  5
2D5
100
AcDbEntity
  8
0
100
AcDbCircle
 62
7
  6
CONTINUOUS
 10
4.3699160959
 20
4.0169434932
 40
0.03
100
AcDbArc
 50
180.0
 51
270.0
  0
ARC
  5
2D6
100
AcDbEntity
  8
0
100
AcDbCircle
 62
7
  6
CONTINUOUS
 10
6.1099160959
 20
4.9591504952
 40
0.03
100
AcDbArc
 50
98.4149680847
 51
180.0
  0
ARC
  5
2D7
100
AcDbEntity
  8
0
100
AcDbCircle
 62
7
  6
CONTINUOUS
 10
6.1099160959
 20
4.0147364911
 40
0.03
100
AcDbArc
 50
180.0
 51
261.5850319153
  0
ARC
  5
2D8
100
AcDbEntity
  8
0
100
AcDbCircle
 62
7
  6
CONTINUOUS
 10
6.357968223
 20
3.3919434932
 40
0.03
100
AcDbArc
 50
184.1621379224
 51
270.0
  0
ARC
  5
2D9
100
AcDbEntity
  8
0
100
AcDbCircle
 62
7
  6
CONTINUOUS
 10
6.357968223
 20
5.5819434932
 40
0.03
100
AcDbArc
 50
90.0
 51
175.8378620776
  0
ARC
  5
2DA
100
AcDbEntity
  8
0
100
AcDbCircle
 62
7
  6
CONTINUOUS
 10
3.4084432479
 20
4.0166713317
 40
0.0294544205
100
AcDbArc
 50
209.8819981018
 51
217.573469277
  0
ARC
  5
2DB
100
AcDbEntity
  8
0
100
AcDbCircle
 62
7
  6
CONTINUOUS
 10
3.4084315356
 20
4.9572234737
 40
0.0294403699
100
AcDbArc
 50
142.4246921784
 51
150.11983971
  0
ARC
  5
2DC
100
AcDbEntity
  8
0
100
AcDbCircle
 62
7
  6
CONTINUOUS
 10
4.0639160959
 20
1.7069434932
 40
0.02
100
AcDbArc
 50
270.0
 51
360.0
  0
ARC
  5
2DD
100
AcDbEntity
  8
0
100
AcDbCircle
 62
7
  6
CONTINUOUS
 10
3.4539160959
 20
1.7069434932
 40
0.02
100
AcDbArc
 50
180.0
 51
270.0
  0
SPLINE
  5
2DE
100
AcDbEntity
  8
0
100
AcDbSpline
 62
7
  6
CONTINUOUS
 70
0
 71
3
 72
17
 73
13
 74
0
 42
0.0000001
 43
0.0000001
 44
0.0000000001
 40
0.0
 40
0.0
 40
0.0
 40
0.0
 40
0.1120254167
 40
0.2273113694
 40
0.3463050081
 40
0.4073859426
 40
0.4695484945
 40
0.5970551751
 40
0.7285938006
 40
0.7956863872
 40
0.8634508581
 40
1.0
 40
1.0
 40
1.0
 40
1.0
 10
4.3049274972
 20
4.9718902988
 30
0.0
 10
4.3043436798
 20
4.9729062959
 30
0.0
 10
4.3030346485
 20
4.9748992231
 30
0.0
 10
4.3006885026
 20
4.9776703237
 30
0.0
 10
4.2984068925
 20
4.979766923
 30
0.0
 10
4.2963845694
 20
4.9812959909
 30
0.0
 10
4.2941927395
 20
4.9827395834
 30
0.0
 10
4.2912068162
 20
4.9843030747
 30
0.0
 10
4.2879883336
 20
4.9854676337
 30
0.0
 10
4.2852826625
 20
4.9861424313
 30
0.0
 10
4.2824854928
 20
4.986636972
 30
0.0
 10
4.2803444055
 20
4.9867872187
 30
0.0
 10
4.2789160959
 20
4.9867872187
 30
0.0
  0
SPLINE
  5
2DF
100
AcDbEntity
  8
0
100
AcDbSpline
 62
7
  6
CONTINUOUS
 70
0
 71
3
 72
15
 73
11
 74
0
 42
0.0000001
 43
0.0000001
 44
0.0000000001
 40
0.0
 40
0.0
 40
0.0
 40
0.0
 40
0.1079870825
 40
0.2203259043
 40
0.3376019978
 40
0.4603664064
 40
0.5887510649
 40
0.7223281287
 40
0.8600338421
 40
1.0
 40
1.0
 40
1.0
 40
1.0
 10
4.3049274972
 20
4.9695551474
 30
0.0
 10
4.3043407284
 20
4.9704873793
 30
0.0
 10
4.3030230785
 20
4.9723163406
 30
0.0
 10
4.3006738207
 20
4.9748459166
 30
0.0
 10
4.2979110876
 20
4.9771602282
 30
0.0
 10
4.2947419919
 20
4.9791986434
 30
0.0
 10
4.2911908425
 20
4.9808934945
 30
0.0
 10
4.2873086339
 20
4.9821740234
 30
0.0
 10
4.283179586
 20
4.9829738759
 30
0.0
 10
4.2803438223
 20
4.9831551203
 30
0.0
 10
4.2789160959
 20
4.9831551203
 30
0.0
  0
SPLINE
  5
2E0
100
AcDbEntity
  8
0
100
AcDbSpline
 62
7
  6
CONTINUOUS
 70
0
 71
3
 72
14
 73
10
 74
0
 42
0.0000001
 43
0.0000001
 44
0.0000000001
 40
0.0
 40
0.0
 40
0.0
 40
0.0
 40
0.103432033
 40
0.2125153056
 40
0.3279608925
 40
0.4503674711
 40
0.5798204426
 40
0.7157232593
 40
1.0
 40
1.0
 40
1.0
 40
1.0
 10
4.3049274972
 20
4.9625721819
 30
0.0
 10
4.3043368336
 20
4.9634120729
 30
0.0
 10
4.3030083399
 20
4.9650595974
 30
0.0
 10
4.3006562864
 20
4.9673223277
 30
0.0
 10
4.2978919583
 20
4.9693912774
 30
0.0
 10
4.2947231972
 20
4.9712124792
 30
0.0
 10
4.291173467
 20
4.972726042
 30
0.0
 10
4.2859317455
 20
4.9742715572
 30
0.0
 10
4.2817381702
 20
4.9747442327
 30
0.0
 10
4.2789160959
 20
4.9747442327
 30
0.0
  0
SPLINE
  5
2E1
100
AcDbEntity
  8
0
100
AcDbSpline
 62
7
  6
CONTINUOUS
 70
0
 71
3
 72
15
 73
11
 74
0
 42
0.0000001
 43
0.0000001
 44
0.0000000001
 40
0.0
 40
0.0
 40
0.0
 40
0.0
 40
0.09830137
 40
0.2037608231
 40
0.3171796488
 40
0.4391603655
 40
0.5696987606
 40
0.7079934152
 40
0.8523462025
 40
1.0
 40
1.0
 40
1.0
 40
1.0
 10
4.3049274972
 20
4.9510086522
 30
0.0
 10
4.3043317023
 20
4.9517482957
 30
0.0
 10
4.3029898986
 20
4.9531978371
 30
0.0
 10
4.3006356535
 20
4.9551709943
 30
0.0
 10
4.2978708214
 20
4.9569741529
 30
0.0
 10
4.2947031094
 20
4.958560689
 30
0.0
 10
4.2911570762
 20
4.959878669
 30
0.0
 10
4.2872836163
 20
4.9608737551
 30
0.0
 10
4.28316604
 20
4.9614949755
 30
0.0
 10
4.2803426852
 20
4.9616355573
 30
0.0
 10
4.2789160959
 20
4.9616355573
 30
0.0
  0
SPLINE
  5
2E2
100
AcDbEntity
  8
0
100
AcDbSpline
 62
7
  6
CONTINUOUS
 70
0
 71
3
 72
15
 73
11
 74
0
 42
0.0000001
 43
0.0000001
 44
0.0000000001
 40
0.0
 40
0.0
 40
0.0
 40
0.0
 40
0.0928848003
 40
0.1946341149
 40
0.3060784333
 40
0.4277662806
 40
0.5595576987
 40
0.7004160701
 40
0.8482997184
 40
1.0
 40
1.0
 40
1.0
 40
1.0
 10
4.3049274972
 20
4.9349759213
 30
0.0
 10
4.3043249998
 20
4.9356079287
 30
0.0
 10
4.3029673778
 20
4.9368436717
 30
0.0
 10
4.3006122758
 20
4.9385074331
 30
0.0
 10
4.2978483349
 20
4.9400273349
 30
0.0
 10
4.2946830364
 20
4.9413643913
 30
0.0
 10
4.2911407044
 20
4.9424750205
 30
0.0
 10
4.287272025
 20
4.9433135107
 30
0.0
 10
4.2831599357
 20
4.9438369435
 30
0.0
 10
4.2803421749
 20
4.9439553378
 30
0.0
 10
4.2789160959
 20
4.9439553378
 30
0.0
  0
SPLINE
  5
2E3
100
AcDbEntity
  8
0
100
AcDbSpline
 62
7
  6
CONTINUOUS
 70
0
 71
3
 72
15
 73
11
 74
0
 42
0.0000001
 43
0.0000001
 44
0.0000000001
 40
0.0
 40
0.0
 40
0.0
 40
0.0
 40
0.0873882131
 40
0.1854852133
 40
0.2950643478
 40
0.4165557487
 40
0.5496441286
 40
0.6930425445
 40
0.8443728472
 40
1.0
 40
1.0
 40
1.0
 40
1.0
 10
4.3049274972
 20
4.9146283931
 30
0.0
 10
4.3043164656
 20
4.9151455806
 30
0.0
 10
4.3029410838
 20
4.9161522365
 30
0.0
 10
4.3005871898
 20
4.9174903903
 30
0.0
 10
4.2978258085
 20
4.9187129903
 30
0.0
 10
4.294663977
 20
4.9197887292
 30
0.0
 10
4.2911257676
 20
4.9206824614
 30
0.0
 10
4.287261736
 20
4.9213572927
 30
0.0
 10
4.2831546042
 20
4.9217785884
 30
0.0
 10
4.2803417303
 20
4.9218738444
 30
0.0
 10
4.2789160959
 20
4.9218738444
 30
0.0
  0
SPLINE
  5
2E4
100
AcDbEntity
  8
0
100
AcDbSpline
 62
7
  6
CONTINUOUS
 70
0
 71
3
 72
15
 73
11
 74
0
 42
0.0000001
 43
0.0000001
 44
0.0000000001
 40
0.0
 40
0.0
 40
0.0
 40
0.0
 40
0.0822095737
 40
0.1769792878
 40
0.2849318165
 40
0.4063264861
 40
0.540653259
 40
0.6863834906
 40
0.8408352863
 40
1.0
 40
1.0
 40
1.0
 40
1.0
 10
4.3049274972
 20
4.8901620256
 30
0.0
 10
4.3043062396
 20
4.8905569609
 30
0.0
 10
4.3029127528
 20
4.8913199288
 30
0.0
 10
4.3005624494
 20
4.8923206895
 30
0.0
 10
4.2978050489
 20
4.8932357095
 30
0.0
 10
4.2946472621
 20
4.8940413172
 30
0.0
 10
4.2911131256
 20
4.8947108927
 30
0.0
 10
4.2872532311
 20
4.8952166032
 30
0.0
 10
4.2831502573
 20
4.89553236
 30
0.0
 10
4.2803413686
 20
4.895603734
 30
0.0
 10
4.2789160959
 20
4.895603734
 30
0.0
  0
SPLINE
  5
2E5
100
AcDbEntity
  8
0
100
AcDbSpline
 62
7
  6
CONTINUOUS
 70
0
 71
3
 72
15
 73
11
 74
0
 42
0.0000001
 43
0.0000001
 44
0.0000000001
 40
0.0
 40
0.0
 40
0.0
 40
0.0
 40
0.0778943834
 40
0.1699834688
 40
0.276679361
 40
0.3980556517
 40
0.5334218849
 40
0.6810467087
 40
0.8380060543
 40
1.0
 40
1.0
 40
1.0
 40
1.0
 10
4.3049274972
 20
4.8618124433
 30
0.0
 10
4.3042954891
 20
4.8620771703
 30
0.0
 10
4.3028862839
 20
4.862583546
 30
0.0
 10
4.3005411442
 20
4.8632399682
 30
0.0
 10
4.2977882275
 20
4.8638408554
 30
0.0
 10
4.2946342648
 20
4.8643703661
 30
0.0
 10
4.2911035763
 20
4.8648106725
 30
0.0
 10
4.2872469255
 20
4.865143323
 30
0.0
 10
4.2831470688
 20
4.8653510544
 30
0.0
 10
4.2803411037
 20
4.865398002
 30
0.0
 10
4.2789160959
 20
4.865398002
 30
0.0
  0
SPLINE
  5
2E6
100
AcDbEntity
  8
0
100
AcDbSpline
 62
7
  6
CONTINUOUS
 70
0
 71
3
 72
15
 73
11
 74
0
 42
0.0000001
 43
0.0000001
 44
0.0000000001
 40
0.0
 40
0.0
 40
0.0
 40
0.0
 40
0.0750615496
 40
0.1654396232
 40
0.2713600695
 40
0.3927536833
 40
0.5288042004
 40
0.6776476668
 40
0.8362067813
 40
1.0
 40
1.0
 40
1.0
 40
1.0
 10
4.3049274972
 20
4.829852668
 30
0.0
 10
4.3042869656
 20
4.829979491
 30
0.0
 10
4.302867444
 20
4.8302198758
 30
0.0
 10
4.3005268711
 20
4.8305290897
 30
0.0
 10
4.2977774757
 20
4.8308124365
 30
0.0
 10
4.2946261917
 20
4.8310623284
 30
0.0
 10
4.2910977656
 20
4.8312701952
 30
0.0
 10
4.2872431364
 20
4.8314272748
 30
0.0
 10
4.2831451668
 20
4.8315253771
 30
0.0
 10
4.2803409458
 20
4.8315475463
 30
0.0
 10
4.2789160959
 20
4.8315475463
 30
0.0
  0
SPLINE
  5
2E7
100
AcDbEntity
  8
0
100
AcDbSpline
 62
7
  6
CONTINUOUS
 70
0
 71
3
 72
15
 73
11
 74
0
 42
0.0000001
 43
0.0000001
 44
0.0000000001
 40
0.0
 40
0.0
 40
0.0
 40
0.0
 40
0.1637931753
 40
0.3223522225
 40
0.4711956838
 40
0.6072462264
 40
0.7286398881
 40
0.8345603495
 40
0.9249384377
 40
1.0
 40
1.0
 40
1.0
 40
1.0
 10
4.2789160959
 20
4.14233944
 30
0.0
 10
4.2803409454
 20
4.14233944
 30
0.0
 10
4.2831451654
 20
4.1423616092
 30
0.0
 10
4.287243134
 20
4.1424597114
 30
0.0
 10
4.2910977628
 20
4.1426167909
 30
0.0
 10
4.2946261895
 20
4.1428246578
 30
0.0
 10
4.2977774743
 20
4.1430745497
 30
0.0
 10
4.3005268704
 20
4.1433578965
 30
0.0
 10
4.3028674437
 20
4.1436671104
 30
0.0
 10
4.3042869655
 20
4.1439074953
 30
0.0
 10
4.3049274972
 20
4.1440343183
 30
0.0
  0
SPLINE
  5
2E8
100
AcDbEntity
  8
0
100
AcDbSpline
 62
7
  6
CONTINUOUS
 70
0
 71
3
 72
15
 73
11
 74
0
 42
0.0000001
 43
0.0000001
 44
0.0000000001
 40
0.0
 40
0.0
 40
0.0
 40
0.0
 40
0.1619939028
 40
0.3189531816
 40
0.4665780002
 40
0.6019442584
 40
0.7233205964
 40
0.8300165035
 40
0.9221056037
 40
1.0
 40
1.0
 40
1.0
 40
1.0
 10
4.2789160959
 20
4.1084889843
 30
0.0
 10
4.2803411033
 20
4.1084889843
 30
0.0
 10
4.2831470674
 20
4.1085359318
 30
0.0
 10
4.2872469232
 20
4.1087436631
 30
0.0
 10
4.2911035736
 20
4.1090763135
 30
0.0
 10
4.2946342627
 20
4.1095166199
 30
0.0
 10
4.2977882261
 20
4.1100461306
 30
0.0
 10
4.3005411435
 20
4.1106470179
 30
0.0
 10
4.3028862836
 20
4.1113034402
 30
0.0
 10
4.304295489
 20
4.1118098159
 30
0.0
 10
4.3049274972
 20
4.112074543
 30
0.0
  0
SPLINE
  5
2E9
100
AcDbEntity
  8
0
100
AcDbSpline
 62
7
  6
CONTINUOUS
 70
0
 71
3
 72
15
 73
11
 74
0
 42
0.0000001
 43
0.0000001
 44
0.0000000001
 40
0.0
 40
0.0
 40
0.0
 40
0.0
 40
0.1591646715
 40
0.3136164013
 40
0.4593466273
 40
0.5936734247
 40
0.7150681405
 40
0.823020684
 40
0.9177904131
 40
1.0
 40
1.0
 40
1.0
 40
1.0
 10
4.2789160959
 20
4.0782832523
 30
0.0
 10
4.2803413682
 20
4.0782832523
 30
0.0
 10
4.2831502559
 20
4.0783546262
 30
0.0
 10
4.2872532288
 20
4.0786703828
 30
0.0
 10
4.2911131228
 20
4.0791760932
 30
0.0
 10
4.2946472599
 20
4.0798456687
 30
0.0
 10
4.2978050475
 20
4.0806512763
 30
0.0
 10
4.3005624487
 20
4.0815662965
 30
0.0
 10
4.3029127524
 20
4.0825670574
 30
0.0
 10
4.3043062395
 20
4.0833300253
 30
0.0
 10
4.3049274972
 20
4.0837249607
 30
0.0
  0
SPLINE
  5
2EA
100
AcDbEntity
  8
0
100
AcDbSpline
 62
7
  6
CONTINUOUS
 70
0
 71
3
 72
15
 73
11
 74
0
 42
0.0000001
 43
0.0000001
 44
0.0000000001
 40
0.0
 40
0.0
 40
0.0
 40
0.0
 40
0.1556271114
 40
0.3069573494
 40
0.4503557593
 40
0.5834441627
 40
0.7049356088
 40
0.8145147577
 40
0.9126117733
 40
1.0
 40
1.0
 40
1.0
 40
1.0
 10
4.2789160959
 20
4.0520131419
 30
0.0
 10
4.2803417299
 20
4.0520131419
 30
0.0
 10
4.2831546028
 20
4.0521083978
 30
0.0
 10
4.2872617336
 20
4.0525296933
 30
0.0
 10
4.2911257649
 20
4.0532045243
 30
0.0
 10
4.2946639748
 20
4.0540982565
 30
0.0
 10
4.2978258072
 20
4.0551739954
 30
0.0
 10
4.3005871891
 20
4.0563965956
 30
0.0
 10
4.3029410834
 20
4.0577347496
 30
0.0
 10
4.3043164655
 20
4.0587414056
 30
0.0
 10
4.3049274972
 20
4.0592585932
 30
0.0
  0
SPLINE
  5
2EB
100
AcDbEntity
  8
0
100
AcDbSpline
 62
7
  6
CONTINUOUS
 70
0
 71
3
 72
15
 73
11
 74
0
 42
0.0000001
 43
0.0000001
 44
0.0000000001
 40
0.0
 40
0.0
 40
0.0
 40
0.0
 40
0.1517002412
 40
0.299583826
 40
0.4404421909
 40
0.5722336316
 40
0.6939215227
 40
0.8053658553
 40
0.9071151857
 40
1.0
 40
1.0
 40
1.0
 40
1.0
 10
4.2789160959
 20
4.0299316485
 30
0.0
 10
4.2803421745
 20
4.0299316485
 30
0.0
 10
4.2831599343
 20
4.0300500426
 30
0.0
 10
4.2872720226
 20
4.0305734752
 30
0.0
 10
4.2911407016
 20
4.0314119651
 30
0.0
 10
4.2946830342
 20
4.0325225943
 30
0.0
 10
4.2978483336
 20
4.0338596506
 30
0.0
 10
4.3006122751
 20
4.0353795527
 30
0.0
 10
4.3029673775
 20
4.0370433143
 30
0.0
 10
4.3043249997
 20
4.0382790575
 30
0.0
 10
4.3049274972
 20
4.038911065
 30
0.0
  0
SPLINE
  5
2EC
100
AcDbEntity
  8
0
100
AcDbSpline
 62
7
  6
CONTINUOUS
 70
0
 71
3
 72
15
 73
11
 74
0
 42
0.0000001
 43
0.0000001
 44
0.0000000001
 40
0.0
 40
0.0
 40
0.0
 40
0.0
 40
0.1476537582
 40
0.2920064831
 40
0.4303011307
 40
0.5608395474
 40
0.6828203067
 40
0.7962391462
 40
0.9016986155
 40
1.0
 40
1.0
 40
1.0
 40
1.0
 10
4.2789160959
 20
4.012251429
 30
0.0
 10
4.2803426848
 20
4.012251429
 30
0.0
 10
4.2831660387
 20
4.0123920107
 30
0.0
 10
4.2872836139
 20
4.0130132307
 30
0.0
 10
4.2911570735
 20
4.0140083164
 30
0.0
 10
4.2947031072
 20
4.0153262964
 30
0.0
 10
4.2978708201
 20
4.0169128326
 30
0.0
 10
4.3006356529
 20
4.0187159914
 30
0.0
 10
4.3029898983
 20
4.0206891489
 30
0.0
 10
4.3043317022
 20
4.0221386905
 30
0.0
 10
4.3049274972
 20
4.0228783341
 30
0.0
  0
SPLINE
  5
2ED
100
AcDbEntity
  8
0
100
AcDbSpline
 62
7
  6
CONTINUOUS
 70
0
 71
3
 72
14
 73
10
 74
0
 42
0.0000001
 43
0.0000001
 44
0.0000000001
 40
0.0
 40
0.0
 40
0.0
 40
0.0
 40
0.2842766413
 40
0.4201794505
 40
0.5496324425
 40
0.6720390625
 40
0.7874846629
 40
0.8965679521
 40
1.0
 40
1.0
 40
1.0
 40
1.0
 10
4.2789160959
 20
3.9991427536
 30
0.0
 10
4.2817381692
 20
3.9991427536
 30
0.0
 10
4.2859317435
 20
3.9996154287
 30
0.0
 10
4.2911734643
 20
4.0011609433
 30
0.0
 10
4.294723195
 20
4.0026745061
 30
0.0
 10
4.297891957
 20
4.0044957079
 30
0.0
 10
4.3006562857
 20
4.006564658
 30
0.0
 10
4.3030083395
 20
4.0088273886
 30
0.0
 10
4.3043368335
 20
4.0104749133
 30
0.0
 10
4.3049274972
 20
4.0113148044
 30
0.0
  0
SPLINE
  5
2EE
100
AcDbEntity
  8
0
100
AcDbSpline
 62
7
  6
CONTINUOUS
 70
0
 71
3
 72
15
 73
11
 74
0
 42
0.0000001
 43
0.0000001
 44
0.0000000001
 40
0.0
 40
0.0
 40
0.0
 40
0.0
 40
0.1399661205
 40
0.2776717737
 40
0.4112488295
 40
0.5396335078
 40
0.6623979565
 40
0.7796740634
 40
0.8920129022
 40
1.0
 40
1.0
 40
1.0
 40
1.0
 10
4.2789160959
 20
3.990731866
 30
0.0
 10
4.280343822
 20
3.990731866
 30
0.0
 10
4.2831795847
 20
3.9909131101
 30
0.0
 10
4.2873086315
 20
3.9917129623
 30
0.0
 10
4.2911908398
 20
3.9929934907
 30
0.0
 10
4.2947419897
 20
3.9946883419
 30
0.0
 10
4.2979110863
 20
3.996726757
 30
0.0
 10
4.30067382
 20
3.999041069
 30
0.0
 10
4.3030230781
 20
4.0015706454
 30
0.0
 10
4.3043407283
 20
4.0033996068
 30
0.0
 10
4.3049274972
 20
4.0043318389
 30
0.0
  0
SPLINE
  5
2EF
100
AcDbEntity
  8
0
100
AcDbSpline
 62
7
  6
CONTINUOUS
 70
0
 71
3
 72
17
 73
13
 74
0
 42
0.0000001
 43
0.0000001
 44
0.0000000001
 40
0.0
 40
0.0
 40
0.0
 40
0.0
 40
0.1365491053
 40
0.20431354
 40
0.2714061033
 40
0.4029447204
 40
0.5304514199
 40
0.5926139977
 40
0.6536949457
 40
0.7726885974
 40
0.8879745677
 40
1.0
 40
1.0
 40
1.0
 40
1.0
 10
4.2789160959
 20
3.9870997676
 30
0.0
 10
4.2803444051
 20
3.9870997676
 30
0.0
 10
4.2824854916
 20
3.987250014
 30
0.0
 10
4.2852826604
 20
3.9877445546
 30
0.0
 10
4.2879883309
 20
3.9884193516
 30
0.0
 10
4.2912068134
 20
3.9895839104
 30
0.0
 10
4.2941927372
 20
3.9911474017
 30
0.0
 10
4.2963845677
 20
3.9925909943
 30
0.0
 10
4.2984068914
 20
3.9941200623
 30
0.0
 10
4.300688502
 20
3.9962166619
 30
0.0
 10
4.3030346482
 20
3.9989877629
 30
0.0
 10
4.3043436797
 20
4.0009806903
 30
0.0
 10
4.3049274972
 20
4.0019966875
 30
0.0
  0
SPLINE
  5
2F0
100
AcDbEntity
  8
0
100
AcDbSpline
 62
7
  6
CONTINUOUS
 70
0
 71
3
 72
15
 73
11
 74
0
 42
0.0000001
 43
0.0000001
 44
0.0000000001
 40
0.0
 40
0.0
 40
0.0
 40
0.0
 40
0.1079870879
 40
0.2203259152
 40
0.3376020123
 40
0.4603664311
 40
0.5887510924
 40
0.7223281473
 40
0.8600338434
 40
1.0
 40
1.0
 40
1.0
 40
1.0
 10
3.3829046945
 20
4.0043318389
 30
0.0
 10
3.3834914634
 20
4.0033996069
 30
0.0
 10
3.3848091134
 20
4.0015706456
 30
0.0
 10
3.3871583713
 20
3.9990410695
 30
0.0
 10
3.3899211046
 20
3.9967267578
 30
0.0
 10
3.3930902005
 20
3.9946883426
 30
0.0
 10
3.3966413499
 20
3.9929934915
 30
0.0
 10
3.4005235584
 20
3.9917129628
 30
0.0
 10
3.4046526059
 20
3.9909131104
 30
0.0
 10
3.4074883695
 20
3.990731866
 30
0.0
 10
3.4089160959
 20
3.990731866
 30
0.0
  0
SPLINE
  5
2F1
100
AcDbEntity
  8
0
100
AcDbSpline
 62
7
  6
CONTINUOUS
 70
0
 71
3
 72
14
 73
10
 74
0
 42
0.0000001
 43
0.0000001
 44
0.0000000001
 40
0.0
 40
0.0
 40
0.0
 40
0.0
 40
0.1034320382
 40
0.2125153162
 40
0.3279609067
 40
0.450367496
 40
0.5798204704
 40
0.7157232781
 40
1.0
 40
1.0
 40
1.0
 40
1.0
 10
3.3829046945
 20
4.0113148044
 30
0.0
 10
3.3834953582
 20
4.0104749134
 30
0.0
 10
3.384823852
 20
4.0088273888
 30
0.0
 10
3.3871759056
 20
4.0065646584
 30
0.0
 10
3.3899402339
 20
4.0044957086
 30
0.0
 10
3.3931089952
 20
4.0026745068
 30
0.0
 10
3.3966587254
 20
4.0011609441
 30
0.0
 10
3.4019004467
 20
3.999615429
 30
0.0
 10
3.4060940218
 20
3.9991427536
 30
0.0
 10
3.4089160959
 20
3.9991427536
 30
0.0
  0
SPLINE
  5
2F2
100
AcDbEntity
  8
0
100
AcDbSpline
 62
7
  6
CONTINUOUS
 70
0
 71
3
 72
15
 73
11
 74
0
 42
0.0000001
 43
0.0000001
 44
0.0000000001
 40
0.0
 40
0.0
 40
0.0
 40
0.0
 40
0.098301375
 40
0.2037608335
 40
0.3171796629
 40
0.4391603906
 40
0.5696987889
 40
0.7079934345
 40
0.8523462039
 40
1.0
 40
1.0
 40
1.0
 40
1.0
 10
3.3829046945
 20
4.0228783341
 30
0.0
 10
3.3835004895
 20
4.0221386905
 30
0.0
 10
3.3848422933
 20
4.0206891491
 30
0.0
 10
3.3871965385
 20
4.0187159918
 30
0.0
 10
3.3899613707
 20
4.0169128332
 30
0.0
 10
3.393129083
 20
4.015326297
 30
0.0
 10
3.3966751163
 20
4.0140083171
 30
0.0
 10
3.400548576
 20
4.0130132311
 30
0.0
 10
3.404666152
 20
4.0123920108
 30
0.0
 10
3.4074895066
 20
4.012251429
 30
0.0
 10
3.4089160959
 20
4.012251429
 30
0.0
  0
SPLINE
  5
2F3
100
AcDbEntity
  8
0
100
AcDbSpline
 62
7
  6
CONTINUOUS
 70
0
 71
3
 72
15
 73
11
 74
0
 42
0.0000001
 43
0.0000001
 44
0.0000000001
 40
0.0
 40
0.0
 40
0.0
 40
0.0
 40
0.0928848052
 40
0.194634125
 40
0.3060784472
 40
0.4277663059
 40
0.5595577275
 40
0.7004160898
 40
0.8482997199
 40
1.0
 40
1.0
 40
1.0
 40
1.0
 10
3.3829046945
 20
4.038911065
 30
0.0
 10
3.383507192
 20
4.0382790576
 30
0.0
 10
3.3848648141
 20
4.0370433145
 30
0.0
 10
3.3872199162
 20
4.035379553
 30
0.0
 10
3.3899838573
 20
4.0338596511
 30
0.0
 10
3.393149156
 20
4.0325225948
 30
0.0
 10
3.3966914881
 20
4.0314119657
 30
0.0
 10
3.4005601672
 20
4.0305734755
 30
0.0
 10
3.4046722563
 20
4.0300500428
 30
0.0
 10
3.4074900169
 20
4.0299316485
 30
0.0
 10
3.4089160959
 20
4.0299316485
 30
0.0
  0
SPLINE
  5
2F4
100
AcDbEntity
  8
0
100
AcDbSpline
 62
7
  6
CONTINUOUS
 70
0
 71
3
 72
15
 73
11
 74
0
 42
0.0000001
 43
0.0000001
 44
0.0000000001
 40
0.0
 40
0.0
 40
0.0
 40
0.0
 40
0.0873882178
 40
0.1854852231
 40
0.2950643615
 40
0.4165557742
 40
0.5496441578
 40
0.6930425646
 40
0.8443728487
 40
1.0
 40
1.0
 40
1.0
 40
1.0
 10
3.3829046945
 20
4.0592585932
 30
0.0
 10
3.3835157262
 20
4.0587414056
 30
0.0
 10
3.3848911081
 20
4.0577347497
 30
0.0
 10
3.3872450022
 20
4.0563965959
 30
0.0
 10
3.3900063837
 20
4.0551739958
 30
0.0
 10
3.3931682154
 20
4.0540982569
 30
0.0
 10
3.3967064248
 20
4.0532045248
 30
0.0
 10
3.4005704563
 20
4.0525296935
 30
0.0
 10
3.4046775878
 20
4.0521083979
 30
0.0
 10
3.4074904615
 20
4.0520131419
 30
0.0
 10
3.4089160959
 20
4.0520131419
 30
0.0
  0
SPLINE
  5
2F5
100
AcDbEntity
  8
0
100
AcDbSpline
 62
7
  6
CONTINUOUS
 70
0
 71
3
 72
15
 73
11
 74
0
 42
0.0000001
 43
0.0000001
 44
0.0000000001
 40
0.0
 40
0.0
 40
0.0
 40
0.0
 40
0.0822095783
 40
0.1769792974
 40
0.2849318301
 40
0.4063265117
 40
0.5406532886
 40
0.6863835111
 40
0.8408352878
 40
1.0
 40
1.0
 40
1.0
 40
1.0
 10
3.3829046945
 20
4.0837249607
 30
0.0
 10
3.3835259522
 20
4.0833300254
 30
0.0
 10
3.3849194391
 20
4.0825670575
 30
0.0
 10
3.3872697426
 20
4.0815662967
 30
0.0
 10
3.3900271433
 20
4.0806512767
 30
0.0
 10
3.3931849303
 20
4.079845669
 30
0.0
 10
3.3967190669
 20
4.0791760935
 30
0.0
 10
3.4005789611
 20
4.078670383
 30
0.0
 10
3.4046819347
 20
4.0783546263
 30
0.0
 10
3.4074908232
 20
4.0782832523
 30
0.0
 10
3.4089160959
 20
4.0782832523
 30
0.0
  0
SPLINE
  5
2F6
100
AcDbEntity
  8
0
100
AcDbSpline
 62
7
  6
CONTINUOUS
 70
0
 71
3
 72
15
 73
11
 74
0
 42
0.0000001
 43
0.0000001
 44
0.0000000001
 40
0.0
 40
0.0
 40
0.0
 40
0.0
 40
0.0778943879
 40
0.1699834782
 40
0.2766793745
 40
0.3980556776
 40
0.5334219148
 40
0.6810467294
 40
0.8380060558
 40
1.0
 40
1.0
 40
1.0
 40
1.0
 10
3.3829046945
 20
4.112074543
 30
0.0
 10
3.3835367027
 20
4.1118098159
 30
0.0
 10
3.384945908
 20
4.1113034403
 30
0.0
 10
3.3872910478
 20
4.1106470181
 30
0.0
 10
3.3900439647
 20
4.1100461308
 30
0.0
 10
3.3931979275
 20
4.1095166201
 30
0.0
 10
3.3967286161
 20
4.1090763137
 30
0.0
 10
3.4005852667
 20
4.1087436632
 30
0.0
 10
3.4046851232
 20
4.1085359319
 30
0.0
 10
3.4074910881
 20
4.1084889843
 30
0.0
 10
3.4089160959
 20
4.1084889843
 30
0.0
  0
SPLINE
  5
2F7
100
AcDbEntity
  8
0
100
AcDbSpline
 62
7
  6
CONTINUOUS
 70
0
 71
3
 72
15
 73
11
 74
0
 42
0.0000001
 43
0.0000001
 44
0.0000000001
 40
0.0
 40
0.0
 40
0.0
 40
0.0
 40
0.075061554
 40
0.1654396325
 40
0.2713600829
 40
0.3927537093
 40
0.5288042306
 40
0.6776476877
 40
0.8362067829
 40
1.0
 40
1.0
 40
1.0
 40
1.0
 10
3.3829046945
 20
4.1440343183
 30
0.0
 10
3.3835452263
 20
4.1439074953
 30
0.0
 10
3.3849647479
 20
4.1436671105
 30
0.0
 10
3.3873053209
 20
4.1433578965
 30
0.0
 10
3.3900547165
 20
4.1430745498
 30
0.0
 10
3.3932060007
 20
4.1428246578
 30
0.0
 10
3.3967344269
 20
4.1426167911
 30
0.0
 10
3.4005890559
 20
4.1424597114
 30
0.0
 10
3.4046870252
 20
4.1423616092
 30
0.0
 10
3.407491246
 20
4.14233944
 30
0.0
 10
3.4089160959
 20
4.14233944
 30
0.0
  0
SPLINE
  5
2F8
100
AcDbEntity
  8
0
100
AcDbSpline
 62
7
  6
CONTINUOUS
 70
0
 71
3
 72
15
 73
11
 74
0
 42
0.0000001
 43
0.0000001
 44
0.0000000001
 40
0.0
 40
0.0
 40
0.0
 40
0.0
 40
0.1637931427
 40
0.3223521918
 40
0.4711956739
 40
0.6072462205
 40
0.7286398852
 40
0.8345603486
 40
0.9249384377
 40
1.0
 40
1.0
 40
1.0
 40
1.0
 10
3.4089160959
 20
4.8315475463
 30
0.0
 10
3.4074912466
 20
4.8315475463
 30
0.0
 10
3.4046870269
 20
4.8315253772
 30
0.0
 10
3.4005890584
 20
4.8314272749
 30
0.0
 10
3.3967344294
 20
4.8312701954
 30
0.0
 10
3.3932060024
 20
4.8310623286
 30
0.0
 10
3.3900547175
 20
4.8308124366
 30
0.0
 10
3.3873053214
 20
4.8305290898
 30
0.0
 10
3.3849647481
 20
4.8302198759
 30
0.0
 10
3.3835452263
 20
4.829979491
 30
0.0
 10
3.3829046945
 20
4.829852668
 30
0.0
  0
SPLINE
  5
2F9
100
AcDbEntity
  8
0
100
AcDbSpline
 62
7
  6
CONTINUOUS
 70
0
 71
3
 72
15
 73
11
 74
0
 42
0.0000001
 43
0.0000001
 44
0.0000000001
 40
0.0
 40
0.0
 40
0.0
 40
0.0
 40
0.1619938705
 40
0.3189531512
 40
0.4665779903
 40
0.6019442526
 40
0.7233205934
 40
0.8300165026
 40
0.9221056037
 40
1.0
 40
1.0
 40
1.0
 40
1.0
 10
3.4089160959
 20
4.865398002
 30
0.0
 10
3.4074910888
 20
4.865398002
 30
0.0
 10
3.4046851249
 20
4.8653510546
 30
0.0
 10
3.4005852693
 20
4.8651433232
 30
0.0
 10
3.3967286186
 20
4.8648106729
 30
0.0
 10
3.3931979293
 20
4.8643703664
 30
0.0
 10
3.3900439658
 20
4.8638408558
 30
0.0
 10
3.3872910483
 20
4.8632399684
 30
0.0
 10
3.3849459082
 20
4.8625835461
 30
0.0
 10
3.3835367028
 20
4.8620771704
 30
0.0
 10
3.3829046945
 20
4.8618124433
 30
0.0
  0
SPLINE
  5
2FA
100
AcDbEntity
  8
0
100
AcDbSpline
 62
7
  6
CONTINUOUS
 70
0
 71
3
 72
15
 73
11
 74
0
 42
0.0000001
 43
0.0000001
 44
0.0000000001
 40
0.0
 40
0.0
 40
0.0
 40
0.0
 40
0.1591646398
 40
0.3136163714
 40
0.4593466176
 40
0.5936734189
 40
0.7150681375
 40
0.8230206831
 40
0.9177904131
 40
1.0
 40
1.0
 40
1.0
 40
1.0
 10
3.4089160959
 20
4.895603734
 30
0.0
 10
3.4074908239
 20
4.895603734
 30
0.0
 10
3.4046819364
 20
4.8955323601
 30
0.0
 10
3.4005789636
 20
4.8952166035
 30
0.0
 10
3.3967190694
 20
4.8947108932
 30
0.0
 10
3.393184932
 20
4.8940413176
 30
0.0
 10
3.3900271444
 20
4.89323571
 30
0.0
 10
3.3872697431
 20
4.8923206898
 30
0.0
 10
3.3849194394
 20
4.8913199289
 30
0.0
 10
3.3835259523
 20
4.890556961
 30
0.0
 10
3.3829046945
 20
4.8901620256
 30
0.0
  0
SPLINE
  5
2FB
100
AcDbEntity
  8
0
100
AcDbSpline
 62
7
  6
CONTINUOUS
 70
0
 71
3
 72
15
 73
11
 74
0
 42
0.0000001
 43
0.0000001
 44
0.0000000001
 40
0.0
 40
0.0
 40
0.0
 40
0.0
 40
0.1556270804
 40
0.3069573201
 40
0.4503557497
 40
0.5834441571
 40
0.7049356058
 40
0.8145147568
 40
0.9126117734
 40
1.0
 40
1.0
 40
1.0
 40
1.0
 10
3.4089160959
 20
4.9218738444
 30
0.0
 10
3.4074904621
 20
4.9218738444
 30
0.0
 10
3.4046775895
 20
4.9217785886
 30
0.0
 10
3.4005704588
 20
4.9213572931
 30
0.0
 10
3.3967064273
 20
4.9206824621
 30
0.0
 10
3.3931682171
 20
4.9197887298
 30
0.0
 10
3.3900063847
 20
4.918712991
 30
0.0
 10
3.3872450027
 20
4.9174903907
 30
0.0
 10
3.3848911084
 20
4.9161522367
 30
0.0
 10
3.3835157263
 20
4.9151455807
 30
0.0
 10
3.3829046945
 20
4.9146283931
 30
0.0
  0
SPLINE
  5
2FC
100
AcDbEntity
  8
0
100
AcDbSpline
 62
7
  6
CONTINUOUS
 70
0
 71
3
 72
15
 73
11
 74
0
 42
0.0000001
 43
0.0000001
 44
0.0000000001
 40
0.0
 40
0.0
 40
0.0
 40
0.0
 40
0.1517002109
 40
0.2995837974
 40
0.4404421814
 40
0.572233626
 40
0.6939215197
 40
0.8053658543
 40
0.9071151858
 40
1.0
 40
1.0
 40
1.0
 40
1.0
 10
3.4089160959
 20
4.9439553378
 30
0.0
 10
3.4074900176
 20
4.9439553378
 30
0.0
 10
3.404672258
 20
4.9438369438
 30
0.0
 10
3.4005601698
 20
4.9433135111
 30
0.0
 10
3.3966914905
 20
4.9424750214
 30
0.0
 10
3.3931491577
 20
4.941364392
 30
0.0
 10
3.3899838583
 20
4.9400273357
 30
0.0
 10
3.3872199167
 20
4.9385074336
 30
0.0
 10
3.3848648143
 20
4.936843672
 30
0.0
 10
3.383507192
 20
4.9356079288
 30
0.0
 10
3.3829046945
 20
4.9349759213
 30
0.0
  0
SPLINE
  5
2FD
100
AcDbEntity
  8
0
100
AcDbSpline
 62
7
  6
CONTINUOUS
 70
0
 71
3
 72
15
 73
11
 74
0
 42
0.0000001
 43
0.0000001
 44
0.0000000001
 40
0.0
 40
0.0
 40
0.0
 40
0.0
 40
0.1476537286
 40
0.2920064552
 40
0.4303011213
 40
0.5608395419
 40
0.6828203036
 40
0.7962391453
 40
0.9016986156
 40
1.0
 40
1.0
 40
1.0
 40
1.0
 10
3.4089160959
 20
4.9616355573
 30
0.0
 10
3.4074895073
 20
4.9616355573
 30
0.0
 10
3.4046661537
 20
4.9614949758
 30
0.0
 10
3.4005485785
 20
4.9608737556
 30
0.0
 10
3.3966751187
 20
4.9598786701
 30
0.0
 10
3.3931290848
 20
4.9585606899
 30
0.0
 10
3.3899613717
 20
4.9569741538
 30
0.0
 10
3.3871965389
 20
4.9551709949
 30
0.0
 10
3.3848422935
 20
4.9531978374
 30
0.0
 10
3.3835004895
 20
4.9517482958
 30
0.0
 10
3.3829046945
 20
4.9510086522
 30
0.0
  0
SPLINE
  5
2FE
100
AcDbEntity
  8
0
100
AcDbSpline
 62
7
  6
CONTINUOUS
 70
0
 71
3
 72
14
 73
10
 74
0
 42
0.0000001
 43
0.0000001
 44
0.0000000001
 40
0.0
 40
0.0
 40
0.0
 40
0.0
 40
0.284276614
 40
0.4201794411
 40
0.549632437
 40
0.6720390594
 40
0.7874846619
 40
0.8965679522
 40
1.0
 40
1.0
 40
1.0
 40
1.0
 10
3.4089160959
 20
4.9747442327
 30
0.0
 10
3.4060940228
 20
4.9747442327
 30
0.0
 10
3.4019004487
 20
4.9742715575
 30
0.0
 10
3.3966587279
 20
4.9727260432
 30
0.0
 10
3.393108997
 20
4.9712124802
 30
0.0
 10
3.3899402349
 20
4.9693912785
 30
0.0
 10
3.3871759061
 20
4.9673223283
 30
0.0
 10
3.3848238522
 20
4.9650595977
 30
0.0
 10
3.3834953583
 20
4.963412073
 30
0.0
 10
3.3829046945
 20
4.9625721819
 30
0.0
  0
SPLINE
  5
2FF
100
AcDbEntity
  8
0
100
AcDbSpline
 62
7
  6
CONTINUOUS
 70
0
 71
3
 72
15
 73
11
 74
0
 42
0.0000001
 43
0.0000001
 44
0.0000000001
 40
0.0
 40
0.0
 40
0.0
 40
0.0
 40
0.1399660923
 40
0.2776717472
 40
0.4112488204
 40
0.5396335024
 40
0.6623979534
 40
0.7796740624
 40
0.8920129023
 40
1.0
 40
1.0
 40
1.0
 40
1.0
 10
3.4089160959
 20
4.9831551203
 30
0.0
 10
3.4074883701
 20
4.9831551203
 30
0.0
 10
3.4046526076
 20
4.9829738764
 30
0.0
 10
3.4005235609
 20
4.9821740241
 30
0.0
 10
3.3966413524
 20
4.9808934959
 30
0.0
 10
3.3930902022
 20
4.9791986445
 30
0.0
 10
3.3899211056
 20
4.9771602293
 30
0.0
 10
3.3871583718
 20
4.9748459173
 30
0.0
 10
3.3848091137
 20
4.9723163409
 30
0.0
 10
3.3834914635
 20
4.9704873795
 30
0.0
 10
3.3829046945
 20
4.9695551474
 30
0.0
  0
SPLINE
  5
300
100
AcDbEntity
  8
0
100
AcDbSpline
 62
7
  6
CONTINUOUS
 70
0
 71
3
 72
15
 73
11
 74
0
 42
0.0000001
 43
0.0000001
 44
0.0000000001
 40
0.0
 40
0.0
 40
0.0
 40
0.0
 40
0.1343976062
 40
0.2675252388
 40
0.3981693893
 40
0.5256353846
 40
0.6494988459
 40
0.7697046257
 40
0.8864164779
 40
1.0
 40
1.0
 40
1.0
 40
1.0
 10
3.4089160959
 20
4.9867872187
 30
0.0
 10
3.4076872907
 20
4.9867872187
 30
0.0
 10
3.4052387433
 20
4.9866393607
 30
0.0
 10
3.401649076
 20
4.9859852902
 30
0.0
 10
3.3982228967
 20
4.9849281131
 30
0.0
 10
3.3950218644
 20
4.9835120228
 30
0.0
 10
3.3920876062
 20
4.9817859076
 30
0.0
 10
3.3894447917
 20
4.9798004217
 30
0.0
 10
3.3871054451
 20
4.9776013195
 30
0.0
 10
3.3857317912
 20
4.9759993752
 30
0.0
 10
3.3850984964
 20
4.975176319
 30
0.0
  0
SPLINE
  5
301
100
AcDbEntity
  8
0
100
AcDbSpline
 62
7
  6
CONTINUOUS
 70
0
 71
3
 72
15
 73
11
 74
0
 42
0.0000001
 43
0.0000001
 44
0.0000000001
 40
0.0
 40
0.0
 40
0.0
 40
0.0
 40
0.1135835085
 40
0.2302953475
 40
0.3505011019
 40
0.4743645351
 40
0.6018305027
 40
0.7324746458
 40
0.8656023407
 40
1.0
 40
1.0
 40
1.0
 40
1.0
 10
3.3850984964
 20
3.9987106673
 30
0.0
 10
3.3857317911
 20
3.9978876112
 30
0.0
 10
3.3871054449
 20
3.9962856671
 30
0.0
 10
3.3894447911
 20
3.9940865652
 30
0.0
 10
3.3920876049
 20
3.9921010793
 30
0.0
 10
3.3950218625
 20
3.9903749647
 30
0.0
 10
3.3982228941
 20
3.9889588741
 30
0.0
 10
3.4016490734
 20
3.9879016965
 30
0.0
 10
3.4052387418
 20
3.9872476262
 30
0.0
 10
3.4076872902
 20
3.9870997676
 30
0.0
 10
3.4089160959
 20
3.9870997676
 30
0.0
  0
SPLINE
  5
302
100
AcDbEntity
  8
0
100
AcDbSpline
 62
7
  6
CONTINUOUS
 70
0
 71
3
 72
18
 73
14
 74
0
 42
0.0000001
 43
0.0000001
 44
0.0000000001
 40
0.0
 40
0.0
 40
0.0
 40
0.0
 40
0.0289935884
 40
0.0631730346
 40
0.1026657255
 40
0.1474559084
 40
0.1974419621
 40
0.2524456402
 40
0.3764191294
 40
0.5167925514
 40
0.6702181872
 40
0.8327773793
 40
1.0
 40
1.0
 40
1.0
 40
1.0
 10
4.0833378428
 20
3.9991427536
 30
0.0
 10
4.0831951584
 20
3.9992733697
 30
0.0
 10
4.0828586809
 20
3.999530043
 30
0.0
 10
4.0822688043
 20
3.9998800042
 30
0.0
 10
4.0815558894
 20
4.0002231174
 30
0.0
 10
4.0807238803
 20
4.0005565434
 30
0.0
 10
4.079777114
 20
4.000877602
 30
0.0
 10
4.0783093128
 20
4.0013023463
 30
0.0
 10
4.0762292218
 20
4.0017724299
 30
0.0
 10
4.0734774688
 20
4.0022240596
 30
0.0
 10
4.0704503896
 20
4.0025630062
 30
0.0
 10
4.0672323466
 20
4.002773255
 30
0.0
 10
4.0650317802
 20
4.0028205749
 30
0.0
 10
4.0639160959
 20
4.0028205749
 30
0.0
  0
SPLINE
  5
303
100
AcDbEntity
  8
0
100
AcDbSpline
 62
7
  6
CONTINUOUS
 70
0
 71
3
 72
18
 73
14
 74
0
 42
0.0000001
 43
0.0000001
 44
0.0000000001
 40
0.0
 40
0.0
 40
0.0
 40
0.0
 40
0.1672226207
 40
0.3297818128
 40
0.4832074486
 40
0.6235808706
 40
0.7475543598
 40
0.8025580379
 40
0.8525440916
 40
0.8973342745
 40
0.9368269654
 40
0.9710064116
 40
1.0
 40
1.0
 40
1.0
 40
1.0
 10
3.4539160959
 20
4.0028205749
 30
0.0
 10
3.4528004115
 20
4.0028205749
 30
0.0
 10
3.4505998452
 20
4.002773255
 30
0.0
 10
3.4473818022
 20
4.0025630062
 30
0.0
 10
3.444354723
 20
4.0022240596
 30
0.0
 10
3.4416029699
 20
4.0017724299
 30
0.0
 10
3.439522879
 20
4.0013023463
 30
0.0
 10
3.4380550778
 20
4.000877602
 30
0.0
 10
3.4371083115
 20
4.0005565434
 30
0.0
 10
3.4362763024
 20
4.0002231174
 30
0.0
 10
3.4355633875
 20
3.9998800042
 30
0.0
 10
3.4349735109
 20
3.999530043
 30
0.0
 10
3.4346370334
 20
3.9992733697
 30
0.0
 10
3.434494349
 20
3.9991427536
 30
0.0
  0
SPLINE
  5
304
100
AcDbEntity
  8
0
100
AcDbSpline
 62
7
  6
CONTINUOUS
 70
0
 71
3
 72
17
 73
13
 74
0
 42
0.0000001
 43
0.0000001
 44
0.0000000001
 40
0.0
 40
0.0
 40
0.0
 40
0.0
 40
0.1335431901
 40
0.1999510824
 40
0.2658492348
 40
0.3956348146
 40
0.5224261615
 40
0.5846574466
 40
0.6460928159
 40
0.766629334
 40
0.8844947619
 40
1.0
 40
1.0
 40
1.0
 40
1.0
 10
4.2789160959
 20
4.9856055488
 30
0.0
 10
4.2803449681
 20
4.9856055488
 30
0.0
 10
4.2824889411
 20
4.9854431774
 30
0.0
 10
4.2852849886
 20
4.9849103026
 30
0.0
 10
4.2879954398
 20
4.9841817258
 30
0.0
 10
4.2912214998
 20
4.9829222074
 30
0.0
 10
4.2942016028
 20
4.9812385456
 30
0.0
 10
4.2963882614
 20
4.9796863196
 30
0.0
 10
4.2984150658
 20
4.9780346802
 30
0.0
 10
4.3007003245
 20
4.9757693956
 30
0.0
 10
4.3030436938
 20
4.9727838912
 30
0.0
 10
4.3043459143
 20
4.9706456242
 30
0.0
 10
4.3049274972
 20
4.9695551474
 30
0.0
  0
SPLINE
  5
305
100
AcDbEntity
  8
0
100
AcDbSpline
 62
7
  6
CONTINUOUS
 70
0
 71
3
 72
17
 73
13
 74
0
 42
0.0000001
 43
0.0000001
 44
0.0000000001
 40
0.0
 40
0.0
 40
0.0
 40
0.0
 40
0.130966599
 40
0.1962155834
 40
0.2610974843
 40
0.3894065545
 40
0.5156188605
 40
0.577924513
 40
0.6396755113
 40
0.7615398768
 40
0.8815858725
 40
1.0
 40
1.0
 40
1.0
 40
1.0
 10
4.2789160959
 20
4.9796214907
 30
0.0
 10
4.2803454894
 20
4.9796214907
 30
0.0
 10
4.2824921221
 20
4.9794485318
 30
0.0
 10
4.2852871162
 20
4.9788824582
 30
0.0
 10
4.2880018754
 20
4.9781070673
 30
0.0
 10
4.2912344629
 20
4.9767647006
 30
0.0
 10
4.2942091789
 20
4.9749772863
 30
0.0
 10
4.2963913623
 20
4.9733313662
 30
0.0
 10
4.2984218014
 20
4.9715733185
 30
0.0
 10
4.3007097315
 20
4.969161875
 30
0.0
 10
4.3030506637
 20
4.9659910653
 30
0.0
 10
4.3043475987
 20
4.9637271705
 30
0.0
 10
4.3049274972
 20
4.9625721819
 30
0.0
  0
SPLINE
  5
306
100
AcDbEntity
  8
0
100
AcDbSpline
 62
7
  6
CONTINUOUS
 70
0
 71
3
 72
17
 73
13
 74
0
 42
0.0000001
 43
0.0000001
 44
0.0000000001
 40
0.0
 40
0.0
 40
0.0
 40
0.0
 40
0.1288391725
 40
0.1931340852
 40
0.2571823256
 40
0.3842907788
 40
0.5100484813
 40
0.5724258676
 40
0.6344451126
 40
0.7574083222
 40
0.8792333353
 40
1.0
 40
1.0
 40
1.0
 40
1.0
 10
4.2789160959
 20
4.9688926742
 30
0.0
 10
4.280345949
 20
4.9688926742
 30
0.0
 10
4.2824949163
 20
4.9687108023
 30
0.0
 10
4.2852889701
 20
4.9681169866
 30
0.0
 10
4.2880074356
 20
4.9673023012
 30
0.0
 10
4.291245415
 20
4.9658902828
 30
0.0
 10
4.2942154062
 20
4.9640164162
 30
0.0
 10
4.2963938742
 20
4.9622924613
 30
0.0
 10
4.298427174
 20
4.9604453409
 30
0.0
 10
4.3007170268
 20
4.9579117499
 30
0.0
 10
4.3030559367
 20
4.9545863293
 30
0.0
 10
4.3043488522
 20
4.9522175687
 30
0.0
 10
4.3049274972
 20
4.9510086522
 30
0.0
  0
SPLINE
  5
307
100
AcDbEntity
  8
0
100
AcDbSpline
 62
7
  6
CONTINUOUS
 70
0
 71
3
 72
17
 73
13
 74
0
 42
0.0000001
 43
0.0000001
 44
0.0000000001
 40
0.0
 40
0.0
 40
0.0
 40
0.0
 40
0.127170318
 40
0.1907186498
 40
0.2541164608
 40
0.3802949736
 40
0.5057108039
 40
0.5681507792
 40
0.63038499
 40
0.7542111467
 40
0.8774180534
 40
1.0
 40
1.0
 40
1.0
 40
1.0
 10
4.2789160959
 20
4.9535224236
 30
0.0
 10
4.2803463293
 20
4.9535224236
 30
0.0
 10
4.2824972211
 20
4.9533334333
 30
0.0
 10
4.2852904887
 20
4.9527176003
 30
0.0
 10
4.2880119579
 20
4.9518716128
 30
0.0
 10
4.2912541574
 20
4.9504040516
 30
0.0
 10
4.2942202675
 20
4.9484617408
 30
0.0
 10
4.2963958126
 20
4.9466760121
 30
0.0
 10
4.2984312694
 20
4.9447581129
 30
0.0
 10
4.3007224678
 20
4.942127587
 30
0.0
 10
4.3030597969
 20
4.9386795952
 30
0.0
 10
4.3043497589
 20
4.9362276555
 30
0.0
 10
4.3049274972
 20
4.9349759213
 30
0.0
  0
SPLINE
  5
308
100
AcDbEntity
  8
0
100
AcDbSpline
 62
7
  6
CONTINUOUS
 70
0
 71
3
 72
18
 73
14
 74
0
 42
0.0000001
 43
0.0000001
 44
0.0000000001
 40
0.0
 40
0.0
 40
0.0
 40
0.0
 40
0.125948484
 40
0.1889504565
 40
0.2518723936
 40
0.3147134894
 40
0.3774740705
 40
0.4401527967
 40
0.5027245373
 40
0.6275165912
 40
0.7519522563
 40
0.8761361881
 40
1.0
 40
1.0
 40
1.0
 40
1.0
 10
4.2789160959
 20
4.9336587628
 30
0.0
 10
4.2803466157
 20
4.9336587628
 30
0.0
 10
4.2824989909
 20
4.9334645141
 30
0.0
 10
4.2852915599
 20
4.9328326898
 30
0.0
 10
4.2873367898
 20
4.9321800488
 30
0.0
 10
4.2893170274
 20
4.931359157
 30
0.0
 10
4.2912212352
 20
4.9303809882
 30
0.0
 10
4.2930406723
 20
4.9292589675
 30
0.0
 10
4.2953405495
 20
4.9275890444
 30
0.0
 10
4.2979751226
 20
4.9252040538
 30
0.0
 10
4.3007260144
 20
4.9219617595
 30
0.0
 10
4.3030625169
 20
4.9184240206
 30
0.0
 10
4.3043503764
 20
4.9159114116
 30
0.0
 10
4.3049274972
 20
4.9146283931
 30
0.0
  0
SPLINE
  5
309
100
AcDbEntity
  8
0
100
AcDbSpline
 62
7
  6
CONTINUOUS
 70
0
 71
3
 72
18
 73
14
 74
0
 42
0.0000001
 43
0.0000001
 44
0.0000000001
 40
0.0
 40
0.0
 40
0.0
 40
0.0
 40
0.1252039727
 40
0.187873943
 40
0.2505077372
 40
0.3131148038
 40
0.3757030227
 40
0.4382756326
 40
0.5008099569
 40
0.6257310511
 40
0.7505514565
 40
0.8753435461
 40
1.0
 40
1.0
 40
1.0
 40
1.0
 10
4.2789160959
 20
4.9094929898
 30
0.0
 10
4.2803467973
 20
4.9094929898
 30
0.0
 10
4.2825000871
 20
4.9092954832
 30
0.0
 10
4.2852922753
 20
4.9086536716
 30
0.0
 10
4.2873376602
 20
4.9079905988
 30
0.0
 10
4.289317984
 20
4.9071566116
 30
0.0
 10
4.2912222208
 20
4.9061628768
 30
0.0
 10
4.293041647
 20
4.9050230344
 30
0.0
 10
4.295342699
 20
4.903325718
 30
0.0
 10
4.2979781651
 20
4.9009015104
 30
0.0
 10
4.3007282882
 20
4.897608107
 30
0.0
 10
4.3030640974
 20
4.8940148151
 30
0.0
 10
4.3043507423
 20
4.8914644837
 30
0.0
 10
4.3049274972
 20
4.8901620256
 30
0.0
  0
SPLINE
  5
30A
100
AcDbEntity
  8
0
100
AcDbSpline
 62
7
  6
CONTINUOUS
 70
0
 71
3
 72
15
 73
11
 74
0
 42
0.0000001
 43
0.0000001
 44
0.0000000001
 40
0.0
 40
0.0
 40
0.0
 40
0.0
 40
0.1249613769
 40
0.2499488667
 40
0.374923861
 40
0.499926688
 40
0.6249368777
 40
0.7499428604
 40
0.8750046241
 40
1.0
 40
1.0
 40
1.0
 40
1.0
 10
4.2789160959
 20
4.8812578341
 30
0.0
 10
4.2803468672
 20
4.8812578341
 30
0.0
 10
4.2832154529
 20
4.8809935386
 30
0.0
 10
4.2873704369
 20
4.8798328896
 30
0.0
 10
4.2912659364
 20
4.8779814473
 30
0.0
 10
4.2948178524
 20
4.875540343
 30
0.0
 10
4.2979790177
 20
4.8726144182
 30
0.0
 10
4.3007292173
 20
4.8693013888
 30
0.0
 10
4.3030646635
 20
4.8656870033
 30
0.0
 10
4.3043508781
 20
4.8631223024
 30
0.0
 10
4.3049274972
 20
4.8618124433
 30
0.0
  0
SPLINE
  5
30B
100
AcDbEntity
  8
0
100
AcDbSpline
 62
7
  6
CONTINUOUS
 70
0
 71
3
 72
15
 73
11
 74
0
 42
0.0000001
 43
0.0000001
 44
0.0000000001
 40
0.0
 40
0.0
 40
0.0
 40
0.0
 40
0.1251408997
 40
0.2502783483
 40
0.3753512999
 40
0.5003883708
 40
0.6253669306
 40
0.7502798983
 40
0.8751951677
 40
1.0
 40
1.0
 40
1.0
 40
1.0
 10
4.2789160959
 20
4.8492252158
 30
0.0
 10
4.2803468226
 20
4.8492252158
 30
0.0
 10
4.2832149327
 20
4.8489619859
 30
0.0
 10
4.2873695844
 20
4.8478059174
 30
0.0
 10
4.2912649742
 20
4.8459616531
 30
0.0
 10
4.2948169624
 20
4.8435298563
 30
0.0
 10
4.2979782915
 20
4.8406149503
 30
0.0
 10
4.3007286764
 20
4.8373143034
 30
0.0
 10
4.3030642898
 20
4.8337133758
 30
0.0
 10
4.3043507918
 20
4.8311578156
 30
0.0
 10
4.3049274972
 20
4.829852668
 30
0.0
  0
SPLINE
  5
30C
100
AcDbEntity
  8
0
100
AcDbSpline
 62
7
  6
CONTINUOUS
 70
0
 71
3
 72
18
 73
14
 74
0
 42
0.0000001
 43
0.0000001
 44
0.0000000001
 40
0.0
 40
0.0
 40
0.0
 40
0.0
 40
0.1257430629
 40
0.1886533974
 40
0.2514957673
 40
0.3142721972
 40
0.3769851047
 40
0.4396344248
 40
0.5021957185
 40
0.6270231966
 40
0.7515650151
 40
0.875916986
 40
1.0
 40
1.0
 40
1.0
 40
1.0
 10
4.2789160959
 20
4.8137036265
 30
0.0
 10
4.2803466654
 20
4.8137036265
 30
0.0
 10
4.2824992912
 20
4.8135084816
 30
0.0
 10
4.2852917561
 20
4.8128739073
 30
0.0
 10
4.2873370288
 20
4.8122183944
 30
0.0
 10
4.2893172903
 20
4.8113938972
 30
0.0
 10
4.2912215065
 20
4.8104114426
 30
0.0
 10
4.2930409411
 20
4.8092845148
 30
0.0
 10
4.2953411432
 20
4.8076070511
 30
0.0
 10
4.2979759657
 20
4.8052112632
 30
0.0
 10
4.3007266462
 20
4.8019548937
 30
0.0
 10
4.3030629571
 20
4.7984018566
 30
0.0
 10
4.3043504784
 20
4.7958788605
 30
0.0
 10
4.3049274972
 20
4.7945904898
 30
0.0
  0
LINE
  5
30D
100
AcDbEntity
  8
0
100
AcDbLine
 62
7
  6
CONTINUOUS
 10
4.3049274972
 20
4.7945904898
 11
4.2789160959
 21
4.7943783651
  0
SPLINE
  5
30E
100
AcDbEntity
  8
0
100
AcDbSpline
 62
7
  6
CONTINUOUS
 70
0
 71
3
 72
18
 73
14
 74
0
 42
0.0000001
 43
0.0000001
 44
0.0000000001
 40
0.0
 40
0.0
 40
0.0
 40
0.0
 40
0.1268474277
 40
0.1902507187
 40
0.2535214242
 40
0.3166463435
 40
0.3796165901
 40
0.4424251398
 40
0.5050437074
 40
0.6296823732
 40
0.7536535384
 40
0.8770999659
 40
1.0
 40
1.0
 40
1.0
 40
1.0
 10
4.2789160959
 20
4.7750351584
 30
0.0
 10
4.2803464015
 20
4.7750351584
 30
0.0
 10
4.282497696
 20
4.7748448079
 30
0.0
 10
4.2852907123
 20
4.7742249686
 30
0.0
 10
4.2873357551
 20
4.7735848402
 30
0.0
 10
4.2893158853
 20
4.7727796583
 30
0.0
 10
4.2912200532
 20
4.7718201662
 30
0.0
 10
4.2930394978
 20
4.7707195313
 30
0.0
 10
4.2953379457
 20
4.7690824527
 30
0.0
 10
4.2979714009
 20
4.7667445105
 30
0.0
 10
4.3007232087
 20
4.7635635824
 30
0.0
 10
4.3030605523
 20
4.7600925353
 30
0.0
 10
4.3043499195
 20
4.7576251987
 30
0.0
 10
4.3049274972
 20
4.756365503
 30
0.0
  0
SPLINE
  5
30F
100
AcDbEntity
  8
0
100
AcDbSpline
 62
7
  6
CONTINUOUS
 70
0
 71
3
 72
15
 73
11
 74
0
 42
0.0000001
 43
0.0000001
 44
0.0000000001
 40
0.0
 40
0.0
 40
0.0
 40
0.0
 40
0.0755331246
 40
0.1661932396
 40
0.272240031
 40
0.3936291866
 40
0.5295657416
 40
0.6782077592
 40
0.8365031214
 40
1.0
 40
1.0
 40
1.0
 40
1.0
 10
4.3049274972
 20
4.756365503
 30
0.0
 10
4.3042884793
 20
4.7562074618
 30
0.0
 10
4.3028706607
 20
4.7559073964
 30
0.0
 10
4.3005292614
 20
4.7555209221
 30
0.0
 10
4.2977792478
 20
4.7551668435
 30
0.0
 10
4.2946275105
 20
4.7548546177
 30
0.0
 10
4.2910987085
 20
4.7545949154
 30
0.0
 10
4.2872437488
 20
4.7543986731
 30
0.0
 10
4.2831454735
 20
4.7542761143
 30
0.0
 10
4.2803409712
 20
4.7542484181
 30
0.0
 10
4.2789160959
 20
4.7542484181
 30
0.0
  0
SPLINE
  5
310
100
AcDbEntity
  8
0
100
AcDbSpline
 62
7
  6
CONTINUOUS
 70
0
 71
3
 72
17
 73
13
 74
0
 42
0.0000001
 43
0.0000001
 44
0.0000000001
 40
0.0
 40
0.0
 40
0.0
 40
0.0
 40
0.1284284969
 40
0.1925395372
 40
0.2564274271
 40
0.3833060639
 40
0.5089784398
 40
0.5713707201
 40
0.6334425035
 40
0.7566180096
 40
0.8787841982
 40
1.0
 40
1.0
 40
1.0
 40
1.0
 10
4.2789160959
 20
4.7335922101
 30
0.0
 10
4.2803460409
 20
4.7335922101
 30
0.0
 10
4.282495474
 20
4.7334085974
 30
0.0
 10
4.2852893384
 20
4.7328093859
 30
0.0
 10
4.2880085352
 20
4.7319870388
 30
0.0
 10
4.2912475543
 20
4.7305614298
 30
0.0
 10
4.2942166046
 20
4.7286707755
 30
0.0
 10
4.2963943538
 20
4.726931669
 30
0.0
 10
4.2984281915
 20
4.7250672094
 30
0.0
 10
4.3007183882
 20
4.7225098614
 30
0.0
 10
4.3030569083
 20
4.7191543917
 30
0.0
 10
4.3043490812
 20
4.7167652432
 30
0.0
 10
4.3049274972
 20
4.7155458349
 30
0.0
  0
SPLINE
  5
311
100
AcDbEntity
  8
0
100
AcDbSpline
 62
7
  6
CONTINUOUS
 70
0
 71
3
 72
15
 73
11
 74
0
 42
0.0000001
 43
0.0000001
 44
0.0000000001
 40
0.0
 40
0.0
 40
0.0
 40
0.0
 40
0.0787468826
 40
0.1713585893
 40
0.2782955505
 40
0.3996711273
 40
0.5348316515
 40
0.6820857952
 40
0.8385565079
 40
1.0
 40
1.0
 40
1.0
 40
1.0
 10
4.3049274972
 20
4.7155458349
 30
0.0
 10
4.3042978075
 20
4.7152514705
 30
0.0
 10
4.3028917257
 20
4.7146871087
 30
0.0
 10
4.3005453972
 20
4.7139538001
 30
0.0
 10
4.2977915107
 20
4.713282714
 30
0.0
 10
4.2946367654
 20
4.7126914657
 30
0.0
 10
4.2911053949
 20
4.7121998716
 30
0.0
 10
4.2872481187
 20
4.7118284975
 30
0.0
 10
4.2831476699
 20
4.7115965913
 30
0.0
 10
4.2803411536
 20
4.7115441785
 30
0.0
 10
4.2789160959
 20
4.7115441785
 30
0.0
  0
SPLINE
  5
312
100
AcDbEntity
  8
0
100
AcDbSpline
 62
7
  6
CONTINUOUS
 70
0
 71
3
 72
17
 73
13
 74
0
 42
0.0000001
 43
0.0000001
 44
0.0000000001
 40
0.0
 40
0.0
 40
0.0
 40
0.0
 40
0.1304545627
 40
0.195473682
 40
0.2601544798
 40
0.3881730419
 40
0.5142739989
 40
0.5765960768
 40
0.6384110252
 40
0.760539699
 40
0.8810156515
 40
1.0
 40
1.0
 40
1.0
 40
1.0
 10
4.2789160959
 20
4.6897738999
 30
0.0
 10
4.2803455975
 20
4.6897738999
 30
0.0
 10
4.2824927803
 20
4.689598811
 30
0.0
 10
4.2852875542
 20
4.6890260906
 30
0.0
 10
4.288003193
 20
4.6882412998
 30
0.0
 10
4.2912370787
 20
4.6868822795
 30
0.0
 10
4.2942106804
 20
4.685074131
 30
0.0
 10
4.296391971
 20
4.6834094935
 30
0.0
 10
4.2984231101
 20
4.6816301166
 30
0.0
 10
4.3007115252
 20
4.6791894076
 30
0.0
 10
4.3030519708
 20
4.675981536
 30
0.0
 10
4.304347911
 20
4.6736925086
 30
0.0
 10
4.3049274972
 20
4.6725246013
 30
0.0
  0
SPLINE
  5
313
100
AcDbEntity
  8
0
100
AcDbSpline
 62
7
  6
CONTINUOUS
 70
0
 71
3
 72
15
 73
11
 74
0
 42
0.0000001
 43
0.0000001
 44
0.0000000001
 40
0.0
 40
0.0
 40
0.0
 40
0.0
 40
0.083306981
 40
0.1787720487
 40
0.2870585466
 40
0.4084667811
 40
0.5425301203
 40
0.6877713947
 40
0.84157192
 40
1.0
 40
1.0
 40
1.0
 40
1.0
 10
4.3049274972
 20
4.6725246013
 30
0.0
 10
4.3043086213
 20
4.6721018287
 30
0.0
 10
4.3029190618
 20
4.671283508
 30
0.0
 10
4.300567773
 20
4.6702070021
 30
0.0
 10
4.2978094012
 20
4.6692229387
 30
0.0
 10
4.2946507025
 20
4.6683566911
 30
0.0
 10
4.291115694
 20
4.6676367885
 30
0.0
 10
4.2872549443
 20
4.667093103
 30
0.0
 10
4.2831511286
 20
4.6667536466
 30
0.0
 10
4.280341441
 20
4.6666769115
 30
0.0
 10
4.2789160959
 20
4.6666769115
 30
0.0
  0
SPLINE
  5
314
100
AcDbEntity
  8
0
100
AcDbSpline
 62
7
  6
CONTINUOUS
 70
0
 71
3
 72
17
 73
13
 74
0
 42
0.0000001
 43
0.0000001
 44
0.0000000001
 40
0.0
 40
0.0
 40
0.0
 40
0.0
 40
0.1329326402
 40
0.1990656006
 40
0.2647222991
 40
0.3941557827
 40
0.5208070601
 40
0.5830546823
 40
0.6445638842
 40
0.7654146851
 40
0.8837993975
 40
1.0
 40
1.0
 40
1.0
 40
1.0
 10
4.2789160959
 20
4.6440022219
 30
0.0
 10
4.2803450887
 20
4.6440022219
 30
0.0
 10
4.2824896767
 20
4.6438373593
 30
0.0
 10
4.2852854835
 20
4.6432966513
 30
0.0
 10
4.2879969382
 20
4.642557048
 30
0.0
 10
4.2912245433
 20
4.6412780314
 30
0.0
 10
4.2942034026
 20
4.6395698608
 30
0.0
 10
4.2963890031
 20
4.6379954958
 30
0.0
 10
4.2984166854
 20
4.6363187687
 30
0.0
 10
4.3007026129
 20
4.6340190009
 30
0.0
 10
4.3030454074
 20
4.6309897432
 30
0.0
 10
4.3043463313
 20
4.6288218172
 30
0.0
 10
4.3049274972
 20
4.6277161201
 30
0.0
  0
SPLINE
  5
315
100
AcDbEntity
  8
0
100
AcDbSpline
 62
7
  6
CONTINUOUS
 70
0
 71
3
 72
15
 73
11
 74
0
 42
0.0000001
 43
0.0000001
 44
0.0000000001
 40
0.0
 40
0.0
 40
0.0
 40
0.0
 40
0.0885986614
 40
0.1874896802
 40
0.2974674067
 40
0.4189936058
 40
0.5517945715
 40
0.6946392102
 40
0.8452222931
 40
1.0
 40
1.0
 40
1.0
 40
1.0
 10
4.3049274972
 20
4.6277161201
 30
0.0
 10
4.304318524
 20
4.627172791
 30
0.0
 10
4.3029471942
 20
4.6261139323
 30
0.0
 10
4.3005928244
 20
4.6247022351
 30
0.0
 10
4.2978307329
 20
4.6234125444
 30
0.0
 10
4.2946680586
 20
4.6222778677
 30
0.0
 10
4.2911289185
 20
4.6213352298
 30
0.0
 10
4.2872638844
 20
4.6206235025
 30
0.0
 10
4.2831557108
 20
4.6201791828
 30
0.0
 10
4.2803418225
 20
4.6200787135
 30
0.0
 10
4.2789160959
 20
4.6200787135
 30
0.0
  0
SPLINE
  5
316
100
AcDbEntity
  8
0
100
AcDbSpline
 62
7
  6
CONTINUOUS
 70
0
 71
3
 72
17
 73
13
 74
0
 42
0.0000001
 43
0.0000001
 44
0.0000000001
 40
0.0
 40
0.0
 40
0.0
 40
0.0
 40
0.135845567
 40
0.2032920741
 40
0.2701042484
 40
0.4012296506
 40
0.5285650498
 40
0.5907419208
 40
0.6519044271
 40
0.7712584525
 40
0.8871515531
 40
1.0
 40
1.0
 40
1.0
 40
1.0
 10
4.2789160959
 20
4.5967179825
 30
0.0
 10
4.2803445327
 20
4.5967179825
 30
0.0
 10
4.2824862749
 20
4.5965649163
 30
0.0
 10
4.285283191
 20
4.5960614315
 30
0.0
 10
4.2879899571
 20
4.5953741124
 30
0.0
 10
4.2912102076
 20
4.5941874659
 30
0.0
 10
4.2941948136
 20
4.5925959029
 30
0.0
 10
4.2963854393
 20
4.5911269196
 30
0.0
 10
4.2984088351
 20
4.5895692844
 30
0.0
 10
4.3006913545
 20
4.5874333394
 30
0.0
 10
4.3030368608
 20
4.5846121689
 30
0.0
 10
4.3043442315
 20
4.5825852971
 30
0.0
 10
4.3049274972
 20
4.5815519216
 30
0.0
  0
SPLINE
  5
317
100
AcDbEntity
  8
0
100
AcDbSpline
 62
7
  6
CONTINUOUS
 70
0
 71
3
 72
14
 73
10
 74
0
 42
0.0000001
 43
0.0000001
 44
0.0000000001
 40
0.0
 40
0.0
 40
0.0
 40
0.0
 40
0.1963768138
 40
0.3082974087
 40
0.4300889662
 40
0.5616454986
 40
0.7019842539
 40
0.8491393413
 40
1.0
 40
1.0
 40
1.0
 40
1.0
 10
4.3049274972
 20
4.5815519216
 30
0.0
 10
4.3036741377
 20
4.5801823902
 30
0.0
 10
4.3013849164
 20
4.5783158287
 30
0.0
 10
4.2978541415
 20
4.5762931004
 30
0.0
 10
4.2946872263
 20
4.574898739
 30
0.0
 10
4.2911443163
 20
4.5737413459
 30
0.0
 10
4.2872744866
 20
4.5728673234
 30
0.0
 10
4.2831612394
 20
4.5723217693
 30
0.0
 10
4.2803422833
 20
4.5721983505
 30
0.0
 10
4.2789160959
 20
4.5721983505
 30
0.0
  0
SPLINE
  5
318
100
AcDbEntity
  8
0
100
AcDbSpline
 62
7
  6
CONTINUOUS
 70
0
 71
3
 72
15
 73
11
 74
0
 42
0.0000001
 43
0.0000001
 44
0.0000000001
 40
0.0
 40
0.0
 40
0.0
 40
0.0
 40
0.1391800126
 40
0.2762106681
 40
0.4093168454
 40
0.5374977034
 40
0.6603576933
 40
0.7780340097
 40
0.8910630146
 40
1.0
 40
1.0
 40
1.0
 40
1.0
 10
4.2789160959
 20
4.5483765548
 30
0.0
 10
4.2803439521
 20
4.5483765548
 30
0.0
 10
4.2831811303
 20
4.5481911564
 30
0.0
 10
4.2873114256
 20
4.5473731096
 30
0.0
 10
4.2911944831
 20
4.5460635776
 30
0.0
 10
4.294745994
 20
4.5443305459
 30
0.0
 10
4.2979150047
 20
4.5422464895
 30
0.0
 10
4.3006773035
 20
4.5398806824
 30
0.0
 10
4.303025907
 20
4.5372951455
 30
0.0
 10
4.3043414567
 20
4.5354282049
 30
0.0
 10
4.3049274972
 20
4.5344765923
 30
0.0
  0
SPLINE
  5
319
100
AcDbEntity
  8
0
100
AcDbSpline
 62
7
  6
CONTINUOUS
 70
0
 71
3
 72
15
 73
11
 74
0
 42
0.0000001
 43
0.0000001
 44
0.0000000001
 40
0.0
 40
0.0
 40
0.0
 40
0.0
 40
0.0994661821
 40
0.2057369303
 40
0.3195977282
 40
0.4416547505
 40
0.5719276885
 40
0.7096636618
 40
0.8532397112
 40
1.0
 40
1.0
 40
1.0
 40
1.0
 10
4.3049274972
 20
4.5344765923
 30
0.0
 10
4.3043329665
 20
4.5337140184
 30
0.0
 10
4.3029943428
 20
4.5322190924
 30
0.0
 10
4.3006404951
 20
4.5301797606
 30
0.0
 10
4.2978756741
 20
4.5283159173
 30
0.0
 10
4.294707588
 20
4.5266758497
 30
0.0
 10
4.2911608235
 20
4.5253133222
 30
0.0
 10
4.2872863172
 20
4.5242845613
 30
0.0
 10
4.2831674777
 20
4.5236422985
 30
0.0
 10
4.2803428055
 20
4.5234969367
 30
0.0
 10
4.2789160959
 20
4.5234969367
 30
0.0
  0
SPLINE
  5
31A
100
AcDbEntity
  8
0
100
AcDbSpline
 62
7
  6
CONTINUOUS
 70
0
 71
3
 72
15
 73
11
 74
0
 42
0.0000001
 43
0.0000001
 44
0.0000000001
 40
0.0
 40
0.0
 40
0.0
 40
0.0
 40
0.1428410706
 40
0.2830228931
 40
0.418340403
 40
0.5474962336
 40
0.6699348076
 40
0.78575526
 40
0.8955486415
 40
1.0
 40
1.0
 40
1.0
 40
1.0
 10
4.2789160959
 20
4.4994434932
 30
0.0
 10
4.2803433688
 20
4.4994434932
 30
0.0
 10
4.2831741964
 20
4.4992773969
 30
0.0
 10
4.2872987948
 20
4.4985439838
 30
0.0
 10
4.2911778122
 20
4.4973694906
 30
0.0
 10
4.2947273739
 20
4.4958144217
 30
0.0
 10
4.2978964327
 20
4.4939433302
 30
0.0
 10
4.3006604434
 20
4.491818001
 30
0.0
 10
4.3030119177
 20
4.4894939142
 30
0.0
 10
4.3043377945
 20
4.4878046098
 30
0.0
 10
4.3049274972
 20
4.4869434932
 30
0.0
  0
SPLINE
  5
31B
100
AcDbEntity
  8
0
100
AcDbSpline
 62
7
  6
CONTINUOUS
 70
0
 71
3
 72
15
 73
11
 74
0
 42
0.0000001
 43
0.0000001
 44
0.0000000001
 40
0.0
 40
0.0
 40
0.0
 40
0.0
 40
0.1044513435
 40
0.2142447082
 40
0.3300651471
 40
0.4525036801
 40
0.5816594903
 40
0.7169770078
 40
0.8571588912
 40
1.0
 40
1.0
 40
1.0
 40
1.0
 10
4.3049274972
 20
4.4869434932
 30
0.0
 10
4.3043377946
 20
4.4860823766
 30
0.0
 10
4.303011918
 20
4.4843930724
 30
0.0
 10
4.3006604441
 20
4.4820689859
 30
0.0
 10
4.297896434
 20
4.4799436571
 30
0.0
 10
4.2947273761
 20
4.4780725656
 30
0.0
 10
4.291177815
 20
4.4765174968
 30
0.0
 10
4.2872987972
 20
4.4753430031
 30
0.0
 10
4.2831741978
 20
4.4746095896
 30
0.0
 10
4.2803433692
 20
4.4744434932
 30
0.0
 10
4.2789160959
 20
4.4744434932
 30
0.0
  0
SPLINE
  5
31C
100
AcDbEntity
  8
0
100
AcDbSpline
 62
7
  6
CONTINUOUS
 70
0
 71
3
 72
15
 73
11
 74
0
 42
0.0000001
 43
0.0000001
 44
0.0000000001
 40
0.0
 40
0.0
 40
0.0
 40
0.0
 40
0.1467602496
 40
0.2903362369
 40
0.4280722032
 40
0.5583451626
 40
0.6804022271
 40
0.7942630388
 40
0.9005338033
 40
1.0
 40
1.0
 40
1.0
 40
1.0
 10
4.2789160959
 20
4.4503900496
 30
0.0
 10
4.2803428051
 20
4.4503900496
 30
0.0
 10
4.2831674764
 20
4.450244688
 30
0.0
 10
4.2872863148
 20
4.4496024255
 30
0.0
 10
4.2911608207
 20
4.448573665
 30
0.0
 10
4.2947075858
 20
4.4472111374
 30
0.0
 10
4.2978756728
 20
4.4455710699
 30
0.0
 10
4.3006404944
 20
4.4437072263
 30
0.0
 10
4.3029943425
 20
4.4416678942
 30
0.0
 10
4.3043329664
 20
4.440172968
 30
0.0
 10
4.3049274972
 20
4.439410394
 30
0.0
  0
SPLINE
  5
31D
100
AcDbEntity
  8
0
100
AcDbSpline
 62
7
  6
CONTINUOUS
 70
0
 71
3
 72
15
 73
11
 74
0
 42
0.0000001
 43
0.0000001
 44
0.0000000001
 40
0.0
 40
0.0
 40
0.0
 40
0.0
 40
0.1089369701
 40
0.2219659578
 40
0.3396422609
 40
0.4625022108
 40
0.5906830493
 40
0.7237892347
 40
0.8608199501
 40
1.0
 40
1.0
 40
1.0
 40
1.0
 10
4.3049274972
 20
4.439410394
 30
0.0
 10
4.3043414568
 20
4.4384587816
 30
0.0
 10
4.3030259073
 20
4.4365918411
 30
0.0
 10
4.3006773041
 20
4.4340063046
 30
0.0
 10
4.297915006
 20
4.431640498
 30
0.0
 10
4.2947459962
 20
4.4295564415
 30
0.0
 10
4.2911944858
 20
4.4278234098
 30
0.0
 10
4.287311428
 20
4.4265138774
 30
0.0
 10
4.2831811317
 20
4.4256958301
 30
0.0
 10
4.2803439525
 20
4.4255104315
 30
0.0
 10
4.2789160959
 20
4.4255104315
 30
0.0
  0
SPLINE
  5
31E
100
AcDbEntity
  8
0
100
AcDbSpline
 62
7
  6
CONTINUOUS
 70
0
 71
3
 72
14
 73
10
 74
0
 42
0.0000001
 43
0.0000001
 44
0.0000000001
 40
0.0
 40
0.0
 40
0.0
 40
0.0
 40
0.1508606186
 40
0.2980156426
 40
0.4383543913
 40
0.5699109461
 40
0.6917025472
 40
0.8036231562
 40
1.0
 40
1.0
 40
1.0
 40
1.0
 10
4.2789160959
 20
4.4016886358
 30
0.0
 10
4.2803422829
 20
4.4016886358
 30
0.0
 10
4.283161238
 20
4.4015652171
 30
0.0
 10
4.2872744842
 20
4.4010196633
 30
0.0
 10
4.2911443136
 20
4.4001456412
 30
0.0
 10
4.2946872242
 20
4.398988248
 30
0.0
 10
4.2978541402
 20
4.3975938867
 30
0.0
 10
4.3013849159
 20
4.395571158
 30
0.0
 10
4.3036741375
 20
4.3937045963
 30
0.0
 10
4.3049274972
 20
4.3923350647
 30
0.0
  0
SPLINE
  5
31F
100
AcDbEntity
  8
0
100
AcDbSpline
 62
7
  6
CONTINUOUS
 70
0
 71
3
 72
17
 73
13
 74
0
 42
0.0000001
 43
0.0000001
 44
0.0000000001
 40
0.0
 40
0.0
 40
0.0
 40
0.0
 40
0.1128484311
 40
0.2287415142
 40
0.3480955265
 40
0.4092580195
 40
0.4714348647
 40
0.5987702451
 40
0.7298956559
 40
0.7967078535
 40
0.8641543966
 40
1.0
 40
1.0
 40
1.0
 40
1.0
 10
4.3049274972
 20
4.3923350647
 30
0.0
 10
4.3043442316
 20
4.3913016894
 30
0.0
 10
4.3030368612
 20
4.3892748177
 30
0.0
 10
4.3006913552
 20
4.3864536476
 30
0.0
 10
4.2984088362
 20
4.3843177029
 30
0.0
 10
4.2963854409
 20
4.3827600679
 30
0.0
 10
4.2941948159
 20
4.3812910846
 30
0.0
 10
4.2912102103
 20
4.3796995216
 30
0.0
 10
4.2879899598
 20
4.378512875
 30
0.0
 10
4.2852831931
 20
4.3778255552
 30
0.0
 10
4.282486276
 20
4.3773220703
 30
0.0
 10
4.2803445331
 20
4.3771690038
 30
0.0
 10
4.2789160959
 20
4.3771690038
 30
0.0
  0
SPLINE
  5
320
100
AcDbEntity
  8
0
100
AcDbSpline
 62
7
  6
CONTINUOUS
 70
0
 71
3
 72
15
 73
11
 74
0
 42
0.0000001
 43
0.0000001
 44
0.0000000001
 40
0.0
 40
0.0
 40
0.0
 40
0.0
 40
0.1547776658
 40
0.3053606842
 40
0.4482053168
 40
0.5810063058
 40
0.7025325497
 40
0.8125102906
 40
0.9114013249
 40
1.0
 40
1.0
 40
1.0
 40
1.0
 10
4.2789160959
 20
4.3538082728
 30
0.0
 10
4.2803418221
 20
4.3538082728
 30
0.0
 10
4.2831557094
 20
4.3537078037
 30
0.0
 10
4.287263882
 20
4.3532634841
 30
0.0
 10
4.2911289158
 20
4.3525517571
 30
0.0
 10
4.2946680565
 20
4.3516091192
 30
0.0
 10
4.2978307316
 20
4.3504744426
 30
0.0
 10
4.3005928237
 20
4.3491847516
 30
0.0
 10
4.3029471938
 20
4.3477730542
 30
0.0
 10
4.3043185239
 20
4.3467141954
 30
0.0
 10
4.3049274972
 20
4.3461708662
 30
0.0
  0
SPLINE
  5
321
100
AcDbEntity
  8
0
100
AcDbSpline
 62
7
  6
CONTINUOUS
 70
0
 71
3
 72
17
 73
13
 74
0
 42
0.0000001
 43
0.0000001
 44
0.0000000001
 40
0.0
 40
0.0
 40
0.0
 40
0.0
 40
0.1162006049
 40
0.2345853205
 40
0.3554361248
 40
0.4169453301
 40
0.4791929582
 40
0.6058442409
 40
0.7352777274
 40
0.800934424
 40
0.8670673746
 40
1.0
 40
1.0
 40
1.0
 40
1.0
 10
4.3049274972
 20
4.3461708662
 30
0.0
 10
4.3043463313
 20
4.3450651691
 30
0.0
 10
4.3030454074
 20
4.342897243
 30
0.0
 10
4.3007026128
 20
4.3398679853
 30
0.0
 10
4.2984166852
 20
4.3375682174
 30
0.0
 10
4.2963890028
 20
4.3358914903
 30
0.0
 10
4.2942034021
 20
4.3343171253
 30
0.0
 10
4.2912245427
 20
4.3326089546
 30
0.0
 10
4.2879969374
 20
4.331329938
 30
0.0
 10
4.2852854828
 20
4.330590335
 30
0.0
 10
4.2824896763
 20
4.3300496268
 30
0.0
 10
4.2803450886
 20
4.3298847644
 30
0.0
 10
4.2789160959
 20
4.3298847644
 30
0.0
  0
SPLINE
  5
322
100
AcDbEntity
  8
0
100
AcDbSpline
 62
7
  6
CONTINUOUS
 70
0
 71
3
 72
15
 73
11
 74
0
 42
0.0000001
 43
0.0000001
 44
0.0000000001
 40
0.0
 40
0.0
 40
0.0
 40
0.0
 40
0.1584280379
 40
0.3122284976
 40
0.4574697664
 40
0.5915331298
 40
0.7129414103
 40
0.8212279229
 40
0.9166930057
 40
1.0
 40
1.0
 40
1.0
 40
1.0
 10
4.2789160959
 20
4.3072100748
 30
0.0
 10
4.2803414407
 20
4.3072100748
 30
0.0
 10
4.2831511272
 20
4.3071333398
 30
0.0
 10
4.287254942
 20
4.3067938836
 30
0.0
 10
4.2911156912
 20
4.3062501983
 30
0.0
 10
4.2946507004
 20
4.3055302956
 30
0.0
 10
4.2978093998
 20
4.3046640481
 30
0.0
 10
4.3005677723
 20
4.3036799846
 30
0.0
 10
4.3029190615
 20
4.3026034785
 30
0.0
 10
4.3043086212
 20
4.3017851577
 30
0.0
 10
4.3049274972
 20
4.301362385
 30
0.0
  0
SPLINE
  5
323
100
AcDbEntity
  8
0
100
AcDbSpline
 62
7
  6
CONTINUOUS
 70
0
 71
3
 72
17
 73
13
 74
0
 42
0.0000001
 43
0.0000001
 44
0.0000000001
 40
0.0
 40
0.0
 40
0.0
 40
0.0
 40
0.1189843321
 40
0.2394602666
 40
0.3615889275
 40
0.4234038634
 40
0.4857259163
 40
0.6118268557
 40
0.7398454272
 40
0.8045262481
 40
0.8695454021
 40
1.0
 40
1.0
 40
1.0
 40
1.0
 10
4.3049274972
 20
4.301362385
 30
0.0
 10
4.3043479111
 20
4.3001944779
 30
0.0
 10
4.3030519711
 20
4.2979054508
 30
0.0
 10
4.3007115259
 20
4.2946975796
 30
0.0
 10
4.2984231112
 20
4.2922568708
 30
0.0
 10
4.2963919726
 20
4.2904774941
 30
0.0
 10
4.2942106828
 20
4.2888128568
 30
0.0
 10
4.2912370815
 20
4.2870047082
 30
0.0
 10
4.2880031957
 20
4.2856456877
 30
0.0
 10
4.2852875564
 20
4.2848608961
 30
0.0
 10
4.2824927815
 20
4.2842881757
 30
0.0
 10
4.2803455979
 20
4.2841130864
 30
0.0
 10
4.2789160959
 20
4.2841130864
 30
0.0
  0
SPLINE
  5
324
100
AcDbEntity
  8
0
100
AcDbSpline
 62
7
  6
CONTINUOUS
 70
0
 71
3
 72
15
 73
11
 74
0
 42
0.0000001
 43
0.0000001
 44
0.0000000001
 40
0.0
 40
0.0
 40
0.0
 40
0.0
 40
0.1614434493
 40
0.3179140955
 40
0.4651682338
 40
0.6003287829
 40
0.7217044068
 40
0.8286413829
 40
0.9212531044
 40
1.0
 40
1.0
 40
1.0
 40
1.0
 10
4.2789160959
 20
4.2623428078
 30
0.0
 10
4.2803411532
 20
4.2623428078
 30
0.0
 10
4.2831476685
 20
4.2622903951
 30
0.0
 10
4.2872481163
 20
4.262058489
 30
0.0
 10
4.2911053921
 20
4.261687115
 30
0.0
 10
4.2946367633
 20
4.2611955209
 30
0.0
 10
4.2977915093
 20
4.2606042726
 30
0.0
 10
4.3005453965
 20
4.2599331865
 30
0.0
 10
4.3028917254
 20
4.2591998777
 30
0.0
 10
4.3042978074
 20
4.2586355159
 30
0.0
 10
4.3049274972
 20
4.2583411514
 30
0.0
  0
SPLINE
  5
325
100
AcDbEntity
  8
0
100
AcDbSpline
 62
7
  6
CONTINUOUS
 70
0
 71
3
 72
17
 73
13
 74
0
 42
0.0000001
 43
0.0000001
 44
0.0000000001
 40
0.0
 40
0.0
 40
0.0
 40
0.0
 40
0.1212157852
 40
0.2433819556
 40
0.366557449
 40
0.42862922
 40
0.4910214755
 40
0.6166938344
 40
0.7435724809
 40
0.8074603939
 40
0.8715714685
 40
1.0
 40
1.0
 40
1.0
 40
1.0
 10
4.3049274972
 20
4.2583411514
 30
0.0
 10
4.3043490813
 20
4.2571217433
 30
0.0
 10
4.3030569086
 20
4.254732595
 30
0.0
 10
4.3007183888
 20
4.2513771258
 30
0.0
 10
4.2984281925
 20
4.2488197781
 30
0.0
 10
4.2963943555
 20
4.2469553187
 30
0.0
 10
4.294216607
 20
4.2452162123
 30
0.0
 10
4.291247557
 20
4.243325558
 30
0.0
 10
4.2880085379
 20
4.2418999487
 30
0.0
 10
4.2852893406
 20
4.2410776008
 30
0.0
 10
4.2824954751
 20
4.2404783893
 30
0.0
 10
4.2803460413
 20
4.2402947762
 30
0.0
 10
4.2789160959
 20
4.2402947762
 30
0.0
  0
SPLINE
  5
326
100
AcDbEntity
  8
0
100
AcDbSpline
 62
7
  6
CONTINUOUS
 70
0
 71
3
 72
15
 73
11
 74
0
 42
0.0000001
 43
0.0000001
 44
0.0000000001
 40
0.0
 40
0.0
 40
0.0
 40
0.0
 40
0.1634968353
 40
0.3217921303
 40
0.4704341427
 40
0.6063707232
 40
0.7277599265
 40
0.8338067331
 40
0.9244668626
 40
1.0
 40
1.0
 40
1.0
 40
1.0
 10
4.2789160959
 20
4.2196385682
 30
0.0
 10
4.2803409709
 20
4.2196385682
 30
0.0
 10
4.2831454722
 20
4.219610872
 30
0.0
 10
4.2872437465
 20
4.2194883133
 30
0.0
 10
4.2910987057
 20
4.2192920711
 30
0.0
 10
4.2946275083
 20
4.2190323688
 30
0.0
 10
4.2977792464
 20
4.2187201429
 30
0.0
 10
4.3005292607
 20
4.2183660644
 30
0.0
 10
4.3028706603
 20
4.21797959
 30
0.0
 10
4.3042884792
 20
4.2176795245
 30
0.0
 10
4.3049274972
 20
4.2175214833
 30
0.0
  0
SPLINE
  5
327
100
AcDbEntity
  8
0
100
AcDbSpline
 62
7
  6
CONTINUOUS
 70
0
 71
3
 72
18
 73
14
 74
0
 42
0.0000001
 43
0.0000001
 44
0.0000000001
 40
0.0
 40
0.0
 40
0.0
 40
0.0
 40
0.1229000173
 40
0.2463464264
 40
0.370317579
 40
0.4949562081
 40
0.5575747644
 40
0.6203833083
 40
0.6833535492
 40
0.7464784846
 40
0.8097492132
 40
0.8731525381
 40
1.0
 40
1.0
 40
1.0
 40
1.0
 10
4.3049274972
 20
4.2175214833
 30
0.0
 10
4.3043499196
 20
4.2162617878
 30
0.0
 10
4.3030605527
 20
4.2137944515
 30
0.0
 10
4.3007232093
 20
4.2103234048
 30
0.0
 10
4.2979714021
 20
4.2071424773
 30
0.0
 10
4.2953379479
 20
4.204804535
 30
0.0
 10
4.2930395004
 20
4.2031674569
 30
0.0
 10
4.2912200562
 20
4.2020668218
 30
0.0
 10
4.2893158885
 20
4.2011073292
 30
0.0
 10
4.2873357578
 20
4.2003021474
 30
0.0
 10
4.2852907144
 20
4.1996620181
 30
0.0
 10
4.2824976971
 20
4.1990421789
 30
0.0
 10
4.2803464018
 20
4.1988518279
 30
0.0
 10
4.2789160959
 20
4.1988518279
 30
0.0
  0
LINE
  5
328
100
AcDbEntity
  8
0
100
AcDbLine
 62
7
  6
CONTINUOUS
 10
4.2789160959
 20
4.1795086212
 11
4.3049274972
 21
4.1792964965
  0
SPLINE
  5
329
100
AcDbEntity
  8
0
100
AcDbSpline
 62
7
  6
CONTINUOUS
 70
0
 71
3
 72
18
 73
14
 74
0
 42
0.0000001
 43
0.0000001
 44
0.0000000001
 40
0.0
 40
0.0
 40
0.0
 40
0.0
 40
0.1240829971
 40
0.2484349495
 40
0.3729767554
 40
0.4978041971
 40
0.5603654795
 40
0.6230147941
 40
0.6857276961
 40
0.7485041421
 40
0.811346535
 40
0.8742569032
 40
1.0
 40
1.0
 40
1.0
 40
1.0
 10
4.3049274972
 20
4.1792964965
 30
0.0
 10
4.3043504785
 20
4.178008126
 30
0.0
 10
4.3030629575
 20
4.1754851302
 30
0.0
 10
4.3007266469
 20
4.1719320935
 30
0.0
 10
4.2979759668
 20
4.1686757246
 30
0.0
 10
4.2953411454
 20
4.1662799366
 30
0.0
 10
4.2930409437
 20
4.1646024734
 30
0.0
 10
4.2912215095
 20
4.1634755455
 30
0.0
 10
4.2893172936
 20
4.1624930903
 30
0.0
 10
4.2873370315
 20
4.1616685932
 30
0.0
 10
4.2852917582
 20
4.1610130794
 30
0.0
 10
4.2824992923
 20
4.1603785051
 30
0.0
 10
4.2803466658
 20
4.1601833598
 30
0.0
 10
4.2789160959
 20
4.1601833598
 30
0.0
  0
SPLINE
  5
32A
100
AcDbEntity
  8
0
100
AcDbSpline
 62
7
  6
CONTINUOUS
 70
0
 71
3
 72
15
 73
11
 74
0
 42
0.0000001
 43
0.0000001
 44
0.0000000001
 40
0.0
 40
0.0
 40
0.0
 40
0.0
 40
0.1248048155
 40
0.2497200662
 40
0.3746330214
 40
0.4996115452
 40
0.6246485998
 40
0.7497215616
 40
0.8748590664
 40
1.0
 40
1.0
 40
1.0
 40
1.0
 10
4.3049274972
 20
4.1440343183
 30
0.0
 10
4.3043507919
 20
4.1427291709
 30
0.0
 10
4.3030642902
 20
4.140173611
 30
0.0
 10
4.3007286771
 20
4.1365726839
 30
0.0
 10
4.2979782927
 20
4.1332720375
 30
0.0
 10
4.2948169646
 20
4.1303571315
 30
0.0
 10
4.2912649769
 20
4.1279253348
 30
0.0
 10
4.2873695868
 20
4.1260810699
 30
0.0
 10
4.2832149341
 20
4.1249250008
 30
0.0
 10
4.280346823
 20
4.1246617705
 30
0.0
 10
4.2789160959
 20
4.1246617705
 30
0.0
  0
SPLINE
  5
32B
100
AcDbEntity
  8
0
100
AcDbSpline
 62
7
  6
CONTINUOUS
 70
0
 71
3
 72
15
 73
11
 74
0
 42
0.0000001
 43
0.0000001
 44
0.0000000001
 40
0.0
 40
0.0
 40
0.0
 40
0.0
 40
0.124995359
 40
0.2500571042
 40
0.3750630743
 40
0.500073228
 40
0.6250760387
 40
0.7500510434
 40
0.8750385893
 40
1.0
 40
1.0
 40
1.0
 40
1.0
 10
4.3049274972
 20
4.112074543
 30
0.0
 10
4.3043508782
 20
4.1107646841
 30
0.0
 10
4.3030646639
 20
4.1081999835
 30
0.0
 10
4.300729218
 20
4.1045855985
 30
0.0
 10
4.2979790189
 20
4.1012725697
 30
0.0
 10
4.2948178546
 20
4.0983466449
 30
0.0
 10
4.2912659391
 20
4.0959055407
 30
0.0
 10
4.2873704393
 20
4.0940540977
 30
0.0
 10
4.2832154543
 20
4.0928934481
 30
0.0
 10
4.2803468675
 20
4.0926291522
 30
0.0
 10
4.2789160959
 20
4.0926291522
 30
0.0
  0
SPLINE
  5
32C
100
AcDbEntity
  8
0
100
AcDbSpline
 62
7
  6
CONTINUOUS
 70
0
 71
3
 72
18
 73
14
 74
0
 42
0.0000001
 43
0.0000001
 44
0.0000000001
 40
0.0
 40
0.0
 40
0.0
 40
0.0
 40
0.1246564369
 40
0.2494485079
 40
0.3742689008
 40
0.4991899588
 40
0.5617242718
 40
0.6242968763
 40
0.6868850898
 40
0.7494921724
 40
0.8121259896
 40
0.8747959935
 40
1.0
 40
1.0
 40
1.0
 40
1.0
 10
4.3049274972
 20
4.0837249607
 30
0.0
 10
4.3043507423
 20
4.0824225028
 30
0.0
 10
4.3030640978
 20
4.0798721717
 30
0.0
 10
4.3007282889
 20
4.0762788802
 30
0.0
 10
4.2979781663
 20
4.0729854774
 30
0.0
 10
4.2953427012
 20
4.0705612697
 30
0.0
 10
4.2930416496
 20
4.0688639539
 30
0.0
 10
4.2912222238
 20
4.0677241113
 30
0.0
 10
4.2893179872
 20
4.0667303759
 30
0.0
 10
4.287337663
 20
4.0658963888
 30
0.0
 10
4.2852922774
 20
4.0652333151
 30
0.0
 10
4.2825000882
 20
4.0645915035
 30
0.0
 10
4.2803467977
 20
4.0643939965
 30
0.0
 10
4.2789160959
 20
4.0643939965
 30
0.0
  0
SPLINE
  5
32D
100
AcDbEntity
  8
0
100
AcDbSpline
 62
7
  6
CONTINUOUS
 70
0
 71
3
 72
18
 73
14
 74
0
 42
0.0000001
 43
0.0000001
 44
0.0000000001
 40
0.0
 40
0.0
 40
0.0
 40
0.0
 40
0.123863795
 40
0.2480477083
 40
0.3724833609
 40
0.4972753783
 40
0.5598471076
 40
0.6225258282
 40
0.6852864038
 40
0.7481275157
 40
0.8110494758
 40
0.874051482
 40
1.0
 40
1.0
 40
1.0
 40
1.0
 10
4.3049274972
 20
4.0592585932
 30
0.0
 10
4.3043503764
 20
4.0579755749
 30
0.0
 10
4.3030625173
 20
4.0554629662
 30
0.0
 10
4.300726015
 20
4.0519252277
 30
0.0
 10
4.2979751238
 20
4.0486829341
 30
0.0
 10
4.2953405517
 20
4.0462979434
 30
0.0
 10
4.2930406749
 20
4.0446280207
 30
0.0
 10
4.2912212382
 20
4.0435059998
 30
0.0
 10
4.2893170306
 20
4.0425278305
 30
0.0
 10
4.2873367926
 20
4.0417069388
 30
0.0
 10
4.2852915621
 20
4.0410542969
 30
0.0
 10
4.282498992
 20
4.0404224726
 30
0.0
 10
4.2803466161
 20
4.0402282235
 30
0.0
 10
4.2789160959
 20
4.0402282235
 30
0.0
  0
SPLINE
  5
32E
100
AcDbEntity
  8
0
100
AcDbSpline
 62
7
  6
CONTINUOUS
 70
0
 71
3
 72
17
 73
13
 74
0
 42
0.0000001
 43
0.0000001
 44
0.0000000001
 40
0.0
 40
0.0
 40
0.0
 40
0.0
 40
0.1225819298
 40
0.2457888182
 40
0.3696149623
 40
0.4318491608
 40
0.4942891116
 40
0.6197049251
 40
0.7458834478
 40
0.8092812819
 40
0.8728296477
 40
1.0
 40
1.0
 40
1.0
 40
1.0
 10
4.3049274972
 20
4.038911065
 30
0.0
 10
4.3043497589
 20
4.037659331
 30
0.0
 10
4.3030597973
 20
4.0352073916
 30
0.0
 10
4.3007224684
 20
4.0317594003
 30
0.0
 10
4.2984312704
 20
4.0291288747
 30
0.0
 10
4.2963958142
 20
4.0272109756
 30
0.0
 10
4.2942202699
 20
4.025425247
 30
0.0
 10
4.2912541601
 20
4.0234829362
 30
0.0
 10
4.2880119606
 20
4.0220153747
 30
0.0
 10
4.2852904909
 20
4.0211693864
 30
0.0
 10
4.2824972222
 20
4.0205535534
 30
0.0
 10
4.2803463296
 20
4.0203645627
 30
0.0
 10
4.2789160959
 20
4.0203645627
 30
0.0
  0
SPLINE
  5
32F
100
AcDbEntity
  8
0
100
AcDbSpline
 62
7
  6
CONTINUOUS
 70
0
 71
3
 72
17
 73
13
 74
0
 42
0.0000001
 43
0.0000001
 44
0.0000000001
 40
0.0
 40
0.0
 40
0.0
 40
0.0
 40
0.1207666482
 40
0.242591643
 40
0.3655548399
 40
0.4275740725
 40
0.489951434
 40
0.6157091193
 40
0.7428175822
 40
0.8068658457
 40
0.8711607928
 40
1.0
 40
1.0
 40
1.0
 40
1.0
 10
4.3049274972
 20
4.0228783341
 30
0.0
 10
4.3043488523
 20
4.0216694177
 30
0.0
 10
4.3030559371
 20
4.0193006574
 30
0.0
 10
4.3007170274
 20
4.0159752373
 30
0.0
 10
4.2984271751
 20
4.0134416466
 30
0.0
 10
4.2963938759
 20
4.0115945263
 30
0.0
 10
4.2942154086
 20
4.0098705716
 30
0.0
 10
4.2912454178
 20
4.007996705
 30
0.0
 10
4.2880074383
 20
4.0065846864
 30
0.0
 10
4.2852889722
 20
4.0057700001
 30
0.0
 10
4.2824949174
 20
4.0051761844
 30
0.0
 10
4.2803459494
 20
4.0049943121
 30
0.0
 10
4.2789160959
 20
4.0049943121
 30
0.0
  0
SPLINE
  5
330
100
AcDbEntity
  8
0
100
AcDbSpline
 62
7
  6
CONTINUOUS
 70
0
 71
3
 72
17
 73
13
 74
0
 42
0.0000001
 43
0.0000001
 44
0.0000000001
 40
0.0
 40
0.0
 40
0.0
 40
0.0
 40
0.1184141111
 40
0.2384600889
 40
0.3603244415
 40
0.4220754272
 40
0.4843810546
 40
0.6105933429
 40
0.7389024224
 40
0.8037843465
 40
0.8690333658
 40
1.0
 40
1.0
 40
1.0
 40
1.0
 10
4.3049274972
 20
4.0113148044
 30
0.0
 10
4.3043475987
 20
4.0101598159
 30
0.0
 10
4.3030506641
 20
4.0078959214
 30
0.0
 10
4.3007097321
 20
4.0047251122
 30
0.0
 10
4.2984218025
 20
4.002313669
 30
0.0
 10
4.296391364
 20
4.0005556214
 30
0.0
 10
4.2942091813
 20
3.9989097014
 30
0.0
 10
4.2912344656
 20
3.9971222871
 30
0.0
 10
4.2880018781
 20
3.9957799202
 30
0.0
 10
4.2852871184
 20
3.9950045285
 30
0.0
 10
4.2824921232
 20
3.9944384549
 30
0.0
 10
4.2803454898
 20
3.9942654956
 30
0.0
 10
4.2789160959
 20
3.9942654956
 30
0.0
  0
SPLINE
  5
331
100
AcDbEntity
  8
0
100
AcDbSpline
 62
7
  6
CONTINUOUS
 70
0
 71
3
 72
17
 73
13
 74
0
 42
0.0000001
 43
0.0000001
 44
0.0000000001
 40
0.0
 40
0.0
 40
0.0
 40
0.0
 40
0.115505222
 40
0.2333706322
 40
0.3539071374
 40
0.4153424936
 40
0.4775737533
 40
0.604365082
 40
0.7341506707
 40
0.8000488462
 40
0.866456774
 40
1.0
 40
1.0
 40
1.0
 40
1.0
 10
4.3049274972
 20
4.0043318389
 30
0.0
 10
4.3043459144
 20
4.0032413622
 30
0.0
 10
4.3030436942
 20
4.0011030955
 30
0.0
 10
4.3007003251
 20
3.9981175915
 30
0.0
 10
4.2984150669
 20
3.9958523072
 30
0.0
 10
4.2963882631
 20
3.9942006679
 30
0.0
 10
4.2942016052
 20
3.992648442
 30
0.0
 10
4.2912215026
 20
3.9909647802
 30
0.0
 10
4.2879954425
 20
3.9897052616
 30
0.0
 10
4.2852849908
 20
3.988976684
 30
0.0
 10
4.2824889422
 20
3.9884438093
 30
0.0
 10
4.2803449685
 20
3.9882814375
 30
0.0
 10
4.2789160959
 20
3.9882814375
 30
0.0
  0
SPLINE
  5
332
100
AcDbEntity
  8
0
100
AcDbSpline
 62
7
  6
CONTINUOUS
 70
0
 71
3
 72
17
 73
13
 74
0
 42
0.0000001
 43
0.0000001
 44
0.0000000001
 40
0.0
 40
0.0
 40
0.0
 40
0.0
 40
0.1335431632
 40
0.1999510464
 40
0.2658492092
 40
0.3956348054
 40
0.5224261561
 40
0.5846574426
 40
0.6460928127
 40
0.766629333
 40
0.884494762
 40
1.0
 40
1.0
 40
1.0
 40
1.0
 10
3.4089160959
 20
3.9882814375
 30
0.0
 10
3.4074872239
 20
3.9882814375
 30
0.0
 10
3.4053432513
 20
3.9884438086
 30
0.0
 10
3.4025472041
 20
3.9889766837
 30
0.0
 10
3.3998367527
 20
3.9897052602
 30
0.0
 10
3.3966106923
 20
3.9909647786
 30
0.0
 10
3.3936305891
 20
3.9926484406
 30
0.0
 10
3.3914439305
 20
3.9942006666
 30
0.0
 10
3.389417126
 20
3.995852306
 30
0.0
 10
3.3871318673
 20
3.9981175907
 30
0.0
 10
3.3847884979
 20
4.0011030951
 30
0.0
 10
3.3834862775
 20
4.0032413621
 30
0.0
 10
3.3829046945
 20
4.0043318389
 30
0.0
  0
SPLINE
  5
333
100
AcDbEntity
  8
0
100
AcDbSpline
 62
7
  6
CONTINUOUS
 70
0
 71
3
 72
17
 73
13
 74
0
 42
0.0000001
 43
0.0000001
 44
0.0000000001
 40
0.0
 40
0.0
 40
0.0
 40
0.0
 40
0.1309665725
 40
0.1962155481
 40
0.2610974591
 40
0.3894065454
 40
0.5156188552
 40
0.577924509
 40
0.6396755081
 40
0.7615398757
 40
0.8815858726
 40
1.0
 40
1.0
 40
1.0
 40
1.0
 10
3.4089160959
 20
3.9942654956
 30
0.0
 10
3.4074867027
 20
3.9942654956
 30
0.0
 10
3.4053400703
 20
3.9944384542
 30
0.0
 10
3.4025450765
 20
3.9950045281
 30
0.0
 10
3.3998303171
 20
3.9957799187
 30
0.0
 10
3.3965977293
 20
3.9971222855
 30
0.0
 10
3.393623013
 20
3.9989096999
 30
0.0
 10
3.3914408296
 20
4.00055562
 30
0.0
 10
3.3894103904
 20
4.0023136677
 30
0.0
 10
3.3871224603
 20
4.0047251113
 30
0.0
 10
3.384781528
 20
4.007895921
 30
0.0
 10
3.3834845931
 20
4.0101598158
 30
0.0
 10
3.3829046945
 20
4.0113148044
 30
0.0
  0
SPLINE
  5
334
100
AcDbEntity
  8
0
100
AcDbSpline
 62
7
  6
CONTINUOUS
 70
0
 71
3
 72
17
 73
13
 74
0
 42
0.0000001
 43
0.0000001
 44
0.0000000001
 40
0.0
 40
0.0
 40
0.0
 40
0.0
 40
0.1288391464
 40
0.1931340504
 40
0.2571823007
 40
0.3842907698
 40
0.510048476
 40
0.5724258637
 40
0.6344451094
 40
0.7574083211
 40
0.8792333354
 40
1.0
 40
1.0
 40
1.0
 40
1.0
 10
3.4089160959
 20
4.0049943121
 30
0.0
 10
3.4074862431
 20
4.0049943121
 30
0.0
 10
3.4053372761
 20
4.0051761836
 30
0.0
 10
3.4025432227
 20
4.0057699996
 30
0.0
 10
3.3998247569
 20
4.0065846848
 30
0.0
 10
3.3965867771
 20
4.0079967033
 30
0.0
 10
3.3936167857
 20
4.00987057
 30
0.0
 10
3.3914383177
 20
4.0115945249
 30
0.0
 10
3.3894050178
 20
4.0134416453
 30
0.0
 10
3.387115165
 20
4.0159752364
 30
0.0
 10
3.3847762551
 20
4.019300657
 30
0.0
 10
3.3834833396
 20
4.0216694176
 30
0.0
 10
3.3829046945
 20
4.0228783341
 30
0.0
  0
SPLINE
  5
335
100
AcDbEntity
  8
0
100
AcDbSpline
 62
7
  6
CONTINUOUS
 70
0
 71
3
 72
17
 73
13
 74
0
 42
0.0000001
 43
0.0000001
 44
0.0000000001
 40
0.0
 40
0.0
 40
0.0
 40
0.0
 40
0.1271702922
 40
0.1907186155
 40
0.2541164362
 40
0.3802949646
 40
0.5057107986
 40
0.5681507753
 40
0.6303849867
 40
0.7542111456
 40
0.8774180535
 40
1.0
 40
1.0
 40
1.0
 40
1.0
 10
3.4089160959
 20
4.0203645627
 30
0.0
 10
3.4074858628
 20
4.0203645627
 30
0.0
 10
3.4053349713
 20
4.0205535526
 30
0.0
 10
3.402541704
 20
4.021169386
 30
0.0
 10
3.3998202346
 20
4.0220153731
 30
0.0
 10
3.3965780348
 20
4.0234829345
 30
0.0
 10
3.3936119244
 20
4.0254252454
 30
0.0
 10
3.3914363793
 20
4.0272109741
 30
0.0
 10
3.3894009224
 20
4.0291288734
 30
0.0
 10
3.387109724
 20
4.0317593993
 30
0.0
 10
3.3847723948
 20
4.0352073911
 30
0.0
 10
3.3834824329
 20
4.0376593308
 30
0.0
 10
3.3829046945
 20
4.038911065
 30
0.0
  0
SPLINE
  5
336
100
AcDbEntity
  8
0
100
AcDbSpline
 62
7
  6
CONTINUOUS
 70
0
 71
3
 72
18
 73
14
 74
0
 42
0.0000001
 43
0.0000001
 44
0.0000000001
 40
0.0
 40
0.0
 40
0.0
 40
0.0
 40
0.1259484584
 40
0.1889504226
 40
0.2518723692
 40
0.3147134747
 40
0.3774740616
 40
0.4401527903
 40
0.502724532
 40
0.6275165879
 40
0.7519522552
 40
0.8761361882
 40
1.0
 40
1.0
 40
1.0
 40
1.0
 10
3.4089160959
 20
4.0402282235
 30
0.0
 10
3.4074855764
 20
4.0402282235
 30
0.0
 10
3.4053332015
 20
4.0404224718
 30
0.0
 10
3.4025406329
 20
4.0410542965
 30
0.0
 10
3.4004954027
 20
4.0417069372
 30
0.0
 10
3.3985151649
 20
4.042527829
 30
0.0
 10
3.3966109569
 20
4.0435059979
 30
0.0
 10
3.3947915196
 20
4.0446280186
 30
0.0
 10
3.3924916424
 20
4.0462979419
 30
0.0
 10
3.3898570693
 20
4.0486829324
 30
0.0
 10
3.3871061775
 20
4.0519252267
 30
0.0
 10
3.3847696749
 20
4.0554629656
 30
0.0
 10
3.3834818154
 20
4.0579755747
 30
0.0
 10
3.3829046945
 20
4.0592585932
 30
0.0
  0
SPLINE
  5
337
100
AcDbEntity
  8
0
100
AcDbSpline
 62
7
  6
CONTINUOUS
 70
0
 71
3
 72
18
 73
14
 74
0
 42
0.0000001
 43
0.0000001
 44
0.0000000001
 40
0.0
 40
0.0
 40
0.0
 40
0.0
 40
0.1252039472
 40
0.1878739093
 40
0.2505077129
 40
0.3131147892
 40
0.3757030138
 40
0.4382756262
 40
0.5008099516
 40
0.6257310478
 40
0.7505514554
 40
0.8753435462
 40
1.0
 40
1.0
 40
1.0
 40
1.0
 10
3.4089160959
 20
4.0643939965
 30
0.0
 10
3.4074853948
 20
4.0643939965
 30
0.0
 10
3.4053321053
 20
4.0645915027
 30
0.0
 10
3.4025399175
 20
4.0652333147
 30
0.0
 10
3.4004945324
 20
4.0658963872
 30
0.0
 10
3.3985142083
 20
4.0667303744
 30
0.0
 10
3.3966099713
 20
4.0677241093
 30
0.0
 10
3.3947905449
 20
4.0688639518
 30
0.0
 10
3.3924894929
 20
4.0705612682
 30
0.0
 10
3.3898540267
 20
4.0729854758
 30
0.0
 10
3.3871039036
 20
4.0762788792
 30
0.0
 10
3.3847680943
 20
4.0798721712
 30
0.0
 10
3.3834814495
 20
4.0824225026
 30
0.0
 10
3.3829046945
 20
4.0837249607
 30
0.0
  0
SPLINE
  5
338
100
AcDbEntity
  8
0
100
AcDbSpline
 62
7
  6
CONTINUOUS
 70
0
 71
3
 72
15
 73
11
 74
0
 42
0.0000001
 43
0.0000001
 44
0.0000000001
 40
0.0
 40
0.0
 40
0.0
 40
0.0
 40
0.1249613515
 40
0.2499488428
 40
0.3749238523
 40
0.4999266829
 40
0.6249368746
 40
0.7499428593
 40
0.8750046242
 40
1.0
 40
1.0
 40
1.0
 40
1.0
 10
3.4089160959
 20
4.0926291522
 30
0.0
 10
3.4074853249
 20
4.0926291522
 30
0.0
 10
3.4046167394
 20
4.0928934474
 30
0.0
 10
3.4004617556
 20
4.0940540966
 30
0.0
 10
3.3965662558
 20
4.0959055387
 30
0.0
 10
3.3930143396
 20
4.0983466432
 30
0.0
 10
3.3898531742
 20
4.101272568
 30
0.0
 10
3.3871029745
 20
4.1045855975
 30
0.0
 10
3.3847675282
 20
4.108199983
 30
0.0
 10
3.3834813137
 20
4.1107646839
 30
0.0
 10
3.3829046945
 20
4.112074543
 30
0.0
  0
SPLINE
  5
339
100
AcDbEntity
  8
0
100
AcDbSpline
 62
7
  6
CONTINUOUS
 70
0
 71
3
 72
15
 73
11
 74
0
 42
0.0000001
 43
0.0000001
 44
0.0000000001
 40
0.0
 40
0.0
 40
0.0
 40
0.0
 40
0.1251408742
 40
0.2502783244
 40
0.3753512911
 40
0.5003883657
 40
0.6253669275
 40
0.7502798973
 40
0.8751951678
 40
1.0
 40
1.0
 40
1.0
 40
1.0
 10
3.4089160959
 20
4.1246617705
 30
0.0
 10
3.4074853694
 20
4.1246617705
 30
0.0
 10
3.4046172596
 20
4.1249250001
 30
0.0
 10
3.4004626081
 20
4.1260810688
 30
0.0
 10
3.3965672179
 20
4.1279253329
 30
0.0
 10
3.3930152296
 20
4.1303571299
 30
0.0
 10
3.3898539004
 20
4.1332720359
 30
0.0
 10
3.3871035154
 20
4.1365726829
 30
0.0
 10
3.384767902
 20
4.1401736105
 30
0.0
 10
3.3834813999
 20
4.1427291707
 30
0.0
 10
3.3829046945
 20
4.1440343183
 30
0.0
  0
SPLINE
  5
33A
100
AcDbEntity
  8
0
100
AcDbSpline
 62
7
  6
CONTINUOUS
 70
0
 71
3
 72
18
 73
14
 74
0
 42
0.0000001
 43
0.0000001
 44
0.0000000001
 40
0.0
 40
0.0
 40
0.0
 40
0.0
 40
0.1257430373
 40
0.1886533635
 40
0.251495743
 40
0.3142721825
 40
0.3769850957
 40
0.4396344184
 40
0.5021957132
 40
0.6270231933
 40
0.751565014
 40
0.8759169861
 40
1.0
 40
1.0
 40
1.0
 40
1.0
 10
3.4089160959
 20
4.1601833598
 30
0.0
 10
3.4074855267
 20
4.1601833598
 30
0.0
 10
3.4053329012
 20
4.1603785043
 30
0.0
 10
3.4025404367
 20
4.161013079
 30
0.0
 10
3.4004951638
 20
4.1616685916
 30
0.0
 10
3.3985149019
 20
4.1624930888
 30
0.0
 10
3.3966106855
 20
4.1634755435
 30
0.0
 10
3.3947912509
 20
4.1646024714
 30
0.0
 10
3.3924910487
 20
4.1662799351
 30
0.0
 10
3.3898562262
 20
4.168675723
 30
0.0
 10
3.3871055456
 20
4.1719320925
 30
0.0
 10
3.3847692346
 20
4.1754851297
 30
0.0
 10
3.3834817134
 20
4.1780081258
 30
0.0
 10
3.3829046945
 20
4.1792964965
 30
0.0
  0
LINE
  5
33B
100
AcDbEntity
  8
0
100
AcDbLine
 62
7
  6
CONTINUOUS
 10
3.3829046945
 20
4.1792964965
 11
3.4089160959
 21
4.1795086212
  0
SPLINE
  5
33C
100
AcDbEntity
  8
0
100
AcDbSpline
 62
7
  6
CONTINUOUS
 70
0
 71
3
 72
18
 73
14
 74
0
 42
0.0000001
 43
0.0000001
 44
0.0000000001
 40
0.0
 40
0.0
 40
0.0
 40
0.0
 40
0.126847402
 40
0.1902506845
 40
0.2535213997
 40
0.3166463288
 40
0.3796165812
 40
0.4424251333
 40
0.5050437021
 40
0.6296823699
 40
0.7536535373
 40
0.877099966
 40
1.0
 40
1.0
 40
1.0
 40
1.0
 10
3.4089160959
 20
4.1988518279
 30
0.0
 10
3.4074857906
 20
4.1988518279
 30
0.0
 10
3.4053344964
 20
4.199042178
 30
0.0
 10
3.4025414805
 20
4.1996620177
 30
0.0
 10
3.4004964375
 20
4.2003021458
 30
0.0
 10
3.3985163069
 20
4.2011073278
 30
0.0
 10
3.3966121389
 20
4.2020668199
 30
0.0
 10
3.3947926942
 20
4.2031674548
 30
0.0
 10
3.3924942463
 20
4.2048045335
 30
0.0
 10
3.3898607909
 20
4.2071424757
 30
0.0
 10
3.3871089831
 20
4.2103234039
 30
0.0
 10
3.3847716395
 20
4.213794451
 30
0.0
 10
3.3834822723
 20
4.2162617876
 30
0.0
 10
3.3829046945
 20
4.2175214833
 30
0.0
  0
SPLINE
  5
33D
100
AcDbEntity
  8
0
100
AcDbSpline
 62
7
  6
CONTINUOUS
 70
0
 71
3
 72
15
 73
11
 74
0
 42
0.0000001
 43
0.0000001
 44
0.0000000001
 40
0.0
 40
0.0
 40
0.0
 40
0.0
 40
0.075533129
 40
0.1661932489
 40
0.2722400444
 40
0.3936292125
 40
0.5295657717
 40
0.67820778
 40
0.836503123
 40
1.0
 40
1.0
 40
1.0
 40
1.0
 10
3.3829046945
 20
4.2175214833
 30
0.0
 10
3.3835437126
 20
4.2176795245
 30
0.0
 10
3.3849615312
 20
4.2179795899
 30
0.0
 10
3.3873029306
 20
4.2183660643
 30
0.0
 10
3.3900529444
 20
4.2187201428
 30
0.0
 10
3.3932046819
 20
4.2190323686
 30
0.0
 10
3.396733484
 20
4.2192920709
 30
0.0
 10
3.4005884434
 20
4.2194883132
 30
0.0
 10
3.4046867185
 20
4.219610872
 30
0.0
 10
3.4074912205
 20
4.2196385682
 30
0.0
 10
3.4089160959
 20
4.2196385682
 30
0.0
  0
SPLINE
  5
33E
100
AcDbEntity
  8
0
100
AcDbSpline
 62
7
  6
CONTINUOUS
 70
0
 71
3
 72
17
 73
13
 74
0
 42
0.0000001
 43
0.0000001
 44
0.0000000001
 40
0.0
 40
0.0
 40
0.0
 40
0.0
 40
0.1284284709
 40
0.1925395026
 40
0.2564274023
 40
0.3833060548
 40
0.5089784345
 40
0.5713707161
 40
0.6334425002
 40
0.7566180085
 40
0.8787841983
 40
1.0
 40
1.0
 40
1.0
 40
1.0
 10
3.4089160959
 20
4.2402947762
 30
0.0
 10
3.4074861512
 20
4.2402947762
 30
0.0
 10
3.4053367184
 20
4.2404783885
 30
0.0
 10
3.4025428543
 20
4.2410776003
 30
0.0
 10
3.3998236573
 20
4.2418999472
 30
0.0
 10
3.3965846379
 20
4.2433255563
 30
0.0
 10
3.3936155873
 20
4.2452162107
 30
0.0
 10
3.391437838
 20
4.2469553172
 30
0.0
 10
3.3894040003
 20
4.2488197768
 30
0.0
 10
3.3871138036
 20
4.2513771248
 30
0.0
 10
3.3847752835
 20
4.2547325946
 30
0.0
 10
3.3834831105
 20
4.2571217431
 30
0.0
 10
3.3829046945
 20
4.2583411514
 30
0.0
  0
SPLINE
  5
33F
100
AcDbEntity
  8
0
100
AcDbSpline
 62
7
  6
CONTINUOUS
 70
0
 71
3
 72
15
 73
11
 74
0
 42
0.0000001
 43
0.0000001
 44
0.0000000001
 40
0.0
 40
0.0
 40
0.0
 40
0.0
 40
0.0787468871
 40
0.1713585988
 40
0.278295564
 40
0.3996711531
 40
0.5348316814
 40
0.6820858158
 40
0.8385565094
 40
1.0
 40
1.0
 40
1.0
 40
1.0
 10
3.3829046945
 20
4.2583411514
 30
0.0
 10
3.3835343843
 20
4.2586355158
 30
0.0
 10
3.3849404662
 20
4.2591998777
 30
0.0
 10
3.3872867948
 20
4.2599331863
 30
0.0
 10
3.3900406815
 20
4.2606042724
 30
0.0
 10
3.3931954269
 20
4.2611955207
 30
0.0
 10
3.3967267976
 20
4.2616871147
 30
0.0
 10
3.4005840735
 20
4.2620584888
 30
0.0
 10
3.4046845221
 20
4.262290395
 30
0.0
 10
3.4074910382
 20
4.2623428078
 30
0.0
 10
3.4089160959
 20
4.2623428078
 30
0.0
  0
SPLINE
  5
340
100
AcDbEntity
  8
0
100
AcDbSpline
 62
7
  6
CONTINUOUS
 70
0
 71
3
 72
17
 73
13
 74
0
 42
0.0000001
 43
0.0000001
 44
0.0000000001
 40
0.0
 40
0.0
 40
0.0
 40
0.0
 40
0.1304545364
 40
0.1954736468
 40
0.2601544547
 40
0.3881730328
 40
0.5142739935
 40
0.5765960728
 40
0.638411022
 40
0.7605396979
 40
0.8810156516
 40
1.0
 40
1.0
 40
1.0
 40
1.0
 10
3.4089160959
 20
4.2841130864
 30
0.0
 10
3.4074865945
 20
4.2841130864
 30
0.0
 10
3.4053394121
 20
4.2842881749
 30
0.0
 10
3.4025446385
 20
4.2848608956
 30
0.0
 10
3.3998289995
 20
4.2856456862
 30
0.0
 10
3.3965951134
 20
4.2870047065
 30
0.0
 10
3.3936215115
 20
4.2888128552
 30
0.0
 10
3.3914402209
 20
4.2904774927
 30
0.0
 10
3.3894090817
 20
4.2922568696
 30
0.0
 10
3.3871206666
 20
4.2946975787
 30
0.0
 10
3.384780221
 20
4.2979054503
 30
0.0
 10
3.3834842808
 20
4.3001944777
 30
0.0
 10
3.3829046945
 20
4.301362385
 30
0.0
  0
SPLINE
  5
341
100
AcDbEntity
  8
0
100
AcDbSpline
 62
7
  6
CONTINUOUS
 70
0
 71
3
 72
15
 73
11
 74
0
 42
0.0000001
 43
0.0000001
 44
0.0000000001
 40
0.0
 40
0.0
 40
0.0
 40
0.0
 40
0.0833069856
 40
0.1787720583
 40
0.2870585602
 40
0.4084668067
 40
0.5425301498
 40
0.6877714151
 40
0.8415719215
 40
1.0
 40
1.0
 40
1.0
 40
1.0
 10
3.3829046945
 20
4.301362385
 30
0.0
 10
3.3835235706
 20
4.3017851577
 30
0.0
 10
3.3849131301
 20
4.3026034784
 30
0.0
 10
3.387264419
 20
4.3036799843
 30
0.0
 10
3.390022791
 20
4.3046640477
 30
0.0
 10
3.3931814898
 20
4.3055302953
 30
0.0
 10
3.3967164985
 20
4.3062501979
 30
0.0
 10
3.4005772479
 20
4.3067938834
 30
0.0
 10
3.4046810634
 20
4.3071333397
 30
0.0
 10
3.4074907508
 20
4.3072100748
 30
0.0
 10
3.4089160959
 20
4.3072100748
 30
0.0
  0
SPLINE
  5
342
100
AcDbEntity
  8
0
100
AcDbSpline
 62
7
  6
CONTINUOUS
 70
0
 71
3
 72
17
 73
13
 74
0
 42
0.0000001
 43
0.0000001
 44
0.0000000001
 40
0.0
 40
0.0
 40
0.0
 40
0.0
 40
0.1329326225
 40
0.1990655715
 40
0.2647222682
 40
0.3941557556
 40
0.5208070391
 40
0.5830546679
 40
0.6445638736
 40
0.7654146785
 40
0.8837993947
 40
1.0
 40
1.0
 40
1.0
 40
1.0
 10
3.4089160959
 20
4.3298847644
 30
0.0
 10
3.4074871032
 20
4.3298847644
 30
0.0
 10
3.4053425156
 20
4.3300496268
 30
0.0
 10
3.4025467091
 20
4.330590335
 30
0.0
 10
3.3998352545
 20
4.3313299379
 30
0.0
 10
3.3966076492
 20
4.3326089545
 30
0.0
 10
3.3936287898
 20
4.3343171252
 30
0.0
 10
3.3914431891
 20
4.3358914902
 30
0.0
 10
3.3894155066
 20
4.3375682174
 30
0.0
 10
3.387129579
 20
4.3398679852
 30
0.0
 10
3.3847867844
 20
4.342897243
 30
0.0
 10
3.3834858604
 20
4.3450651691
 30
0.0
 10
3.3829046945
 20
4.3461708662
 30
0.0
  0
SPLINE
  5
343
100
AcDbEntity
  8
0
100
AcDbSpline
 62
7
  6
CONTINUOUS
 70
0
 71
3
 72
15
 73
11
 74
0
 42
0.0000001
 43
0.0000001
 44
0.0000000001
 40
0.0
 40
0.0
 40
0.0
 40
0.0
 40
0.0885986661
 40
0.1874896901
 40
0.2974674205
 40
0.4189936312
 40
0.5517946006
 40
0.6946392302
 40
0.8452222946
 40
1.0
 40
1.0
 40
1.0
 40
1.0
 10
3.3829046945
 20
4.3461708662
 30
0.0
 10
3.3835136678
 20
4.3467141953
 30
0.0
 10
3.3848849978
 20
4.347773054
 30
0.0
 10
3.3872393676
 20
4.3491847513
 30
0.0
 10
3.3900014593
 20
4.3504744421
 30
0.0
 10
3.3931641338
 20
4.3516091188
 30
0.0
 10
3.3967032739
 20
4.3525517566
 30
0.0
 10
3.4005683079
 20
4.3532634839
 30
0.0
 10
3.4046764812
 20
4.3537078035
 30
0.0
 10
3.4074903693
 20
4.3538082728
 30
0.0
 10
3.4089160959
 20
4.3538082728
 30
0.0
  0
SPLINE
  5
344
100
AcDbEntity
  8
0
100
AcDbSpline
 62
7
  6
CONTINUOUS
 70
0
 71
3
 72
17
 73
13
 74
0
 42
0.0000001
 43
0.0000001
 44
0.0000000001
 40
0.0
 40
0.0
 40
0.0
 40
0.0
 40
0.1358455396
 40
0.2032920374
 40
0.2701042224
 40
0.4012296414
 40
0.5285650444
 40
0.5907419168
 40
0.6519044239
 40
0.7712584514
 40
0.8871515532
 40
1.0
 40
1.0
 40
1.0
 40
1.0
 10
3.4089160959
 20
4.3771690038
 30
0.0
 10
3.4074876593
 20
4.3771690038
 30
0.0
 10
3.4053459175
 20
4.3773220697
 30
0.0
 10
3.4025490018
 20
4.3778255548
 30
0.0
 10
3.3998422354
 20
4.3785128737
 30
0.0
 10
3.3966219846
 20
4.3796995202
 30
0.0
 10
3.3936373784
 20
4.3812910833
 30
0.0
 10
3.3914467526
 20
4.3827600667
 30
0.0
 10
3.3894233567
 20
4.3843177018
 30
0.0
 10
3.3871408373
 20
4.3864536468
 30
0.0
 10
3.384795331
 20
4.3892748173
 30
0.0
 10
3.3834879603
 20
4.3913016892
 30
0.0
 10
3.3829046945
 20
4.3923350647
 30
0.0
  0
SPLINE
  5
345
100
AcDbEntity
  8
0
100
AcDbSpline
 62
7
  6
CONTINUOUS
 70
0
 71
3
 72
14
 73
10
 74
0
 42
0.0000001
 43
0.0000001
 44
0.0000000001
 40
0.0
 40
0.0
 40
0.0
 40
0.0
 40
0.196376824
 40
0.3082974227
 40
0.4300889914
 40
0.5616455273
 40
0.7019842736
 40
0.8491393427
 40
1.0
 40
1.0
 40
1.0
 40
1.0
 10
3.3829046945
 20
4.3923350647
 30
0.0
 10
3.3841580541
 20
4.3937045961
 30
0.0
 10
3.3864472755
 20
4.3955711577
 30
0.0
 10
3.3899780506
 20
4.3975938861
 30
0.0
 10
3.3931449661
 20
4.3989882475
 30
0.0
 10
3.3966878761
 20
4.4001456406
 30
0.0
 10
3.4005577057
 20
4.401019663
 30
0.0
 10
3.4046709526
 20
4.401565217
 30
0.0
 10
3.4074899085
 20
4.4016886358
 30
0.0
 10
3.4089160959
 20
4.4016886358
 30
0.0
  0
SPLINE
  5
346
100
AcDbEntity
  8
0
100
AcDbSpline
 62
7
  6
CONTINUOUS
 70
0
 71
3
 72
15
 73
11
 74
0
 42
0.0000001
 43
0.0000001
 44
0.0000000001
 40
0.0
 40
0.0
 40
0.0
 40
0.0
 40
0.1391799846
 40
0.2762106417
 40
0.4093168362
 40
0.5374976981
 40
0.6603576902
 40
0.7780340087
 40
0.8910630147
 40
1.0
 40
1.0
 40
1.0
 40
1.0
 10
3.4089160959
 20
4.4255104315
 30
0.0
 10
3.4074882399
 20
4.4255104315
 30
0.0
 10
3.404651062
 20
4.4256958297
 30
0.0
 10
3.4005207668
 20
4.4265138766
 30
0.0
 10
3.3966377091
 20
4.4278234084
 30
0.0
 10
3.393086198
 20
4.4295564403
 30
0.0
 10
3.3899171871
 20
4.4316404968
 30
0.0
 10
3.3871548884
 20
4.4340063039
 30
0.0
 10
3.3848062848
 20
4.4365918407
 30
0.0
 10
3.3834907351
 20
4.4384587815
 30
0.0
 10
3.3829046945
 20
4.439410394
 30
0.0
  0
SPLINE
  5
347
100
AcDbEntity
  8
0
100
AcDbSpline
 62
7
  6
CONTINUOUS
 70
0
 71
3
 72
15
 73
11
 74
0
 42
0.0000001
 43
0.0000001
 44
0.0000000001
 40
0.0
 40
0.0
 40
0.0
 40
0.0
 40
0.0994661872
 40
0.2057369408
 40
0.3195977424
 40
0.4416547755
 40
0.5719277167
 40
0.7096636811
 40
0.8532397126
 40
1.0
 40
1.0
 40
1.0
 40
1.0
 10
3.3829046945
 20
4.439410394
 30
0.0
 10
3.3834992253
 20
4.440172968
 30
0.0
 10
3.3848378491
 20
4.441667894
 30
0.0
 10
3.3871916969
 20
4.4437072259
 30
0.0
 10
3.389956518
 20
4.4455710692
 30
0.0
 10
3.3931246044
 20
4.4472111368
 30
0.0
 10
3.396671369
 20
4.4485736643
 30
0.0
 10
3.400545875
 20
4.4496024251
 30
0.0
 10
3.4046647143
 20
4.4502446878
 30
0.0
 10
3.4074893863
 20
4.4503900496
 30
0.0
 10
3.4089160959
 20
4.4503900496
 30
0.0
  0
SPLINE
  5
348
100
AcDbEntity
  8
0
100
AcDbSpline
 62
7
  6
CONTINUOUS
 70
0
 71
3
 72
15
 73
11
 74
0
 42
0.0000001
 43
0.0000001
 44
0.0000000001
 40
0.0
 40
0.0
 40
0.0
 40
0.0
 40
0.1428410419
 40
0.2830228661
 40
0.4183403938
 40
0.5474962282
 40
0.6699348046
 40
0.785755259
 40
0.8955486416
 40
1.0
 40
1.0
 40
1.0
 40
1.0
 10
3.4089160959
 20
4.4744434932
 30
0.0
 10
3.4074888233
 20
4.4744434932
 30
0.0
 10
3.4046579959
 20
4.4746095892
 30
0.0
 10
3.4005333976
 20
4.4753430024
 30
0.0
 10
3.3966543799
 20
4.4765174955
 30
0.0
 10
3.3931048181
 20
4.4780725645
 30
0.0
 10
3.3899357591
 20
4.479943656
 30
0.0
 10
3.3871717484
 20
4.4820689853
 30
0.0
 10
3.3848202741
 20
4.4843930721
 30
0.0
 10
3.3834943972
 20
4.4860823765
 30
0.0
 10
3.3829046945
 20
4.4869434932
 30
0.0
  0
SPLINE
  5
349
100
AcDbEntity
  8
0
100
AcDbSpline
 62
7
  6
CONTINUOUS
 70
0
 71
3
 72
15
 73
11
 74
0
 42
0.0000001
 43
0.0000001
 44
0.0000000001
 40
0.0
 40
0.0
 40
0.0
 40
0.0
 40
0.1044513487
 40
0.214244719
 40
0.3300651615
 40
0.452503705
 40
0.5816595181
 40
0.7169770267
 40
0.8571588926
 40
1.0
 40
1.0
 40
1.0
 40
1.0
 10
3.3829046945
 20
4.4869434932
 30
0.0
 10
3.3834943972
 20
4.4878046098
 30
0.0
 10
3.3848202739
 20
4.489493914
 30
0.0
 10
3.3871717479
 20
4.4918180006
 30
0.0
 10
3.3899357582
 20
4.4939433295
 30
0.0
 10
3.3931048163
 20
4.495814421
 30
0.0
 10
3.3966543775
 20
4.4973694898
 30
0.0
 10
3.400533395
 20
4.4985439834
 30
0.0
 10
3.4046579942
 20
4.4992773967
 30
0.0
 10
3.4074888226
 20
4.4994434932
 30
0.0
 10
3.4089160959
 20
4.4994434932
 30
0.0
  0
SPLINE
  5
34A
100
AcDbEntity
  8
0
100
AcDbSpline
 62
7
  6
CONTINUOUS
 70
0
 71
3
 72
15
 73
11
 74
0
 42
0.0000001
 43
0.0000001
 44
0.0000000001
 40
0.0
 40
0.0
 40
0.0
 40
0.0
 40
0.1467602202
 40
0.2903362092
 40
0.4280721938
 40
0.5583451571
 40
0.6804022241
 40
0.7942630378
 40
0.9005338034
 40
1.0
 40
1.0
 40
1.0
 40
1.0
 10
3.4089160959
 20
4.5234969367
 30
0.0
 10
3.4074893869
 20
4.5234969367
 30
0.0
 10
3.404664716
 20
4.5236422981
 30
0.0
 10
3.4005458776
 20
4.5242845607
 30
0.0
 10
3.3966713714
 20
4.5253133211
 30
0.0
 10
3.3931246061
 20
4.5266758488
 30
0.0
 10
3.389956519
 20
4.5283159164
 30
0.0
 10
3.3871916974
 20
4.53017976
 30
0.0
 10
3.3848378493
 20
4.5322190921
 30
0.0
 10
3.3834992254
 20
4.5337140183
 30
0.0
 10
3.3829046945
 20
4.5344765923
 30
0.0
  0
SPLINE
  5
34B
100
AcDbEntity
  8
0
100
AcDbSpline
 62
7
  6
CONTINUOUS
 70
0
 71
3
 72
15
 73
11
 74
0
 42
0.0000001
 43
0.0000001
 44
0.0000000001
 40
0.0
 40
0.0
 40
0.0
 40
0.0
 40
0.1089369754
 40
0.2219659688
 40
0.3396422754
 40
0.4625022356
 40
0.5906830768
 40
0.7237892532
 40
0.8608199514
 40
1.0
 40
1.0
 40
1.0
 40
1.0
 10
3.3829046945
 20
4.5344765923
 30
0.0
 10
3.383490735
 20
4.5354282048
 30
0.0
 10
3.3848062846
 20
4.5372951453
 30
0.0
 10
3.3871548879
 20
4.5398806819
 30
0.0
 10
3.3899171862
 20
4.5422464887
 30
0.0
 10
3.3930861962
 20
4.5443305451
 30
0.0
 10
3.3966377066
 20
4.5460635768
 30
0.0
 10
3.4005207642
 20
4.5473731091
 30
0.0
 10
3.4046510603
 20
4.5481911562
 30
0.0
 10
3.4074882393
 20
4.5483765548
 30
0.0
 10
3.4089160959
 20
4.5483765548
 30
0.0
  0
SPLINE
  5
34C
100
AcDbEntity
  8
0
100
AcDbSpline
 62
7
  6
CONTINUOUS
 70
0
 71
3
 72
14
 73
10
 74
0
 42
0.0000001
 43
0.0000001
 44
0.0000000001
 40
0.0
 40
0.0
 40
0.0
 40
0.0
 40
0.1508605884
 40
0.2980156142
 40
0.4383543818
 40
0.5699109406
 40
0.6917025442
 40
0.8036231552
 40
1.0
 40
1.0
 40
1.0
 40
1.0
 10
3.4089160959
 20
4.5721983505
 30
0.0
 10
3.4074899092
 20
4.5721983505
 30
0.0
 10
3.4046709543
 20
4.572321769
 30
0.0
 10
3.4005577082
 20
4.5728673229
 30
0.0
 10
3.3966878786
 20
4.573741345
 30
0.0
 10
3.3931449678
 20
4.5748987382
 30
0.0
 10
3.3899780516
 20
4.5762930996
 30
0.0
 10
3.386447276
 20
4.5783158283
 30
0.0
 10
3.3841580542
 20
4.58018239
 30
0.0
 10
3.3829046945
 20
4.5815519216
 30
0.0
  0
SPLINE
  5
34D
100
AcDbEntity
  8
0
100
AcDbSpline
 62
7
  6
CONTINUOUS
 70
0
 71
3
 72
17
 73
13
 74
0
 42
0.0000001
 43
0.0000001
 44
0.0000000001
 40
0.0
 40
0.0
 40
0.0
 40
0.0
 40
0.1128484366
 40
0.2287415255
 40
0.3480955412
 40
0.4092580374
 40
0.4714348893
 40
0.5987702722
 40
0.7298956741
 40
0.7967078617
 40
0.8641543979
 40
1.0
 40
1.0
 40
1.0
 40
1.0
 10
3.3829046945
 20
4.5815519216
 30
0.0
 10
3.3834879602
 20
4.582585297
 30
0.0
 10
3.3847953307
 20
4.5846121687
 30
0.0
 10
3.3871408368
 20
4.5874333389
 30
0.0
 10
3.3894233559
 20
4.5895692837
 30
0.0
 10
3.3914467513
 20
4.5911269188
 30
0.0
 10
3.3936373765
 20
4.592595902
 30
0.0
 10
3.3966219821
 20
4.594187465
 30
0.0
 10
3.3998422325
 20
4.5953741115
 30
0.0
 10
3.4025489989
 20
4.5960614312
 30
0.0
 10
3.4053459159
 20
4.5965649159
 30
0.0
 10
3.4074876587
 20
4.5967179825
 30
0.0
 10
3.4089160959
 20
4.5967179825
 30
0.0
  0
SPLINE
  5
34E
100
AcDbEntity
  8
0
100
AcDbSpline
 62
7
  6
CONTINUOUS
 70
0
 71
3
 72
15
 73
11
 74
0
 42
0.0000001
 43
0.0000001
 44
0.0000000001
 40
0.0
 40
0.0
 40
0.0
 40
0.0
 40
0.1547776349
 40
0.305360655
 40
0.4482053072
 40
0.5810063002
 40
0.7025325468
 40
0.8125102897
 40
0.911401325
 40
1.0
 40
1.0
 40
1.0
 40
1.0
 10
3.4089160959
 20
4.6200787135
 30
0.0
 10
3.4074903699
 20
4.6200787135
 30
0.0
 10
3.4046764829
 20
4.6201791825
 30
0.0
 10
3.4005683104
 20
4.6206235021
 30
0.0
 10
3.3967032764
 20
4.621335229
 30
0.0
 10
3.3931641355
 20
4.6222778671
 30
0.0
 10
3.3900014603
 20
4.6234125437
 30
0.0
 10
3.3872393681
 20
4.6247022347
 30
0.0
 10
3.384884998
 20
4.6261139321
 30
0.0
 10
3.3835136678
 20
4.6271727909
 30
0.0
 10
3.3829046945
 20
4.6277161201
 30
0.0
  0
SPLINE
  5
34F
100
AcDbEntity
  8
0
100
AcDbSpline
 62
7
  6
CONTINUOUS
 70
0
 71
3
 72
17
 73
13
 74
0
 42
0.0000001
 43
0.0000001
 44
0.0000000001
 40
0.0
 40
0.0
 40
0.0
 40
0.0
 40
0.1162006029
 40
0.2345853161
 40
0.3554361176
 40
0.4169453198
 40
0.4791929427
 40
0.6058442208
 40
0.7352777057
 40
0.8009344045
 40
0.8670673632
 40
1.0
 40
1.0
 40
1.0
 40
1.0
 10
3.3829046945
 20
4.6277161201
 30
0.0
 10
3.3834858604
 20
4.6288218172
 30
0.0
 10
3.3847867844
 20
4.6309897432
 30
0.0
 10
3.3871295789
 20
4.6340190009
 30
0.0
 10
3.3894155064
 20
4.6363187687
 30
0.0
 10
3.3914431887
 20
4.6379954958
 30
0.0
 10
3.3936287893
 20
4.6395698608
 30
0.0
 10
3.3966076486
 20
4.6412780315
 30
0.0
 10
3.3998352537
 20
4.6425570481
 30
0.0
 10
3.4025467084
 20
4.6432966513
 30
0.0
 10
3.4053425152
 20
4.6438373594
 30
0.0
 10
3.4074871031
 20
4.6440022219
 30
0.0
 10
3.4089160959
 20
4.6440022219
 30
0.0
  0
SPLINE
  5
350
100
AcDbEntity
  8
0
100
AcDbSpline
 62
7
  6
CONTINUOUS
 70
0
 71
3
 72
15
 73
11
 74
0
 42
0.0000001
 43
0.0000001
 44
0.0000000001
 40
0.0
 40
0.0
 40
0.0
 40
0.0
 40
0.1584280064
 40
0.3122284678
 40
0.4574697567
 40
0.5915331241
 40
0.7129414074
 40
0.821227922
 40
0.9166930058
 40
1.0
 40
1.0
 40
1.0
 40
1.0
 10
3.4089160959
 20
4.6666769115
 30
0.0
 10
3.4074907514
 20
4.6666769115
 30
0.0
 10
3.4046810651
 20
4.6667536464
 30
0.0
 10
3.4005772504
 20
4.6670931027
 30
0.0
 10
3.3967165009
 20
4.6676367879
 30
0.0
 10
3.3931814916
 20
4.6683566906
 30
0.0
 10
3.390022792
 20
4.6692229382
 30
0.0
 10
3.3872644195
 20
4.6702070017
 30
0.0
 10
3.3849131303
 20
4.6712835078
 30
0.0
 10
3.3835235706
 20
4.6721018286
 30
0.0
 10
3.3829046945
 20
4.6725246013
 30
0.0
  0
SPLINE
  5
351
100
AcDbEntity
  8
0
100
AcDbSpline
 62
7
  6
CONTINUOUS
 70
0
 71
3
 72
17
 73
13
 74
0
 42
0.0000001
 43
0.0000001
 44
0.0000000001
 40
0.0
 40
0.0
 40
0.0
 40
0.0
 40
0.1189843378
 40
0.2394602783
 40
0.3615889425
 40
0.4234038813
 40
0.4857259407
 40
0.6118268824
 40
0.739845445
 40
0.8045262561
 40
0.8695454034
 40
1.0
 40
1.0
 40
1.0
 40
1.0
 10
3.3829046945
 20
4.6725246013
 30
0.0
 10
3.3834842807
 20
4.6736925085
 30
0.0
 10
3.3847802208
 20
4.6759815357
 30
0.0
 10
3.3871206661
 20
4.679189407
 30
0.0
 10
3.3894090809
 20
4.6816301158
 30
0.0
 10
3.3914402196
 20
4.6834094926
 30
0.0
 10
3.3936215097
 20
4.6850741299
 30
0.0
 10
3.396595111
 20
4.6868822785
 30
0.0
 10
3.3998289966
 20
4.6882412988
 30
0.0
 10
3.4025446357
 20
4.6890260903
 30
0.0
 10
3.4053394104
 20
4.6895988106
 30
0.0
 10
3.4074865939
 20
4.6897738999
 30
0.0
 10
3.4089160959
 20
4.6897738999
 30
0.0
  0
SPLINE
  5
352
100
AcDbEntity
  8
0
100
AcDbSpline
 62
7
  6
CONTINUOUS
 70
0
 71
3
 72
15
 73
11
 74
0
 42
0.0000001
 43
0.0000001
 44
0.0000000001
 40
0.0
 40
0.0
 40
0.0
 40
0.0
 40
0.1614434172
 40
0.3179140651
 40
0.465168224
 40
0.6003287771
 40
0.7217044038
 40
0.828641382
 40
0.9212531045
 40
1.0
 40
1.0
 40
1.0
 40
1.0
 10
3.4089160959
 20
4.7115441785
 30
0.0
 10
3.4074910389
 20
4.7115441785
 30
0.0
 10
3.4046845238
 20
4.7115965911
 30
0.0
 10
3.4005840761
 20
4.7118284973
 30
0.0
 10
3.3967268001
 20
4.7121998712
 30
0.0
 10
3.3931954287
 20
4.7126914654
 30
0.0
 10
3.3900406825
 20
4.7132827136
 30
0.0
 10
3.3872867953
 20
4.7139537998
 30
0.0
 10
3.3849404664
 20
4.7146871086
 30
0.0
 10
3.3835343844
 20
4.7152514704
 30
0.0
 10
3.3829046945
 20
4.7155458349
 30
0.0
  0
SPLINE
  5
353
100
AcDbEntity
  8
0
100
AcDbSpline
 62
7
  6
CONTINUOUS
 70
0
 71
3
 72
17
 73
13
 74
0
 42
0.0000001
 43
0.0000001
 44
0.0000000001
 40
0.0
 40
0.0
 40
0.0
 40
0.0
 40
0.1212157909
 40
0.2433819674
 40
0.366557464
 40
0.428629238
 40
0.4910214999
 40
0.6166938609
 40
0.7435724985
 40
0.8074604018
 40
0.8715714697
 40
1.0
 40
1.0
 40
1.0
 40
1.0
 10
3.3829046945
 20
4.7155458349
 30
0.0
 10
3.3834831105
 20
4.7167652431
 30
0.0
 10
3.3847752833
 20
4.7191543914
 30
0.0
 10
3.3871138032
 20
4.7225098608
 30
0.0
 10
3.3894039996
 20
4.7250672085
 30
0.0
 10
3.3914378368
 20
4.726931668
 30
0.0
 10
3.3936155855
 20
4.7286707744
 30
0.0
 10
3.3965846354
 20
4.7305614287
 30
0.0
 10
3.3998236544
 20
4.7319870378
 30
0.0
 10
3.4025428515
 20
4.7328093856
 30
0.0
 10
3.4053367167
 20
4.733408597
 30
0.0
 10
3.4074861505
 20
4.7335922101
 30
0.0
 10
3.4089160959
 20
4.7335922101
 30
0.0
  0
SPLINE
  5
354
100
AcDbEntity
  8
0
100
AcDbSpline
 62
7
  6
CONTINUOUS
 70
0
 71
3
 72
15
 73
11
 74
0
 42
0.0000001
 43
0.0000001
 44
0.0000000001
 40
0.0
 40
0.0
 40
0.0
 40
0.0
 40
0.1634968027
 40
0.3217920996
 40
0.4704341328
 40
0.6063707173
 40
0.7277599236
 40
0.8338067322
 40
0.9244668627
 40
1.0
 40
1.0
 40
1.0
 40
1.0
 10
3.4089160959
 20
4.7542484181
 30
0.0
 10
3.4074912212
 20
4.7542484181
 30
0.0
 10
3.4046867202
 20
4.7542761143
 30
0.0
 10
3.4005884459
 20
4.754398673
 30
0.0
 10
3.3967334864
 20
4.7545949152
 30
0.0
 10
3.3932046836
 20
4.7548546175
 30
0.0
 10
3.3900529455
 20
4.7551668434
 30
0.0
 10
3.3873029311
 20
4.7555209219
 30
0.0
 10
3.3849615315
 20
4.7559073963
 30
0.0
 10
3.3835437126
 20
4.7562074618
 30
0.0
 10
3.3829046945
 20
4.756365503
 30
0.0
  0
SPLINE
  5
355
100
AcDbEntity
  8
0
100
AcDbSpline
 62
7
  6
CONTINUOUS
 70
0
 71
3
 72
18
 73
14
 74
0
 42
0.0000001
 43
0.0000001
 44
0.0000000001
 40
0.0
 40
0.0
 40
0.0
 40
0.0
 40
0.1229000232
 40
0.2463464383
 40
0.3703175941
 40
0.4949562324
 40
0.557574791
 40
0.6203833348
 40
0.6833535746
 40
0.7464785021
 40
0.809749221
 40
0.8731525393
 40
1.0
 40
1.0
 40
1.0
 40
1.0
 10
3.3829046945
 20
4.756365503
 30
0.0
 10
3.3834822723
 20
4.7576251986
 30
0.0
 10
3.3847716392
 20
4.7600925349
 30
0.0
 10
3.3871089827
 20
4.7635635818
 30
0.0
 10
3.3898607901
 20
4.7667445094
 30
0.0
 10
3.3924942446
 20
4.7690824517
 30
0.0
 10
3.3947926921
 20
4.77071953
 30
0.0
 10
3.3966121363
 20
4.771820165
 30
0.0
 10
3.398516304
 20
4.7727796574
 30
0.0
 10
3.4004964345
 20
4.7735848392
 30
0.0
 10
3.4025414776
 20
4.7742249683
 30
0.0
 10
3.4053344948
 20
4.7748448074
 30
0.0
 10
3.40748579
 20
4.7750351584
 30
0.0
 10
3.4089160959
 20
4.7750351584
 30
0.0
  0
LINE
  5
356
100
AcDbEntity
  8
0
100
AcDbLine
 62
7
  6
CONTINUOUS
 10
3.4089160959
 20
4.7943783651
 11
3.3829046945
 21
4.7945904898
  0
SPLINE
  5
357
100
AcDbEntity
  8
0
100
AcDbSpline
 62
7
  6
CONTINUOUS
 70
0
 71
3
 72
18
 73
14
 74
0
 42
0.0000001
 43
0.0000001
 44
0.0000000001
 40
0.0
 40
0.0
 40
0.0
 40
0.0
 40
0.124083003
 40
0.2484349615
 40
0.3729767706
 40
0.4978042214
 40
0.5603655061
 40
0.6230148205
 40
0.6857277214
 40
0.7485041594
 40
0.8113465428
 40
0.8742569044
 40
1.0
 40
1.0
 40
1.0
 40
1.0
 10
3.3829046945
 20
4.7945904898
 30
0.0
 10
3.3834817133
 20
4.7958788604
 30
0.0
 10
3.3847692344
 20
4.7984018562
 30
0.0
 10
3.3871055451
 20
4.8019548931
 30
0.0
 10
3.3898562253
 20
4.8052112621
 30
0.0
 10
3.392491047
 20
4.8076070501
 30
0.0
 10
3.3947912488
 20
4.8092845134
 30
0.0
 10
3.396610683
 20
4.8104114413
 30
0.0
 10
3.398514899
 20
4.8113938963
 30
0.0
 10
3.4004951608
 20
4.8122183934
 30
0.0
 10
3.4025404338
 20
4.812873907
 30
0.0
 10
3.4053328996
 20
4.8135084811
 30
0.0
 10
3.407485526
 20
4.8137036265
 30
0.0
 10
3.4089160959
 20
4.8137036265
 30
0.0
  0
SPLINE
  5
358
100
AcDbEntity
  8
0
100
AcDbSpline
 62
7
  6
CONTINUOUS
 70
0
 71
3
 72
15
 73
11
 74
0
 42
0.0000001
 43
0.0000001
 44
0.0000000001
 40
0.0
 40
0.0
 40
0.0
 40
0.0
 40
0.1248048213
 40
0.2497200783
 40
0.3746330366
 40
0.4996115695
 40
0.624648626
 40
0.749721579
 40
0.8748590676
 40
1.0
 40
1.0
 40
1.0
 40
1.0
 10
3.3829046945
 20
4.829852668
 30
0.0
 10
3.3834813999
 20
4.8311578155
 30
0.0
 10
3.3847679017
 20
4.8337133754
 30
0.0
 10
3.3871035149
 20
4.8373143028
 30
0.0
 10
3.3898538995
 20
4.8406149492
 30
0.0
 10
3.3930152278
 20
4.8435298552
 30
0.0
 10
3.3965672155
 20
4.8459616519
 30
0.0
 10
3.4004626054
 20
4.8478059167
 30
0.0
 10
3.4046172579
 20
4.8489619855
 30
0.0
 10
3.4074853688
 20
4.8492252158
 30
0.0
 10
3.4089160959
 20
4.8492252158
 30
0.0
  0
SPLINE
  5
359
100
AcDbEntity
  8
0
100
AcDbSpline
 62
7
  6
CONTINUOUS
 70
0
 71
3
 72
15
 73
11
 74
0
 42
0.0000001
 43
0.0000001
 44
0.0000000001
 40
0.0
 40
0.0
 40
0.0
 40
0.0
 40
0.1249953649
 40
0.2500571162
 40
0.3750630895
 40
0.5000732523
 40
0.6250760649
 40
0.7500510607
 40
0.8750385905
 40
1.0
 40
1.0
 40
1.0
 40
1.0
 10
3.3829046945
 20
4.8618124433
 30
0.0
 10
3.3834813136
 20
4.8631223023
 30
0.0
 10
3.384767528
 20
4.865687003
 30
0.0
 10
3.387102974
 20
4.8693013882
 30
0.0
 10
3.3898531733
 20
4.8726144171
 30
0.0
 10
3.3930143378
 20
4.8755403419
 30
0.0
 10
3.3965662534
 20
4.877981446
 30
0.0
 10
3.400461753
 20
4.8798328889
 30
0.0
 10
3.4046167377
 20
4.8809935382
 30
0.0
 10
3.4074853242
 20
4.8812578341
 30
0.0
 10
3.4089160959
 20
4.8812578341
 30
0.0
  0
SPLINE
  5
35A
100
AcDbEntity
  8
0
100
AcDbSpline
 62
7
  6
CONTINUOUS
 70
0
 71
3
 72
18
 73
14
 74
0
 42
0.0000001
 43
0.0000001
 44
0.0000000001
 40
0.0
 40
0.0
 40
0.0
 40
0.0
 40
0.1246564428
 40
0.24944852
 40
0.374268916
 40
0.4991899831
 40
0.5617242984
 40
0.6242969026
 40
0.686885115
 40
0.7494921898
 40
0.8121259974
 40
0.8747959947
 40
1.0
 40
1.0
 40
1.0
 40
1.0
 10
3.3829046945
 20
4.8901620256
 30
0.0
 10
3.3834814495
 20
4.8914644836
 30
0.0
 10
3.3847680941
 20
4.8940148148
 30
0.0
 10
3.3871039031
 20
4.8976081064
 30
0.0
 10
3.3898540258
 20
4.9009015094
 30
0.0
 10
3.3924894912
 20
4.903325717
 30
0.0
 10
3.3947905429
 20
4.905023033
 30
0.0
 10
3.3966099688
 20
4.9061628755
 30
0.0
 10
3.3985142053
 20
4.9071566107
 30
0.0
 10
3.4004945293
 20
4.9079905978
 30
0.0
 10
3.4025399146
 20
4.9086536713
 30
0.0
 10
3.4053321037
 20
4.9092954828
 30
0.0
 10
3.4074853941
 20
4.9094929898
 30
0.0
 10
3.4089160959
 20
4.9094929898
 30
0.0
  0
SPLINE
  5
35B
100
AcDbEntity
  8
0
100
AcDbSpline
 62
7
  6
CONTINUOUS
 70
0
 71
3
 72
18
 73
14
 74
0
 42
0.0000001
 43
0.0000001
 44
0.0000000001
 40
0.0
 40
0.0
 40
0.0
 40
0.0
 40
0.1238638009
 40
0.2480477203
 40
0.372483376
 40
0.4972754026
 40
0.5598471342
 40
0.6225258546
 40
0.6852864291
 40
0.7481275331
 40
0.8110494836
 40
0.8740514832
 40
1.0
 40
1.0
 40
1.0
 40
1.0
 10
3.3829046945
 20
4.9146283931
 30
0.0
 10
3.3834818154
 20
4.9159114115
 30
0.0
 10
3.3847696746
 20
4.9184240203
 30
0.0
 10
3.387106177
 20
4.9219617589
 30
0.0
 10
3.3898570684
 20
4.9252040527
 30
0.0
 10
3.3924916407
 20
4.9275890433
 30
0.0
 10
3.3947915176
 20
4.9292589661
 30
0.0
 10
3.3966109544
 20
4.9303809869
 30
0.0
 10
3.3985151619
 20
4.9313591561
 30
0.0
 10
3.4004953997
 20
4.9321800478
 30
0.0
 10
3.40254063
 20
4.9328326895
 30
0.0
 10
3.4053331999
 20
4.9334645137
 30
0.0
 10
3.4074855757
 20
4.9336587628
 30
0.0
 10
3.4089160959
 20
4.9336587628
 30
0.0
  0
SPLINE
  5
35C
100
AcDbEntity
  8
0
100
AcDbSpline
 62
7
  6
CONTINUOUS
 70
0
 71
3
 72
17
 73
13
 74
0
 42
0.0000001
 43
0.0000001
 44
0.0000000001
 40
0.0
 40
0.0
 40
0.0
 40
0.0
 40
0.1225819357
 40
0.24578883
 40
0.3696149774
 40
0.4318491788
 40
0.4942891359
 40
0.6197049515
 40
0.7458834653
 40
0.8092812898
 40
0.872829649
 40
1.0
 40
1.0
 40
1.0
 40
1.0
 10
3.3829046945
 20
4.9349759213
 30
0.0
 10
3.3834824329
 20
4.9362276553
 30
0.0
 10
3.3847723946
 20
4.9386795949
 30
0.0
 10
3.3871097236
 20
4.9421275863
 30
0.0
 10
3.3894009217
 20
4.944758112
 30
0.0
 10
3.3914363781
 20
4.9466760111
 30
0.0
 10
3.3936119226
 20
4.9484617397
 30
0.0
 10
3.3965780324
 20
4.9504040505
 30
0.0
 10
3.3998202317
 20
4.9518716118
 30
0.0
 10
3.4025417012
 20
4.9527176
 30
0.0
 10
3.4053349697
 20
4.9533334329
 30
0.0
 10
3.4074858622
 20
4.9535224236
 30
0.0
 10
3.4089160959
 20
4.9535224236
 30
0.0
  0
SPLINE
  5
35D
100
AcDbEntity
  8
0
100
AcDbSpline
 62
7
  6
CONTINUOUS
 70
0
 71
3
 72
17
 73
13
 74
0
 42
0.0000001
 43
0.0000001
 44
0.0000000001
 40
0.0
 40
0.0
 40
0.0
 40
0.0
 40
0.1207666539
 40
0.2425916548
 40
0.3655548549
 40
0.4275740904
 40
0.4899514584
 40
0.6157091458
 40
0.7428175999
 40
0.8068658537
 40
0.871160794
 40
1.0
 40
1.0
 40
1.0
 40
1.0
 10
3.3829046945
 20
4.9510086522
 30
0.0
 10
3.3834833396
 20
4.9522175686
 30
0.0
 10
3.3847762548
 20
4.954586329
 30
0.0
 10
3.3871151646
 20
4.9579117493
 30
0.0
 10
3.3894050171
 20
4.9604453401
 30
0.0
 10
3.3914383164
 20
4.9622924604
 30
0.0
 10
3.3936167839
 20
4.9640164151
 30
0.0
 10
3.3965867747
 20
4.9658902817
 30
0.0
 10
3.399824754
 20
4.9673023002
 30
0.0
 10
3.4025432198
 20
4.9681169863
 30
0.0
 10
3.4053372745
 20
4.9687108019
 30
0.0
 10
3.4074862424
 20
4.9688926742
 30
0.0
 10
3.4089160959
 20
4.9688926742
 30
0.0
  0
SPLINE
  5
35E
100
AcDbEntity
  8
0
100
AcDbSpline
 62
7
  6
CONTINUOUS
 70
0
 71
3
 72
17
 73
13
 74
0
 42
0.0000001
 43
0.0000001
 44
0.0000000001
 40
0.0
 40
0.0
 40
0.0
 40
0.0
 40
0.1184141168
 40
0.2384601005
 40
0.3603244564
 40
0.4220754451
 40
0.484381079
 40
0.6105933696
 40
0.7389024403
 40
0.8037843545
 40
0.869033367
 40
1.0
 40
1.0
 40
1.0
 40
1.0
 10
3.3829046945
 20
4.9625721819
 30
0.0
 10
3.3834845931
 20
4.9637271704
 30
0.0
 10
3.3847815278
 20
4.965991065
 30
0.0
 10
3.3871224599
 20
4.9691618744
 30
0.0
 10
3.3894103896
 20
4.9715733177
 30
0.0
 10
3.3914408283
 20
4.9733313653
 30
0.0
 10
3.3936230112
 20
4.9749772852
 30
0.0
 10
3.3965977268
 20
4.9767646995
 30
0.0
 10
3.3998303142
 20
4.9781070663
 30
0.0
 10
3.4025450737
 20
4.9788824579
 30
0.0
 10
3.4053400687
 20
4.9794485314
 30
0.0
 10
3.407486702
 20
4.9796214907
 30
0.0
 10
3.4089160959
 20
4.9796214907
 30
0.0
  0
SPLINE
  5
35F
100
AcDbEntity
  8
0
100
AcDbSpline
 62
7
  6
CONTINUOUS
 70
0
 71
3
 72
17
 73
13
 74
0
 42
0.0000001
 43
0.0000001
 44
0.0000000001
 40
0.0
 40
0.0
 40
0.0
 40
0.0
 40
0.1155052276
 40
0.2333706436
 40
0.3539071521
 40
0.4153425115
 40
0.4775737778
 40
0.6043651089
 40
0.7341506887
 40
0.8000488544
 40
0.8664567753
 40
1.0
 40
1.0
 40
1.0
 40
1.0
 10
3.3829046945
 20
4.9695551474
 30
0.0
 10
3.3834862774
 20
4.9706456241
 30
0.0
 10
3.3847884977
 20
4.9727838909
 30
0.0
 10
3.3871318669
 20
4.9757693951
 30
0.0
 10
3.3894171252
 20
4.9780346794
 30
0.0
 10
3.3914439292
 20
4.9796863188
 30
0.0
 10
3.3936305873
 20
4.9812385446
 30
0.0
 10
3.3966106899
 20
4.9829222064
 30
0.0
 10
3.3998367498
 20
4.9841817249
 30
0.0
 10
3.4025472013
 20
4.9849103023
 30
0.0
 10
3.4053432497
 20
4.985443177
 30
0.0
 10
3.4074872233
 20
4.9856055488
 30
0.0
 10
3.4089160959
 20
4.9856055488
 30
0.0
  0
ENDSEC
  0
SECTION
  2
OBJECTS
  0
DICTIONARY
  5
C
100
AcDbDictionary
280
0
281
1
  3
ACAD_GROUP
350
D
  3
ACAD_MLINESTYLE
350
17
  3
ACAD_LAYOUT
350
1A
  3
ACAD_PLOTSETTINGS
350
19
  3
ACAD_PLOTSTYLENAME
350
E
  0
DICTIONARY
  5
D
102
{ACAD_REACTORS
330
C
102
}
100
AcDbDictionary
280
0
281
1
  0
ACDBDICTIONARYWDFLT
  5
E
102
{ACAD_REACTORS
330
C
102
}
100
AcDbDictionary
281
1
  3
Normal
350
F
100
AcDbDictionaryWithDefault
340
F
  0
DICTIONARY
  5
17
102
{ACAD_REACTORS
330
C
102
}
100
AcDbDictionary
280
0
281
1
  3
Standard
350
18
  0
DICTIONARY
  5
19
102
{ACAD_REACTORS
330
C
102
}
100
AcDbDictionary
281
1
  0
DICTIONARY
  5
1A
102
{ACAD_REACTORS
330
C
102
}
100
AcDbDictionary
281
1
  3
Model
350
360
  3
Layout1
350
361
  0
ACDBPLACEHOLDER
  5
F
102
{ACAD_REACTORS
330
E
102
}
  0
MLINESTYLE
  5
18
102
{ACAD_REACTORS
330
17
102
}
100
AcDbMlineStyle
  2
STANDARD
 70
0
  3

 62
256
 51
90.0
 52
90.0
 71
2
 49
0.5
 62
256
  6
BYLAYER
 49
-0.5
 62
256
  6
BYLAYER
  0
LAYOUT
  5
360
102
{ACAD_REACTORS
330
1A
102
}
100
AcDbPlotSettings
  1

  2
none_device
  4
ANSI_A_(11.00_x_8.50_Inches)
  6

 40
0.0
 41
0.0
 42
0.0
 43
0.0
 44
279.4
 45
215.9
 46
0.0
 47
0.0
 48
0.0
 49
0.0
140
0.0
141
0.0
142
1.0
143
1.0
 70
1024
 72
0
 73
0
 74
0
  7

 75
0
147
1.0
148
0.0
149
0.0
100
AcDbLayout
  1
Model
 70
0
 71
0
 10
0.0
 20
0.0
 11
11.0
 21
8.5
 12
0.0
 22
0.0
 32
0.0
 14
0.0
 24
0.0
 34
0.0
 15
0.0
 25
0.0
 35
0.0
146
0.0
 13
0.0
 23
0.0
 33
0.0
 16
1.0
 26
0.0
 36
0.0
 17
0.0
 27
1.0
 37
0.0
 76
0
330
203
345
0
346
0
  0
LAYOUT
  5
361
102
{ACAD_REACTORS
330
1A
102
}
100
AcDbPlotSettings
  1

  2
none_device
  4
ANSI_A_(11.00_x_8.50_Inches)
  6

 40
0.0
 41
0.0
 42
0.0
 43
0.0
 44
279.4
 45
215.9
 46
0.0
 47
0.0
 48
0.0
 49
0.0
140
0.0
141
0.0
142
1.0
143
1.0
 70
0
 72
0
 73
0
 74
0
  7

 75
0
147
1.0
148
0.0
149
0.0
100
AcDbLayout
  1
Layout1
 70
0
 71
1
 10
0.0
 20
0.0
 11
11.0
 21
8.5
 12
0.0
 22
0.0
 32
0.0
 14
0.0
 24
0.0
 34
0.0
 15
0.0
 25
0.0
 35
0.0
146
0.0
 13
0.0
 23
0.0
 33
0.0
 16
1.0
 26
0.0
 36
0.0
 17
0.0
 27
1.0
 37
0.0
 76
0
330
204
345
0
346
0
  0
ENDSEC
  0
EOF
