999
DXF file: E:\BT Custom\CADOUTPUT\_RIGHT.dxf
999
Pro/ENGINEER 2018400 by Parametric Technology Corporation
  0
SECTION
  2
HEADER
  9
$ACADVER
  1
AC1018
  9
$DWGCODEPAGE
  3
ANSI_1252
  9
$EXTMAX
 10
22.0
 20
17.0
 30
0.0
  9
$EXTMIN
 10
0.0
 20
0.0
 30
0.0
  9
$LIMMIN
 10
0.0
 20
0.0
  9
$LIMMAX
 10
22.0
 20
17.0
  9
$VIEWCTR
 10
11.0
 20
8.5
  9
$VIEWSIZE
 40
17.0
  9
$CLAYER
  8
0
  9
$LTSCALE
 40
1.21
  9
$CELTYPE
  6
BYLAYER
  9
$DIMSCALE
 40
1.0
  9
$DIMASZ
 40
0.1
  9
$DIMEXO
 40
0.0625
  9
$DIMDLI
 40
0.836
  9
$DIMEXE
 40
0.125
  9
$DIMCEN
 40
0.198
  9
$DIMLFAC
 40
1.0
  9
$DIMBLK
  1
_FILLED
  9
$DIMALT
 70
1
  9
$DIMALTD
 70
2
  9
$DIMALTTD
 70
2
  9
$DIMALTF
 40
25.4
  9
$DIMTXT
 40
0.08
  9
$DIMTOL
 70
1
  9
$DIMLIM
 70
0
  9
$DIMTFAC
 40
1.0
  9
$DIMTP
 40
0.001
  9
$DIMTM
 40
0.001
  9
$DIMGAP
 40
0.09
  9
$DIMDSEP
 70
46
  9
$AUNITS
 70
0
  9
$PDMODE
 70
3
  9
$PDSIZE
 40
0.06
  9
$HANDSEED
  5
285
  9
$TILEMODE
 70
1
  9
$MEASUREMENT
 70
0
  9
$INSUNITS
 70
1
  0
ENDSEC
  0
SECTION
  2
CLASSES
  0
CLASS
  1
ACDBDICTIONARYWDFLT
  2
AcDbDictionaryWithDefault
  3
AutoCAD 2000
 90
0
 91
1
280
0
281
0
  0
CLASS
  1
ACDBPLACEHOLDER
  2
AcDbPlaceHolder
  3
AutoCAD 2000
 90
0
 91
1
280
0
281
0
  0
CLASS
  1
LAYOUT
  2
AcDbLayout
  3
AutoCAD 2000
 90
0
 91
0
280
0
281
0
  0
ENDSEC
  0
SECTION
  2
TABLES
  0
TABLE
  2
VPORT
  5
8
100
AcDbSymbolTable
 70
2
  0
VPORT
  5
1F4
100
AcDbSymbolTableRecord
100
AcDbViewportTableRecord
  2
*ACTIVE
 70
0
 10
0.0
 20
0.0
 11
1.0
 21
1.0
 12
11.0
 22
8.5
 13
0.0
 23
0.0
 14
1.0
 24
1.0
 15
0.0
 25
0.0
 16
0.0
 26
0.0
 36
1.0
 17
0.0
 27
0.0
 37
0.0
 40
17.0
 41
1.2941176471
 42
50.0
 43
0.0
 44
0.0
 50
0.0
 51
0.0
 71
0
 72
100
 73
1
 74
1
 75
0
 76
0
 77
0
 78
0
  0
ENDTAB
  0
TABLE
  2
LTYPE
  5
5
100
AcDbSymbolTable
 70
6
  0
LTYPE
  5
14
100
AcDbSymbolTableRecord
100
AcDbLinetypeTableRecord
  2
BYBLOCK
 70
0
  3

 72
65
 73
0
 40
0.0
  0
LTYPE
  5
15
100
AcDbSymbolTableRecord
100
AcDbLinetypeTableRecord
  2
BYLAYER
 70
0
  3

 72
65
 73
0
 40
0.0
  0
LTYPE
  5
16
100
AcDbSymbolTableRecord
100
AcDbLinetypeTableRecord
  2
CONTINUOUS
 70
64
  3
Solid line
 72
65
 73
0
 40
0.0
  0
LTYPE
  5
1F5
100
AcDbSymbolTableRecord
100
AcDbLinetypeTableRecord
  2
CENTER
 70
64
  3
____ _ ____ _ ____ _ ____ _ ____ _ ____ _ ____
 72
65
 73
4
 40
0.6
 49
0.375
 74
0
 49
-0.075
 74
0
 49
0.075
 74
0
 49
-0.075
 74
0
  0
LTYPE
  5
1F6
100
AcDbSymbolTableRecord
100
AcDbLinetypeTableRecord
  2
HIDDEN
 70
64
  3
- - - - - - - - - - - - - - - - - - - -
 72
65
 73
2
 40
0.2
 49
0.1
 74
0
 49
-0.1
 74
0
  0
LTYPE
  5
1F7
100
AcDbSymbolTableRecord
100
AcDbLinetypeTableRecord
  2
PHANTOM
 70
64
  3
_____ _ _ _____ _ _ _____ _ _ _____
 72
65
 73
6
 40
0.8
 49
0.45
 74
0
 49
-0.05
 74
0
 49
0.1
 74
0
 49
-0.05
 74
0
 49
0.1
 74
0
 49
-0.05
 74
0
  0
LTYPE
  5
1F8
100
AcDbSymbolTableRecord
100
AcDbLinetypeTableRecord
  2
DOT
 70
64
  3
. . . . . . . . . . . . . . . . . . . .
 72
65
 73
2
 40
0.2
 49
0.1
 74
0
 49
-0.1
 74
0
  0
LTYPE
  5
1F9
100
AcDbSymbolTableRecord
100
AcDbLinetypeTableRecord
  2
DASHED
 70
64
  3
- - - - - - - - - - - - - - - - - - - -
 72
65
 73
2
 40
0.2
 49
0.1
 74
0
 49
-0.1
 74
0
  0
ENDTAB
  0
TABLE
  2
LAYER
  5
2
100
AcDbSymbolTable
 70
36
  0
LAYER
  5
10
100
AcDbSymbolTableRecord
100
AcDbLayerTableRecord
  2
0
 70
0
 62
7
  6
CONTINUOUS
370
-3
390
F
  0
LAYER
  5
1FA
100
AcDbSymbolTableRecord
100
AcDbLayerTableRecord
  2
DEFAULT_1
 70
0
 62
7
  6
CENTER
370
-3
390
F
  0
LAYER
  5
1FB
100
AcDbSymbolTableRecord
100
AcDbLayerTableRecord
  2
DEFAULT_2
 70
0
 62
8
  6
HIDDEN
370
-3
390
F
  0
LAYER
  5
1FC
100
AcDbSymbolTableRecord
100
AcDbLayerTableRecord
  2
DEFAULT_3
 70
0
 62
7
  6
PHANTOM
370
-3
390
F
  0
LAYER
  5
1FD
100
AcDbSymbolTableRecord
100
AcDbLayerTableRecord
  2
ALL_FEATURES
 70
0
 62
7
  6
CONTINUOUS
370
-3
390
F
  0
LAYER
  5
1FE
100
AcDbSymbolTableRecord
100
AcDbLayerTableRecord
  2
AXES_FEATURES
 70
0
 62
7
  6
CONTINUOUS
370
-3
390
F
  0
LAYER
  5
1FF
100
AcDbSymbolTableRecord
100
AcDbLayerTableRecord
  2
DEFAULT_COORDINATE_SYSTEM
 70
0
 62
7
  6
CONTINUOUS
370
-3
390
F
  0
LAYER
  5
200
100
AcDbSymbolTableRecord
100
AcDbLayerTableRecord
  2
DEFAULT_DATUM_AXES
 70
0
 62
7
  6
CONTINUOUS
370
-3
390
F
  0
LAYER
  5
201
100
AcDbSymbolTableRecord
100
AcDbLayerTableRecord
  2
DEFAULT_DATUM_PLANES
 70
0
 62
7
  6
CONTINUOUS
370
-3
390
F
  0
LAYER
  5
202
100
AcDbSymbolTableRecord
100
AcDbLayerTableRecord
  2
DIMENSIONS
 70
0
 62
7
  6
CONTINUOUS
370
-3
390
F
  0
ENDTAB
  0
TABLE
  2
STYLE
  5
3
100
AcDbSymbolTable
 70
1
  0
STYLE
  5
11
100
AcDbSymbolTableRecord
100
AcDbTextStyleTableRecord
  2
STANDARD
 70
0
 40
0.0
 41
0.8
 50
0.0
 71
0
 42
0.2
  3
txt
  4

  0
STYLE
  5
203
100
AcDbSymbolTableRecord
100
AcDbTextStyleTableRecord
  2
TEXTSTYLE_1
 70
0
 40
0.0
 41
0.8
 50
0.0
 71
0
 42
0.2
  3
gdt
  4

  0
ENDTAB
  0
TABLE
  2
VIEW
  5
6
100
AcDbSymbolTable
 70
0
  0
ENDTAB
  0
TABLE
  2
UCS
  5
7
100
AcDbSymbolTable
 70
0
  0
ENDTAB
  0
TABLE
  2
APPID
  5
9
100
AcDbSymbolTable
 70
1
  0
APPID
  5
204
100
AcDbSymbolTableRecord
100
AcDbRegAppTableRecord
  2
ACAD
 70
0
  0
ENDTAB
  0
TABLE
  2
BLOCK_RECORD
  5
1
100
AcDbSymbolTable
 70
0
  0
BLOCK_RECORD
  5
205
100
AcDbSymbolTableRecord
100
AcDbBlockTableRecord
  2
*Model_Space
  0
BLOCK_RECORD
  5
206
100
AcDbSymbolTableRecord
100
AcDbBlockTableRecord
  2
*Paper_Space
  0
BLOCK_RECORD
  5
207
100
AcDbSymbolTableRecord
100
AcDbBlockTableRecord
  2
_FILLED
  0
ENDTAB
  0
TABLE
  2
DIMSTYLE
  5
A
100
AcDbSymbolTable
 70
1
100
AcDbDimStyleTable
 71
0
  0
DIMSTYLE
105
208
100
AcDbSymbolTableRecord
100
AcDbDimStyleTableRecord
  2
STANDARD
 70
0
  3

  4

 40
1.0
 41
0.1
 42
0.0625
 43
0.38
 44
0.125
 45
0.0
 46
0.0
 47
0.001
 48
0.001
140
0.08
141
0.09
142
0.0
143
25.4
144
1.0
145
0.0
146
1.0
147
0.09
 71
1.0
 72
0.0
 73
1
 74
1
 75
0
 76
0
 77
0
 78
4
 79
1
170
1
171
2
172
0
173
0
174
0
175
0
176
0
177
0
178
0
270
2
179
3
271
3
272
3
273
2
274
2
275
0
280
0
281
0
282
0
283
1
284
4
285
0
286
0
287
3
288
0
340
11
278
46
341
207
342
207
343
207
344
207
  0
ENDTAB
  0
ENDSEC
  0
SECTION
  2
BLOCKS
  0
BLOCK
  5
20
100
AcDbEntity
  8
0
100
AcDbBlockBegin
  2
*Model_Space
 70
0
 10
0.0
 20
0.0
 30
0.0
  3
*Model_Space
  1

  0
ENDBLK
  5
21
100
AcDbEntity
  8
0
100
AcDbBlockEnd
  0
BLOCK
  5
1C
100
AcDbEntity
  8
0
100
AcDbBlockBegin
  2
*Paper_Space
 70
0
 10
0.0
 20
0.0
 30
0.0
  3
*Paper_Space
  1

  0
ENDBLK
  5
1D
100
AcDbEntity
  8
0
100
AcDbBlockEnd
  0
BLOCK
  5
209
100
AcDbEntity
  8
0
100
AcDbBlockBegin
  2
_FILLED
 70
64
 10
0.0
 20
0.0
  3
_FILLED
  1

  0
SOLID
  5
20A
100
AcDbEntity
  8
0
  6
BYBLOCK
 62
0
100
AcDbTrace
 10
0.0
 20
0.0
 11
-1.0
 21
0.2
 12
-1.0
 22
-0.2
 13
-1.0
 23
-0.2
  0
ENDBLK
  5
20B
100
AcDbEntity
  8
0
  6
BYBLOCK
 62
0
100
AcDbBlockEnd
  0
ENDSEC
  0
SECTION
  2
ENTITIES
  0
LINE
  5
20C
100
AcDbEntity
  8
0
100
AcDbLine
 62
7
  6
CONTINUOUS
 10
9.5480624408
 20
6.159891804
 11
9.1792244561
 21
6.159891804
  0
LINE
  5
20D
100
AcDbEntity
  8
0
100
AcDbLine
 62
9
  6
CONTINUOUS
 10
9.5307991803
 20
6.2012944497
 11
9.1964917096
 21
6.2012944497
  0
LINE
  5
20E
100
AcDbEntity
  8
0
100
AcDbLine
 62
7
  6
CONTINUOUS
 10
9.0304834891
 20
8.747391804
 11
9.0304834891
 21
9.272391804
  0
LINE
  5
20F
100
AcDbEntity
  8
0
100
AcDbLine
 62
9
  6
CONTINUOUS
 10
9.0604834891
 20
9.272391804
 11
9.0604834891
 21
8.747391804
  0
LINE
  5
210
100
AcDbEntity
  8
0
100
AcDbLine
 62
7
  6
CONTINUOUS
 10
9.0804834891
 20
8.697391804
 11
9.0804834891
 21
9.322391804
  0
LINE
  5
211
100
AcDbEntity
  8
0
100
AcDbLine
 62
7
  6
CONTINUOUS
 10
9.1554834891
 20
8.609891804
 11
9.1554834891
 21
9.409891804
  0
LINE
  5
212
100
AcDbEntity
  8
0
100
AcDbLine
 62
9
  6
CONTINUOUS
 10
9.196479548
 20
6.159891804
 11
9.196479548
 21
6.2012944497
  0
LWPOLYLINE
  5
213
100
AcDbEntity
  8
0
100
AcDbPolyline
 62
7
  6
CONTINUOUS
 90
4
 70
0
 10
9.2126686056
 20
8.5532537444
 10
9.1863079965
 20
7.7210847831
 10
9.160357775
 20
6.9216032155
 10
9.1392396907
 20
6.2009561691
  0
LWPOLYLINE
  5
214
100
AcDbEntity
  8
0
100
AcDbPolyline
 62
7
  6
CONTINUOUS
 90
4
 70
0
 10
9.5880613668
 20
6.1999064551
 10
9.5858570549
 20
6.921256851
 10
9.5808830404
 20
7.7215832071
 10
9.5763596464
 20
8.5547034665
  0
LINE
  5
215
100
AcDbEntity
  8
0
100
AcDbLine
 62
9
  6
CONTINUOUS
 10
9.5308112489
 20
6.159891804
 11
9.5308112489
 21
6.2012944497
  0
LINE
  5
216
100
AcDbEntity
  8
0
100
AcDbLine
 62
7
  6
CONTINUOUS
 10
9.5763597469
 20
8.5547047021
 11
9.5764941236
 21
8.5587465983
  0
LINE
  5
217
100
AcDbEntity
  8
0
100
AcDbLine
 62
7
  6
CONTINUOUS
 10
9.6304834891
 20
8.6098917967
 11
9.6304834891
 21
9.409891804
  0
LINE
  5
218
100
AcDbEntity
  8
0
100
AcDbLine
 62
9
  6
CONTINUOUS
 10
9.6504834891
 20
9.322391804
 11
9.6504834891
 21
8.697391804
  0
LWPOLYLINE
  5
219
100
AcDbEntity
  8
0
100
AcDbPolyline
 62
7
  6
CONTINUOUS
 90
6
 70
0
 10
9.5764736638
 20
8.5584424249
 10
9.5777623222
 20
8.5672420689
 10
9.5806313333
 20
8.576151248
 10
9.5851228592
 20
8.5846844531
 10
9.5911125006
 20
8.5923846509
 10
9.5983366449
 20
8.5988817327
  0
LWPOLYLINE
  5
21A
100
AcDbEntity
  8
0
100
AcDbPolyline
 62
7
  6
CONTINUOUS
 90
6
 70
0
 10
9.5764941236
 20
8.5587465983
 10
9.5778636401
 20
8.5676741143
 10
9.5808127489
 20
8.5765792253
 10
9.5853481
 20
8.5850312457
 10
9.5913383966
 20
8.5926257422
 10
9.5985401001
 20
8.5990337642
  0
LINE
  5
21B
100
AcDbEntity
  8
0
100
AcDbLine
 62
7
  6
CONTINUOUS
 10
9.9434834891
 20
8.697391804
 11
9.9434834891
 21
9.322391804
  0
LINE
  5
21C
100
AcDbEntity
  8
0
100
AcDbLine
 62
7
  6
CONTINUOUS
 10
9.9484834891
 20
9.4087406926
 11
9.9484834891
 21
8.6110429155
  0
LINE
  5
21D
100
AcDbEntity
  8
0
100
AcDbLine
 62
9
  6
CONTINUOUS
 10
9.9768842465
 20
8.5801520765
 11
9.9768842465
 21
9.4396315316
  0
LINE
  5
21E
100
AcDbEntity
  8
0
100
AcDbLine
 62
7
  6
CONTINUOUS
 10
10.2828670503
 20
9.550391804
 11
10.3887846776
 21
9.6245257982
  0
LINE
  5
21F
100
AcDbEntity
  8
0
100
AcDbLine
 62
7
  6
CONTINUOUS
 10
11.1984834891
 20
8.2518309006
 11
10.9485389471
 21
8.2518309006
  0
LINE
  5
220
100
AcDbEntity
  8
0
100
AcDbLine
 62
7
  6
CONTINUOUS
 10
11.1984834891
 20
8.268891804
 11
11.2604834891
 21
8.268891804
  0
LINE
  5
221
100
AcDbEntity
  8
0
100
AcDbLine
 62
7
  6
CONTINUOUS
 10
10.2828670503
 20
8.469391804
 11
10.3887846776
 21
8.3952578098
  0
LINE
  5
222
100
AcDbEntity
  8
0
100
AcDbLine
 62
9
  6
CONTINUOUS
 10
10.2828670503
 20
8.469391804
 11
10.2828670503
 21
9.550391804
  0
LINE
  5
223
100
AcDbEntity
  8
0
100
AcDbLine
 62
9
  6
CONTINUOUS
 10
10.3887846776
 20
8.3952578098
 11
10.3887846776
 21
9.6245257982
  0
LINE
  5
224
100
AcDbEntity
  8
0
100
AcDbLine
 62
7
  6
CONTINUOUS
 10
10.8319834891
 20
9.6510552437
 11
10.9485390191
 21
9.7679474945
  0
LINE
  5
225
100
AcDbEntity
  8
0
100
AcDbLine
 62
7
  6
CONTINUOUS
 10
9.6249502468
 20
8.6095240603
 11
9.6304834891
 21
8.6098917832
  0
LINE
  5
226
100
AcDbEntity
  8
0
100
AcDbLine
 62
7
  6
CONTINUOUS
 10
9.1576930041
 20
8.609891804
 11
9.1554834891
 21
8.609891804
  0
LINE
  5
227
100
AcDbEntity
  8
0
100
AcDbLine
 62
7
  6
CONTINUOUS
 10
11.1984834891
 20
8.6308613523
 11
10.9485394332
 21
8.6308613523
  0
LINE
  5
228
100
AcDbEntity
  8
0
100
AcDbLine
 62
9
  6
CONTINUOUS
 10
9.2511120792
 20
8.6402204429
 11
9.539151638
 21
8.6402204429
  0
LINE
  5
229
100
AcDbEntity
  8
0
100
AcDbLine
 62
9
  6
CONTINUOUS
 10
9.1766531921
 20
8.6866014977
 11
9.6146888342
 21
8.6866014977
  0
LINE
  5
22A
100
AcDbEntity
  8
0
100
AcDbLine
 62
7
  6
CONTINUOUS
 10
9.9434834891
 20
8.697391804
 11
9.6504834891
 21
8.697391804
  0
LINE
  5
22B
100
AcDbEntity
  8
0
100
AcDbLine
 62
7
  6
CONTINUOUS
 10
9.0604834891
 20
8.747391804
 11
9.0304834891
 21
8.747391804
  0
LINE
  5
22C
100
AcDbEntity
  8
0
100
AcDbLine
 62
7
  6
CONTINUOUS
 10
10.8319834891
 20
8.3687283644
 11
10.9485390194
 21
8.2518361133
  0
LINE
  5
22D
100
AcDbEntity
  8
0
100
AcDbLine
 62
9
  6
CONTINUOUS
 10
10.6169834891
 20
8.391391804
 11
10.6169834891
 21
9.628391804
  0
LINE
  5
22E
100
AcDbEntity
  8
0
100
AcDbLine
 62
7
  6
CONTINUOUS
 10
9.5983366449
 20
8.5988817327
 11
9.6067130937
 21
8.6040674848
  0
LINE
  5
22F
100
AcDbEntity
  8
0
100
AcDbLine
 62
7
  6
CONTINUOUS
 10
9.6065423923
 20
8.6039815411
 11
9.6156227629
 21
8.607599432
  0
LINE
  5
230
100
AcDbEntity
  8
0
100
AcDbLine
 62
7
  6
CONTINUOUS
 10
9.6154949589
 20
8.6075610954
 11
9.6249502468
 21
8.6095240603
  0
LINE
  5
231
100
AcDbEntity
  8
0
100
AcDbLine
 62
7
  6
CONTINUOUS
 10
9.9484834891
 20
8.809891804
 11
9.9434834891
 21
8.809891804
  0
LINE
  5
232
100
AcDbEntity
  8
0
100
AcDbLine
 62
9
  6
CONTINUOUS
 10
10.8319834891
 20
8.3687283644
 11
10.8319834891
 21
9.6510552437
  0
LINE
  5
233
100
AcDbEntity
  8
0
100
AcDbLine
 62
7
  6
CONTINUOUS
 10
9.9484834891
 20
9.209891804
 11
9.9434834891
 21
9.209891804
  0
LINE
  5
234
100
AcDbEntity
  8
0
100
AcDbLine
 62
7
  6
CONTINUOUS
 10
9.0604834891
 20
9.272391804
 11
9.0304834891
 21
9.272391804
  0
LINE
  5
235
100
AcDbEntity
  8
0
100
AcDbLine
 62
7
  6
CONTINUOUS
 10
9.9434834891
 20
9.322391804
 11
9.6504834891
 21
9.322391804
  0
LINE
  5
236
100
AcDbEntity
  8
0
100
AcDbLine
 62
7
  6
CONTINUOUS
 10
11.1984834891
 20
8.2518309006
 11
11.1984834891
 21
9.7679527075
  0
LINE
  5
237
100
AcDbEntity
  8
0
100
AcDbLine
 62
7
  6
CONTINUOUS
 10
11.2604834891
 20
9.8228944779
 11
11.2604834891
 21
8.1968891302
  0
LINE
  5
238
100
AcDbEntity
  8
0
100
AcDbLine
 62
7
  6
CONTINUOUS
 10
11.1984834891
 20
9.3889222558
 11
10.9485389471
 21
9.3889222558
  0
LINE
  5
239
100
AcDbEntity
  8
0
100
AcDbLine
 62
7
  6
CONTINUOUS
 10
9.6304834891
 20
9.409891804
 11
9.1554834891
 21
9.409891804
  0
LINE
  5
23A
100
AcDbEntity
  8
0
100
AcDbLine
 62
7
  6
CONTINUOUS
 10
11.4484834891
 20
8.009891804
 11
11.4484834891
 21
10.009891804
  0
LINE
  5
23B
100
AcDbEntity
  8
0
100
AcDbLine
 62
7
  6
CONTINUOUS
 10
11.1984834891
 20
9.750891804
 11
11.2604834891
 21
9.750891804
  0
LINE
  5
23C
100
AcDbEntity
  8
0
100
AcDbLine
 62
7
  6
CONTINUOUS
 10
11.1984834891
 20
9.7679527075
 11
10.9485389471
 21
9.7679527075
  0
LINE
  5
23D
100
AcDbEntity
  8
0
100
AcDbLine
 62
7
  6
CONTINUOUS
 10
11.6354834891
 20
11.7667305437
 11
11.6354834891
 21
6.2530530644
  0
LINE
  5
23E
100
AcDbEntity
  8
0
100
AcDbLine
 62
9
  6
CONTINUOUS
 10
11.7614834891
 20
6.0359724342
 11
11.7614834891
 21
11.9838111739
  0
LINE
  5
23F
100
AcDbEntity
  8
0
100
AcDbLine
 62
7
  6
CONTINUOUS
 10
11.887483461
 20
12.2007241561
 11
11.887483461
 21
5.8208413285
  0
LINE
  5
240
100
AcDbEntity
  8
0
100
AcDbLine
 62
9
  6
CONTINUOUS
 10
11.8874834751
 20
5.8189756262
 11
11.8874834751
 21
12.2008079819
  0
LINE
  5
241
100
AcDbEntity
  8
0
100
AcDbLine
 62
9
  6
CONTINUOUS
 10
12.0134862413
 20
5.6019708621
 11
12.0134862413
 21
12.417812746
  0
LINE
  5
242
100
AcDbEntity
  8
0
100
AcDbLine
 62
7
  6
CONTINUOUS
 10
12.1394834891
 20
12.634891804
 11
12.1394834891
 21
5.384891804
  0
LINE
  5
243
100
AcDbEntity
  8
0
100
AcDbLine
 62
7
  6
CONTINUOUS
 10
12.3894834891
 20
5.1348955495
 11
12.3894834891
 21
12.8848880586
  0
ARC
  5
244
100
AcDbEntity
  8
0
100
AcDbCircle
 62
9
  6
CONTINUOUS
 10
12.0374287319
 20
9.0581756205
 40
2.5120411736
100
AcDbArc
 50
190.6738703132
 51
191.4642197858
  0
ARC
  5
245
100
AcDbEntity
  8
0
100
AcDbCircle
 62
9
  6
CONTINUOUS
 10
11.5192179255
 20
9.0602589357
 40
1.9408350747
100
AcDbArc
 50
191.100121469
 51
193.30579488
  0
ARC
  5
246
100
AcDbEntity
  8
0
100
AcDbCircle
 62
7
  6
CONTINUOUS
 10
9.9244801606
 20
10.0624307061
 40
0.625
100
AcDbArc
 50
274.8096995456
 51
304.9889904702
  0
ARC
  5
247
100
AcDbEntity
  8
0
100
AcDbCircle
 62
7
  6
CONTINUOUS
 10
9.9244801606
 20
7.957352902
 40
0.625
100
AcDbArc
 50
55.0110095298
 51
85.1903004544
  0
ARC
  5
248
100
AcDbEntity
  8
0
100
AcDbCircle
 62
7
  6
CONTINUOUS
 10
12.1374944384
 20
12.2007241561
 40
0.2500109774
100
AcDbArc
 50
119.7364395186
 51
179.9807893772
  0
ARC
  5
249
100
AcDbEntity
  8
0
100
AcDbCircle
 62
7
  6
CONTINUOUS
 10
12.1374944384
 20
5.819059452
 40
0.2500109774
100
AcDbArc
 50
180.0192106228
 51
240.2635604814
  0
ARC
  5
24A
100
AcDbEntity
  8
0
100
AcDbCircle
 62
7
  6
CONTINUOUS
 10
11.8854834891
 20
11.7667305437
 40
0.25
100
AcDbArc
 50
119.7357131076
 51
180.0
  0
ARC
  5
24B
100
AcDbEntity
  8
0
100
AcDbCircle
 62
7
  6
CONTINUOUS
 10
11.6374834891
 20
12.200891804
 40
0.25
100
AcDbArc
 50
299.7357131076
 51
359.9807893772
  0
ARC
  5
24C
100
AcDbEntity
  8
0
100
AcDbCircle
 62
7
  6
CONTINUOUS
 10
11.8894834891
 20
12.634891804
 40
0.25
100
AcDbArc
 50
299.7364395186
 51
360.0
  0
ARC
  5
24D
100
AcDbEntity
  8
0
100
AcDbCircle
 62
7
  6
CONTINUOUS
 10
12.3894834891
 20
12.634891804
 40
0.25
100
AcDbArc
 50
90.0
 51
180.0
  0
ARC
  5
24E
100
AcDbEntity
  8
0
100
AcDbCircle
 62
7
  6
CONTINUOUS
 10
11.8854834891
 20
6.2530530644
 40
0.25
100
AcDbArc
 50
180.0
 51
240.2642868924
  0
ARC
  5
24F
100
AcDbEntity
  8
0
100
AcDbCircle
 62
7
  6
CONTINUOUS
 10
11.6374834891
 20
5.818891804
 40
0.25
100
AcDbArc
 50
0.0192106228
 51
60.2642868924
  0
ARC
  5
250
100
AcDbEntity
  8
0
100
AcDbCircle
 62
7
  6
CONTINUOUS
 10
11.8894834891
 20
5.384891804
 40
0.25
100
AcDbArc
 50
0.0
 51
60.2635604814
  0
ARC
  5
251
100
AcDbEntity
  8
0
100
AcDbCircle
 62
7
  6
CONTINUOUS
 10
12.3894834891
 20
5.384891804
 40
0.25
100
AcDbArc
 50
180.0
 51
270.0
  0
ARC
  5
252
100
AcDbEntity
  8
0
100
AcDbCircle
 62
7
  6
CONTINUOUS
 10
10.5057478924
 20
9.457416683
 40
0.2039751211
100
AcDbArc
 50
56.9521644936
 51
124.9889904702
  0
ARC
  5
253
100
AcDbEntity
  8
0
100
AcDbCircle
 62
7
  6
CONTINUOUS
 10
10.5057478924
 20
8.5623669251
 40
0.2039751211
100
AcDbArc
 50
235.0110095298
 51
303.0478355064
  0
ARC
  5
254
100
AcDbEntity
  8
0
100
AcDbCircle
 62
7
  6
CONTINUOUS
 10
11.6354834891
 20
8.0170279152
 40
0.1871361111
100
AcDbArc
 50
182.1854050713
 51
270.0
  0
ARC
  5
255
100
AcDbEntity
  8
0
100
AcDbCircle
 62
7
  6
CONTINUOUS
 10
11.6354834891
 20
10.0027556929
 40
0.1871361111
100
AcDbArc
 50
90.0
 51
177.8145949287
  0
ARC
  5
256
100
AcDbEntity
  8
0
100
AcDbCircle
 62
7
  6
CONTINUOUS
 10
11.4474834891
 20
8.1968891302
 40
0.187
100
AcDbArc
 50
180.0
 51
270.3063960032
  0
ARC
  5
257
100
AcDbEntity
  8
0
100
AcDbCircle
 62
7
  6
CONTINUOUS
 10
11.4474834891
 20
9.8228944779
 40
0.187
100
AcDbArc
 50
89.6936039968
 51
180.0
  0
ARC
  5
258
100
AcDbEntity
  8
0
100
AcDbCircle
 62
7
  6
CONTINUOUS
 10
10.7105225137
 20
9.7721663377
 40
0.1715245336
100
AcDbArc
 50
236.9521644936
 51
315.0826423158
  0
ARC
  5
259
100
AcDbEntity
  8
0
100
AcDbCircle
 62
7
  6
CONTINUOUS
 10
10.7105225137
 20
8.2476172704
 40
0.1715245336
100
AcDbArc
 50
44.9173576842
 51
123.0478355064
  0
ARC
  5
25A
100
AcDbEntity
  8
0
100
AcDbCircle
 62
7
  6
CONTINUOUS
 10
9.0804834891
 20
9.397391804
 40
0.075
100
AcDbArc
 50
270.0
 51
360.0
  0
ARC
  5
25B
100
AcDbEntity
  8
0
100
AcDbCircle
 62
7
  6
CONTINUOUS
 10
9.0804834891
 20
8.622391804
 40
0.075
100
AcDbArc
 50
0.0
 51
90.0
  0
ARC
  5
25C
100
AcDbEntity
  8
0
100
AcDbCircle
 62
7
  6
CONTINUOUS
 10
9.6313593086
 20
8.5548987744
 40
0.0549999908
100
AcDbArc
 50
90.9124159126
 51
180.2034586035
  0
ARC
  5
25D
100
AcDbEntity
  8
0
100
AcDbCircle
 62
7
  6
CONTINUOUS
 10
9.1576931844
 20
8.5548922656
 40
0.0549999442
100
AcDbArc
 50
358.2923845898
 51
90.0001879106
  0
ARC
  5
25E
100
AcDbEntity
  8
0
100
AcDbCircle
 62
7
  6
CONTINUOUS
 10
9.5480624408
 20
6.199891804
 40
0.04
100
AcDbArc
 50
270.0
 51
0.0209867127
  0
ARC
  5
25F
100
AcDbEntity
  8
0
100
AcDbCircle
 62
7
  6
CONTINUOUS
 10
9.1792244561
 20
6.199891804
 40
0.04
100
AcDbArc
 50
178.4751885051
 51
270.0
  0
ARC
  5
260
100
AcDbEntity
  8
0
100
AcDbCircle
 62
7
  6
CONTINUOUS
 10
9.9794834891
 20
8.6110429155
 40
0.031
100
AcDbArc
 50
180.0
 51
265.1903004544
  0
ARC
  5
261
100
AcDbEntity
  8
0
100
AcDbCircle
 62
7
  6
CONTINUOUS
 10
9.9794834891
 20
9.4087406926
 40
0.031
100
AcDbArc
 50
94.8096995456
 51
180.0
  0
ARC
  5
262
100
AcDbEntity
  8
0
100
AcDbCircle
 62
7
  6
CONTINUOUS
 10
9.0604834891
 20
8.727391804
 40
0.02
100
AcDbArc
 50
0.0000000032
 51
90.0
  0
ARC
  5
263
100
AcDbEntity
  8
0
100
AcDbCircle
 62
7
  6
CONTINUOUS
 10
9.0604834891
 20
9.292391804
 40
0.02
100
AcDbArc
 50
270.0
 51
359.9999999968
  0
ARC
  5
264
100
AcDbEntity
  8
0
100
AcDbCircle
 62
7
  6
CONTINUOUS
 10
9.6504834891
 20
8.677391804
 40
0.02
100
AcDbArc
 50
90.0
 51
179.999999998
  0
ARC
  5
265
100
AcDbEntity
  8
0
100
AcDbCircle
 62
7
  6
CONTINUOUS
 10
9.6504834891
 20
9.342391804
 40
0.02
100
AcDbArc
 50
180.000000002
 51
270.0
  0
SPLINE
  5
266
100
AcDbEntity
  8
0
100
AcDbSpline
 62
9
  6
CONTINUOUS
 70
0
 71
3
 72
15
 73
11
 74
0
 42
0.0000001
 43
0.0000001
 44
0.0000000001
 40
0.0
 40
0.0
 40
0.0
 40
0.0
 40
0.1254400563
 40
0.2508744083
 40
0.3762288819
 40
0.5014177294
 40
0.6263909613
 40
0.751131176
 40
0.8756457822
 40
1.0
 40
1.0
 40
1.0
 40
1.0
 10
9.6304834891
 20
8.6135797215
 30
0.0
 10
9.6268904716
 20
8.6135660226
 30
0.0
 10
9.6196877656
 20
8.6128361767
 30
0.0
 10
9.6093165633
 20
8.6096779335
 30
0.0
 10
9.5997531597
 20
8.6045778473
 30
0.0
 10
9.5913699634
 20
8.5977300906
 30
0.0
 10
9.5844873683
 20
8.5893978009
 30
0.0
 10
9.5793712761
 20
8.5798985938
 30
0.0
 10
9.5762180866
 20
8.5696027103
 30
0.0
 10
9.575506272
 20
8.5624544326
 30
0.0
 10
9.5755052532
 20
8.5588924913
 30
0.0
  0
SPLINE
  5
267
100
AcDbEntity
  8
0
100
AcDbSpline
 62
9
  6
CONTINUOUS
 70
0
 71
3
 72
36
 73
32
 74
0
 42
0.0000001
 43
0.0000001
 44
0.0000000001
 40
0.0
 40
0.0
 40
0.0
 40
0.0
 40
0.2265348963
 40
0.3299842322
 40
0.426603031
 40
0.5162227041
 40
0.5986787343
 40
0.6738139768
 40
0.7414770718
 40
0.8015216027
 40
0.8538274303
 40
0.8770433906
 40
0.8982828423
 40
0.9175343566
 40
0.9347887743
 40
0.950037017
 40
0.9632700016
 40
0.9744786585
 40
0.9793214678
 40
0.9836560423
 40
0.9874820804
 40
0.9907992806
 40
0.9936073414
 40
0.9959059611
 40
0.997694838
 40
0.9983980287
 40
0.9989736706
 40
0.9994217261
 40
0.9997421575
 40
0.9999349273
 40
1.0
 40
1.0
 40
1.0
 40
1.0
 10
9.176650676
 20
8.6866014977
 30
0.0
 10
9.1753351219
 20
8.6807811886
 30
0.0
 10
9.1733800759
 20
8.6723116633
 30
0.0
 10
9.1707807944
 20
8.661379291
 30
0.0
 10
9.1689864067
 20
8.6539626118
 30
0.0
 10
9.1672963568
 20
8.6470896831
 30
0.0
 10
9.1657195389
 20
8.6407717079
 30
0.0
 10
9.1642644458
 20
8.6350194834
 30
0.0
 10
9.1629392036
 20
8.6298433716
 30
0.0
 10
9.1617518679
 20
8.6252527126
 30
0.0
 10
9.1608500338
 20
8.621797525
 30
0.0
 10
9.1602026238
 20
8.6193323409
 30
0.0
 10
9.1597749923
 20
8.6177096443
 30
0.0
 10
9.1593862372
 20
8.6162390967
 30
0.0
 10
9.1590368308
 20
8.6149213826
 30
0.0
 10
9.1587272478
 20
8.6137571213
 30
0.0
 10
9.1584579538
 20
8.6127469318
 30
0.0
 10
9.1582588761
 20
8.6120016846
 30
0.0
 10
9.158120136
 20
8.6114829304
 30
0.0
 10
9.1580315709
 20
8.6111520567
 30
0.0
 10
9.157953336
 20
8.6108600182
 30
0.0
 10
9.1578854455
 20
8.6106068373
 30
0.0
 10
9.157827934
 20
8.6103925246
 30
0.0
 10
9.1577807788
 20
8.6102171249
 30
0.0
 10
9.1577480462
 20
8.6100952357
 30
0.0
 10
9.157726944
 20
8.6100172598
 30
0.0
 10
9.1577152644
 20
8.6099732413
 30
0.0
 10
9.1577055965
 20
8.6099393214
 30
0.0
 10
9.1576999574
 20
8.6099142925
 30
0.0
 10
9.1576942314
 20
8.6099006318
 30
0.0
 10
9.1576942302
 20
8.6098930018
 30
0.0
 10
9.1576930041
 20
8.609891804
 30
0.0
  0
LINE
  5
268
100
AcDbEntity
  8
0
100
AcDbLine
 62
9
  6
CONTINUOUS
 10
9.2211868997
 20
8.5914989636
 11
9.2126686584
 21
8.5532533181
  0
SPLINE
  5
269
100
AcDbEntity
  8
0
100
AcDbSpline
 62
9
  6
CONTINUOUS
 70
0
 71
3
 72
15
 73
11
 74
0
 42
0.0000001
 43
0.0000001
 44
0.0000000001
 40
0.0
 40
0.0
 40
0.0
 40
0.0
 40
0.1196181437
 40
0.240918602
 40
0.3637879903
 40
0.4881891071
 40
0.6141022657
 40
0.7415070751
 40
0.8702988186
 40
1.0
 40
1.0
 40
1.0
 40
1.0
 10
9.6146888342
 20
8.6866014977
 30
0.0
 10
9.6113031484
 20
8.6854528865
 30
0.0
 10
9.60453504
 20
8.682986465
 30
0.0
 10
9.5944915329
 20
8.6788117756
 30
0.0
 10
9.5845211327
 20
8.6741172477
 30
0.0
 10
9.5746795136
 20
8.6688565921
 30
0.0
 10
9.5650454124
 20
8.662957029
 30
0.0
 10
9.5557304517
 20
8.6563303465
 30
0.0
 10
9.5469093077
 20
8.64887503
 30
0.0
 10
9.5415942665
 20
8.6432306711
 30
0.0
 10
9.539151638
 20
8.6402204429
 30
0.0
  0
SPLINE
  5
26A
100
AcDbEntity
  8
0
100
AcDbSpline
 62
9
  6
CONTINUOUS
 70
0
 71
3
 72
16
 73
12
 74
0
 42
0.0000001
 43
0.0000001
 44
0.0000000001
 40
0.0
 40
0.0
 40
0.0
 40
0.0
 40
0.1080091344
 40
0.2199558784
 40
0.3360050422
 40
0.4566125918
 40
0.5824131041
 40
0.7142458154
 40
0.782794616
 40
0.8532734026
 40
1.0
 40
1.0
 40
1.0
 40
1.0
 10
9.6146914573
 20
8.6866025517
 30
0.0
 10
9.612909598
 20
8.6845297844
 30
0.0
 10
9.6093398379
 20
8.6802576052
 30
0.0
 10
9.6040784128
 20
8.6735760531
 30
0.0
 10
9.5988275815
 20
8.66648515
 30
0.0
 10
9.5935912686
 20
8.6589520914
 30
0.0
 10
9.5883973168
 20
8.6509091288
 30
0.0
 10
9.5842079732
 20
8.643792945
 30
0.0
 10
9.5809494394
 20
8.6377613714
 30
0.0
 10
9.5776926941
 20
8.6313041514
 30
0.0
 10
9.5754677944
 20
8.6262698478
 30
0.0
 10
9.5741135127
 20
8.6228124189
 30
0.0
  0
SPLINE
  5
26B
100
AcDbEntity
  8
0
100
AcDbSpline
 62
9
  6
CONTINUOUS
 70
0
 71
3
 72
15
 73
11
 74
0
 42
0.0000001
 43
0.0000001
 44
0.0000000001
 40
0.0
 40
0.0
 40
0.0
 40
0.0
 40
0.0264181323
 40
0.059206033
 40
0.1429489039
 40
0.2490277692
 40
0.3746474184
 40
0.5164782521
 40
0.6707401659
 40
1.0
 40
1.0
 40
1.0
 40
1.0
 10
9.5741129104
 20
8.6228126947
 30
0.0
 10
9.5738193979
 20
8.6229921065
 30
0.0
 10
9.5731544335
 20
8.62338243
 30
0.0
 10
9.5715311506
 20
8.6242934606
 30
0.0
 10
9.5689737662
 20
8.6256586775
 30
0.0
 10
9.5653227661
 20
8.6275407617
 30
0.0
 10
9.5609765592
 20
8.6297245302
 30
0.0
 10
9.5560507557
 20
8.63215177
 30
0.0
 10
9.5487232791
 20
8.6357038727
 30
0.0
 10
9.5430344431
 20
8.638402185
 30
0.0
 10
9.539151638
 20
8.6402204408
 30
0.0
  0
SPLINE
  5
26C
100
AcDbEntity
  8
0
100
AcDbSpline
 62
9
  6
CONTINUOUS
 70
0
 71
3
 72
9
 73
5
 74
0
 42
0.0000001
 43
0.0000001
 44
0.0000000001
 40
0.0
 40
0.0
 40
0.0
 40
0.0
 40
0.4999930349
 40
1.0
 40
1.0
 40
1.0
 40
1.0
 10
9.539151638
 20
8.6402204429
 30
0.0
 10
9.5357951298
 20
8.6330601883
 30
0.0
 10
9.5306873591
 20
8.6179357887
 30
0.0
 10
9.5289860223
 20
8.6020722035
 30
0.0
 10
9.5289902957
 20
8.594164052
 30
0.0
  0
SPLINE
  5
26D
100
AcDbEntity
  8
0
100
AcDbSpline
 62
9
  6
CONTINUOUS
 70
0
 71
3
 72
9
 73
5
 74
0
 42
0.0000001
 43
0.0000001
 44
0.0000000001
 40
0.0
 40
0.0
 40
0.0
 40
0.0
 40
0.4999921773
 40
1.0
 40
1.0
 40
1.0
 40
1.0
 10
9.5741129104
 20
8.6228126947
 30
0.0
 10
9.5722578064
 20
8.6180767886
 30
0.0
 10
9.5695272128
 20
8.6081971952
 30
0.0
 10
9.5687521921
 20
8.5979846351
 30
0.0
 10
9.5688529775
 20
8.5928991973
 30
0.0
  0
SPLINE
  5
26E
100
AcDbEntity
  8
0
100
AcDbSpline
 62
9
  6
CONTINUOUS
 70
0
 71
3
 72
23
 73
19
 74
0
 42
0.0000001
 43
0.0000001
 44
0.0000000001
 40
0.0
 40
0.0
 40
0.0
 40
0.0
 40
0.0072537256
 40
0.0164145699
 40
0.0405552122
 40
0.0724122145
 40
0.1117329867
 40
0.1581856207
 40
0.2114006427
 40
0.2709481176
 40
0.3363663384
 40
0.482661517
 40
0.5623641644
 40
0.6455823692
 40
0.7316566507
 40
0.8199185733
 40
0.909646467
 40
1.0
 40
1.0
 40
1.0
 40
1.0
 10
9.5704553563
 20
6.2000599164
 30
0.0
 10
9.5703642151
 20
6.2000899432
 30
0.0
 10
9.5701524398
 20
6.2001405804
 30
0.0
 10
9.56962261
 20
6.2002254912
 30
0.0
 10
9.5687642015
 20
6.2003092104
 30
0.0
 10
9.5675085695
 20
6.2004228835
 30
0.0
 10
9.5659572707
 20
6.2005471788
 30
0.0
 10
9.5641222629
 20
6.2006643863
 30
0.0
 10
9.5620184333
 20
6.2007670248
 30
0.0
 10
9.559663027
 20
6.2008586591
 30
0.0
 10
9.5560762493
 20
6.2009716316
 30
0.0
 10
9.5522220428
 20
6.2010600029
 30
0.0
 10
9.5481321517
 20
6.2011380856
 30
0.0
 10
9.5448387396
 20
6.2011989994
 30
0.0
 10
9.5414319917
 20
6.2012553949
 30
0.0
 10
9.5379387989
 20
6.2012900497
 30
0.0
 10
9.5343888491
 20
6.2012960071
 30
0.0
 10
9.5320065423
 20
6.2012941595
 30
0.0
 10
9.5308112489
 20
6.2012944497
 30
0.0
  0
SPLINE
  5
26F
100
AcDbEntity
  8
0
100
AcDbSpline
 62
9
  6
CONTINUOUS
 70
0
 71
3
 72
13
 73
9
 74
0
 42
0.0000001
 43
0.0000001
 44
0.0000000001
 40
0.0
 40
0.0
 40
0.0
 40
0.0
 40
0.2499984621
 40
0.3749962943
 40
0.4999942992
 40
0.6249931179
 40
0.7499933698
 40
1.0
 40
1.0
 40
1.0
 40
1.0
 10
9.5688527307
 20
8.5928991974
 30
0.0
 10
9.5689503871
 20
8.3934971143
 30
0.0
 10
9.5692442522
 20
8.0943951891
 30
0.0
 10
9.5696945578
 20
7.6955933279
 30
0.0
 10
9.5700083761
 20
7.3964927533
 30
0.0
 10
9.5702717318
 20
7.0973901983
 30
0.0
 10
9.5705135697
 20
6.6985790556
 30
0.0
 10
9.5705365137
 20
6.3994685208
 30
0.0
 10
9.5704553297
 20
6.2000599154
 30
0.0
  0
SPLINE
  5
270
100
AcDbEntity
  8
0
100
AcDbSpline
 62
9
  6
CONTINUOUS
 70
0
 71
3
 72
22
 73
18
 74
0
 42
0.0000001
 43
0.0000001
 44
0.0000000001
 40
0.0
 40
0.0
 40
0.0
 40
0.0
 40
0.0051976517
 40
0.012467672
 40
0.021825818
 40
0.0332685349
 40
0.0623384801
 40
0.0994535208
 40
0.1443234685
 40
0.1965587739
 40
0.2557235225
 40
0.3213002172
 40
0.3927340199
 40
0.4694040892
 40
0.6357786438
 40
0.8146977768
 40
1.0
 40
1.0
 40
1.0
 40
1.0
 10
9.5688527307
 20
8.5928991974
 30
0.0
 10
9.5687889951
 20
8.5929260313
 30
0.0
 10
9.568629555
 20
8.5929740329
 30
0.0
 10
9.5683459178
 20
8.5930361127
 30
0.0
 10
9.5679774746
 20
8.593098261
 30
0.0
 10
9.5673200441
 20
8.5931882119
 30
0.0
 10
9.5662923005
 20
8.5932931176
 30
0.0
 10
9.5648192342
 20
8.5934088488
 30
0.0
 10
9.563036827
 20
8.5935197619
 30
0.0
 10
9.5609603136
 20
8.5936249785
 30
0.0
 10
9.5586076824
 20
8.5937231097
 30
0.0
 10
9.5559991413
 20
8.5938133195
 30
0.0
 10
9.5531573016
 20
8.5938946661
 30
0.0
 10
9.5489743541
 20
8.5939930504
 30
0.0
 10
9.5433608961
 20
8.5940865941
 30
0.0
 10
9.5363016515
 20
8.5941524312
 30
0.0
 10
9.5314557147
 20
8.5941653831
 30
0.0
 10
9.5289902957
 20
8.5941640518
 30
0.0
  0
SPLINE
  5
271
100
AcDbEntity
  8
0
100
AcDbSpline
 62
9
  6
CONTINUOUS
 70
0
 71
3
 72
13
 73
9
 74
0
 42
0.0000001
 43
0.0000001
 44
0.0000000001
 40
0.0
 40
0.0
 40
0.0
 40
0.0
 40
0.2499999934
 40
0.3749999988
 40
0.4999999996
 40
0.6249999965
 40
0.7499999992
 40
1.0
 40
1.0
 40
1.0
 40
1.0
 10
9.5289902957
 20
8.594164052
 30
0.0
 10
9.5290978147
 20
8.3947582092
 30
0.0
 10
9.529421124
 20
8.0956495378
 30
0.0
 10
9.5299278116
 20
7.6968381116
 30
0.0
 10
9.5302882417
 20
7.3977295092
 30
0.0
 10
9.530593192
 20
7.0986208445
 30
0.0
 10
9.5308705269
 20
6.6998091833
 30
0.0
 10
9.5308925932
 20
6.4007003055
 30
0.0
 10
9.5307991803
 20
6.2012944497
 30
0.0
  0
SPLINE
  5
272
100
AcDbEntity
  8
0
100
AcDbSpline
 62
9
  6
CONTINUOUS
 70
0
 71
3
 72
16
 73
12
 74
0
 42
0.0000001
 43
0.0000001
 44
0.0000000001
 40
0.0
 40
0.0
 40
0.0
 40
0.0
 40
0.1076540382
 40
0.2193811269
 40
0.3353323288
 40
0.455951524
 40
0.5818506135
 40
0.7138573568
 40
0.7825081831
 40
0.8530892459
 40
1.0
 40
1.0
 40
1.0
 40
1.0
 10
9.1766506893
 20
8.6866025198
 30
0.0
 10
9.1783867957
 20
8.6845372297
 30
0.0
 10
9.1818656696
 20
8.680278466
 30
0.0
 10
9.1869906509
 20
8.6736162735
 30
0.0
 10
9.1921058918
 20
8.6665413936
 30
0.0
 10
9.1972085098
 20
8.659023788
 30
0.0
 10
9.2022697745
 20
8.6509975755
 30
0.0
 10
9.2063514028
 20
8.6439003673
 30
0.0
 10
9.2095269857
 20
8.6378889346
 30
0.0
 10
9.2127010633
 20
8.6314577525
 30
0.0
 10
9.214869566
 20
8.6264494205
 30
0.0
 10
9.2161908111
 20
8.6230127352
 30
0.0
  0
SPLINE
  5
273
100
AcDbEntity
  8
0
100
AcDbSpline
 62
7
  6
CONTINUOUS
 70
0
 71
3
 72
24
 73
20
 74
0
 42
0.0000001
 43
0.0000001
 44
0.0000000001
 40
0.0
 40
0.0
 40
0.0
 40
0.0
 40
0.0625000896
 40
0.1250018753
 40
0.1875017808
 40
0.2500018491
 40
0.3125014092
 40
0.3750006323
 40
0.4374995169
 40
0.4999981978
 40
0.5624968787
 40
0.6249957632
 40
0.6874949868
 40
0.7499945445
 40
0.8124946205
 40
0.8749945083
 40
0.9062470646
 40
0.9374999182
 40
1.0
 40
1.0
 40
1.0
 40
1.0
 10
10.948540872
 20
9.3889222558
 30
0.0
 10
10.9411810064
 20
9.3741600002
 30
0.0
 10
10.926977492
 20
9.3443732925
 30
0.0
 10
10.9074806926
 20
9.2988739491
 30
0.0
 10
10.8900943358
 20
9.2525213873
 30
0.0
 10
10.8751581375
 20
9.2053171704
 30
0.0
 10
10.8630259295
 20
9.1573093576
 30
0.0
 10
10.8540466171
 20
9.1086070672
 30
0.0
 10
10.8485203573
 20
9.0593881001
 30
0.0
 10
10.8466536404
 20
9.0098921089
 30
0.0
 10
10.8485203105
 20
8.9603961178
 30
0.0
 10
10.8540465308
 20
8.9111771402
 30
0.0
 10
10.8630257867
 20
8.8624748626
 30
0.0
 10
10.8751580059
 20
8.814466963
 30
0.0
 10
10.8900940528
 20
8.7672630371
 30
0.0
 10
10.904582893
 20
8.7286346332
 30
0.0
 10
10.9172296853
 20
8.6981607643
 30
0.0
 10
10.9305267513
 20
8.6679651023
 30
0.0
 10
10.9411795779
 20
8.6456236107
 30
0.0
 10
10.9485394332
 20
8.6308613523
 30
0.0
  0
SPLINE
  5
274
100
AcDbEntity
  8
0
100
AcDbSpline
 62
9
  6
CONTINUOUS
 70
0
 71
3
 72
15
 73
11
 74
0
 42
0.0000001
 43
0.0000001
 44
0.0000000001
 40
0.0
 40
0.0
 40
0.0
 40
0.0
 40
0.1194491466
 40
0.2406421043
 40
0.3634603878
 40
0.4878602355
 40
0.6138154148
 40
0.7412978123
 40
0.8701904648
 40
1.0
 40
1.0
 40
1.0
 40
1.0
 10
9.1766531921
 20
8.6866014977
 30
0.0
 10
9.1799931375
 20
8.6854488015
 30
0.0
 10
9.1866699408
 20
8.6829733096
 30
0.0
 10
9.1965755513
 20
8.6787853985
 30
0.0
 10
9.206408787
 20
8.6740784607
 30
0.0
 10
9.2161134806
 20
8.6688074049
 30
0.0
 10
9.2256107304
 20
8.6629016985
 30
0.0
 10
9.2347894194
 20
8.6562765856
 30
0.0
 10
9.2434770238
 20
8.6488355744
 30
0.0
 10
9.2487078924
 20
8.6432143247
 30
0.0
 10
9.2511120792
 20
8.6402204429
 30
0.0
  0
SPLINE
  5
275
100
AcDbEntity
  8
0
100
AcDbSpline
 62
9
  6
CONTINUOUS
 70
0
 71
3
 72
15
 73
11
 74
0
 42
0.0000001
 43
0.0000001
 44
0.0000000001
 40
0.0
 40
0.0
 40
0.0
 40
0.0
 40
0.3276699096
 40
0.481357528
 40
0.6228733073
 40
0.7485075908
 40
0.8549848088
 40
0.9395451406
 40
0.9729040149
 40
1.0
 40
1.0
 40
1.0
 40
1.0
 10
9.2511120792
 20
8.640220432
 30
0.0
 10
9.2472533675
 20
8.6384318906
 30
0.0
 10
9.2415976232
 20
8.6357766027
 30
0.0
 10
9.2343084963
 20
8.6322791884
 30
0.0
 10
9.2293988597
 20
8.6298847768
 30
0.0
 10
9.2250563921
 20
8.6277255863
 30
0.0
 10
9.2213946859
 20
8.6258582492
 30
0.0
 10
9.2188186153
 20
8.6244986419
 30
0.0
 10
9.2171720017
 20
8.6235866464
 30
0.0
 10
9.2164925837
 20
8.6231938686
 30
0.0
 10
9.2161910515
 20
8.623012844
 30
0.0
  0
SPLINE
  5
276
100
AcDbEntity
  8
0
100
AcDbSpline
 62
7
  6
CONTINUOUS
 70
0
 71
3
 72
29
 73
25
 74
0
 42
0.0000001
 43
0.0000001
 44
0.0000000001
 40
0.0
 40
0.0
 40
0.0
 40
0.0
 40
0.0699624249
 40
0.1041842234
 40
0.1378657327
 40
0.2035108714
 40
0.2667916243
 40
0.3277246819
 40
0.3865285275
 40
0.4152875705
 40
0.4437169572
 40
0.471917256
 40
0.4999999999
 40
0.5280827438
 40
0.5562830426
 40
0.5847124292
 40
0.6134714722
 40
0.6722753178
 40
0.7332083755
 40
0.7964891283
 40
0.862134267
 40
0.8958157762
 40
0.9300375749
 40
1.0
 40
1.0
 40
1.0
 40
1.0
 10
10.9485389467
 20
8.6308613523
 30
0.0
 10
10.9412799581
 20
8.6235814046
 30
0.0
 10
10.930701517
 20
8.6125037426
 30
0.0
 10
10.917307034
 20
8.5973019613
 30
0.0
 10
10.9047686025
 20
8.5822027941
 30
0.0
 10
10.8903931174
 20
8.5630900871
 30
0.0
 10
10.8754166283
 20
8.5395101474
 30
0.0
 10
10.8632156445
 20
8.515490731
 30
0.0
 10
10.8556031214
 20
8.4949743874
 30
0.0
 10
10.851299203
 20
8.4784701668
 30
0.0
 10
10.8489848652
 20
8.4661268726
 30
0.0
 10
10.8475886235
 20
8.4537460643
 30
0.0
 10
10.8471198212
 20
8.4413461264
 30
0.0
 10
10.8475886235
 20
8.4289461885
 30
0.0
 10
10.8489848652
 20
8.4165653801
 30
0.0
 10
10.851299203
 20
8.404222086
 30
0.0
 10
10.8556031214
 20
8.3877178654
 30
0.0
 10
10.8632156445
 20
8.3672015218
 30
0.0
 10
10.8754166284
 20
8.3431821054
 30
0.0
 10
10.8903931175
 20
8.3196021657
 30
0.0
 10
10.9047686026
 20
8.3004894587
 30
0.0
 10
10.9173070341
 20
8.2853902915
 30
0.0
 10
10.9307015172
 20
8.2701885103
 30
0.0
 10
10.9412799585
 20
8.2591108484
 30
0.0
 10
10.9485389471
 20
8.2518309006
 30
0.0
  0
SPLINE
  5
277
100
AcDbEntity
  8
0
100
AcDbSpline
 62
9
  6
CONTINUOUS
 70
0
 71
3
 72
10
 73
6
 74
0
 42
0.0000001
 43
0.0000001
 44
0.0000000001
 40
0.0
 40
0.0
 40
0.0
 40
0.0
 40
0.2502507152
 40
0.5003730382
 40
1.0
 40
1.0
 40
1.0
 40
1.0
 10
9.2161910515
 20
8.623012844
 30
0.0
 10
9.2171518368
 20
8.6205135951
 30
0.0
 10
9.2187971069
 20
8.6154049595
 30
0.0
 10
9.2209966506
 20
8.6049217301
 30
0.0
 10
9.2214326837
 20
8.5968390834
 30
0.0
 10
9.2211859542
 20
8.591499007
 30
0.0
  0
SPLINE
  5
278
100
AcDbEntity
  8
0
100
AcDbSpline
 62
9
  6
CONTINUOUS
 70
0
 71
3
 72
9
 73
5
 74
0
 42
0.0000001
 43
0.0000001
 44
0.0000000001
 40
0.0
 40
0.0
 40
0.0
 40
0.0
 40
0.4999717324
 40
1.0
 40
1.0
 40
1.0
 40
1.0
 10
9.2511120792
 20
8.6402204429
 30
0.0
 10
9.2546076751
 20
8.6326863497
 30
0.0
 10
9.2598187044
 20
8.6167321095
 30
0.0
 10
9.2612548219
 20
8.6000215563
 30
0.0
 10
9.2610317529
 20
8.5917180877
 30
0.0
  0
SPLINE
  5
279
100
AcDbEntity
  8
0
100
AcDbSpline
 62
9
  6
CONTINUOUS
 70
0
 71
3
 72
23
 73
19
 74
0
 42
0.0000001
 43
0.0000001
 44
0.0000000001
 40
0.0
 40
0.0
 40
0.0
 40
0.0
 40
0.0903790722
 40
0.1801274231
 40
0.2684030674
 40
0.3544837185
 40
0.4377029056
 40
0.5174024405
 40
0.6636841806
 40
0.7290934321
 40
0.7886316679
 40
0.8418377502
 40
0.888282962
 40
0.9275979115
 40
0.9594504375
 40
0.9835874176
 40
0.9927469163
 40
1.0
 40
1.0
 40
1.0
 40
1.0
 10
9.196479548
 20
6.2012944497
 30
0.0
 10
9.195285392
 20
6.2013241837
 30
0.0
 10
9.1929055398
 20
6.2013882222
 30
0.0
 10
9.1893592133
 20
6.2014779556
 30
0.0
 10
9.1858690088
 20
6.2015355325
 30
0.0
 10
9.1824648074
 20
6.2015668079
 30
0.0
 10
9.179173909
 20
6.2015907971
 30
0.0
 10
9.1750873633
 20
6.2016198389
 30
0.0
 10
9.1712360701
 20
6.2016333573
 30
0.0
 10
9.1676512952
 20
6.2016150877
 30
0.0
 10
9.1652968301
 20
6.2015855231
 30
0.0
 10
9.1631933162
 20
6.2015381455
 30
0.0
 10
9.161357867
 20
6.2014688533
 30
0.0
 10
9.1598055441
 20
6.2013847862
 30
0.0
 10
9.1585487333
 20
6.2013038009
 30
0.0
 10
9.1576893283
 20
6.2012429966
 30
0.0
 10
9.1571579802
 20
6.2011723953
 30
0.0
 10
9.1569451467
 20
6.2011274846
 30
0.0
 10
9.1568533349
 20
6.2010999111
 30
0.0
  0
SPLINE
  5
27A
100
AcDbEntity
  8
0
100
AcDbSpline
 62
9
  6
CONTINUOUS
 70
0
 71
3
 72
13
 73
9
 74
0
 42
0.0000001
 43
0.0000001
 44
0.0000000001
 40
0.0
 40
0.0
 40
0.0
 40
0.0
 40
0.249999995
 40
0.3750000023
 40
0.5000000047
 40
0.6250000027
 40
0.7500000051
 40
1.0
 40
1.0
 40
1.0
 40
1.0
 10
9.2610317529
 20
8.5917180877
 30
0.0
 10
9.2556961488
 20
8.3925149528
 30
0.0
 10
9.2475316047
 20
8.0937145712
 30
0.0
 10
9.2365704906
 20
7.6953161661
 30
0.0
 10
9.2283692335
 20
7.3965168152
 30
0.0
 10
9.2202233006
 20
7.0977159521
 30
0.0
 10
9.2094908914
 20
6.6993113191
 30
0.0
 10
9.2016268077
 20
6.400502854
 30
0.0
 10
9.1964917096
 20
6.2012944497
 30
0.0
  0
SPLINE
  5
27B
100
AcDbEntity
  8
0
100
AcDbSpline
 62
9
  6
CONTINUOUS
 70
0
 71
3
 72
22
 73
18
 74
0
 42
0.0000001
 43
0.0000001
 44
0.0000000001
 40
0.0
 40
0.0
 40
0.0
 40
0.0
 40
0.1853438963
 40
0.3642793968
 40
0.5306520592
 40
0.60731658
 40
0.6787429281
 40
0.7443110957
 40
0.8034670091
 40
0.8556938922
 40
0.9005564474
 40
0.9376656828
 40
0.9667318331
 40
0.9781735223
 40
0.9875312585
 40
0.9948015011
 40
1.0
 40
1.0
 40
1.0
 40
1.0
 10
9.2610317529
 20
8.5917180874
 30
0.0
 10
9.2585689374
 20
8.5917839761
 30
0.0
 10
9.2537280276
 20
8.5918979408
 30
0.0
 10
9.2466752541
 20
8.5920170644
 30
0.0
 10
9.2410663381
 20
8.5920706616
 30
0.0
 10
9.2368863104
 20
8.5920819634
 30
0.0
 10
9.2340462261
 20
8.5920751583
 30
0.0
 10
9.2314389563
 20
8.5920533944
 30
0.0
 10
9.2290870776
 20
8.5920170198
 30
0.0
 10
9.2270107662
 20
8.5919663396
 30
0.0
 10
9.2252279988
 20
8.591902269
 30
0.0
 10
9.2237539925
 20
8.5918252855
 30
0.0
 10
9.2227249436
 20
8.5917474477
 30
0.0
 10
9.2220660582
 20
8.5916748448
 30
0.0
 10
9.2216964693
 20
8.591622434
 30
0.0
 10
9.2214115546
 20
8.5915678696
 30
0.0
 10
9.2212510436
 20
8.5915241114
 30
0.0
 10
9.2211866716
 20
8.5914989868
 30
0.0
  0
SPLINE
  5
27C
100
AcDbEntity
  8
0
100
AcDbSpline
 62
9
  6
CONTINUOUS
 70
0
 71
3
 72
13
 73
9
 74
0
 42
0.0000001
 43
0.0000001
 44
0.0000000001
 40
0.0
 40
0.0
 40
0.0
 40
0.0
 40
0.249998461
 40
0.3749963006
 40
0.4999943132
 40
0.6249931376
 40
0.74999339
 40
1.0
 40
1.0
 40
1.0
 40
1.0
 10
9.2211866716
 20
8.5914989868
 30
0.0
 10
9.2158610344
 20
8.392299324
 30
0.0
 10
9.207726086
 20
8.0935048668
 30
0.0
 10
9.196821504
 20
7.695114479
 30
0.0
 10
9.1886669764
 20
7.3963218736
 30
0.0
 10
9.1805627061
 20
7.0975259751
 30
0.0
 10
9.169865695
 20
6.6991208845
 30
0.0
 10
9.162000674
 20
6.4003107575
 30
0.0
 10
9.1568533616
 20
6.2010999094
 30
0.0
  0
SPLINE
  5
27D
100
AcDbEntity
  8
0
100
AcDbSpline
 62
9
  6
CONTINUOUS
 70
0
 71
3
 72
15
 73
11
 74
0
 42
0.0000001
 43
0.0000001
 44
0.0000000001
 40
0.0
 40
0.0
 40
0.0
 40
0.0
 40
0.1244743153
 40
0.249000933
 40
0.3736997372
 40
0.49859672
 40
0.6236986013
 40
0.7490028559
 40
0.8744590801
 40
1.0
 40
1.0
 40
1.0
 40
1.0
 10
9.5308112489
 20
6.159891804
 30
0.0
 10
9.5334095226
 20
6.159891804
 30
0.0
 10
9.5386219353
 20
6.1604103496
 30
0.0
 10
9.5461254554
 20
6.1627152571
 30
0.0
 10
9.5530393921
 20
6.1664560821
 30
0.0
 10
9.5590930816
 20
6.1714885493
 30
0.0
 10
9.5640522509
 20
6.1776181116
 30
0.0
 10
9.5677279408
 20
6.1846074213
 30
0.0
 10
9.5699742273
 20
6.1921835896
 30
0.0
 10
9.5704701299
 20
6.19743942
 30
0.0
 10
9.5704553563
 20
6.2000599164
 30
0.0
  0
SPLINE
  5
27E
100
AcDbEntity
  8
0
100
AcDbSpline
 62
9
  6
CONTINUOUS
 70
0
 71
3
 72
15
 73
11
 74
0
 42
0.0000001
 43
0.0000001
 44
0.0000000001
 40
0.0
 40
0.0
 40
0.0
 40
0.0
 40
0.1244655485
 40
0.2489858078
 40
0.3736831111
 40
0.4985834809
 40
0.623691926
 40
0.7490033051
 40
0.8744633304
 40
1.0
 40
1.0
 40
1.0
 40
1.0
 10
9.196479548
 20
6.159891804
 30
0.0
 10
9.193838511
 20
6.159891804
 30
0.0
 10
9.1885397615
 20
6.1604276801
 30
0.0
 10
9.1809225854
 20
6.1628085928
 30
0.0
 10
9.1739242242
 20
6.166669335
 30
0.0
 10
9.1678277428
 20
6.1718560266
 30
0.0
 10
9.1628768931
 20
6.1781615007
 30
0.0
 10
9.1592665038
 20
6.1853335524
 30
0.0
 10
9.1571446198
 20
6.1930827999
 30
0.0
 10
9.1567695437
 20
6.1984374641
 30
0.0
 10
9.1568533349
 20
6.2010999111
 30
0.0
  0
LINE
  5
27F
100
AcDbEntity
  8
0
100
AcDbLine
 62
9
  6
CONTINUOUS
 10
9.1568537316
 20
6.2010997992
 11
9.1392385575
 21
6.2009561993
  0
LINE
  5
280
100
AcDbEntity
  8
0
100
AcDbLine
 62
9
  6
CONTINUOUS
 10
9.5763596616
 20
8.5547037595
 11
9.5755047032
 21
8.5588924894
  0
LINE
  5
281
100
AcDbEntity
  8
0
100
AcDbLine
 62
9
  6
CONTINUOUS
 10
9.588062501
 20
6.1999064556
 11
9.5704549565
 21
6.2000598139
  0
SPLINE
  5
282
100
AcDbEntity
  8
0
100
AcDbSpline
 62
7
  6
CONTINUOUS
 70
0
 71
3
 72
29
 73
25
 74
0
 42
0.0000001
 43
0.0000001
 44
0.0000000001
 40
0.0
 40
0.0
 40
0.0
 40
0.0
 40
0.0699624212
 40
0.1041842242
 40
0.1378657339
 40
0.2035108711
 40
0.2667916242
 40
0.3277246819
 40
0.3865285275
 40
0.4152875705
 40
0.4437169572
 40
0.471917256
 40
0.4999999999
 40
0.5280827438
 40
0.5562830426
 40
0.5847124293
 40
0.6134714722
 40
0.6722753179
 40
0.7332083755
 40
0.7964891286
 40
0.8621342658
 40
0.8958157755
 40
0.9300375785
 40
1.0
 40
1.0
 40
1.0
 40
1.0
 10
10.9485389467
 20
9.7679527075
 30
0.0
 10
10.9412799643
 20
9.7606727544
 30
0.0
 10
10.9307015207
 20
9.7495950949
 30
0.0
 10
10.9173070329
 20
9.7343933177
 30
0.0
 10
10.9047686013
 20
9.7192941498
 30
0.0
 10
10.8903931182
 20
9.7001814416
 30
0.0
 10
10.875416628
 20
9.6766015029
 30
0.0
 10
10.8632156446
 20
9.6525820861
 30
0.0
 10
10.8556031214
 20
9.6320657426
 30
0.0
 10
10.851299203
 20
9.615561522
 30
0.0
 10
10.8489848652
 20
9.6032182278
 30
0.0
 10
10.8475886235
 20
9.5908374194
 30
0.0
 10
10.8471198212
 20
9.5784374816
 30
0.0
 10
10.8475886235
 20
9.5660375437
 30
0.0
 10
10.8489848652
 20
9.5536567353
 30
0.0
 10
10.851299203
 20
9.5413134412
 30
0.0
 10
10.8556031214
 20
9.5248092206
 30
0.0
 10
10.8632156446
 20
9.504292877
 30
0.0
 10
10.8754166281
 20
9.4802734603
 30
0.0
 10
10.8903931183
 20
9.4566935216
 30
0.0
 10
10.9047686013
 20
9.4375808133
 30
0.0
 10
10.9173070329
 20
9.4224816454
 30
0.0
 10
10.9307015209
 20
9.4072798683
 30
0.0
 10
10.9412799646
 20
9.3962022089
 30
0.0
 10
10.9485389471
 20
9.3889222558
 30
0.0
  0
ENDSEC
  0
SECTION
  2
OBJECTS
  0
DICTIONARY
  5
C
100
AcDbDictionary
280
0
281
1
  3
ACAD_GROUP
350
D
  3
ACAD_MLINESTYLE
350
17
  3
ACAD_LAYOUT
350
1A
  3
ACAD_PLOTSETTINGS
350
19
  3
ACAD_PLOTSTYLENAME
350
E
  0
DICTIONARY
  5
D
102
{ACAD_REACTORS
330
C
102
}
100
AcDbDictionary
280
0
281
1
  0
ACDBDICTIONARYWDFLT
  5
E
102
{ACAD_REACTORS
330
C
102
}
100
AcDbDictionary
281
1
  3
Normal
350
F
100
AcDbDictionaryWithDefault
340
F
  0
DICTIONARY
  5
17
102
{ACAD_REACTORS
330
C
102
}
100
AcDbDictionary
280
0
281
1
  3
Standard
350
18
  0
DICTIONARY
  5
19
102
{ACAD_REACTORS
330
C
102
}
100
AcDbDictionary
281
1
  0
DICTIONARY
  5
1A
102
{ACAD_REACTORS
330
C
102
}
100
AcDbDictionary
281
1
  3
Model
350
283
  3
Layout1
350
284
  0
ACDBPLACEHOLDER
  5
F
102
{ACAD_REACTORS
330
E
102
}
  0
MLINESTYLE
  5
18
102
{ACAD_REACTORS
330
17
102
}
100
AcDbMlineStyle
  2
STANDARD
 70
0
  3

 62
256
 51
90.0
 52
90.0
 71
2
 49
0.5
 62
256
  6
BYLAYER
 49
-0.5
 62
256
  6
BYLAYER
  0
LAYOUT
  5
283
102
{ACAD_REACTORS
330
1A
102
}
100
AcDbPlotSettings
  1

  2
none_device
  4
ANSI_C_(22.00_x_17.00_Inches)
  6

 40
0.0
 41
0.0
 42
0.0
 43
0.0
 44
558.8
 45
431.8
 46
0.0
 47
0.0
 48
0.0
 49
0.0
140
0.0
141
0.0
142
1.0
143
1.0
 70
1024
 72
0
 73
0
 74
0
  7

 75
0
147
1.0
148
0.0
149
0.0
100
AcDbLayout
  1
Model
 70
0
 71
0
 10
0.0
 20
0.0
 11
22.0
 21
17.0
 12
0.0
 22
0.0
 32
0.0
 14
0.0
 24
0.0
 34
0.0
 15
0.0
 25
0.0
 35
0.0
146
0.0
 13
0.0
 23
0.0
 33
0.0
 16
1.0
 26
0.0
 36
0.0
 17
0.0
 27
1.0
 37
0.0
 76
0
330
205
345
0
346
0
  0
LAYOUT
  5
284
102
{ACAD_REACTORS
330
1A
102
}
100
AcDbPlotSettings
  1

  2
none_device
  4
ANSI_C_(22.00_x_17.00_Inches)
  6

 40
0.0
 41
0.0
 42
0.0
 43
0.0
 44
558.8
 45
431.8
 46
0.0
 47
0.0
 48
0.0
 49
0.0
140
0.0
141
0.0
142
1.0
143
1.0
 70
0
 72
0
 73
0
 74
0
  7

 75
0
147
1.0
148
0.0
149
0.0
100
AcDbLayout
  1
Layout1
 70
0
 71
1
 10
0.0
 20
0.0
 11
22.0
 21
17.0
 12
0.0
 22
0.0
 32
0.0
 14
0.0
 24
0.0
 34
0.0
 15
0.0
 25
0.0
 35
0.0
146
0.0
 13
0.0
 23
0.0
 33
0.0
 16
1.0
 26
0.0
 36
0.0
 17
0.0
 27
1.0
 37
0.0
 76
0
330
206
345
0
346
0
  0
ENDSEC
  0
EOF
