999
DXF file: E:\BT Custom\CADOUTPUT\_TOP.dxf
999
Pro/ENGINEER 2018400 by Parametric Technology Corporation
  0
SECTION
  2
HEADER
  9
$ACADVER
  1
AC1018
  9
$DWGCODEPAGE
  3
ANSI_1252
  9
$EXTMAX
 10
22.0
 20
17.0
 30
0.0
  9
$EXTMIN
 10
0.0
 20
0.0
 30
0.0
  9
$LIMMIN
 10
0.0
 20
0.0
  9
$LIMMAX
 10
22.0
 20
17.0
  9
$VIEWCTR
 10
11.0
 20
8.5
  9
$VIEWSIZE
 40
17.0
  9
$CLAYER
  8
0
  9
$LTSCALE
 40
1.21
  9
$CELTYPE
  6
BYLAYER
  9
$DIMSCALE
 40
1.0
  9
$DIMASZ
 40
0.1
  9
$DIMEXO
 40
0.0625
  9
$DIMDLI
 40
0.836
  9
$DIMEXE
 40
0.125
  9
$DIMCEN
 40
0.198
  9
$DIMLFAC
 40
1.0
  9
$DIMBLK
  1
_FILLED
  9
$DIMALT
 70
1
  9
$DIMALTD
 70
2
  9
$DIMALTTD
 70
2
  9
$DIMALTF
 40
25.4
  9
$DIMTXT
 40
0.08
  9
$DIMTOL
 70
1
  9
$DIMLIM
 70
0
  9
$DIMTFAC
 40
1.0
  9
$DIMTP
 40
0.001
  9
$DIMTM
 40
0.001
  9
$DIMGAP
 40
0.09
  9
$DIMDSEP
 70
46
  9
$AUNITS
 70
0
  9
$PDMODE
 70
3
  9
$PDSIZE
 40
0.06
  9
$HANDSEED
  5
2FA
  9
$TILEMODE
 70
1
  9
$MEASUREMENT
 70
0
  9
$INSUNITS
 70
1
  0
ENDSEC
  0
SECTION
  2
CLASSES
  0
CLASS
  1
ACDBDICTIONARYWDFLT
  2
AcDbDictionaryWithDefault
  3
AutoCAD 2000
 90
0
 91
1
280
0
281
0
  0
CLASS
  1
ACDBPLACEHOLDER
  2
AcDbPlaceHolder
  3
AutoCAD 2000
 90
0
 91
1
280
0
281
0
  0
CLASS
  1
LAYOUT
  2
AcDbLayout
  3
AutoCAD 2000
 90
0
 91
0
280
0
281
0
  0
ENDSEC
  0
SECTION
  2
TABLES
  0
TABLE
  2
VPORT
  5
8
100
AcDbSymbolTable
 70
2
  0
VPORT
  5
1F4
100
AcDbSymbolTableRecord
100
AcDbViewportTableRecord
  2
*ACTIVE
 70
0
 10
0.0
 20
0.0
 11
1.0
 21
1.0
 12
11.0
 22
8.5
 13
0.0
 23
0.0
 14
1.0
 24
1.0
 15
0.0
 25
0.0
 16
0.0
 26
0.0
 36
1.0
 17
0.0
 27
0.0
 37
0.0
 40
17.0
 41
1.2941176471
 42
50.0
 43
0.0
 44
0.0
 50
0.0
 51
0.0
 71
0
 72
100
 73
1
 74
1
 75
0
 76
0
 77
0
 78
0
  0
ENDTAB
  0
TABLE
  2
LTYPE
  5
5
100
AcDbSymbolTable
 70
6
  0
LTYPE
  5
14
100
AcDbSymbolTableRecord
100
AcDbLinetypeTableRecord
  2
BYBLOCK
 70
0
  3

 72
65
 73
0
 40
0.0
  0
LTYPE
  5
15
100
AcDbSymbolTableRecord
100
AcDbLinetypeTableRecord
  2
BYLAYER
 70
0
  3

 72
65
 73
0
 40
0.0
  0
LTYPE
  5
16
100
AcDbSymbolTableRecord
100
AcDbLinetypeTableRecord
  2
CONTINUOUS
 70
64
  3
Solid line
 72
65
 73
0
 40
0.0
  0
LTYPE
  5
1F5
100
AcDbSymbolTableRecord
100
AcDbLinetypeTableRecord
  2
CENTER
 70
64
  3
____ _ ____ _ ____ _ ____ _ ____ _ ____ _ ____
 72
65
 73
4
 40
0.6
 49
0.375
 74
0
 49
-0.075
 74
0
 49
0.075
 74
0
 49
-0.075
 74
0
  0
LTYPE
  5
1F6
100
AcDbSymbolTableRecord
100
AcDbLinetypeTableRecord
  2
HIDDEN
 70
64
  3
- - - - - - - - - - - - - - - - - - - -
 72
65
 73
2
 40
0.2
 49
0.1
 74
0
 49
-0.1
 74
0
  0
LTYPE
  5
1F7
100
AcDbSymbolTableRecord
100
AcDbLinetypeTableRecord
  2
PHANTOM
 70
64
  3
_____ _ _ _____ _ _ _____ _ _ _____
 72
65
 73
6
 40
0.8
 49
0.45
 74
0
 49
-0.05
 74
0
 49
0.1
 74
0
 49
-0.05
 74
0
 49
0.1
 74
0
 49
-0.05
 74
0
  0
LTYPE
  5
1F8
100
AcDbSymbolTableRecord
100
AcDbLinetypeTableRecord
  2
DOT
 70
64
  3
. . . . . . . . . . . . . . . . . . . .
 72
65
 73
2
 40
0.2
 49
0.1
 74
0
 49
-0.1
 74
0
  0
LTYPE
  5
1F9
100
AcDbSymbolTableRecord
100
AcDbLinetypeTableRecord
  2
DASHED
 70
64
  3
- - - - - - - - - - - - - - - - - - - -
 72
65
 73
2
 40
0.2
 49
0.1
 74
0
 49
-0.1
 74
0
  0
ENDTAB
  0
TABLE
  2
LAYER
  5
2
100
AcDbSymbolTable
 70
36
  0
LAYER
  5
10
100
AcDbSymbolTableRecord
100
AcDbLayerTableRecord
  2
0
 70
0
 62
7
  6
CONTINUOUS
370
-3
390
F
  0
LAYER
  5
1FA
100
AcDbSymbolTableRecord
100
AcDbLayerTableRecord
  2
DEFAULT_1
 70
0
 62
7
  6
CENTER
370
-3
390
F
  0
LAYER
  5
1FB
100
AcDbSymbolTableRecord
100
AcDbLayerTableRecord
  2
DEFAULT_2
 70
0
 62
8
  6
HIDDEN
370
-3
390
F
  0
LAYER
  5
1FC
100
AcDbSymbolTableRecord
100
AcDbLayerTableRecord
  2
DEFAULT_3
 70
0
 62
7
  6
PHANTOM
370
-3
390
F
  0
LAYER
  5
1FD
100
AcDbSymbolTableRecord
100
AcDbLayerTableRecord
  2
ALL_FEATURES
 70
0
 62
7
  6
CONTINUOUS
370
-3
390
F
  0
LAYER
  5
1FE
100
AcDbSymbolTableRecord
100
AcDbLayerTableRecord
  2
AXES_FEATURES
 70
0
 62
7
  6
CONTINUOUS
370
-3
390
F
  0
LAYER
  5
1FF
100
AcDbSymbolTableRecord
100
AcDbLayerTableRecord
  2
DEFAULT_COORDINATE_SYSTEM
 70
0
 62
7
  6
CONTINUOUS
370
-3
390
F
  0
LAYER
  5
200
100
AcDbSymbolTableRecord
100
AcDbLayerTableRecord
  2
DEFAULT_DATUM_AXES
 70
0
 62
7
  6
CONTINUOUS
370
-3
390
F
  0
LAYER
  5
201
100
AcDbSymbolTableRecord
100
AcDbLayerTableRecord
  2
DEFAULT_DATUM_PLANES
 70
0
 62
7
  6
CONTINUOUS
370
-3
390
F
  0
LAYER
  5
202
100
AcDbSymbolTableRecord
100
AcDbLayerTableRecord
  2
DIMENSIONS
 70
0
 62
7
  6
CONTINUOUS
370
-3
390
F
  0
ENDTAB
  0
TABLE
  2
STYLE
  5
3
100
AcDbSymbolTable
 70
1
  0
STYLE
  5
11
100
AcDbSymbolTableRecord
100
AcDbTextStyleTableRecord
  2
STANDARD
 70
0
 40
0.0
 41
0.8
 50
0.0
 71
0
 42
0.2
  3
txt
  4

  0
STYLE
  5
203
100
AcDbSymbolTableRecord
100
AcDbTextStyleTableRecord
  2
TEXTSTYLE_1
 70
0
 40
0.0
 41
0.8
 50
0.0
 71
0
 42
0.2
  3
gdt
  4

  0
ENDTAB
  0
TABLE
  2
VIEW
  5
6
100
AcDbSymbolTable
 70
0
  0
ENDTAB
  0
TABLE
  2
UCS
  5
7
100
AcDbSymbolTable
 70
0
  0
ENDTAB
  0
TABLE
  2
APPID
  5
9
100
AcDbSymbolTable
 70
1
  0
APPID
  5
204
100
AcDbSymbolTableRecord
100
AcDbRegAppTableRecord
  2
ACAD
 70
0
  0
ENDTAB
  0
TABLE
  2
BLOCK_RECORD
  5
1
100
AcDbSymbolTable
 70
0
  0
BLOCK_RECORD
  5
205
100
AcDbSymbolTableRecord
100
AcDbBlockTableRecord
  2
*Model_Space
  0
BLOCK_RECORD
  5
206
100
AcDbSymbolTableRecord
100
AcDbBlockTableRecord
  2
*Paper_Space
  0
BLOCK_RECORD
  5
207
100
AcDbSymbolTableRecord
100
AcDbBlockTableRecord
  2
_FILLED
  0
ENDTAB
  0
TABLE
  2
DIMSTYLE
  5
A
100
AcDbSymbolTable
 70
1
100
AcDbDimStyleTable
 71
0
  0
DIMSTYLE
105
208
100
AcDbSymbolTableRecord
100
AcDbDimStyleTableRecord
  2
STANDARD
 70
0
  3

  4

 40
1.0
 41
0.1
 42
0.0625
 43
0.38
 44
0.125
 45
0.0
 46
0.0
 47
0.001
 48
0.001
140
0.08
141
0.09
142
0.0
143
25.4
144
1.0
145
0.0
146
1.0
147
0.09
 71
1.0
 72
0.0
 73
1
 74
1
 75
0
 76
0
 77
0
 78
4
 79
1
170
1
171
2
172
0
173
0
174
0
175
0
176
0
177
0
178
0
270
2
179
3
271
3
272
3
273
2
274
2
275
0
280
0
281
0
282
0
283
1
284
4
285
0
286
0
287
3
288
0
340
11
278
46
341
207
342
207
343
207
344
207
  0
ENDTAB
  0
ENDSEC
  0
SECTION
  2
BLOCKS
  0
BLOCK
  5
20
100
AcDbEntity
  8
0
100
AcDbBlockBegin
  2
*Model_Space
 70
0
 10
0.0
 20
0.0
 30
0.0
  3
*Model_Space
  1

  0
ENDBLK
  5
21
100
AcDbEntity
  8
0
100
AcDbBlockEnd
  0
BLOCK
  5
1C
100
AcDbEntity
  8
0
100
AcDbBlockBegin
  2
*Paper_Space
 70
0
 10
0.0
 20
0.0
 30
0.0
  3
*Paper_Space
  1

  0
ENDBLK
  5
1D
100
AcDbEntity
  8
0
100
AcDbBlockEnd
  0
BLOCK
  5
209
100
AcDbEntity
  8
0
100
AcDbBlockBegin
  2
_FILLED
 70
64
 10
0.0
 20
0.0
  3
_FILLED
  1

  0
SOLID
  5
20A
100
AcDbEntity
  8
0
  6
BYBLOCK
 62
0
100
AcDbTrace
 10
0.0
 20
0.0
 11
-1.0
 21
0.2
 12
-1.0
 22
-0.2
 13
-1.0
 23
-0.2
  0
ENDBLK
  5
20B
100
AcDbEntity
  8
0
  6
BYBLOCK
 62
0
100
AcDbBlockEnd
  0
ENDSEC
  0
SECTION
  2
ENTITIES
  0
LINE
  5
20C
100
AcDbEntity
  8
0
100
AcDbLine
 62
9
  6
CONTINUOUS
 10
10.6521736817
 20
5.7055225672
 11
11.4424629948
 21
5.7055225672
  0
LINE
  5
20D
100
AcDbEntity
  8
0
100
AcDbLine
 62
7
  6
CONTINUOUS
 10
10.5928087656
 20
5.7293318604
 11
11.501827911
 21
5.7293318604
  0
LINE
  5
20E
100
AcDbEntity
  8
0
100
AcDbLine
 62
7
  6
CONTINUOUS
 10
10.534084186
 20
5.7484125084
 11
11.5605524905
 21
5.7484125084
  0
LINE
  5
20F
100
AcDbEntity
  8
0
100
AcDbLine
 62
7
  6
CONTINUOUS
 10
10.5198183383
 20
5.7680477633
 11
11.5748183383
 21
5.7680477633
  0
LINE
  5
210
100
AcDbEntity
  8
0
100
AcDbLine
 62
7
  6
CONTINUOUS
 10
10.5928083822
 20
5.7293318604
 11
10.534084186
 21
5.7484125084
  0
LINE
  5
211
100
AcDbEntity
  8
0
100
AcDbLine
 62
7
  6
CONTINUOUS
 10
10.5198183383
 20
5.8393318604
 11
11.5748183383
 21
5.8393318604
  0
LINE
  5
212
100
AcDbEntity
  8
0
100
AcDbLine
 62
7
  6
CONTINUOUS
 10
10.5466651258
 20
5.8548318604
 11
11.5479715508
 21
5.8548318604
  0
LINE
  5
213
100
AcDbEntity
  8
0
100
AcDbLine
 62
7
  6
CONTINUOUS
 10
10.5198183383
 20
5.8703318604
 11
11.5748183383
 21
5.8703318604
  0
LINE
  5
214
100
AcDbEntity
  8
0
100
AcDbLine
 62
7
  6
CONTINUOUS
 10
10.4898183383
 20
5.9503318604
 11
11.6048183383
 21
5.9503318604
  0
LINE
  5
215
100
AcDbEntity
  8
0
100
AcDbLine
 62
7
  6
CONTINUOUS
 10
11.4072399157
 20
5.9593318604
 11
11.3958220544
 21
5.9593318604
  0
LINE
  5
216
100
AcDbEntity
  8
0
100
AcDbLine
 62
7
  6
CONTINUOUS
 10
10.698814742
 20
5.9593318604
 11
10.6873967609
 21
5.9593318604
  0
LINE
  5
217
100
AcDbEntity
  8
0
100
AcDbLine
 62
7
  6
CONTINUOUS
 10
10.5466651258
 20
5.8548318604
 11
10.5198183383
 21
5.8703318604
  0
LINE
  5
218
100
AcDbEntity
  8
0
100
AcDbLine
 62
7
  6
CONTINUOUS
 10
10.534084186
 20
5.7484125084
 11
10.5198183383
 21
5.7680477633
  0
LINE
  5
219
100
AcDbEntity
  8
0
100
AcDbLine
 62
7
  6
CONTINUOUS
 10
11.4072399157
 20
6.3513318604
 11
11.395822058
 21
6.3513318604
  0
LINE
  5
21A
100
AcDbEntity
  8
0
100
AcDbLine
 62
7
  6
CONTINUOUS
 10
10.6988147355
 20
6.3513318604
 11
10.6873967609
 21
6.3513318604
  0
LINE
  5
21B
100
AcDbEntity
  8
0
100
AcDbLine
 62
7
  6
CONTINUOUS
 10
11.6048183383
 20
6.3603318604
 11
10.4898183383
 21
6.3603318604
  0
LINE
  5
21C
100
AcDbEntity
  8
0
100
AcDbLine
 62
7
  6
CONTINUOUS
 10
11.5748183383
 20
5.8393318604
 11
11.5479715508
 21
5.8548318604
  0
LINE
  5
21D
100
AcDbEntity
  8
0
100
AcDbLine
 62
7
  6
CONTINUOUS
 10
10.4638199787
 20
6.2751218141
 11
10.4342334527
 21
6.3161587031
  0
LINE
  5
21E
100
AcDbEntity
  8
0
100
AcDbLine
 62
7
  6
CONTINUOUS
 10
10.5198183383
 20
6.4393318604
 11
11.5748183383
 21
6.4393318604
  0
LINE
  5
21F
100
AcDbEntity
  8
0
100
AcDbLine
 62
7
  6
CONTINUOUS
 10
10.6768183702
 20
6.4903318604
 11
11.4178183064
 21
6.4903318604
  0
LINE
  5
220
100
AcDbEntity
  8
0
100
AcDbLine
 62
7
  6
CONTINUOUS
 10
11.5748183383
 20
6.4393318604
 11
11.4178183383
 21
6.4903318604
  0
LINE
  5
221
100
AcDbEntity
  8
0
100
AcDbLine
 62
7
  6
CONTINUOUS
 10
10.2892574348
 20
8.1193318604
 11
10.2892574348
 21
7.8693892435
  0
LINE
  5
222
100
AcDbEntity
  8
0
100
AcDbLine
 62
7
  6
CONTINUOUS
 10
10.3063183383
 20
8.1813318604
 11
10.3063183383
 21
8.1193318604
  0
LINE
  5
223
100
AcDbEntity
  8
0
100
AcDbLine
 62
7
  6
CONTINUOUS
 10
10.7038183679
 20
6.8493318604
 11
11.3908183087
 21
6.8493318604
  0
LINE
  5
224
100
AcDbEntity
  8
0
100
AcDbLine
 62
7
  6
CONTINUOUS
 10
11.4461672268
 20
6.8693318604
 11
10.6484694498
 21
6.8693318604
  0
LINE
  5
225
100
AcDbEntity
  8
0
100
AcDbLine
 62
9
  6
CONTINUOUS
 10
11.4770580658
 20
6.8977326177
 11
10.6175786107
 21
6.8977326177
  0
LINE
  5
226
100
AcDbEntity
  8
0
100
AcDbLine
 62
7
  6
CONTINUOUS
 10
10.4326843441
 20
7.3096330489
 11
10.5068183383
 21
7.2037154216
  0
LINE
  5
227
100
AcDbEntity
  8
0
100
AcDbLine
 62
7
  6
CONTINUOUS
 10
10.5198183383
 20
5.7680477633
 11
10.5198183383
 21
5.8393318604
  0
LINE
  5
228
100
AcDbEntity
  8
0
100
AcDbLine
 62
7
  6
CONTINUOUS
 10
10.6682878866
 20
8.1193318604
 11
10.6682878866
 21
7.8693878045
  0
LINE
  5
229
100
AcDbEntity
  8
0
100
AcDbLine
 62
7
  6
CONTINUOUS
 10
10.7038183383
 20
6.4903318604
 11
10.7038183383
 21
6.8493318604
  0
LINE
  5
22A
100
AcDbEntity
  8
0
100
AcDbLine
 62
9
  6
CONTINUOUS
 10
11.5878183383
 20
7.2037154216
 11
10.5068183383
 21
7.2037154216
  0
LINE
  5
22B
100
AcDbEntity
  8
0
100
AcDbLine
 62
7
  6
CONTINUOUS
 10
10.2892626479
 20
7.8693873904
 11
10.4061548986
 21
7.7528318604
  0
LINE
  5
22C
100
AcDbEntity
  8
0
100
AcDbLine
 62
7
  6
CONTINUOUS
 10
11.6308166979
 20
6.0355419067
 11
11.6604032238
 21
5.9945050177
  0
LINE
  5
22D
100
AcDbEntity
  8
0
100
AcDbLine
 62
9
  6
CONTINUOUS
 10
11.6308147799
 20
6.035544567
 11
11.6308166979
 21
6.0355419067
  0
LINE
  5
22E
100
AcDbEntity
  8
0
100
AcDbLine
 62
7
  6
CONTINUOUS
 10
10.8473183383
 20
6.8693318604
 11
10.8473183383
 21
6.8493318604
  0
LINE
  5
22F
100
AcDbEntity
  8
0
100
AcDbLine
 62
9
  6
CONTINUOUS
 10
10.9140879686
 20
5.6632701483
 11
10.9140879686
 21
5.6624298201
  0
LINE
  5
230
100
AcDbEntity
  8
0
100
AcDbLine
 62
7
  6
CONTINUOUS
 10
10.9385844527
 20
5.6613168461
 11
10.9385844527
 21
5.6603129715
  0
LINE
  5
231
100
AcDbEntity
  8
0
100
AcDbLine
 62
7
  6
CONTINUOUS
 10
11.0173183383
 20
5.6570933169
 11
11.0173183383
 21
5.6560921797
  0
LINE
  5
232
100
AcDbEntity
  8
0
100
AcDbLine
 62
7
  6
CONTINUOUS
 10
11.0304531015
 20
5.6823277575
 11
11.0304531015
 21
5.68131004
  0
LINE
  5
233
100
AcDbEntity
  8
0
100
AcDbLine
 62
7
  6
CONTINUOUS
 10
11.064183575
 20
5.6823277575
 11
11.064183575
 21
5.68131004
  0
LINE
  5
234
100
AcDbEntity
  8
0
100
AcDbLine
 62
7
  6
CONTINUOUS
 10
11.0773183383
 20
5.6570933169
 11
11.0773183383
 21
5.6560921797
  0
LINE
  5
235
100
AcDbEntity
  8
0
100
AcDbLine
 62
9
  6
CONTINUOUS
 10
11.6619523325
 20
7.3096330489
 11
10.4326843441
 21
7.3096330489
  0
LINE
  5
236
100
AcDbEntity
  8
0
100
AcDbLine
 62
7
  6
CONTINUOUS
 10
11.1560522239
 20
5.6613168461
 11
11.1560522239
 21
5.6603129715
  0
LINE
  5
237
100
AcDbEntity
  8
0
100
AcDbLine
 62
9
  6
CONTINUOUS
 10
11.180548708
 20
5.6632701481
 11
11.180548708
 21
5.6624298201
  0
LINE
  5
238
100
AcDbEntity
  8
0
100
AcDbLine
 62
7
  6
CONTINUOUS
 10
11.2473183383
 20
6.8693318604
 11
11.2473183383
 21
6.8493318604
  0
LINE
  5
239
100
AcDbEntity
  8
0
100
AcDbLine
 62
7
  6
CONTINUOUS
 10
11.8053710846
 20
7.8693844548
 11
11.6884817779
 21
7.7528318604
  0
LINE
  5
23A
100
AcDbEntity
  8
0
100
AcDbLine
 62
9
  6
CONTINUOUS
 10
11.6658183383
 20
7.5378318604
 11
10.4288183383
 21
7.5378318604
  0
LINE
  5
23B
100
AcDbEntity
  8
0
100
AcDbLine
 62
9
  6
CONTINUOUS
 10
11.6884817779
 20
7.7528318604
 11
10.4061548986
 21
7.7528318604
  0
LINE
  5
23C
100
AcDbEntity
  8
0
100
AcDbLine
 62
7
  6
CONTINUOUS
 10
11.3908183383
 20
6.4903318604
 11
11.3908183383
 21
6.8493318604
  0
LINE
  5
23D
100
AcDbEntity
  8
0
100
AcDbLine
 62
7
  6
CONTINUOUS
 10
11.42634879
 20
8.1193318604
 11
11.42634879
 21
7.8693873184
  0
LINE
  5
23E
100
AcDbEntity
  8
0
100
AcDbLine
 62
7
  6
CONTINUOUS
 10
11.5748183383
 20
5.7680477633
 11
11.5748183383
 21
5.8393318604
  0
LINE
  5
23F
100
AcDbEntity
  8
0
100
AcDbLine
 62
7
  6
CONTINUOUS
 10
11.6619523325
 20
7.3096330489
 11
11.5878183383
 21
7.2037154216
  0
LINE
  5
240
100
AcDbEntity
  8
0
100
AcDbLine
 62
7
  6
CONTINUOUS
 10
10.4638199787
 20
6.0355419067
 11
10.4342334527
 21
5.9945050177
  0
LINE
  5
241
100
AcDbEntity
  8
0
100
AcDbLine
 62
7
  6
CONTINUOUS
 10
11.7883183383
 20
8.1813318604
 11
11.7883183383
 21
8.1193318604
  0
LINE
  5
242
100
AcDbEntity
  8
0
100
AcDbLine
 62
7
  6
CONTINUOUS
 10
11.8053792417
 20
8.1193318604
 11
11.8053792417
 21
7.8693873184
  0
LINE
  5
243
100
AcDbEntity
  8
0
100
AcDbLine
 62
7
  6
CONTINUOUS
 10
10.5198183383
 20
6.4393318604
 11
10.6768183383
 21
6.4903318604
  0
LINE
  5
244
100
AcDbEntity
  8
0
100
AcDbLine
 62
7
  6
CONTINUOUS
 10
11.8053792417
 20
8.1193318604
 11
10.2892574348
 21
8.1193318604
  0
LINE
  5
245
100
AcDbEntity
  8
0
100
AcDbLine
 62
7
  6
CONTINUOUS
 10
11.8603210121
 20
8.1813318604
 11
10.2343156645
 21
8.1813318604
  0
LINE
  5
246
100
AcDbEntity
  8
0
100
AcDbLine
 62
7
  6
CONTINUOUS
 10
12.0473183383
 20
8.3693318604
 11
10.0473183383
 21
8.3693318604
  0
LINE
  5
247
100
AcDbEntity
  8
0
100
AcDbLine
 62
7
  6
CONTINUOUS
 10
11.6308166979
 20
6.2751218141
 11
11.6604032238
 21
6.3161587031
  0
LINE
  5
248
100
AcDbEntity
  8
0
100
AcDbLine
 62
7
  6
CONTINUOUS
 10
10.5198183383
 20
5.8393318604
 11
10.5466651258
 21
5.8548318604
  0
LINE
  5
249
100
AcDbEntity
  8
0
100
AcDbLine
 62
7
  6
CONTINUOUS
 10
13.8041570779
 20
8.5563318604
 11
8.2904795986
 21
8.5563318604
  0
LINE
  5
24A
100
AcDbEntity
  8
0
100
AcDbLine
 62
7
  6
CONTINUOUS
 10
11.5605524905
 20
5.7484125084
 11
11.5748183383
 21
5.7680477633
  0
LINE
  5
24B
100
AcDbEntity
  8
0
100
AcDbLine
 62
9
  6
CONTINUOUS
 10
14.0212377081
 20
8.6823318604
 11
8.0733989685
 21
8.6823318604
  0
LINE
  5
24C
100
AcDbEntity
  8
0
100
AcDbLine
 62
7
  6
CONTINUOUS
 10
14.2382345161
 20
8.8083318464
 11
7.8564021604
 21
8.8083318464
  0
LINE
  5
24D
100
AcDbEntity
  8
0
100
AcDbLine
 62
9
  6
CONTINUOUS
 10
14.4552392802
 20
8.9343346126
 11
7.6393973963
 21
8.9343346126
  0
LINE
  5
24E
100
AcDbEntity
  8
0
100
AcDbLine
 62
7
  6
CONTINUOUS
 10
11.5479715508
 20
5.8548318604
 11
11.5748183383
 21
5.8703318604
  0
LINE
  5
24F
100
AcDbEntity
  8
0
100
AcDbLine
 62
7
  6
CONTINUOUS
 10
14.6723183383
 20
9.0603318604
 11
7.4223183383
 21
9.0603318604
  0
LINE
  5
250
100
AcDbEntity
  8
0
100
AcDbLine
 62
7
  6
CONTINUOUS
 10
11.5018282944
 20
5.7293318604
 11
11.5605524905
 21
5.7484125084
  0
LINE
  5
251
100
AcDbEntity
  8
0
100
AcDbLine
 62
7
  6
CONTINUOUS
 10
14.9223183383
 20
9.3103318604
 11
7.1723183383
 21
9.3103318604
  0
ARC
  5
252
100
AcDbEntity
  8
0
100
AcDbCircle
 62
7
  6
CONTINUOUS
 10
10.3170390474
 20
6.3876240945
 40
1.36
100
AcDbArc
 50
337.6438963444
 51
341.2440132164
  0
ARC
  5
253
100
AcDbEntity
  8
0
100
AcDbCircle
 62
7
  6
CONTINUOUS
 10
10.3190195575
 20
5.9172500449
 40
1.36
100
AcDbArc
 50
19.0137742001
 51
22.5744557109
  0
ARC
  5
254
100
AcDbEntity
  8
0
100
AcDbCircle
 62
7
  6
CONTINUOUS
 10
11.0266629722
 20
6.9365869224
 40
1.2814987879
100
AcDbArc
 50
275.7934334239
 51
276.0188277894
  0
ARC
  5
255
100
AcDbEntity
  8
0
100
AcDbCircle
 62
7
  6
CONTINUOUS
 10
11.0267104525
 20
6.9361152885
 40
1.2810247702
100
AcDbArc
 50
275.0648275652
 51
275.7934499727
  0
ARC
  5
256
100
AcDbEntity
  8
0
100
AcDbCircle
 62
7
  6
CONTINUOUS
 10
11.0267872722
 20
6.9352557898
 40
1.2801618456
100
AcDbArc
 50
274.0935228731
 51
275.0647988878
  0
ARC
  5
257
100
AcDbEntity
  8
0
100
AcDbCircle
 62
7
  6
CONTINUOUS
 10
11.0352439213
 20
6.934155289
 40
1.2795580861
100
AcDbArc
 50
271.8856033293
 51
275.4175976304
  0
ARC
  5
258
100
AcDbEntity
  8
0
100
AcDbCircle
 62
7
  6
CONTINUOUS
 10
11.0351832777
 20
6.9351344927
 40
1.2795392526
100
AcDbArc
 50
273.7145768485
 51
275.4204053275
  0
ARC
  5
259
100
AcDbEntity
  8
0
100
AcDbCircle
 62
7
  6
CONTINUOUS
 10
11.0268642847
 20
6.9341816945
 40
1.279084993
100
AcDbArc
 50
272.2606429771
 51
274.0935165077
  0
ARC
  5
25A
100
AcDbEntity
  8
0
100
AcDbCircle
 62
7
  6
CONTINUOUS
 10
11.0352815158
 20
6.9331754593
 40
1.27857755
100
AcDbArc
 50
270.9427105401
 51
271.8737564569
  0
ARC
  5
25B
100
AcDbEntity
  8
0
100
AcDbCircle
 62
7
  6
CONTINUOUS
 10
11.0352813953
 20
6.9333548085
 40
1.2777567293
100
AcDbArc
 50
270.9861262794
 51
271.874800193
  0
ARC
  5
25C
100
AcDbEntity
  8
0
100
AcDbCircle
 62
7
  6
CONTINUOUS
 10
9.5671794494
 20
6.1553318604
 40
0.9451388889
100
AcDbArc
 50
9.1225460975
 51
12.5269812287
  0
ARC
  5
25D
100
AcDbEntity
  8
0
100
AcDbCircle
 62
7
  6
CONTINUOUS
 10
9.5671794494
 20
6.1553318604
 40
0.9451388889
100
AcDbArc
 50
347.4730187713
 51
350.8771536127
  0
ARC
  5
25E
100
AcDbEntity
  8
0
100
AcDbCircle
 62
7
  6
CONTINUOUS
 10
9.9947794362
 20
6.8453285319
 40
0.625
100
AcDbArc
 50
4.8096995456
 51
34.9889904702
  0
ARC
  5
25F
100
AcDbEntity
  8
0
100
AcDbCircle
 62
7
  6
CONTINUOUS
 10
11.002070893
 20
6.0262715504
 40
0.3714245678
100
AcDbArc
 50
260.1582861729
 51
262.663006403
  0
ARC
  5
260
100
AcDbEntity
  8
0
100
AcDbCircle
 62
7
  6
CONTINUOUS
 10
10.9773725186
 20
5.9798500705
 40
0.3226107583
100
AcDbArc
 50
262.1782070482
 51
263.0454375003
  0
ARC
  5
261
100
AcDbEntity
  8
0
100
AcDbCircle
 62
7
  6
CONTINUOUS
 10
10.9724036477
 20
5.9383468413
 40
0.2808111762
100
AcDbArc
 50
263.0663056221
 51
265.6962712548
  0
ARC
  5
262
100
AcDbEntity
  8
0
100
AcDbCircle
 62
7
  6
CONTINUOUS
 10
10.2111645723
 20
6.1553318519
 40
0.2750000027
100
AcDbArc
 50
35.7906215029
 51
324.2093738727
  0
ARC
  5
263
100
AcDbEntity
  8
0
100
AcDbCircle
 62
7
  6
CONTINUOUS
 10
10.9671480054
 20
5.8611772098
 40
0.20445627
100
AcDbArc
 50
266.4976154168
 51
269.4388030048
  0
ARC
  5
264
100
AcDbEntity
  8
0
100
AcDbCircle
 62
7
  6
CONTINUOUS
 10
10.5997934594
 20
7.4265962636
 40
0.2039751211
100
AcDbArc
 50
146.9521644936
 51
214.9889904702
  0
ARC
  5
265
100
AcDbEntity
  8
0
100
AcDbCircle
 62
9
  6
CONTINUOUS
 10
10.6873798863
 20
6.0578348129
 40
0.0985029539
100
AcDbArc
 50
270.0098153746
 51
278.6737225018
  0
ARC
  5
266
100
AcDbEntity
  8
0
100
AcDbCircle
 62
9
  6
CONTINUOUS
 10
10.6873798865
 20
6.2528289125
 40
0.0985029494
100
AcDbArc
 50
81.3263207226
 51
89.990184755
  0
ARC
  5
267
100
AcDbEntity
  8
0
100
AcDbCircle
 62
7
  6
CONTINUOUS
 10
10.6484694498
 20
6.9003318604
 40
0.031
100
AcDbArc
 50
184.8096995457
 51
270.0
  0
ARC
  5
268
100
AcDbEntity
  8
0
100
AcDbCircle
 62
7
  6
CONTINUOUS
 10
10.6598183383
 20
5.7345322074
 40
0.03
100
AcDbArc
 50
189.9861146934
 51
255.2369687319
  0
ARC
  5
269
100
AcDbEntity
  8
0
100
AcDbCircle
 62
7
  6
CONTINUOUS
 10
7.8564859863
 20
9.0583428097
 40
0.2500109774
100
AcDbArc
 50
209.7364395186
 51
269.9807893772
  0
ARC
  5
26A
100
AcDbEntity
  8
0
100
AcDbCircle
 62
7
  6
CONTINUOUS
 10
7.4223183383
 20
9.3103318604
 40
0.25
100
AcDbArc
 50
180.0
 51
270.0
  0
ARC
  5
26B
100
AcDbEntity
  8
0
100
AcDbCircle
 62
7
  6
CONTINUOUS
 10
7.4223183383
 20
8.8103318604
 40
0.25
100
AcDbArc
 50
29.7364395186
 51
90.0
  0
ARC
  5
26C
100
AcDbEntity
  8
0
100
AcDbCircle
 62
7
  6
CONTINUOUS
 10
7.8563183383
 20
8.5583318604
 40
0.25
100
AcDbArc
 50
29.7357131076
 51
89.9807893772
  0
ARC
  5
26D
100
AcDbEntity
  8
0
100
AcDbCircle
 62
7
  6
CONTINUOUS
 10
8.2904795986
 20
8.8063318604
 40
0.25
100
AcDbArc
 50
209.7357131076
 51
270.0
  0
ARC
  5
26E
100
AcDbEntity
  8
0
100
AcDbCircle
 62
7
  6
CONTINUOUS
 10
10.0544544494
 20
8.5563318604
 40
0.1871361111
100
AcDbArc
 50
180.0
 51
267.8145949287
  0
ARC
  5
26F
100
AcDbEntity
  8
0
100
AcDbCircle
 62
7
  6
CONTINUOUS
 10
10.2343156645
 20
8.3683318604
 40
0.187
100
AcDbArc
 50
179.6936039968
 51
270.0
  0
ARC
  5
270
100
AcDbEntity
  8
0
100
AcDbCircle
 62
7
  6
CONTINUOUS
 10
10.2850438047
 20
7.631370885
 40
0.1715245336
100
AcDbArc
 50
326.9521644936
 51
45.0826423158
  0
ARC
  5
271
100
AcDbEntity
  8
0
100
AcDbCircle
 62
7
  6
CONTINUOUS
 10
11.7775976292
 20
6.3876240945
 40
1.36
100
AcDbArc
 50
198.7559867836
 51
202.3561036556
  0
ARC
  5
272
100
AcDbEntity
  8
0
100
AcDbCircle
 62
7
  6
CONTINUOUS
 10
11.7756171191
 20
5.9172500449
 40
1.36
100
AcDbArc
 50
157.4255442891
 51
160.9862257999
  0
ARC
  5
273
100
AcDbEntity
  8
0
100
AcDbCircle
 62
7
  6
CONTINUOUS
 10
11.0946563892
 20
6.0124304247
 40
0.3574299223
100
AcDbArc
 50
277.2885502578
 51
279.8907623296
  0
ARC
  5
274
100
AcDbEntity
  8
0
100
AcDbCircle
 62
7
  6
CONTINUOUS
 10
11.1175678028
 20
5.9774979475
 40
0.3202392086
100
AcDbArc
 50
277.0408011863
 51
277.8451441271
  0
ARC
  5
275
100
AcDbEntity
  8
0
100
AcDbCircle
 62
7
  6
CONTINUOUS
 10
11.1232324501
 20
5.9281870295
 40
0.2706051139
100
AcDbArc
 50
274.2542643511
 51
276.9825235917
  0
ARC
  5
276
100
AcDbEntity
  8
0
100
AcDbCircle
 62
7
  6
CONTINUOUS
 10
11.1272221407
 20
5.8686707832
 40
0.2119522164
100
AcDbArc
 50
270.6200989865
 51
273.450549849
  0
ARC
  5
277
100
AcDbEntity
  8
0
100
AcDbCircle
 62
7
  6
CONTINUOUS
 10
11.6867779717
 20
6.0653377757
 40
0.1060059153
100
AcDbArc
 50
270.0004019428
 51
272.0002239612
  0
ARC
  5
278
100
AcDbEntity
  8
0
100
AcDbCircle
 62
7
  6
CONTINUOUS
 10
11.6867779861
 20
6.2453273876
 40
0.1060044728
100
AcDbArc
 50
88.0190205962
 51
89.9996058044
  0
ARC
  5
279
100
AcDbEntity
  8
0
100
AcDbCircle
 62
9
  6
CONTINUOUS
 10
11.4072582105
 20
6.0578554216
 40
0.0985235629
100
AcDbArc
 50
261.3275110884
 51
269.9893607678
  0
ARC
  5
27A
100
AcDbEntity
  8
0
100
AcDbCircle
 62
9
  6
CONTINUOUS
 10
11.4072582105
 20
6.2528082997
 40
0.0985235624
100
AcDbArc
 50
90.0106392186
 51
98.6724841391
  0
ARC
  5
27B
100
AcDbEntity
  8
0
100
AcDbCircle
 62
7
  6
CONTINUOUS
 10
11.4348183383
 20
5.7345322074
 40
0.03
100
AcDbArc
 50
284.7630312681
 51
350.0138853066
  0
ARC
  5
27C
100
AcDbEntity
  8
0
100
AcDbCircle
 62
7
  6
CONTINUOUS
 10
11.0473183383
 20
7.2050018759
 40
1.5506700155
100
AcDbArc
 50
255.2369687319
 51
266.5742389704
  0
ARC
  5
27D
100
AcDbEntity
  8
0
100
AcDbCircle
 62
7
  6
CONTINUOUS
 10
11.0473183383
 20
7.2050018759
 40
1.5506700155
100
AcDbArc
 50
273.4257610296
 51
284.7630312681
  0
ARC
  5
27E
100
AcDbEntity
  8
0
100
AcDbCircle
 62
7
  6
CONTINUOUS
 10
11.0473183383
 20
7.2050018759
 40
1.5506700155
100
AcDbArc
 50
267.3749745646
 51
272.6250254354
  0
ARC
  5
27F
100
AcDbEntity
  8
0
100
AcDbCircle
 62
7
  6
CONTINUOUS
 10
11.0473183383
 20
7.2050018759
 40
1.5237851708
100
AcDbArc
 50
269.3658380229
 51
270.6341619771
  0
ARC
  5
280
100
AcDbEntity
  8
0
100
AcDbCircle
 62
7
  6
CONTINUOUS
 10
11.0473183383
 20
7.2050018759
 40
1.5227675157
100
AcDbArc
 50
269.3654141994
 51
270.6345858006
  0
ARC
  5
281
100
AcDbEntity
  8
0
100
AcDbCircle
 62
7
  6
CONTINUOUS
 10
11.0473183383
 20
7.2050018759
 40
1.519875405
100
AcDbArc
 50
268.5861934599
 51
271.4138065401
  0
ARC
  5
282
100
AcDbEntity
  8
0
100
AcDbCircle
 62
7
  6
CONTINUOUS
 10
11.0679737043
 20
6.9365869224
 40
1.2814987879
100
AcDbArc
 50
263.9811722106
 51
264.2065665761
  0
ARC
  5
283
100
AcDbEntity
  8
0
100
AcDbCircle
 62
7
  6
CONTINUOUS
 10
11.067926224
 20
6.9361152884
 40
1.2810247702
100
AcDbArc
 50
264.2065500273
 51
264.9351724348
  0
ARC
  5
284
100
AcDbEntity
  8
0
100
AcDbCircle
 62
7
  6
CONTINUOUS
 10
11.0678494044
 20
6.9352557898
 40
1.2801618456
100
AcDbArc
 50
264.9352011122
 51
265.9064771269
  0
ARC
  5
285
100
AcDbEntity
  8
0
100
AcDbCircle
 62
7
  6
CONTINUOUS
 10
11.0593927553
 20
6.934155289
 40
1.2795580861
100
AcDbArc
 50
264.5824023696
 51
268.1143966707
  0
ARC
  5
286
100
AcDbEntity
  8
0
100
AcDbCircle
 62
7
  6
CONTINUOUS
 10
11.0594533989
 20
6.9351344927
 40
1.2795392526
100
AcDbArc
 50
264.5795946725
 51
266.2854231514
  0
ARC
  5
287
100
AcDbEntity
  8
0
100
AcDbCircle
 62
7
  6
CONTINUOUS
 10
11.0677723918
 20
6.9341816945
 40
1.279084993
100
AcDbArc
 50
265.9064834923
 51
267.7393570229
  0
ARC
  5
288
100
AcDbEntity
  8
0
100
AcDbCircle
 62
7
  6
CONTINUOUS
 10
11.0593551608
 20
6.9331754593
 40
1.27857755
100
AcDbArc
 50
268.1262435431
 51
269.0572894599
  0
ARC
  5
289
100
AcDbEntity
  8
0
100
AcDbCircle
 62
7
  6
CONTINUOUS
 10
11.0593552813
 20
6.9333548085
 40
1.2777567293
100
AcDbArc
 50
268.125199807
 51
269.0138737206
  0
ARC
  5
28A
100
AcDbEntity
  8
0
100
AcDbCircle
 62
7
  6
CONTINUOUS
 10
11.4948432172
 20
7.4265962636
 40
0.2039751211
100
AcDbArc
 50
325.0110095298
 51
33.0478355064
  0
ARC
  5
28B
100
AcDbEntity
  8
0
100
AcDbCircle
 62
7
  6
CONTINUOUS
 10
11.4461672268
 20
6.9003318604
 40
0.031
100
AcDbArc
 50
270.0
 51
355.1903004543
  0
ARC
  5
28C
100
AcDbEntity
  8
0
100
AcDbCircle
 62
7
  6
CONTINUOUS
 10
12.5274572272
 20
6.1553318604
 40
0.9451388889
100
AcDbArc
 50
167.4730187713
 51
170.8777117496
  0
ARC
  5
28D
100
AcDbEntity
  8
0
100
AcDbCircle
 62
7
  6
CONTINUOUS
 10
12.5274572272
 20
6.1553318604
 40
0.9451388889
100
AcDbArc
 50
189.1231077298
 51
192.5269812287
  0
ARC
  5
28E
100
AcDbEntity
  8
0
100
AcDbCircle
 62
7
  6
CONTINUOUS
 10
11.8834720723
 20
6.1553318604
 40
0.275
100
AcDbArc
 50
215.7906204957
 51
144.2093491955
  0
ARC
  5
28F
100
AcDbEntity
  8
0
100
AcDbCircle
 62
7
  6
CONTINUOUS
 10
12.0998572404
 20
6.8453285319
 40
0.625
100
AcDbArc
 50
145.0110095298
 51
175.1903004544
  0
ARC
  5
290
100
AcDbEntity
  8
0
100
AcDbCircle
 62
7
  6
CONTINUOUS
 10
14.2381506903
 20
9.0583428097
 40
0.2500109774
100
AcDbArc
 50
270.0192106228
 51
330.2635604814
  0
ARC
  5
291
100
AcDbEntity
  8
0
100
AcDbCircle
 62
7
  6
CONTINUOUS
 10
14.6723183383
 20
9.3103318604
 40
0.25
100
AcDbArc
 50
270.0
 51
360.0
  0
ARC
  5
292
100
AcDbEntity
  8
0
100
AcDbCircle
 62
7
  6
CONTINUOUS
 10
14.6723183383
 20
8.8103318604
 40
0.25
100
AcDbArc
 50
90.0
 51
150.2635604814
  0
ARC
  5
293
100
AcDbEntity
  8
0
100
AcDbCircle
 62
7
  6
CONTINUOUS
 10
14.2383183383
 20
8.5583318604
 40
0.25
100
AcDbArc
 50
90.0192106228
 51
150.2642868924
  0
ARC
  5
294
100
AcDbEntity
  8
0
100
AcDbCircle
 62
7
  6
CONTINUOUS
 10
13.8041570779
 20
8.8063318604
 40
0.25
100
AcDbArc
 50
270.0
 51
330.2642868924
  0
ARC
  5
295
100
AcDbEntity
  8
0
100
AcDbCircle
 62
7
  6
CONTINUOUS
 10
12.0401822272
 20
8.5563318604
 40
0.1871361111
100
AcDbArc
 50
272.1854050713
 51
360.0
  0
ARC
  5
296
100
AcDbEntity
  8
0
100
AcDbCircle
 62
7
  6
CONTINUOUS
 10
11.8603210121
 20
8.3683318604
 40
0.187
100
AcDbArc
 50
270.0
 51
0.3063960032
  0
ARC
  5
297
100
AcDbEntity
  8
0
100
AcDbCircle
 62
7
  6
CONTINUOUS
 10
11.8095928719
 20
7.631370885
 40
0.1715245336
100
AcDbArc
 50
134.9173576842
 51
213.0478355064
  0
LINE
  5
298
100
AcDbEntity
  8
0
100
AcDbLine
 62
7
  6
CONTINUOUS
 10
10.9123183708
 20
5.6629914172
 11
10.9135030614
 21
5.6632497345
  0
LINE
  5
299
100
AcDbEntity
  8
0
100
AcDbLine
 62
7
  6
CONTINUOUS
 10
10.9135030614
 20
5.6632497345
 11
10.9147552781
 21
5.6632934379
  0
SPLINE
  5
29A
100
AcDbEntity
  8
0
100
AcDbSpline
 62
7
  6
CONTINUOUS
 70
0
 71
3
 72
13
 73
9
 74
0
 42
0.0000001
 43
0.0000001
 44
0.0000000001
 40
0.0
 40
0.0
 40
0.0
 40
0.0
 40
0.0875868354
 40
0.1935311348
 40
0.314464727
 40
0.4465283933
 40
0.7270426662
 40
1.0
 40
1.0
 40
1.0
 40
1.0
 10
10.9147552781
 20
5.6632934379
 30
0.0
 10
10.9153066908
 20
5.663301232
 30
0.0
 10
10.9165253922
 20
5.6632954252
 30
0.0
 10
10.9185047396
 20
5.6632438336
 30
0.0
 10
10.9207628101
 20
5.6631487723
 30
0.0
 10
10.9241169074
 20
5.662963917
 30
0.0
 10
10.9284223238
 20
5.6626531075
 30
0.0
 10
10.931892679
 20
5.6623326103
 30
0.0
 10
10.9336018101
 20
5.6621524056
 30
0.0
  0
SPLINE
  5
29B
100
AcDbEntity
  8
0
100
AcDbSpline
 62
7
  6
CONTINUOUS
 70
0
 71
3
 72
20
 73
16
 74
0
 42
0.0000001
 43
0.0000001
 44
0.0000000001
 40
0.0
 40
0.0
 40
0.0
 40
0.0
 40
0.0594092083
 40
0.1188851604
 40
0.1785216129
 40
0.2383869276
 40
0.298560033
 40
0.3591200922
 40
0.4201425692
 40
0.4817024518
 40
0.5438691556
 40
0.6067056895
 40
0.7345425178
 40
0.8655975483
 40
1.0
 40
1.0
 40
1.0
 40
1.0
 10
11.4072399157
 20
5.9593318604
 30
0.0
 10
11.4102363911
 20
5.9593318604
 30
0.0
 10
11.4162354174
 20
5.9595696778
 30
0.0
 10
11.4251851015
 20
5.960637045
 30
0.0
 10
11.4340467709
 20
5.9624060744
 30
0.0
 10
11.4427786409
 20
5.9648642331
 30
0.0
 10
11.4513424473
 20
5.9679933503
 30
0.0
 10
11.4597036266
 20
5.9717724611
 30
0.0
 10
11.4678313856
 20
5.9761783699
 30
0.0
 10
11.4756987533
 20
5.9811856323
 30
0.0
 10
11.4832823329
 20
5.9867686742
 30
0.0
 10
11.4930413881
 20
5.9949896789
 30
0.0
 10
11.5044330128
 20
6.0066090647
 30
0.0
 10
11.5165927432
 20
6.0223314396
 30
0.0
 10
11.5236001691
 20
6.033774726
 30
0.0
 10
11.5268456682
 20
6.0397263024
 30
0.0
  0
SPLINE
  5
29C
100
AcDbEntity
  8
0
100
AcDbSpline
 62
7
  6
CONTINUOUS
 70
0
 71
3
 72
20
 73
16
 74
0
 42
0.0000001
 43
0.0000001
 44
0.0000000001
 40
0.0
 40
0.0
 40
0.0
 40
0.0
 40
0.1344015448
 40
0.2654556967
 40
0.3932920838
 40
0.4561284767
 40
0.5182952136
 40
0.5798551058
 40
0.6408776908
 40
0.7014379051
 40
0.761611244
 40
0.8214768373
 40
0.8811136376
 40
0.9405903003
 40
1.0
 40
1.0
 40
1.0
 40
1.0
 10
11.5268427128
 20
6.2709428277
 30
0.0
 10
11.5235971841
 20
6.2768940216
 30
0.0
 10
11.5165897597
 20
6.2883365604
 30
0.0
 10
11.5044301768
 20
6.3040578835
 30
0.0
 10
11.4930387802
 20
6.3156764581
 30
0.0
 10
11.4832799726
 20
6.3238969076
 30
0.0
 10
11.4756965854
 20
6.3294795551
 30
0.0
 10
11.46782945
 20
6.3344864887
 30
0.0
 10
11.4597019372
 20
6.3388920908
 30
0.0
 10
11.4513410231
 20
6.3426709405
 30
0.0
 10
11.4427775011
 20
6.345799852
 30
0.0
 10
11.4340459223
 20
6.3482578403
 30
0.0
 10
11.4251845383
 20
6.3500267629
 30
0.0
 10
11.4162351363
 20
6.3510940541
 30
0.0
 10
11.4102362939
 20
6.3513318604
 30
0.0
 10
11.4072399157
 20
6.3513318604
 30
0.0
  0
SPLINE
  5
29D
100
AcDbEntity
  8
0
100
AcDbSpline
 62
7
  6
CONTINUOUS
 70
0
 71
3
 72
37
 73
33
 74
0
 42
0.0000001
 43
0.0000001
 44
0.0000000001
 40
0.0
 40
0.0
 40
0.0
 40
0.0
 40
0.0046265201
 40
0.0082713136
 40
0.0109505944
 40
0.0126802074
 40
0.013475615
 40
0.013530272
 40
0.01353283
 40
0.0137086067
 40
0.0147346915
 40
0.0166444551
 40
0.0194193266
 40
0.0230410515
 40
0.0274917054
 40
0.0327537078
 40
0.0388098369
 40
0.0456428741
 40
0.0615642001
 40
0.0803671198
 40
0.1019045176
 40
0.1260338677
 40
0.1526131473
 40
0.2125445673
 40
0.280589664
 40
0.3557085708
 40
0.4369164609
 40
0.5232545461
 40
0.6137335733
 40
0.707372876
 40
0.8033431904
 40
1.0
 40
1.0
 40
1.0
 40
1.0
 10
11.5192900049
 20
6.2744747664
 30
0.0
 10
11.5192531471
 20
6.2745080394
 30
0.0
 10
11.5191875902
 20
6.2745667081
 30
0.0
 10
11.5190969093
 20
6.2746456969
 30
0.0
 10
11.5190361913
 20
6.2746979831
 30
0.0
 10
11.5189835209
 20
6.2747412669
 30
0.0
 10
11.5189747703
 20
6.2747490574
 30
0.0
 10
11.5189603309
 20
6.2747603808
 30
0.0
 10
11.5189624378
 20
6.2747588317
 30
0.0
 10
11.5189722068
 20
6.2747508627
 30
0.0
 10
11.518999199
 20
6.2747304765
 30
0.0
 10
11.5190477517
 20
6.2746935351
 30
0.0
 10
11.5191196103
 20
6.2746405436
 30
0.0
 10
11.5192139063
 20
6.2745723544
 30
0.0
 10
11.5193308504
 20
6.2744898201
 30
0.0
 10
11.5194702068
 20
6.2743937939
 30
0.0
 10
11.5196319028
 20
6.2742851296
 30
0.0
 10
11.5198905841
 20
6.2741157202
 30
0.0
 10
11.5202680911
 20
6.273878108
 30
0.0
 10
11.5207862079
 20
6.2735678984
 30
0.0
 10
11.5213877763
 20
6.2732258972
 30
0.0
 10
11.5220706207
 20
6.2728583837
 30
0.0
 10
11.5231291605
 20
6.2723200877
 30
0.0
 10
11.5246337606
 20
6.2716201811
 30
0.0
 10
11.5266509907
 20
6.2707923113
 30
0.0
 10
11.5289190549
 20
6.2699806168
 30
0.0
 10
11.5314094184
 20
6.2692151061
 30
0.0
 10
11.534092608
 20
6.2685259583
 30
0.0
 10
11.5369346313
 20
6.267930878
 30
0.0
 10
11.5399030559
 20
6.2674491533
 30
0.0
 10
11.5440226105
 20
6.2669760534
 30
0.0
 10
11.5471657991
 20
6.2668318604
 30
0.0
 10
11.5492764427
 20
6.2668318604
 30
0.0
  0
SPLINE
  5
29E
100
AcDbEntity
  8
0
100
AcDbSpline
 62
7
  6
CONTINUOUS
 70
0
 71
3
 72
19
 73
15
 74
0
 42
0.0000001
 43
0.0000001
 44
0.0000000001
 40
0.0
 40
0.0
 40
0.0
 40
0.0
 40
0.172157094
 40
0.3393062435
 40
0.4983831807
 40
0.6448461291
 40
0.7117541984
 40
0.7735964156
 40
0.8297234389
 40
0.8794614216
 40
0.9221015966
 40
0.9568987305
 40
0.9831093554
 40
1.0
 40
1.0
 40
1.0
 40
1.0
 10
11.5492764427
 20
6.0438318604
 30
0.0
 10
11.5474663748
 20
6.0438318604
 30
0.0
 10
11.5438974182
 20
6.0436905644
 30
0.0
 10
11.5386878348
 20
6.0430800826
 30
0.0
 10
11.5338083472
 20
6.042110941
 30
0.0
 10
11.5300321562
 20
6.0410577488
 30
0.0
 10
11.5272975862
 20
6.0401095789
 30
0.0
 10
11.5254867761
 20
6.0394015712
 30
0.0
 10
11.5238701604
 20
6.0386963525
 30
0.0
 10
11.5224647612
 20
6.0380151245
 30
0.0
 10
11.5212845245
 20
6.0373859983
 30
0.0
 10
11.5203429968
 20
6.0368366773
 30
0.0
 10
11.519652369
 20
6.0363960685
 30
0.0
 10
11.5192791074
 20
6.0361388722
 30
0.0
 10
11.5191353744
 20
6.0360345714
 30
0.0
  0
SPLINE
  5
29F
100
AcDbEntity
  8
0
100
AcDbSpline
 62
7
  6
CONTINUOUS
 70
0
 71
3
 72
12
 73
8
 74
0
 42
0.0000001
 43
0.0000001
 44
0.0000000001
 40
0.0
 40
0.0
 40
0.0
 40
0.0
 40
0.2214110048
 40
0.342052217
 40
0.4676924047
 40
0.7294171781
 40
1.0
 40
1.0
 40
1.0
 40
1.0
 10
11.5709527129
 20
6.0402058825
 30
0.0
 10
11.569420087
 20
6.0407595001
 30
0.0
 10
11.5670116372
 20
6.0415063969
 30
0.0
 10
11.5636651754
 20
6.0423152112
 30
0.0
 10
11.5599960354
 20
6.0430395722
 30
0.0
 10
11.5551875512
 20
6.0436624679
 30
0.0
 10
11.5512678899
 20
6.0438318604
 30
0.0
 10
11.5492764427
 20
6.0438318604
 30
0.0
  0
SPLINE
  5
2A0
100
AcDbEntity
  8
0
100
AcDbSpline
 62
7
  6
CONTINUOUS
 70
0
 71
3
 72
13
 73
9
 74
0
 42
0.0000001
 43
0.0000001
 44
0.0000000001
 40
0.0
 40
0.0
 40
0.0
 40
0.0
 40
0.2707289821
 40
0.5322753779
 40
0.6578187761
 40
0.7784391267
 40
0.892911465
 40
1.0
 40
1.0
 40
1.0
 40
1.0
 10
11.5492764427
 20
6.2668318604
 30
0.0
 10
11.5512680832
 20
6.2668318604
 30
0.0
 10
11.5551856761
 20
6.2670020881
 30
0.0
 10
11.5599913838
 20
6.2676226575
 30
0.0
 10
11.5636565701
 20
6.2683468607
 30
0.0
 10
11.5662359277
 20
6.2689712903
 30
0.0
 10
11.5686559588
 20
6.2696669564
 30
0.0
 10
11.5702015807
 20
6.2701863527
 30
0.0
 10
11.5709425069
 20
6.2704540584
 30
0.0
  0
SPLINE
  5
2A1
100
AcDbEntity
  8
0
100
AcDbSpline
 62
7
  6
CONTINUOUS
 70
0
 71
3
 72
47
 73
43
 74
0
 42
0.0000001
 43
0.0000001
 44
0.0000000001
 40
0.0
 40
0.0
 40
0.0
 40
0.0
 40
0.0135073682
 40
0.0270340125
 40
0.0406019363
 40
0.0542306977
 40
0.0679394469
 40
0.0817470969
 40
0.0956717137
 40
0.1097300487
 40
0.1382966605
 40
0.1675658496
 40
0.1976139151
 40
0.2284844472
 40
0.2601871407
 40
0.2926984351
 40
0.3259638727
 40
0.3599013463
 40
0.3944052522
 40
0.4293508257
 40
0.4645989134
 40
0.5000006631
 40
0.5354024023
 40
0.5706504606
 40
0.6055959823
 40
0.6400998205
 40
0.674037205
 40
0.7073025425
 40
0.7398137198
 40
0.7715162914
 40
0.8023866931
 40
0.8324346302
 40
0.861703694
 40
0.8902701915
 40
0.9043284729
 40
0.918253045
 40
0.9320606537
 40
0.9457693682
 40
0.9593980963
 40
0.9729660016
 40
0.9864926487
 40
1.0
 40
1.0
 40
1.0
 40
1.0
 10
11.6867787154
 20
6.3513318604
 30
0.0
 10
11.684363856
 20
6.3513318604
 30
0.0
 10
11.6795290721
 20
6.351166408
 30
0.0
 10
11.6723029615
 20
6.3504236862
 30
0.0
 10
11.6651221326
 20
6.3491893076
 30
0.0
 10
11.6580086635
 20
6.3474691689
 30
0.0
 10
11.6509835109
 20
6.3452702647
 30
0.0
 10
11.6440664636
 20
6.3426018715
 30
0.0
 10
11.637275698
 20
6.3394741717
 30
0.0
 10
11.6283671869
 20
6.3346826318
 30
0.0
 10
11.6176191191
 20
6.3275749513
 30
0.0
 10
11.6055551807
 20
6.3174612247
 30
0.0
 10
11.594346032
 20
6.3058312654
 30
0.0
 10
11.5840776583
 20
6.2928082198
 30
0.0
 10
11.574825152
 20
6.2785200824
 30
0.0
 10
11.566656755
 20
6.2631017457
 30
0.0
 10
11.5596336028
 20
6.2466954543
 30
0.0
 10
11.5538095046
 20
6.2294511744
 30
0.0
 10
11.5492301505
 20
6.2115262645
 30
0.0
 10
11.5459322095
 20
6.1930846246
 30
0.0
 10
11.5439425296
 20
6.1742954249
 30
0.0
 10
11.543277484
 20
6.155331505
 30
0.0
 10
11.5439425773
 20
6.1363675921
 30
0.0
 10
11.5459323038
 20
6.1175784138
 30
0.0
 10
11.5492302875
 20
6.0991368086
 30
0.0
 10
11.5538096788
 20
6.0812119468
 30
0.0
 10
11.5596338066
 20
6.0639677254
 30
0.0
 10
11.5666569786
 20
6.0475615021
 30
0.0
 10
11.574825385
 20
6.0321432391
 30
0.0
 10
11.5840778883
 20
6.0178551787
 30
0.0
 10
11.5943462479
 20
6.0048322089
 30
0.0
 10
11.6055553708
 20
5.9932023206
 30
0.0
 10
11.6176192746
 20
5.9830886553
 30
0.0
 10
11.6283673085
 20
5.9759810198
 30
0.0
 10
11.637275788
 20
5.9711895013
 30
0.0
 10
11.6440665354
 20
5.9680618217
 30
0.0
 10
11.6509835623
 20
5.9653934359
 30
0.0
 10
11.6580086985
 20
5.9631945445
 30
0.0
 10
11.665122152
 20
5.9614744072
 30
0.0
 10
11.6723029729
 20
5.9602400334
 30
0.0
 10
11.6795290777
 20
5.9594973131
 30
0.0
 10
11.684363859
 20
5.9593318604
 30
0.0
 10
11.6867787154
 20
5.9593318604
 30
0.0
  0
SPLINE
  5
2A2
100
AcDbEntity
  8
0
100
AcDbSpline
 62
7
  6
CONTINUOUS
 70
0
 71
3
 72
20
 73
16
 74
0
 42
0.0000001
 43
0.0000001
 44
0.0000000001
 40
0.0
 40
0.0
 40
0.0
 40
0.0
 40
0.1344028291
 40
0.2654584231
 40
0.393295499
 40
0.4561320007
 40
0.5182986523
 40
0.5798583779
 40
0.6408806795
 40
0.7014405295
 40
0.7616134399
 40
0.8214785628
 40
0.8811148326
 40
0.9405908295
 40
1.0
 40
1.0
 40
1.0
 40
1.0
 10
10.5677855145
 20
6.0397363838
 30
0.0
 10
10.5710309316
 20
6.0337841556
 30
0.0
 10
10.5780382782
 20
6.0223395703
 30
0.0
 10
10.5901981497
 20
6.0066153193
 30
0.0
 10
10.6015901206
 20
5.9949944854
 30
0.0
 10
10.6113495607
 20
5.9867724218
 30
0.0
 10
10.618933485
 20
5.9811886633
 30
0.0
 10
10.6268012426
 20
5.9761807316
 30
0.0
 10
10.6349294489
 20
5.9717742322
 30
0.0
 10
10.643291125
 20
5.9679946007
 30
0.0
 10
10.6518554755
 20
5.9648650419
 30
0.0
 10
10.6605879325
 20
5.962406533
 30
0.0
 10
10.669450232
 20
5.9606372371
 30
0.0
 10
10.6784005785
 20
5.9595697179
 30
0.0
 10
10.6844000602
 20
5.9593318604
 30
0.0
 10
10.6873967609
 20
5.9593318604
 30
0.0
  0
SPLINE
  5
2A3
100
AcDbEntity
  8
0
100
AcDbSpline
 62
7
  6
CONTINUOUS
 70
0
 71
3
 72
20
 73
16
 74
0
 42
0.0000001
 43
0.0000001
 44
0.0000000001
 40
0.0
 40
0.0
 40
0.0
 40
0.0
 40
0.0594098682
 40
0.1188866172
 40
0.1785237363
 40
0.2383896433
 40
0.2985632817
 40
0.359123787
 40
0.4201465936
 40
0.4817066546
 40
0.5438734408
 40
0.6067098527
 40
0.7345460237
 40
0.865599786
 40
1.0
 40
1.0
 40
1.0
 40
1.0
 10
10.6873967609
 20
6.3513318604
 30
0.0
 10
10.6844006847
 20
6.3513318604
 30
0.0
 10
10.6784024515
 20
6.3510941068
 30
0.0
 10
10.6694539384
 20
6.3500270214
 30
0.0
 10
10.6605934032
 20
6.3482584552
 30
0.0
 10
10.6518626205
 20
6.3458009406
 30
0.0
 10
10.6432998396
 20
6.3426726259
 30
0.0
 10
10.6349396056
 20
6.338894484
 30
0.0
 10
10.6268127085
 20
6.3344896875
 30
0.0
 10
10.6189461139
 20
6.3294836649
 30
0.0
 10
10.6113632012
 20
6.3239020005
 30
0.0
 10
10.6016049225
 20
6.3156829892
 30
0.0
 10
10.5902139836
 20
6.3040663759
 30
0.0
 10
10.5780546126
 20
6.288347622
 30
0.0
 10
10.5710470965
 20
6.276906875
 30
0.0
 10
10.5678014763
 20
6.2709566077
 30
0.0
  0
SPLINE
  5
2A4
100
AcDbEntity
  8
0
100
AcDbSpline
 62
7
  6
CONTINUOUS
 70
0
 71
3
 72
27
 73
23
 74
0
 42
0.0000001
 43
0.0000001
 44
0.0000000001
 40
0.0
 40
0.0
 40
0.0
 40
0.0
 40
0.0647279731
 40
0.1353425231
 40
0.2104411133
 40
0.2886847281
 40
0.3688023145
 40
0.4091788681
 40
0.4495595669
 40
0.5297095333
 40
0.6080185385
 40
0.6832173861
 40
0.7539669856
 40
0.8188684537
 40
0.8764196007
 40
0.9250268002
 40
0.9454560922
 40
0.9630066944
 40
0.9774591488
 40
0.9885944994
 40
0.9961839092
 40
1.0
 40
1.0
 40
1.0
 40
1.0
 10
10.5236888658
 20
6.2704562834
 30
0.0
 10
10.5247809975
 20
6.2700620212
 30
0.0
 10
10.5270919185
 20
6.2693115273
 30
0.0
 10
10.5307513115
 20
6.2683750129
 30
0.0
 10
10.5346998783
 20
6.2676200284
 30
0.0
 10
10.5388574927
 20
6.2670951736
 30
0.0
 10
10.5424178265
 20
6.2668687251
 30
0.0
 10
10.5453036831
 20
6.2668202867
 30
0.0
 10
10.5481901861
 20
6.2668643543
 30
0.0
 10
10.5517527271
 20
6.2670846741
 30
0.0
 10
10.5559147321
 20
6.2676033521
 30
0.0
 10
10.5598696976
 20
6.2683532643
 30
0.0
 10
10.5635380205
 20
6.2692850395
 30
0.0
 10
10.566837993
 20
6.2703515169
 30
0.0
 10
10.5696967339
 20
6.2714719552
 30
0.0
 10
10.5717557776
 20
6.2724333924
 30
0.0
 10
10.5731300235
 20
6.2731577208
 30
0.0
 10
10.5739479813
 20
6.2736223748
 30
0.0
 10
10.5746084203
 20
6.2740258967
 30
0.0
 10
10.5751068463
 20
6.2743512885
 30
0.0
 10
10.5754388697
 20
6.2745821529
 30
0.0
 10
10.5756034257
 20
6.2747038023
 30
0.0
 10
10.5756574906
 20
6.2747457907
 30
0.0
  0
SPLINE
  5
2A5
100
AcDbEntity
  8
0
100
AcDbSpline
 62
7
  6
CONTINUOUS
 70
0
 71
3
 72
25
 73
21
 74
0
 42
0.0000001
 43
0.0000001
 44
0.0000000001
 40
0.0
 40
0.0
 40
0.0
 40
0.0
 40
0.1415053651
 40
0.2115203297
 40
0.2806236366
 40
0.3485597736
 40
0.4151134721
 40
0.480119652
 40
0.5434718796
 40
0.6051292466
 40
0.6651209363
 40
0.723547192
 40
0.7805760576
 40
0.8364352327
 40
0.8640258054
 40
0.8914305747
 40
0.9186893506
 40
0.9458426159
 40
0.9729322138
 40
1.0
 40
1.0
 40
1.0
 40
1.0
 10
10.5511371818
 20
6.1553318604
 30
0.0
 10
10.5511371818
 20
6.1681478063
 30
0.0
 10
10.5497769857
 20
6.1873439824
 30
0.0
 10
10.5452303611
 20
6.2123657129
 30
0.0
 10
10.5405114866
 20
6.2305347828
 30
0.0
 10
10.534512185
 20
6.247990331
 30
0.0
 10
10.5272805566
 20
6.2645703907
 30
0.0
 10
10.5188736305
 20
6.2801180962
 30
0.0
 10
10.5093560989
 20
6.294485477
 30
0.0
 10
10.4988000227
 20
6.3075321815
 30
0.0
 10
10.4872856226
 20
6.3191247722
 30
0.0
 10
10.4749023553
 20
6.3291359424
 30
0.0
 10
10.4617553457
 20
6.3374435651
 30
0.0
 10
10.4502092379
 20
6.3428769331
 30
0.0
 10
10.4407444159
 20
6.346244548
 30
0.0
 10
10.433570174
 20
6.3482727838
 30
0.0
 10
10.4263142217
 20
6.3498036213
 30
0.0
 10
10.4189985822
 20
6.3508308481
 30
0.0
 10
10.4116470434
 20
6.3513492909
 30
0.0
 10
10.4067374246
 20
6.3513542579
 30
0.0
 10
10.4042873242
 20
6.3512716665
 30
0.0
  0
SPLINE
  5
2A6
100
AcDbEntity
  8
0
100
AcDbSpline
 62
7
  6
CONTINUOUS
 70
0
 71
3
 72
40
 73
36
 74
0
 42
0.0000001
 43
0.0000001
 44
0.0000000001
 40
0.0
 40
0.0
 40
0.0
 40
0.0
 40
0.0015609722
 40
0.0019825501
 40
0.0026720596
 40
0.0044404351
 40
0.0072557938
 40
0.0110870829
 40
0.0159041308
 40
0.021676583
 40
0.028371405
 40
0.0359555156
 40
0.0443965003
 40
0.0536626639
 40
0.0745462253
 40
0.098357965
 40
0.153778939
 40
0.1849282331
 40
0.2180672324
 40
0.2529779449
 40
0.2894504721
 40
0.32728463
 40
0.3662842571
 40
0.4062568445
 40
0.4470155713
 40
0.4883802492
 40
0.5301719056
 40
0.5722126471
 40
0.6143269287
 40
0.6980663006
 40
0.7799852526
 40
0.8198191134
 40
0.8586501719
 40
0.932517043
 40
1.0
 40
1.0
 40
1.0
 40
1.0
 10
10.5755932817
 20
6.0359723136
 30
0.0
 10
10.5756147163
 20
6.0359541297
 30
0.0
 10
10.5756336381
 20
6.0359378274
 30
0.0
 10
10.5756884232
 20
6.035893623
 30
0.0
 10
10.5756162046
 20
6.0359502675
 30
0.0
 10
10.5755635493
 20
6.0359886722
 30
0.0
 10
10.5754285936
 20
6.0360878604
 30
0.0
 10
10.5752651164
 20
6.0362024963
 30
0.0
 10
10.575048368
 20
6.0363501188
 30
0.0
 10
10.5747887603
 20
6.0365201947
 30
0.0
 10
10.5744833831
 20
6.0367134363
 30
0.0
 10
10.574134247
 20
6.0369265519
 30
0.0
 10
10.5737417213
 20
6.0371575916
 30
0.0
 10
10.573137181
 20
6.0375002986
 30
0.0
 10
10.5722794732
 20
6.037957393
 30
0.0
 10
10.570661416
 20
6.0387529213
 30
0.0
 10
10.5688338507
 20
6.0395388912
 30
0.0
 10
10.5668149419
 20
6.0402950631
 30
0.0
 10
10.565122428
 20
6.0408672817
 30
0.0
 10
10.5633203736
 20
6.0414116511
 30
0.0
 10
10.5614193526
 20
6.0419170489
 30
0.0
 10
10.5594310657
 20
6.0423764825
 30
0.0
 10
10.5573670702
 20
6.0427833459
 30
0.0
 10
10.5552388741
 20
6.0431309991
 30
0.0
 10
10.553057988
 20
6.0434126745
 30
0.0
 10
10.5508364497
 20
6.0436258883
 30
0.0
 10
10.5485861265
 20
6.043768331
 30
0.0
 10
10.5463188251
 20
6.043837837
 30
0.0
 10
10.5432950716
 20
6.0438294721
 30
0.0
 10
10.5395559366
 20
6.04363518
 30
0.0
 10
10.5358778972
 20
6.0432044694
 30
0.0
 10
10.5330260849
 20
6.0427232114
 30
0.0
 10
10.5303336436
 20
6.0421781884
 30
0.0
 10
10.5271854817
 20
6.0413832638
 30
0.0
 10
10.5247625585
 20
6.0405965751
 30
0.0
 10
10.5236201955
 20
6.0401822663
 30
0.0
  0
SPLINE
  5
2A7
100
AcDbEntity
  8
0
100
AcDbSpline
 62
7
  6
CONTINUOUS
 70
0
 71
3
 72
25
 73
21
 74
0
 42
0.0000001
 43
0.0000001
 44
0.0000000001
 40
0.0
 40
0.0
 40
0.0
 40
0.0
 40
0.0270702635
 40
0.0541614603
 40
0.0813155125
 40
0.1085743394
 40
0.1359785078
 40
0.1635678885
 40
0.2194232925
 40
0.2764472086
 40
0.3348681043
 40
0.3948547229
 40
0.4565079156
 40
0.5198573231
 40
0.5848623273
 40
0.6514166171
 40
0.7193550724
 40
0.7884622473
 40
0.858482336
 40
1.0
 40
1.0
 40
1.0
 40
1.0
 10
10.4041232261
 20
5.9593977028
 30
0.0
 10
10.406574898
 20
5.9593112558
 30
0.0
 10
10.4114878562
 20
5.9593087652
 30
0.0
 10
10.4188450387
 20
5.9598166595
 30
0.0
 10
10.4261667645
 20
5.9608342071
 30
0.0
 10
10.4334291956
 20
5.9623561278
 30
0.0
 10
10.4406102252
 20
5.96437633
 30
0.0
 10
10.4500843809
 20
5.9677343021
 30
0.0
 10
10.4616427265
 20
5.9731578123
 30
0.0
 10
10.4748046422
 20
5.9814571631
 30
0.0
 10
10.4872025915
 20
5.9914633499
 30
0.0
 10
10.4987311111
 20
6.0030540323
 30
0.0
 10
10.5093004838
 20
6.0161016654
 30
0.0
 10
10.5188302716
 20
6.0304725663
 30
0.0
 10
10.5272482284
 20
6.0460261246
 30
0.0
 10
10.5344894966
 20
6.0626140951
 30
0.0
 10
10.5404969012
 20
6.0800793149
 30
0.0
 10
10.5452222167
 20
6.0982595024
 30
0.0
 10
10.5497751147
 20
6.1232976728
 30
0.0
 10
10.5511371818
 20
6.1425070685
 30
0.0
 10
10.5511371818
 20
6.1553318604
 30
0.0
  0
SPLINE
  5
2A8
100
AcDbEntity
  8
0
100
AcDbSpline
 62
7
  6
CONTINUOUS
 70
0
 71
3
 72
16
 73
12
 74
0
 42
0.0000001
 43
0.0000001
 44
0.0000000001
 40
0.0
 40
0.0
 40
0.0
 40
0.0
 40
0.1411354464
 40
0.2890549908
 40
0.4379384271
 40
0.5818513508
 40
0.7150295432
 40
0.8321059611
 40
0.9283671062
 40
0.9674575746
 40
1.0
 40
1.0
 40
1.0
 40
1.0
 10
11.1610348665
 20
5.6621524056
 30
0.0
 10
11.1619772209
 20
5.6622517641
 30
0.0
 10
11.1639087342
 20
5.6624411123
 30
0.0
 10
11.1668383773
 20
5.6626919887
 30
0.0
 10
11.1697893664
 20
5.662909869
 30
0.0
 10
11.1726439862
 20
5.6630859805
 30
0.0
 10
11.1752874471
 20
5.6632135199
 30
0.0
 10
11.1776128536
 20
5.6632874107
 30
0.0
 10
11.1793078478
 20
5.6633047736
 30
0.0
 10
11.1804349599
 20
5.6632844079
 30
0.0
 10
11.1809155538
 20
5.6632636965
 30
0.0
 10
11.1811335959
 20
5.6632497357
 30
0.0
  0
LINE
  5
2A9
100
AcDbEntity
  8
0
100
AcDbLine
 62
7
  6
CONTINUOUS
 10
11.1811335959
 20
5.6632497357
 11
11.1823035347
 21
5.6630302342
  0
SPLINE
  5
2AA
100
AcDbEntity
  8
0
100
AcDbSpline
 62
7
  6
CONTINUOUS
 70
0
 71
3
 72
9
 73
5
 74
0
 42
0.0000001
 43
0.0000001
 44
0.0000000001
 40
0.0
 40
0.0
 40
0.0
 40
0.0
 40
0.2736055401
 40
1.0
 40
1.0
 40
1.0
 40
1.0
 10
11.1823035347
 20
5.6630302342
 30
0.0
 10
11.1823059004
 20
5.6630272255
 30
0.0
 10
11.1823138924
 20
5.6630157641
 30
0.0
 10
11.182318316
 20
5.6630015785
 30
0.0
 10
11.1823183058
 20
5.6629914172
 30
0.0
  0
SPLINE
  5
2AB
100
AcDbEntity
  8
0
100
AcDbSpline
 62
7
  6
CONTINUOUS
 70
0
 71
3
 72
11
 73
7
 74
0
 42
0.0000001
 43
0.0000001
 44
0.0000000001
 40
0.0
 40
0.0
 40
0.0
 40
0.0
 40
0.4764595596
 40
0.6031683135
 40
0.7327431751
 40
1.0
 40
1.0
 40
1.0
 40
1.0
 10
11.4415303688
 20
5.9503318604
 30
0.0
 10
11.4330050365
 20
5.9503318604
 30
0.0
 10
11.4221807908
 20
5.9516776825
 30
0.0
 10
11.4094457486
 20
5.9547828168
 30
0.0
 10
11.4004519133
 20
5.9574165036
 30
0.0
 10
11.3937741811
 20
5.9598606951
 30
0.0
 10
11.3893509738
 20
5.9616781755
 30
0.0
  0
SPLINE
  5
2AC
100
AcDbEntity
  8
0
100
AcDbSpline
 62
7
  6
CONTINUOUS
 70
0
 71
3
 72
39
 73
35
 74
0
 42
0.0000001
 43
0.0000001
 44
0.0000000001
 40
0.0
 40
0.0
 40
0.0
 40
0.0
 40
0.0280191213
 40
0.0568811875
 40
0.0864697792
 40
0.1166722108
 40
0.1473844233
 40
0.1785135113
 40
0.209978665
 40
0.2417109984
 40
0.2736525173
 40
0.3057550521
 40
0.3379791676
 40
0.3702929358
 40
0.4026706785
 40
0.4350917886
 40
0.4675395694
 40
0.4999999998
 40
0.5324604305
 40
0.5649082115
 40
0.5973293216
 40
0.6297070642
 40
0.6620208325
 40
0.6942449479
 40
0.7263474827
 40
0.7582890016
 40
0.790021335
 40
0.8214864889
 40
0.8526155768
 40
0.8833277893
 40
0.9135302209
 40
0.9431188125
 40
0.9719808787
 40
1.0
 40
1.0
 40
1.0
 40
1.0
 10
11.3893509738
 20
5.9616781755
 30
0.0
 10
11.3850174603
 20
5.9634588011
 30
0.0
 10
11.3763556566
 20
5.9674115924
 30
0.0
 10
11.3636458005
 20
5.9743264046
 30
0.0
 10
11.3511146189
 20
5.9822653787
 30
0.0
 10
11.338867556
 20
5.9911717148
 30
0.0
 10
11.3270049976
 20
6.0009931635
 30
0.0
 10
11.3156257039
 20
6.0116818173
 30
0.0
 10
11.3048284355
 20
6.0231938139
 30
0.0
 10
11.2947143122
 20
6.0354878652
 30
0.0
 10
11.2853885738
 20
6.0485228039
 30
0.0
 10
11.2769614939
 20
6.0622541776
 30
0.0
 10
11.2695480192
 20
6.0766301816
 30
0.0
 10
11.2632654859
 20
6.0915870972
 30
0.0
 10
11.2582288177
 20
6.1070448807
 30
0.0
 10
11.2545430344
 20
6.1229040241
 30
0.0
 10
11.2522937508
 20
6.1390450687
 30
0.0
 10
11.251537404
 20
6.1553318606
 30
0.0
 10
11.2522937508
 20
6.1716186526
 30
0.0
 10
11.2545430345
 20
6.1877596972
 30
0.0
 10
11.2582288178
 20
6.2036188407
 30
0.0
 10
11.2632654861
 20
6.2190766241
 30
0.0
 10
11.2695480194
 20
6.2340335398
 30
0.0
 10
11.2769614942
 20
6.2484095437
 30
0.0
 10
11.2853885742
 20
6.2621409174
 30
0.0
 10
11.2947143125
 20
6.2751758561
 30
0.0
 10
11.3048284359
 20
6.2874699073
 30
0.0
 10
11.3156257043
 20
6.298981904
 30
0.0
 10
11.3270049981
 20
6.3096705577
 30
0.0
 10
11.3388675564
 20
6.3194920064
 30
0.0
 10
11.3511146193
 20
6.3283983425
 30
0.0
 10
11.363645801
 20
6.3363373164
 30
0.0
 10
11.3763556571
 20
6.3432521287
 30
0.0
 10
11.3850174608
 20
6.34720492
 30
0.0
 10
11.3893509743
 20
6.3489855455
 30
0.0
  0
SPLINE
  5
2AD
100
AcDbEntity
  8
0
100
AcDbSpline
 62
7
  6
CONTINUOUS
 70
0
 71
3
 72
11
 73
7
 74
0
 42
0.0000001
 43
0.0000001
 44
0.0000000001
 40
0.0
 40
0.0
 40
0.0
 40
0.0
 40
0.2672568254
 40
0.3968316876
 40
0.5235404417
 40
1.0
 40
1.0
 40
1.0
 40
1.0
 10
11.3893509743
 20
6.3489855455
 30
0.0
 10
11.3937741816
 20
6.3508030259
 30
0.0
 10
11.4004519137
 20
6.3532472173
 30
0.0
 10
11.4094457489
 20
6.3558809041
 30
0.0
 10
11.422180791
 20
6.3589860384
 30
0.0
 10
11.4330050366
 20
6.3603318604
 30
0.0
 10
11.4415303688
 20
6.3603318604
 30
0.0
  0
SPLINE
  5
2AE
100
AcDbEntity
  8
0
100
AcDbSpline
 62
7
  6
CONTINUOUS
 70
0
 71
3
 72
11
 73
7
 74
0
 42
0.0000001
 43
0.0000001
 44
0.0000000001
 40
0.0
 40
0.0
 40
0.0
 40
0.0
 40
0.4764595737
 40
0.6031683266
 40
0.7327431821
 40
1.0
 40
1.0
 40
1.0
 40
1.0
 10
10.6531063078
 20
6.3603318604
 30
0.0
 10
10.661631647
 20
6.3603318604
 30
0.0
 10
10.6724559015
 20
6.3589860361
 30
0.0
 10
10.6851909533
 20
6.3558808974
 30
0.0
 10
10.6941847949
 20
6.3532472068
 30
0.0
 10
10.7008625316
 20
6.3508030121
 30
0.0
 10
10.7052857419
 20
6.3489855292
 30
0.0
  0
SPLINE
  5
2AF
100
AcDbEntity
  8
0
100
AcDbSpline
 62
7
  6
CONTINUOUS
 70
0
 71
3
 72
39
 73
35
 74
0
 42
0.0000001
 43
0.0000001
 44
0.0000000001
 40
0.0
 40
0.0
 40
0.0
 40
0.0
 40
0.0280191234
 40
0.0568811887
 40
0.0864697836
 40
0.1166722155
 40
0.1473844268
 40
0.1785135168
 40
0.2099786657
 40
0.2417109998
 40
0.2736525173
 40
0.3057550506
 40
0.3379791664
 40
0.3702929338
 40
0.4026706779
 40
0.4350917889
 40
0.4675395689
 40
0.4999999979
 40
0.5324604268
 40
0.5649082067
 40
0.5973293178
 40
0.6297070621
 40
0.6620208296
 40
0.6942449456
 40
0.7263474789
 40
0.7582889965
 40
0.7900213309
 40
0.8214864799
 40
0.8526155703
 40
0.8833277819
 40
0.9135302144
 40
0.9431188098
 40
0.9719808757
 40
1.0
 40
1.0
 40
1.0
 40
1.0
 10
10.7052857419
 20
6.3489855292
 30
0.0
 10
10.7096192545
 20
6.3472049028
 30
0.0
 10
10.7182810558
 20
6.3432521104
 30
0.0
 10
10.7309909089
 20
6.3363372969
 30
0.0
 10
10.7435220871
 20
6.3283983219
 30
0.0
 10
10.7557691468
 20
6.3194919858
 30
0.0
 10
10.7676317016
 20
6.3096705371
 30
0.0
 10
10.7790109915
 20
6.2989818846
 30
0.0
 10
10.7898082564
 20
6.2874698894
 30
0.0
 10
10.799922376
 20
6.2751758402
 30
0.0
 10
10.8092481115
 20
6.2621409038
 30
0.0
 10
10.8176751885
 20
6.2484095324
 30
0.0
 10
10.8250886611
 20
6.2340335312
 30
0.0
 10
10.8313711926
 20
6.219076618
 30
0.0
 10
10.8364078596
 20
6.2036188372
 30
0.0
 10
10.8400936421
 20
6.1877596966
 30
0.0
 10
10.8423429254
 20
6.1716186554
 30
0.0
 10
10.8430992725
 20
6.1553318673
 30
0.0
 10
10.8423429266
 20
6.1390450791
 30
0.0
 10
10.8400936446
 20
6.1229040377
 30
0.0
 10
10.8364078633
 20
6.1070448968
 30
0.0
 10
10.8313711973
 20
6.0915871156
 30
0.0
 10
10.8250886668
 20
6.0766302018
 30
0.0
 10
10.8176751952
 20
6.0622542002
 30
0.0
 10
10.809248119
 20
6.0485228282
 30
0.0
 10
10.7999223841
 20
6.0354878912
 30
0.0
 10
10.7898082651
 20
6.0231938414
 30
0.0
 10
10.7790110008
 20
6.0116818454
 30
0.0
 10
10.7676317114
 20
6.0009931923
 30
0.0
 10
10.7557691569
 20
5.9911717429
 30
0.0
 10
10.7435220974
 20
5.982265406
 30
0.0
 10
10.7309909195
 20
5.9743264302
 30
0.0
 10
10.7182810665
 20
5.9674116157
 30
0.0
 10
10.7096192652
 20
5.9634588227
 30
0.0
 10
10.7052857525
 20
5.9616781959
 30
0.0
  0
SPLINE
  5
2B0
100
AcDbEntity
  8
0
100
AcDbSpline
 62
7
  6
CONTINUOUS
 70
0
 71
3
 72
11
 73
7
 74
0
 42
0.0000001
 43
0.0000001
 44
0.0000000001
 40
0.0
 40
0.0
 40
0.0
 40
0.0
 40
0.267256821
 40
0.3968316758
 40
0.5235404322
 40
1.0
 40
1.0
 40
1.0
 40
1.0
 10
10.7052857525
 20
5.9616781959
 30
0.0
 10
10.7008625414
 20
5.9598607124
 30
0.0
 10
10.6941848034
 20
5.9574165168
 30
0.0
 10
10.6851909599
 20
5.9547828251
 30
0.0
 10
10.6724559055
 20
5.9516776853
 30
0.0
 10
10.6616316487
 20
5.9503318604
 30
0.0
 10
10.6531063078
 20
5.9503318604
 30
0.0
  0
SPLINE
  5
2B1
100
AcDbEntity
  8
0
100
AcDbSpline
 62
7
  6
CONTINUOUS
 70
0
 71
3
 72
15
 73
11
 74
0
 42
0.0000001
 43
0.0000001
 44
0.0000000001
 40
0.0
 40
0.0
 40
0.0
 40
0.0
 40
0.1741895093
 40
0.3342366368
 40
0.4801516598
 40
0.6119641199
 40
0.7297289561
 40
0.833539002
 40
0.9235460088
 40
1.0
 40
1.0
 40
1.0
 40
1.0
 10
11.064183575
 20
5.68131004
 30
0.0
 10
11.0639525178
 20
5.6799123664
 30
0.0
 10
11.0634920665
 20
5.6772332682
 30
0.0
 10
11.0627706746
 20
5.6733953324
 30
0.0
 10
11.0620480651
 20
5.6699088648
 30
0.0
 10
11.0613245461
 20
5.666774503
 30
0.0
 10
11.060600477
 20
5.6639927382
 30
0.0
 10
11.059876267
 20
5.6615636488
 30
0.0
 10
11.059152406
 20
5.6594873578
 30
0.0
 10
11.0586285442
 20
5.6582373474
 30
0.0
 10
11.0583611876
 20
5.6576759791
 30
0.0
  0
SPLINE
  5
2B2
100
AcDbEntity
  8
0
100
AcDbSpline
 62
7
  6
CONTINUOUS
 70
0
 71
3
 72
11
 73
7
 74
0
 42
0.0000001
 43
0.0000001
 44
0.0000000001
 40
0.0
 40
0.0
 40
0.0
 40
0.0
 40
0.309887061
 40
0.5779298736
 40
0.8066202646
 40
1.0
 40
1.0
 40
1.0
 40
1.0
 10
11.0583611876
 20
5.6576759791
 30
0.0
 10
11.058202133
 20
5.6573420123
 30
0.0
 10
11.0578874966
 20
5.6567273756
 30
0.0
 10
11.0573801127
 20
5.6559073328
 30
0.0
 10
11.0568719282
 20
5.6552566584
 30
0.0
 10
11.0565026732
 20
5.6549088193
 30
0.0
 10
11.0563175181
 20
5.6547709701
 30
0.0
  0
SPLINE
  5
2B3
100
AcDbEntity
  8
0
100
AcDbSpline
 62
7
  6
CONTINUOUS
 70
0
 71
3
 72
15
 73
11
 74
0
 42
0.0000001
 43
0.0000001
 44
0.0000000001
 40
0.0
 40
0.0
 40
0.0
 40
0.0
 40
0.1741895093
 40
0.3342366368
 40
0.4801516598
 40
0.6119641199
 40
0.7297289561
 40
0.833539002
 40
0.9235460088
 40
1.0
 40
1.0
 40
1.0
 40
1.0
 10
11.0304531015
 20
5.68131004
 30
0.0
 10
11.0306841588
 20
5.6799123664
 30
0.0
 10
11.0311446101
 20
5.6772332682
 30
0.0
 10
11.0318660019
 20
5.6733953324
 30
0.0
 10
11.0325886114
 20
5.6699088648
 30
0.0
 10
11.0333121304
 20
5.666774503
 30
0.0
 10
11.0340361996
 20
5.6639927382
 30
0.0
 10
11.0347604096
 20
5.6615636488
 30
0.0
 10
11.0354842706
 20
5.6594873578
 30
0.0
 10
11.0360081323
 20
5.6582373474
 30
0.0
 10
11.0362754889
 20
5.6576759791
 30
0.0
  0
SPLINE
  5
2B4
100
AcDbEntity
  8
0
100
AcDbSpline
 62
7
  6
CONTINUOUS
 70
0
 71
3
 72
11
 73
7
 74
0
 42
0.0000001
 43
0.0000001
 44
0.0000000001
 40
0.0
 40
0.0
 40
0.0
 40
0.0
 40
0.309887061
 40
0.5779298736
 40
0.8066202646
 40
1.0
 40
1.0
 40
1.0
 40
1.0
 10
11.0362754889
 20
5.6576759791
 30
0.0
 10
11.0364345436
 20
5.6573420123
 30
0.0
 10
11.03674918
 20
5.6567273756
 30
0.0
 10
11.0372565638
 20
5.6559073328
 30
0.0
 10
11.0377647484
 20
5.6552566584
 30
0.0
 10
11.0381340033
 20
5.6549088193
 30
0.0
 10
11.0383191584
 20
5.6547709701
 30
0.0
  0
LINE
  5
2B5
100
AcDbEntity
  8
0
100
AcDbLine
 62
7
  6
CONTINUOUS
 10
10.9546381153
 20
5.6578881344
 11
10.9547673288
 21
5.6578716947
  0
LINE
  5
2B6
100
AcDbEntity
  8
0
100
AcDbLine
 62
7
  6
CONTINUOUS
 10
10.9547673288
 20
5.6578716947
 11
10.9555020502
 21
5.657779225
  0
SPLINE
  5
2B7
100
AcDbEntity
  8
0
100
AcDbSpline
 62
7
  6
CONTINUOUS
 70
0
 71
3
 72
9
 73
5
 74
0
 42
0.0000001
 43
0.0000001
 44
0.0000000001
 40
0.0
 40
0.0
 40
0.0
 40
0.0
 40
0.5151241549
 40
1.0
 40
1.0
 40
1.0
 40
1.0
 10
10.9555020502
 20
5.657779225
 30
0.0
 10
10.9590509116
 20
5.6573367348
 30
0.0
 10
10.9659552747
 20
5.6565927687
 30
0.0
 10
10.9728838886
 20
5.6561163963
 30
0.0
 10
10.9762466566
 20
5.655961432
 30
0.0
  0
SPLINE
  5
2B8
100
AcDbEntity
  8
0
100
AcDbSpline
 62
7
  6
CONTINUOUS
 70
0
 71
3
 72
8
 73
4
 74
0
 42
0.0000001
 43
0.0000001
 44
0.0000000001
 40
0.0
 40
0.0
 40
0.0
 40
0.0
 40
1.0
 40
1.0
 40
1.0
 40
1.0
 10
10.9762466566
 20
5.655961432
 30
0.0
 10
10.9762640114
 20
5.6559606343
 30
0.0
 10
10.9762813662
 20
5.6559598366
 30
0.0
 10
10.9762987209
 20
5.6559590389
 30
0.0
  0
SPLINE
  5
2B9
100
AcDbEntity
  8
0
100
AcDbSpline
 62
7
  6
CONTINUOUS
 70
0
 71
3
 72
8
 73
4
 74
0
 42
0.0000001
 43
0.0000001
 44
0.0000000001
 40
0.0
 40
0.0
 40
0.0
 40
0.0
 40
1.0
 40
1.0
 40
1.0
 40
1.0
 10
11.1183379557
 20
5.6559590389
 30
0.0
 10
11.1183554205
 20
5.6559598417
 30
0.0
 10
11.1183728854
 20
5.6559606445
 30
0.0
 10
11.1183903502
 20
5.6559614472
 30
0.0
  0
SPLINE
  5
2BA
100
AcDbEntity
  8
0
100
AcDbSpline
 62
7
  6
CONTINUOUS
 70
0
 71
3
 72
9
 73
5
 74
0
 42
0.0000001
 43
0.0000001
 44
0.0000000001
 40
0.0
 40
0.0
 40
0.0
 40
0.0
 40
0.4846328548
 40
1.0
 40
1.0
 40
1.0
 40
1.0
 10
11.1183903502
 20
5.6559614472
 30
0.0
 10
11.121812109
 20
5.656119135
 30
0.0
 10
11.1288656862
 20
5.656606893
 30
0.0
 10
11.1358940012
 20
5.6573710811
 30
0.0
 10
11.1395081014
 20
5.6578260146
 30
0.0
  0
LINE
  5
2BB
100
AcDbEntity
  8
0
100
AcDbLine
 62
7
  6
CONTINUOUS
 10
11.1395081014
 20
5.6578260146
 11
11.139872293
 21
5.6578720688
  0
LINE
  5
2BC
100
AcDbEntity
  8
0
100
AcDbLine
 62
7
  6
CONTINUOUS
 10
11.139872293
 20
5.6578720688
 11
11.1400022332
 21
5.6578886024
  0
SPLINE
  5
2BD
100
AcDbEntity
  8
0
100
AcDbSpline
 62
7
  6
CONTINUOUS
 70
0
 71
3
 72
17
 73
13
 74
0
 42
0.0000001
 43
0.0000001
 44
0.0000000001
 40
0.0
 40
0.0
 40
0.0
 40
0.0
 40
0.0338948122
 40
0.05851338
 40
0.0894461768
 40
0.1270927043
 40
0.1716460223
 40
0.281755004
 40
0.4200172891
 40
0.5862610275
 40
0.7798557731
 40
1.0
 40
1.0
 40
1.0
 40
1.0
 10
11.1823183058
 20
5.6629914172
 30
0.0
 10
11.1823182844
 20
5.6629700846
 30
0.0
 10
11.1822954459
 20
5.6629355529
 30
0.0
 10
11.1822523167
 20
5.6629006713
 30
0.0
 10
11.1822021596
 20
5.6628694467
 30
0.0
 10
11.1821385033
 20
5.6628376381
 30
0.0
 10
11.1820270093
 20
5.6627902773
 30
0.0
 10
11.18185243
 20
5.6627305267
 30
0.0
 10
11.1816014127
 20
5.6626589943
 30
0.0
 10
11.1812969332
 20
5.6625841321
 30
0.0
 10
11.1809402927
 20
5.6625062055
 30
0.0
 10
11.1806848256
 20
5.6624556876
 30
0.0
 10
11.180548708
 20
5.6624298201
 30
0.0
  0
LINE
  5
2BE
100
AcDbEntity
  8
0
100
AcDbLine
 62
7
  6
CONTINUOUS
 10
11.1561289911
 20
5.6595889185
 11
11.1562447834
 21
5.659602972
  0
LINE
  5
2BF
100
AcDbEntity
  8
0
100
AcDbLine
 62
7
  6
CONTINUOUS
 10
11.1562447834
 20
5.659602972
 11
11.1568214823
 21
5.6596736259
  0
LINE
  5
2C0
100
AcDbEntity
  8
0
100
AcDbLine
 62
7
  6
CONTINUOUS
 10
11.1612792231
 20
5.6602559855
 11
11.1616683008
 21
5.6603097797
  0
SPLINE
  5
2C1
100
AcDbEntity
  8
0
100
AcDbSpline
 62
7
  6
CONTINUOUS
 70
0
 71
3
 72
9
 73
5
 74
0
 42
0.0000001
 43
0.0000001
 44
0.0000000001
 40
0.0
 40
0.0
 40
0.0
 40
0.0
 40
0.2420544523
 40
1.0
 40
1.0
 40
1.0
 40
1.0
 10
11.1616683008
 20
5.6603097797
 30
0.0
 10
11.1631333154
 20
5.6605132097
 30
0.0
 10
11.1691801439
 20
5.6613936914
 30
0.0
 10
11.1752042036
 20
5.6624282741
 30
0.0
 10
11.179755687
 20
5.6632850329
 30
0.0
  0
SPLINE
  5
2C2
100
AcDbEntity
  8
0
100
AcDbSpline
 62
7
  6
CONTINUOUS
 70
0
 71
3
 72
9
 73
5
 74
0
 42
0.0000001
 43
0.0000001
 44
0.0000000001
 40
0.0
 40
0.0
 40
0.0
 40
0.0
 40
0.2581266996
 40
1.0
 40
1.0
 40
1.0
 40
1.0
 10
10.9148828279
 20
5.6632846869
 30
0.0
 10
10.916463439
 20
5.6629871641
 30
0.0
 10
10.9225931779
 20
5.6618687801
 30
0.0
 10
10.9287489174
 20
5.6608908198
 30
0.0
 10
10.9333282337
 20
5.6602600092
 30
0.0
  0
LINE
  5
2C3
100
AcDbEntity
  8
0
100
AcDbLine
 62
7
  6
CONTINUOUS
 10
10.9333282337
 20
5.6602600092
 11
10.9334676455
 21
5.6602408349
  0
SPLINE
  5
2C4
100
AcDbEntity
  8
0
100
AcDbSpline
 62
7
  6
CONTINUOUS
 70
0
 71
3
 72
8
 73
4
 74
0
 42
0.0000001
 43
0.0000001
 44
0.0000000001
 40
0.0
 40
0.0
 40
0.0
 40
0.0
 40
1.0
 40
1.0
 40
1.0
 40
1.0
 10
10.9383101039
 20
5.6596129254
 30
0.0
 10
10.9383365427
 20
5.6596097078
 30
0.0
 10
10.9383629814
 20
5.6596064902
 30
0.0
 10
10.9383894202
 20
5.6596032726
 30
0.0
  0
LINE
  5
2C5
100
AcDbEntity
  8
0
100
AcDbLine
 62
7
  6
CONTINUOUS
 10
10.9383894202
 20
5.6596032726
 11
10.9385039437
 21
5.6595893719
  0
SPLINE
  5
2C6
100
AcDbEntity
  8
0
100
AcDbSpline
 62
9
  6
CONTINUOUS
 70
0
 71
3
 72
13
 73
9
 74
0
 42
0.0000001
 43
0.0000001
 44
0.0000000001
 40
0.0
 40
0.0
 40
0.0
 40
0.0
 40
0.2339644056
 40
0.3561623481
 40
0.4812633692
 40
0.608785049
 40
0.7381793015
 40
1.0
 40
1.0
 40
1.0
 40
1.0
 10
10.4638199761
 20
6.2751218104
 30
0.0
 10
10.4696061561
 20
6.2670963956
 30
0.0
 10
10.4772463695
 20
6.2539973417
 30
0.0
 10
10.4852743124
 20
6.2352834433
 30
0.0
 10
10.4903591177
 20
6.2202521738
 30
0.0
 10
10.4943650694
 20
6.2045861829
 30
0.0
 10
10.4982317892
 20
6.1829799168
 30
0.0
 10
10.499388416
 20
6.1664036304
 30
0.0
 10
10.499388416
 20
6.1553318604
 30
0.0
  0
LINE
  5
2C7
100
AcDbEntity
  8
0
100
AcDbLine
 62
7
  6
CONTINUOUS
 10
11.07708397
 20
5.6562820604
 11
11.0773113854
 21
5.6562895246
  0
LINE
  5
2C8
100
AcDbEntity
  8
0
100
AcDbLine
 62
7
  6
CONTINUOUS
 10
11.0773183383
 20
5.6570933169
 11
11.0778854701
 21
5.6580024608
  0
SPLINE
  5
2C9
100
AcDbEntity
  8
0
100
AcDbSpline
 62
7
  6
CONTINUOUS
 70
0
 71
3
 72
17
 73
13
 74
0
 42
0.0000001
 43
0.0000001
 44
0.0000000001
 40
0.0
 40
0.0
 40
0.0
 40
0.0
 40
0.0325676747
 40
0.0689369136
 40
0.1091895587
 40
0.1533848388
 40
0.2537587204
 40
0.3703023818
 40
0.5031457468
 40
0.6523592518
 40
0.8179751638
 40
1.0
 40
1.0
 40
1.0
 40
1.0
 10
11.0778854701
 20
5.6580024608
 30
0.0
 10
11.0780361872
 20
5.658272457
 30
0.0
 10
11.0783351427
 20
5.6588552474
 30
0.0
 10
11.0787591983
 20
5.6598016249
 30
0.0
 10
11.0791832292
 20
5.6608677993
 30
0.0
 10
11.079773771
 20
5.6625205447
 30
0.0
 10
11.0805013132
 20
5.6648917928
 30
0.0
 10
11.0813418127
 20
5.6681051227
 30
0.0
 10
11.0821818045
 20
5.6717957895
 30
0.0
 10
11.083020819
 20
5.6759629472
 30
0.0
 10
11.0838582598
 20
5.6806056734
 30
0.0
 10
11.0843901122
 20
5.6838633719
 30
0.0
 10
11.084657234
 20
5.685570842
 30
0.0
  0
SPLINE
  5
2CA
100
AcDbEntity
  8
0
100
AcDbSpline
 62
9
  6
CONTINUOUS
 70
0
 71
3
 72
13
 73
9
 74
0
 42
0.0000001
 43
0.0000001
 44
0.0000000001
 40
0.0
 40
0.0
 40
0.0
 40
0.0
 40
0.2339644056
 40
0.3561623481
 40
0.4812633692
 40
0.608785049
 40
0.7381793015
 40
1.0
 40
1.0
 40
1.0
 40
1.0
 10
10.4638199761
 20
6.0355419104
 30
0.0
 10
10.4696061561
 20
6.0435673252
 30
0.0
 10
10.4772463695
 20
6.0566663791
 30
0.0
 10
10.4852743124
 20
6.0753802776
 30
0.0
 10
10.4903591177
 20
6.090411547
 30
0.0
 10
10.4943650694
 20
6.1060775379
 30
0.0
 10
10.4982317892
 20
6.127683804
 30
0.0
 10
10.499388416
 20
6.1442600904
 30
0.0
 10
10.499388416
 20
6.1553318604
 30
0.0
  0
LINE
  5
2CB
100
AcDbEntity
  8
0
100
AcDbLine
 62
7
  6
CONTINUOUS
 10
11.0173183383
 20
5.6570933169
 11
11.0167512065
 21
5.6580024608
  0
SPLINE
  5
2CC
100
AcDbEntity
  8
0
100
AcDbSpline
 62
7
  6
CONTINUOUS
 70
0
 71
3
 72
17
 73
13
 74
0
 42
0.0000001
 43
0.0000001
 44
0.0000000001
 40
0.0
 40
0.0
 40
0.0
 40
0.0
 40
0.0325676747
 40
0.0689369136
 40
0.1091895587
 40
0.1533848388
 40
0.2537587204
 40
0.3703023818
 40
0.5031457468
 40
0.6523592518
 40
0.8179751638
 40
1.0
 40
1.0
 40
1.0
 40
1.0
 10
11.0167512065
 20
5.6580024608
 30
0.0
 10
11.0166004894
 20
5.658272457
 30
0.0
 10
11.0163015339
 20
5.6588552474
 30
0.0
 10
11.0158774783
 20
5.6598016249
 30
0.0
 10
11.0154534474
 20
5.6608677993
 30
0.0
 10
11.0148629056
 20
5.6625205447
 30
0.0
 10
11.0141353634
 20
5.6648917928
 30
0.0
 10
11.0132948639
 20
5.6681051227
 30
0.0
 10
11.0124548721
 20
5.6717957895
 30
0.0
 10
11.0116158576
 20
5.6759629472
 30
0.0
 10
11.0107784167
 20
5.6806056734
 30
0.0
 10
11.0102465643
 20
5.6838633719
 30
0.0
 10
11.0099794426
 20
5.685570842
 30
0.0
  0
LINE
  5
2CD
100
AcDbEntity
  8
0
100
AcDbLine
 62
7
  6
CONTINUOUS
 10
11.0175527066
 20
5.6562820604
 11
11.0173252912
 21
5.6562895246
  0
LINE
  5
2CE
100
AcDbEntity
  8
0
100
AcDbLine
 62
7
  6
CONTINUOUS
 10
11.0770876653
 20
5.6552815681
 11
11.0773465597
 21
5.655290064
  0
SPLINE
  5
2CF
100
AcDbEntity
  8
0
100
AcDbSpline
 62
9
  6
CONTINUOUS
 70
0
 71
3
 72
13
 73
9
 74
0
 42
0.0000001
 43
0.0000001
 44
0.0000000001
 40
0.0
 40
0.0
 40
0.0
 40
0.0
 40
0.2361352222
 40
0.3587517129
 40
0.483870674
 40
0.6110624641
 40
0.7398497854
 40
1.0
 40
1.0
 40
1.0
 40
1.0
 10
10.7902657933
 20
6.2866784392
 30
0.0
 10
10.796104022
 20
6.2775335274
 30
0.0
 10
10.8037966582
 20
6.2628531152
 30
0.0
 10
10.811875577
 20
6.2421290461
 30
0.0
 10
10.8169697623
 20
6.2256561984
 30
0.0
 10
10.8209756921
 20
6.208595888
 30
0.0
 10
10.8248348325
 20
6.1851852333
 30
0.0
 10
10.82598969
 20
6.1672848923
 30
0.0
 10
10.82598969
 20
6.1553318604
 30
0.0
  0
LINE
  5
2D0
100
AcDbEntity
  8
0
100
AcDbLine
 62
7
  6
CONTINUOUS
 10
11.0175490113
 20
5.6552815681
 11
11.0172901169
 21
5.655290064
  0
SPLINE
  5
2D1
100
AcDbEntity
  8
0
100
AcDbSpline
 62
9
  6
CONTINUOUS
 70
0
 71
3
 72
39
 73
35
 74
0
 42
0.0000001
 43
0.0000001
 44
0.0000000001
 40
0.0
 40
0.0
 40
0.0
 40
0.0
 40
0.0257298653
 40
0.0517038015
 40
0.0781504681
 40
0.1052684834
 40
0.1332177514
 40
0.1621138629
 40
0.1920269281
 40
0.2229830461
 40
0.2549676492
 40
0.2879298181
 40
0.3217870274
 40
0.3564299867
 40
0.3917274112
 40
0.4275306541
 40
0.4636781943
 40
0.5
 40
0.5363218057
 40
0.5724693459
 40
0.6082725888
 40
0.6435700134
 40
0.6782129728
 40
0.7120701822
 40
0.7450323511
 40
0.7770169542
 40
0.807973072
 40
0.837886137
 40
0.8667822486
 40
0.8947315165
 40
0.9218495318
 40
0.9482961984
 40
0.9742701346
 40
1.0
 40
1.0
 40
1.0
 40
1.0
 10
11.4229094258
 20
5.9686539245
 30
0.0
 10
11.4185862227
 20
5.9686539245
 30
0.0
 10
11.4098869391
 20
5.9692609036
 30
0.0
 10
11.397000396
 20
5.9719776177
 30
0.0
 10
11.3843727964
 20
5.9764712365
 30
0.0
 10
11.3721314184
 20
5.9826927367
 30
0.0
 10
11.3603929517
 20
5.990576523
 30
0.0
 10
11.3492685306
 20
6.0000423222
 30
0.0
 10
11.338862111
 20
6.0109961593
 30
0.0
 10
11.3292706595
 20
6.0233311978
 30
0.0
 10
11.3205835501
 20
6.0369284
 30
0.0
 10
11.3128819462
 20
6.0516573186
 30
0.0
 10
11.3062380453
 20
6.0673770503
 30
0.0
 10
11.3007143421
 20
6.0839373839
 30
0.0
 10
11.2963629489
 20
6.1011801139
 30
0.0
 10
11.2932250164
 20
6.1189404912
 30
0.0
 10
11.2913302719
 20
6.1370487755
 30
0.0
 10
11.2906966861
 20
6.1553318604
 30
0.0
 10
11.2913302719
 20
6.1736149453
 30
0.0
 10
11.2932250164
 20
6.1917232296
 30
0.0
 10
11.2963629489
 20
6.209483607
 30
0.0
 10
11.3007143421
 20
6.226726337
 30
0.0
 10
11.3062380453
 20
6.2432866706
 30
0.0
 10
11.3128819463
 20
6.2590064024
 30
0.0
 10
11.3205835502
 20
6.2737353209
 30
0.0
 10
11.3292706595
 20
6.2873325231
 30
0.0
 10
11.3388621111
 20
6.2996675616
 30
0.0
 10
11.3492685306
 20
6.3106213986
 30
0.0
 10
11.3603929517
 20
6.3200871978
 30
0.0
 10
11.3721314184
 20
6.3279709841
 30
0.0
 10
11.3843727964
 20
6.3341924843
 30
0.0
 10
11.397000396
 20
6.3386861031
 30
0.0
 10
11.4098869391
 20
6.3414028172
 30
0.0
 10
11.4185862227
 20
6.3420097963
 30
0.0
 10
11.4229094258
 20
6.3420097963
 30
0.0
  0
SPLINE
  5
2D2
100
AcDbEntity
  8
0
100
AcDbSpline
 62
9
  6
CONTINUOUS
 70
0
 71
3
 72
21
 73
17
 74
0
 42
0.0000001
 43
0.0000001
 44
0.0000000001
 40
0.0
 40
0.0
 40
0.0
 40
0.0
 40
0.1180513537
 40
0.1793511326
 40
0.2419019662
 40
0.3054890432
 40
0.3698738089
 40
0.4348000798
 40
0.5000000067
 40
0.5651999333
 40
0.6301262034
 40
0.694510968
 40
0.7580980435
 40
0.8206488752
 40
0.8819486518
 40
1.0
 40
1.0
 40
1.0
 40
1.0
 10
11.3043705009
 20
6.0239858806
 30
0.0
 10
11.2985323324
 20
6.0331307739
 30
0.0
 10
11.2908397729
 20
6.0478111739
 30
0.0
 10
11.2827609489
 20
6.068535075
 30
0.0
 10
11.2776667867
 20
6.0850081283
 30
0.0
 10
11.2736610274
 20
6.1020672831
 30
0.0
 10
11.2707755431
 20
6.119572692
 30
0.0
 10
11.2690346597
 20
6.1373771433
 30
0.0
 10
11.2684527418
 20
6.1553318765
 30
0.0
 10
11.2690346618
 20
6.1732866095
 30
0.0
 10
11.2707755473
 20
6.1910910604
 30
0.0
 10
11.2736610336
 20
6.2085964687
 30
0.0
 10
11.2776667948
 20
6.2256556226
 30
0.0
 10
11.282760959
 20
6.2421286747
 30
0.0
 10
11.2908397853
 20
6.262852574
 30
0.0
 10
11.2985323466
 20
6.2775329722
 30
0.0
 10
11.3043705162
 20
6.2866778643
 30
0.0
  0
SPLINE
  5
2D3
100
AcDbEntity
  8
0
100
AcDbSpline
 62
9
  6
CONTINUOUS
 70
0
 71
3
 72
19
 73
15
 74
0
 42
0.0000001
 43
0.0000001
 44
0.0000000001
 40
0.0
 40
0.0
 40
0.0
 40
0.0
 40
0.0565491611
 40
0.1132880987
 40
0.170373974
 40
0.2279799531
 40
0.2862642982
 40
0.3453677622
 40
0.4054165755
 40
0.4665201242
 40
0.5921674556
 40
0.7228768977
 40
0.8588462681
 40
1.0
 40
1.0
 40
1.0
 40
1.0
 10
11.4229094258
 20
6.3420097963
 30
0.0
 10
11.4253897427
 20
6.3420097963
 30
0.0
 10
11.4303609552
 20
6.3418111983
 30
0.0
 10
11.4377879171
 20
6.3409199113
 30
0.0
 10
11.4451674086
 20
6.3394372853
 30
0.0
 10
11.4524746236
 20
6.3373686521
 30
0.0
 10
11.4596866915
 20
6.3347210978
 30
0.0
 10
11.4667803176
 20
6.331503038
 30
0.0
 10
11.4737332983
 20
6.3277251866
 30
0.0
 10
11.4828694699
 20
6.321905552
 30
0.0
 10
11.4938294196
 20
6.313247886
 30
0.0
 10
11.5059375306
 20
6.3009650159
 30
0.0
 10
11.5169823204
 20
6.2868495211
 30
0.0
 10
11.523432885
 20
6.276518356
 30
0.0
 10
11.5264541846
 20
6.2711144271
 30
0.0
  0
SPLINE
  5
2D4
100
AcDbEntity
  8
0
100
AcDbSpline
 62
9
  6
CONTINUOUS
 70
0
 71
3
 72
19
 73
15
 74
0
 42
0.0000001
 43
0.0000001
 44
0.0000000001
 40
0.0
 40
0.0
 40
0.0
 40
0.0
 40
0.1411459408
 40
0.2771088968
 40
0.4078141407
 40
0.5334600509
 40
0.5945639866
 40
0.6546139233
 40
0.7137192111
 40
0.772006012
 40
0.829614987
 40
0.8867042965
 40
0.943446965
 40
1.0
 40
1.0
 40
1.0
 40
1.0
 10
11.526420009
 20
6.039488193
 30
0.0
 10
11.5233985095
 20
6.0340885382
 30
0.0
 10
11.5169480403
 20
6.0237656951
 30
0.0
 10
11.5059049406
 20
6.0096620236
 30
0.0
 10
11.4937999058
 20
5.9973897669
 30
0.0
 10
11.4828436399
 20
5.9887398295
 30
0.0
 10
11.4737109458
 20
5.9829254567
 30
0.0
 10
11.4667607319
 20
5.9791510279
 30
0.0
 10
11.4596700667
 20
5.9759359038
 30
0.0
 10
11.4524611239
 20
5.9732907786
 30
0.0
 10
11.4451571661
 20
5.9712240527
 30
0.0
 10
11.4377810326
 20
5.9697427982
 30
0.0
 10
11.4303574953
 20
5.9688523382
 30
0.0
 10
11.425388594
 20
5.9686539245
 30
0.0
 10
11.4229094258
 20
5.9686539245
 30
0.0
  0
SPLINE
  5
2D5
100
AcDbEntity
  8
0
100
AcDbSpline
 62
9
  6
CONTINUOUS
 70
0
 71
3
 72
14
 73
10
 74
0
 42
0.0000001
 43
0.0000001
 44
0.0000000001
 40
0.0
 40
0.0
 40
0.0
 40
0.0
 40
0.2339262057
 40
0.3561041739
 40
0.4811847647
 40
0.6086854762
 40
0.7380589714
 40
0.8687055807
 40
1.0
 40
1.0
 40
1.0
 40
1.0
 10
10.4342334483
 20
6.3161586967
 30
0.0
 10
10.4420017107
 20
6.3053839041
 30
0.0
 10
10.4522593855
 20
6.2877974976
 30
0.0
 10
10.463037441
 20
6.262672818
 30
0.0
 10
10.469864217
 20
6.2424918225
 30
0.0
 10
10.4752423233
 20
6.2214606787
 30
0.0
 10
10.479121893
 20
6.1997806255
 30
0.0
 10
10.4814648103
 20
6.1776665012
 30
0.0
 10
10.4819867016
 20
6.1627872174
 30
0.0
 10
10.4819867016
 20
6.1553318604
 30
0.0
  0
SPLINE
  5
2D6
100
AcDbEntity
  8
0
100
AcDbSpline
 62
7
  6
CONTINUOUS
 70
0
 71
3
 72
39
 73
35
 74
0
 42
0.0000001
 43
0.0000001
 44
0.0000000001
 40
0.0
 40
0.0
 40
0.0
 40
0.0
 40
0.025658709
 40
0.0517384384
 40
0.078416209
 40
0.1058378788
 40
0.1341137299
 40
0.1633168099
 40
0.1934834653
 40
0.2246155973
 40
0.2566836378
 40
0.2896301481
 40
0.3233735018
 40
0.3578115763
 40
0.3928254407
 40
0.4282828087
 40
0.4640415438
 40
0.4999529322
 40
0.5358650093
 40
0.5716257967
 40
0.6070865357
 40
0.6421050165
 40
0.6765488476
 40
0.7102989627
 40
0.7432530708
 40
0.7753293436
 40
0.8064701078
 40
0.8366455264
 40
0.8658572026
 40
0.8941411591
 40
0.9215701082
 40
0.9482539949
 40
0.9743383845
 40
1.0
 40
1.0
 40
1.0
 40
1.0
 10
11.6833373592
 20
6.3435608852
 30
0.0
 10
11.6792273126
 20
6.3430040753
 30
0.0
 10
11.6710037661
 20
6.3413393974
 30
0.0
 10
11.6589670467
 20
6.3372688548
 30
0.0
 10
11.6472545502
 20
6.3316483037
 30
0.0
 10
11.6359686013
 20
6.3245300898
 30
0.0
 10
11.6252029132
 20
6.3159780681
 30
0.0
 10
11.6150469651
 20
6.3060672965
 30
0.0
 10
11.6055844929
 20
6.2948832877
 30
0.0
 10
11.5968935373
 20
6.2825214962
 30
0.0
 10
11.5890458478
 20
6.2690867515
 30
0.0
 10
11.5821063932
 20
6.2546925836
 30
0.0
 10
11.5761327821
 20
6.2394604329
 30
0.0
 10
11.5711747398
 20
6.223518729
 30
0.0
 10
11.567273638
 20
6.2070018784
 30
0.0
 10
11.5644620814
 20
6.1900491561
 30
0.0
 10
11.562763611
 20
6.1728035478
 30
0.0
 10
11.562192449
 20
6.1554105347
 30
0.0
 10
11.5627533909
 20
6.1380168577
 30
0.0
 10
11.5644417269
 20
6.1207692638
 30
0.0
 10
11.5672433196
 20
6.1038132508
 30
0.0
 10
11.571134711
 20
6.0872918327
 30
0.0
 10
11.5760833774
 20
6.0713443231
 30
0.0
 10
11.5820480244
 20
6.0561051777
 30
0.0
 10
11.5889790002
 20
6.0417028847
 30
0.0
 10
11.596818765
 20
6.028258952
 30
0.0
 10
11.6055024142
 20
6.0158869848
 30
0.0
 10
11.614958257
 20
6.0046918942
 30
0.0
 10
11.6251083071
 20
5.9947692225
 30
0.0
 10
11.6358688789
 20
5.9862045738
 30
0.0
 10
11.6471505418
 20
5.979073105
 30
0.0
 10
11.6588596289
 20
5.9734387703
 30
0.0
 10
11.6708938576
 20
5.9693540378
 30
0.0
 10
11.67911666
 20
5.9676795916
 30
0.0
 10
11.6832265189
 20
5.9671179176
 30
0.0
  0
SPLINE
  5
2D7
100
AcDbEntity
  8
0
100
AcDbSpline
 62
9
  6
CONTINUOUS
 70
0
 71
3
 72
39
 73
35
 74
0
 42
0.0000001
 43
0.0000001
 44
0.0000000001
 40
0.0
 40
0.0
 40
0.0
 40
0.0
 40
0.0257318335
 40
0.0519928753
 40
0.0789191576
 40
0.1066180224
 40
0.1351654967
 40
0.1646064376
 40
0.1949557731
 40
0.2262007253
 40
0.2583034792
 40
0.2912040735
 40
0.3248233635
 40
0.3590659645
 40
0.3938231262
 40
0.4289755227
 40
0.4643959645
 40
0.4999520521
 40
0.5355087853
 40
0.5709311519
 40
0.606086715
 40
0.6408482231
 40
0.6750962622
 40
0.7087219682
 40
0.7416298156
 40
0.7737404913
 40
0.8049938374
 40
0.8353518136
 40
0.8648013905
 40
0.8933572204
 40
0.9210638667
 40
0.9479970576
 40
0.9742638401
 40
1.0
 40
1.0
 40
1.0
 40
1.0
 10
11.6739901621
 20
6.333505489
 30
0.0
 10
11.6702957909
 20
6.3325890778
 30
0.0
 10
11.6629364171
 20
6.3302830949
 30
0.0
 10
11.6522537877
 20
6.3255168632
 30
0.0
 10
11.6419121012
 20
6.3194527558
 30
0.0
 10
11.6319915559
 20
6.3121403336
 30
0.0
 10
11.6225656861
 20
6.3036371307
 30
0.0
 10
11.6137047029
 20
6.2940092484
 30
0.0
 10
11.605474293
 20
6.2833306099
 30
0.0
 10
11.5979355499
 20
6.2716826533
 30
0.0
 10
11.591144519
 20
6.2591538335
 30
0.0
 10
11.5851518111
 20
6.2458390888
 30
0.0
 10
11.5800021958
 20
6.2318392136
 30
0.0
 10
11.5757342242
 20
6.2172601574
 30
0.0
 10
11.5723799069
 20
6.202212253
 30
0.0
 10
11.569964439
 20
6.1868093988
 30
0.0
 10
11.5685059835
 20
6.1711682009
 30
0.0
 10
11.5680155149
 20
6.1554070875
 30
0.0
 10
11.5684967252
 20
6.1396454045
 30
0.0
 10
11.5699459923
 20
6.1240025019
 30
0.0
 10
11.5723524106
 20
6.1085968211
 30
0.0
 10
11.5756978852
 20
6.0935449899
 30
0.0
 10
11.579957287
 20
6.0789609366
 30
0.0
 10
11.5850986695
 20
6.0649550322
 30
0.0
 10
11.5910835419
 20
6.0516332714
 30
0.0
 10
11.5978671919
 20
6.039096501
 30
0.0
 10
11.6053990628
 20
6.0274397183
 30
0.0
 10
11.6136231591
 20
6.0167514424
 30
0.0
 10
11.6224784335
 20
6.007113181
 30
0.0
 10
11.631899242
 20
5.9985989306
 30
0.0
 10
11.6418154136
 20
5.9912748696
 30
0.0
 10
11.6521534516
 20
5.9851986143
 30
0.0
 10
11.6628331959
 20
5.9804198104
 30
0.0
 10
11.6701913769
 20
5.9781050899
 30
0.0
 10
11.6738853193
 20
5.9771843023
 30
0.0
  0
SPLINE
  5
2D8
100
AcDbEntity
  8
0
100
AcDbSpline
 62
7
  6
CONTINUOUS
 70
0
 71
3
 72
18
 73
14
 74
0
 42
0.0000001
 43
0.0000001
 44
0.0000000001
 40
0.0
 40
0.0
 40
0.0
 40
0.0
 40
0.0287413282
 40
0.0616496541
 40
0.0988807121
 40
0.1405404038
 40
0.1867027259
 40
0.2374204903
 40
0.3526577231
 40
0.4864597236
 40
0.6389274966
 40
0.8101053372
 40
1.0
 40
1.0
 40
1.0
 40
1.0
 10
11.0773183383
 20
5.6560921797
 30
0.0
 10
11.0774875523
 20
5.6563314311
 30
0.0
 10
11.0778223535
 20
5.656864647
 30
0.0
 10
11.0782914197
 20
5.6577577908
 30
0.0
 10
11.0787604954
 20
5.658797311
 30
0.0
 10
11.0792295018
 20
5.6599833405
 30
0.0
 10
11.0796984557
 20
5.661316064
 30
0.0
 10
11.0803516132
 20
5.6633781033
 30
0.0
 10
11.0811558457
 20
5.6663279127
 30
0.0
 10
11.0820845928
 20
5.6703155212
 30
0.0
 10
11.0830123329
 20
5.674886945
 30
0.0
 10
11.0839384658
 20
5.6800407256
 30
0.0
 10
11.0845239716
 20
5.6836755225
 30
0.0
 10
11.0848183383
 20
5.6855891614
 30
0.0
  0
SPLINE
  5
2D9
100
AcDbEntity
  8
0
100
AcDbSpline
 62
9
  6
CONTINUOUS
 70
0
 71
3
 72
14
 73
10
 74
0
 42
0.0000001
 43
0.0000001
 44
0.0000000001
 40
0.0
 40
0.0
 40
0.0
 40
0.0
 40
0.2339262057
 40
0.3561041739
 40
0.4811847647
 40
0.6086854762
 40
0.7380589714
 40
0.8687055807
 40
1.0
 40
1.0
 40
1.0
 40
1.0
 10
10.4342334483
 20
5.9945050241
 30
0.0
 10
10.4420017107
 20
6.0052798167
 30
0.0
 10
10.4522593855
 20
6.0228662232
 30
0.0
 10
10.463037441
 20
6.0479909028
 30
0.0
 10
10.469864217
 20
6.0681718983
 30
0.0
 10
10.4752423233
 20
6.0892030422
 30
0.0
 10
10.479121893
 20
6.1108830953
 30
0.0
 10
10.4814648103
 20
6.1329972196
 30
0.0
 10
10.4819867016
 20
6.1478765034
 30
0.0
 10
10.4819867016
 20
6.1553318604
 30
0.0
  0
SPLINE
  5
2DA
100
AcDbEntity
  8
0
100
AcDbSpline
 62
7
  6
CONTINUOUS
 70
0
 71
3
 72
9
 73
5
 74
0
 42
0.0000001
 43
0.0000001
 44
0.0000000001
 40
0.0
 40
0.0
 40
0.0
 40
0.0
 40
0.514521133
 40
1.0
 40
1.0
 40
1.0
 40
1.0
 10
11.180548708
 20
5.6624298201
 30
0.0
 10
11.1764164177
 20
5.6616445296
 30
0.0
 10
11.1683625562
 20
5.6602336827
 30
0.0
 10
11.1602659347
 20
5.6590897802
 30
0.0
 10
11.1563262042
 20
5.6586101121
 30
0.0
  0
SPLINE
  5
2DB
100
AcDbEntity
  8
0
100
AcDbSpline
 62
7
  6
CONTINUOUS
 70
0
 71
3
 72
8
 73
4
 74
0
 42
0.0000001
 43
0.0000001
 44
0.0000000001
 40
0.0
 40
0.0
 40
0.0
 40
0.0
 40
1.0
 40
1.0
 40
1.0
 40
1.0
 10
11.1563262042
 20
5.6586101121
 30
0.0
 10
11.1562998045
 20
5.6586069014
 30
0.0
 10
11.1562734048
 20
5.6586036906
 30
0.0
 10
11.1562470051
 20
5.6586004799
 30
0.0
  0
SPLINE
  5
2DC
100
AcDbEntity
  8
0
100
AcDbSpline
 62
7
  6
CONTINUOUS
 70
0
 71
3
 72
9
 73
5
 74
0
 42
0.0000001
 43
0.0000001
 44
0.0000000001
 40
0.0
 40
0.0
 40
0.0
 40
0.0
 40
0.5118963112
 40
1.0
 40
1.0
 40
1.0
 40
1.0
 10
11.1562470051
 20
5.6586004799
 30
0.0
 10
11.1534908181
 20
5.6582656333
 30
0.0
 10
11.1480974133
 20
5.6576840035
 30
0.0
 10
11.1426886416
 20
5.6572658007
 30
0.0
 10
11.1400460136
 20
5.6571068376
 30
0.0
  0
SPLINE
  5
2DD
100
AcDbEntity
  8
0
100
AcDbSpline
 62
7
  6
CONTINUOUS
 70
0
 71
3
 72
8
 73
4
 74
0
 42
0.0000001
 43
0.0000001
 44
0.0000000001
 40
0.0
 40
0.0
 40
0.0
 40
0.0
 40
1.0
 40
1.0
 40
1.0
 40
1.0
 10
11.1400460136
 20
5.6571068376
 30
0.0
 10
11.1400236494
 20
5.6571054956
 30
0.0
 10
11.1400012853
 20
5.6571041536
 30
0.0
 10
11.1399789212
 20
5.6571028116
 30
0.0
  0
SPLINE
  5
2DE
100
AcDbEntity
  8
0
100
AcDbSpline
 62
7
  6
CONTINUOUS
 70
0
 71
3
 72
8
 73
4
 74
0
 42
0.0000001
 43
0.0000001
 44
0.0000000001
 40
0.0
 40
0.0
 40
0.0
 40
0.0
 40
1.0
 40
1.0
 40
1.0
 40
1.0
 10
10.9546577554
 20
5.6571028116
 30
0.0
 10
10.9546352808
 20
5.6571041602
 30
0.0
 10
10.9546128063
 20
5.6571055089
 30
0.0
 10
10.9545903317
 20
5.6571068576
 30
0.0
  0
SPLINE
  5
2DF
100
AcDbEntity
  8
0
100
AcDbSpline
 62
7
  6
CONTINUOUS
 70
0
 71
3
 72
9
 73
5
 74
0
 42
0.0000001
 43
0.0000001
 44
0.0000000001
 40
0.0
 40
0.0
 40
0.0
 40
0.0
 40
0.4881057069
 40
1.0
 40
1.0
 40
1.0
 40
1.0
 10
10.9545903317
 20
5.6571068576
 30
0.0
 10
10.9519481513
 20
5.6572657975
 30
0.0
 10
10.9465403175
 20
5.6576839193
 30
0.0
 10
10.9411478447
 20
5.6582654147
 30
0.0
 10
10.9383921439
 20
5.6586001795
 30
0.0
  0
LINE
  5
2E0
100
AcDbEntity
  8
0
100
AcDbLine
 62
7
  6
CONTINUOUS
 10
10.9383921439
 20
5.6586001795
 11
10.9378166125
 21
5.6586706431
  0
SPLINE
  5
2E1
100
AcDbEntity
  8
0
100
AcDbSpline
 62
7
  6
CONTINUOUS
 70
0
 71
3
 72
9
 73
5
 74
0
 42
0.0000001
 43
0.0000001
 44
0.0000000001
 40
0.0
 40
0.0
 40
0.0
 40
0.0
 40
0.485810017
 40
1.0
 40
1.0
 40
1.0
 40
1.0
 10
10.9378166125
 20
5.6586706431
 30
0.0
 10
10.9339549242
 20
5.6591471017
 30
0.0
 10
10.926023853
 20
5.6602763822
 30
0.0
 10
10.9181338321
 20
5.661660954
 30
0.0
 10
10.9140879686
 20
5.6624298201
 30
0.0
  0
SPLINE
  5
2E2
100
AcDbEntity
  8
0
100
AcDbSpline
 62
7
  6
CONTINUOUS
 70
0
 71
3
 72
17
 73
13
 74
0
 42
0.0000001
 43
0.0000001
 44
0.0000000001
 40
0.0
 40
0.0
 40
0.0
 40
0.0
 40
0.2201442285
 40
0.4137389747
 40
0.5799827122
 40
0.7182449964
 40
0.8283539779
 40
0.8729072959
 40
0.9105538233
 40
0.9414866203
 40
0.9661051883
 40
1.0
 40
1.0
 40
1.0
 40
1.0
 10
10.9140879686
 20
5.6624298201
 30
0.0
 10
10.913951851
 20
5.6624556876
 30
0.0
 10
10.9136963839
 20
5.6625062055
 30
0.0
 10
10.9133397434
 20
5.6625841321
 30
0.0
 10
10.9130352638
 20
5.6626589943
 30
0.0
 10
10.9127842466
 20
5.6627305267
 30
0.0
 10
10.9126096672
 20
5.6627902773
 30
0.0
 10
10.9124981733
 20
5.6628376381
 30
0.0
 10
10.912434517
 20
5.6628694467
 30
0.0
 10
10.9123843598
 20
5.6629006713
 30
0.0
 10
10.9123412307
 20
5.6629355529
 30
0.0
 10
10.9123183922
 20
5.6629700846
 30
0.0
 10
10.9123183708
 20
5.6629914172
 30
0.0
  0
SPLINE
  5
2E3
100
AcDbEntity
  8
0
100
AcDbSpline
 62
7
  6
CONTINUOUS
 70
0
 71
3
 72
39
 73
35
 74
0
 42
0.0000001
 43
0.0000001
 44
0.0000000001
 40
0.0
 40
0.0
 40
0.0
 40
0.0
 40
0.0352248051
 40
0.0699579916
 40
0.104176306
 40
0.1378533011
 40
0.1709666579
 40
0.2034996001
 40
0.2354404361
 40
0.266785749
 40
0.297542322
 40
0.3277295876
 40
0.357382044
 40
0.386550743
 40
0.4153042295
 40
0.4437281131
 40
0.4719228484
 40
0.4999999998
 40
0.5280771513
 40
0.5562718865
 40
0.5846957702
 40
0.6134492567
 40
0.6426179557
 40
0.6722704121
 40
0.7024576777
 40
0.7332142507
 40
0.7645595635
 40
0.7965003996
 40
0.8290333417
 40
0.8621466985
 40
0.8958236936
 40
0.930042008
 40
0.9647751947
 40
1.0
 40
1.0
 40
1.0
 40
1.0
 10
11.42634879
 20
7.869387318
 30
0.0
 10
11.4300147018
 20
7.8657319663
 30
0.0
 10
11.4373757337
 20
7.8585522467
 30
0.0
 10
11.4485921527
 20
7.8481285492
 30
0.0
 10
11.4599090827
 20
7.8381542715
 30
0.0
 10
11.4713313212
 20
7.8286685992
 30
0.0
 10
11.4828607753
 20
7.8197110877
 30
0.0
 10
11.4944975558
 20
7.8113217472
 30
0.0
 10
11.5062416004
 20
7.8035432986
 30
0.0
 10
11.5180913105
 20
7.796419693
 30
0.0
 10
11.5300434807
 20
7.789995452
 30
0.0
 10
11.5420929542
 20
7.7843146618
 30
0.0
 10
11.5542325276
 20
7.7794201458
 30
0.0
 10
11.5664527102
 20
7.7753521984
 30
0.0
 10
11.5787414136
 20
7.7721465864
 30
0.0
 10
11.5910842068
 20
7.7698334763
 30
0.0
 10
11.6034645183
 20
7.7684361235
 30
0.0
 10
11.6158640159
 20
7.7679687604
 30
0.0
 10
11.6282635136
 20
7.7684361235
 30
0.0
 10
11.6406438251
 20
7.7698334763
 30
0.0
 10
11.6529866182
 20
7.7721465864
 30
0.0
 10
11.6652753217
 20
7.7753521984
 30
0.0
 10
11.6774955042
 20
7.7794201458
 30
0.0
 10
11.6896350777
 20
7.7843146618
 30
0.0
 10
11.7016845511
 20
7.7899954521
 30
0.0
 10
11.7136367213
 20
7.796419693
 30
0.0
 10
11.7254864314
 20
7.8035432987
 30
0.0
 10
11.7372304761
 20
7.8113217473
 30
0.0
 10
11.7488672565
 20
7.8197110877
 30
0.0
 10
11.7603967106
 20
7.8286685993
 30
0.0
 10
11.7718189491
 20
7.8381542715
 30
0.0
 10
11.7831358791
 20
7.8481285493
 30
0.0
 10
11.794352298
 20
7.8585522469
 30
0.0
 10
11.8017133299
 20
7.8657319666
 30
0.0
 10
11.8053792417
 20
7.8693873184
 30
0.0
  0
SPLINE
  5
2E4
100
AcDbEntity
  8
0
100
AcDbSpline
 62
7
  6
CONTINUOUS
 70
0
 71
3
 72
33
 73
29
 74
0
 42
0.0000001
 43
0.0000001
 44
0.0000000001
 40
0.0
 40
0.0
 40
0.0
 40
0.0
 40
0.0624986917
 40
0.0937494909
 40
0.1250001737
 40
0.1562510231
 40
0.1875020004
 40
0.2499978623
 40
0.3124925232
 40
0.3437436734
 40
0.3749949141
 40
0.4062461403
 40
0.4374973939
 40
0.4687487061
 40
0.5
 40
0.531251294
 40
0.5625026061
 40
0.5937538597
 40
0.625005086
 40
0.6562563266
 40
0.6875074769
 40
0.7500021377
 40
0.8124979996
 40
0.8437489769
 40
0.8749998263
 40
0.9062505091
 40
0.9375013083
 40
1.0
 40
1.0
 40
1.0
 40
1.0
 10
10.6682878866
 20
7.869387318
 30
0.0
 10
10.6830508701
 20
7.8620270777
 30
0.0
 10
10.7053947865
 20
7.8513772413
 30
0.0
 10
10.7355897256
 20
7.8380765919
 30
0.0
 10
10.7584467866
 20
7.8285906241
 30
0.0
 10
10.7815169101
 20
7.8196342271
 30
0.0
 10
10.8125593247
 20
7.8084524889
 30
0.0
 10
10.851897485
 20
7.796004787
 30
0.0
 10
10.8919076605
 20
7.7858947142
 30
0.0
 10
10.924256122
 20
7.7793833908
 30
0.0
 10
10.9486719435
 20
7.7753262683
 30
0.0
 10
10.9732155821
 20
7.7721309379
 30
0.0
 10
10.9978591605
 20
7.7698263146
 30
0.0
 10
11.0225713037
 20
7.7684345924
 30
0.0
 10
11.0473183384
 20
7.7679692002
 30
0.0
 10
11.0720653731
 20
7.7684345924
 30
0.0
 10
11.0967775163
 20
7.7698263146
 30
0.0
 10
11.1214210947
 20
7.7721309379
 30
0.0
 10
11.1459647333
 20
7.7753262683
 30
0.0
 10
11.1703805548
 20
7.7793833909
 30
0.0
 10
11.2027290162
 20
7.7858947142
 30
0.0
 10
11.2427391918
 20
7.7960047871
 30
0.0
 10
11.2820773521
 20
7.8084524889
 30
0.0
 10
11.3131197667
 20
7.8196342271
 30
0.0
 10
11.3361898899
 20
7.8285906247
 30
0.0
 10
11.3590469514
 20
7.8380765914
 30
0.0
 10
11.3892418915
 20
7.8513772387
 30
0.0
 10
11.4115858018
 20
7.8620270875
 30
0.0
 10
11.42634879
 20
7.8693873184
 30
0.0
  0
SPLINE
  5
2E5
100
AcDbEntity
  8
0
100
AcDbSpline
 62
7
  6
CONTINUOUS
 70
0
 71
3
 72
39
 73
35
 74
0
 42
0.0000001
 43
0.0000001
 44
0.0000000001
 40
0.0
 40
0.0
 40
0.0
 40
0.0
 40
0.0352256072
 40
0.0699597889
 40
0.1041780487
 40
0.1378548044
 40
0.1709681311
 40
0.2035010241
 40
0.235441786
 40
0.2667870378
 40
0.297543548
 40
0.3277307504
 40
0.3573831456
 40
0.3865517797
 40
0.4153052029
 40
0.4437290239
 40
0.4719236905
 40
0.5000007758
 40
0.5280778595
 40
0.5562725218
 40
0.5846963358
 40
0.6134497495
 40
0.6426183723
 40
0.6722707546
 40
0.7024579433
 40
0.7332144383
 40
0.7645596743
 40
0.7965004292
 40
0.8290332951
 40
0.8621465797
 40
0.8958234482
 40
0.9300416836
 40
0.9647750615
 40
1.0
 40
1.0
 40
1.0
 40
1.0
 10
10.2892574348
 20
7.8693892433
 30
0.0
 10
10.2929234439
 20
7.8657337945
 30
0.0
 10
10.3002842494
 20
7.8585534193
 30
0.0
 10
10.3115001688
 20
7.848128711
 30
0.0
 10
10.3228173394
 20
7.8381544529
 30
0.0
 10
10.3342397074
 20
7.8286689295
 30
0.0
 10
10.3457690953
 20
7.8197113211
 30
0.0
 10
10.3574058896
 20
7.811321943
 30
0.0
 10
10.3691499604
 20
7.8035434872
 30
0.0
 10
10.3809996784
 20
7.7964198503
 30
0.0
 10
10.3929518618
 20
7.7899955832
 30
0.0
 10
10.4050013502
 20
7.7843147713
 30
0.0
 10
10.4171409375
 20
7.779420232
 30
0.0
 10
10.4293611347
 20
7.7753522626
 30
0.0
 10
10.4416498541
 20
7.7721466327
 30
0.0
 10
10.4539926629
 20
7.7698335042
 30
0.0
 10
10.4663729908
 20
7.7684361353
 30
0.0
 10
10.4787725052
 20
7.7679687611
 30
0.0
 10
10.4911720198
 20
7.7684361119
 30
0.0
 10
10.5035523484
 20
7.7698334576
 30
0.0
 10
10.5158951584
 20
7.7721465634
 30
0.0
 10
10.5281838793
 20
7.7753521713
 30
0.0
 10
10.5404040784
 20
7.7794201195
 30
0.0
 10
10.5525436681
 20
7.7843146381
 30
0.0
 10
10.5645931583
 20
7.789995432
 30
0.0
 10
10.5765453442
 20
7.7964196802
 30
0.0
 10
10.5883950687
 20
7.8035432959
 30
0.0
 10
10.6001391323
 20
7.8113217497
 30
0.0
 10
10.6117759278
 20
7.8197111051
 30
0.0
 10
10.6233053763
 20
7.8286686474
 30
0.0
 10
10.6347276595
 20
7.8381542881
 30
0.0
 10
10.6460446624
 20
7.8481285691
 30
0.0
 10
10.657260962
 20
7.8585525361
 30
0.0
 10
10.6646219441
 20
7.8657324281
 30
0.0
 10
10.6682878866
 20
7.8693878045
 30
0.0
  0
SPLINE
  5
2E6
100
AcDbEntity
  8
0
100
AcDbSpline
 62
9
  6
CONTINUOUS
 70
0
 71
3
 72
21
 73
17
 74
0
 42
0.0000001
 43
0.0000001
 44
0.0000000001
 40
0.0
 40
0.0
 40
0.0
 40
0.0
 40
0.1169630863
 40
0.1780520102
 40
0.2405921918
 40
0.3043425104
 40
0.3690288649
 40
0.4343527039
 40
0.4999993161
 40
0.5656459529
 40
0.6309698652
 40
0.6956563397
 40
0.7594068219
 40
0.8219472066
 40
0.8830363672
 40
1.0
 40
1.0
 40
1.0
 40
1.0
 10
11.6308160609
 20
6.2751209234
 30
0.0
 10
11.6250300379
 20
6.2670956049
 30
0.0
 10
11.6173900185
 20
6.2539967138
 30
0.0
 10
11.6093622753
 20
6.235283227
 30
0.0
 10
11.6042775344
 20
6.2202519356
 30
0.0
 10
11.6002718034
 20
6.2045874055
 30
0.0
 10
11.5973821429
 20
6.1884397332
 30
0.0
 10
11.5956370742
 20
6.1719679398
 30
0.0
 10
11.5950534191
 20
6.1553331256
 30
0.0
 10
11.5956368971
 20
6.138698299
 30
0.0
 10
11.5973817904
 20
6.1222264686
 30
0.0
 10
11.6002712789
 20
6.1060787349
 30
0.0
 10
11.6042768431
 20
6.0904141198
 30
0.0
 10
11.6093614237
 20
6.0753827204
 30
0.0
 10
11.6173889695
 20
6.0566690583
 30
0.0
 10
11.6250288474
 20
6.0435700096
 30
0.0
 10
11.6308147824
 20
6.0355445707
 30
0.0
  0
SPLINE
  5
2E7
100
AcDbEntity
  8
0
100
AcDbSpline
 62
7
  6
CONTINUOUS
 70
0
 71
3
 72
18
 73
14
 74
0
 42
0.0000001
 43
0.0000001
 44
0.0000000001
 40
0.0
 40
0.0
 40
0.0
 40
0.0
 40
0.0287413282
 40
0.0616496541
 40
0.0988807121
 40
0.1405404038
 40
0.1867027259
 40
0.2374204903
 40
0.3526577231
 40
0.4864597236
 40
0.6389274966
 40
0.8101053372
 40
1.0
 40
1.0
 40
1.0
 40
1.0
 10
11.0173183383
 20
5.6560921797
 30
0.0
 10
11.0171491242
 20
5.6563314311
 30
0.0
 10
11.016814323
 20
5.656864647
 30
0.0
 10
11.0163452569
 20
5.6577577908
 30
0.0
 10
11.0158761811
 20
5.658797311
 30
0.0
 10
11.0154071748
 20
5.6599833405
 30
0.0
 10
11.0149382209
 20
5.661316064
 30
0.0
 10
11.0142850634
 20
5.6633781033
 30
0.0
 10
11.0134808309
 20
5.6663279127
 30
0.0
 10
11.0125520837
 20
5.6703155212
 30
0.0
 10
11.0116243436
 20
5.674886945
 30
0.0
 10
11.0106982108
 20
5.6800407256
 30
0.0
 10
11.010112705
 20
5.6836755225
 30
0.0
 10
11.0098183383
 20
5.6855891614
 30
0.0
  0
SPLINE
  5
2E8
100
AcDbEntity
  8
0
100
AcDbSpline
 62
7
  6
CONTINUOUS
 70
0
 71
3
 72
23
 73
19
 74
0
 42
0.0000001
 43
0.0000001
 44
0.0000000001
 40
0.0
 40
0.0
 40
0.0
 40
0.0
 40
0.0639931211
 40
0.1257971068
 40
0.185724481
 40
0.2441980713
 40
0.3016998001
 40
0.3587555504
 40
0.4158988168
 40
0.4736395751
 40
0.5324433029
 40
0.592716715
 40
0.6547998545
 40
0.7189686062
 40
0.7854385096
 40
0.8543686427
 40
0.9258686905
 40
1.0
 40
1.0
 40
1.0
 40
1.0
 10
10.6531063078
 20
5.9503318604
 30
0.0
 10
10.6501180764
 20
5.9503318604
 30
0.0
 10
10.6442396694
 20
5.9505890663
 30
0.0
 10
10.6356377397
 20
5.9517958063
 30
0.0
 10
10.6274512017
 20
5.9538081536
 30
0.0
 10
10.619712762
 20
5.9566095782
 30
0.0
 10
10.6124455296
 20
5.9601780233
 30
0.0
 10
10.6056643181
 20
5.964485331
 30
0.0
 10
10.59937509
 20
5.9695000546
 30
0.0
 10
10.5935759189
 20
5.975189398
 30
0.0
 10
10.5882577649
 20
5.981520698
 30
0.0
 10
10.5834062978
 20
5.9884631027
 30
0.0
 10
10.5790036362
 20
5.9959882814
 30
0.0
 10
10.5750293988
 20
6.0040703446
 30
0.0
 10
10.5714620533
 20
6.0126857734
 30
0.0
 10
10.5682794672
 20
6.0218128847
 30
0.0
 10
10.5654595573
 20
6.0314307887
 30
0.0
 10
10.5638362511
 20
6.0380369533
 30
0.0
 10
10.5630744805
 20
6.0414137411
 30
0.0
  0
SPLINE
  5
2E9
100
AcDbEntity
  8
0
100
AcDbSpline
 62
7
  6
CONTINUOUS
 70
0
 71
3
 72
23
 73
19
 74
0
 42
0.0000001
 43
0.0000001
 44
0.0000000001
 40
0.0
 40
0.0
 40
0.0
 40
0.0
 40
0.0741284197
 40
0.1456258783
 40
0.2145537837
 40
0.2810218747
 40
0.345189271
 40
0.4072715408
 40
0.4675445925
 40
0.526348468
 40
0.5840898601
 40
0.6412342017
 40
0.6982913902
 40
0.7557948165
 40
0.8142702459
 40
0.8741994982
 40
0.9360052429
 40
1.0
 40
1.0
 40
1.0
 40
1.0
 10
10.5630786657
 20
6.2692685291
 30
0.0
 10
10.5638405399
 20
6.2726446737
 30
0.0
 10
10.5654640435
 20
6.2792495765
 30
0.0
 10
10.5682842118
 20
6.2888656134
 30
0.0
 10
10.5714670093
 20
6.297990935
 30
0.0
 10
10.5750345117
 20
6.3066046575
 30
0.0
 10
10.5790088438
 20
6.314685103
 30
0.0
 10
10.5834115288
 20
6.3222087579
 30
0.0
 10
10.5882629391
 20
6.3291497386
 30
0.0
 10
10.5935809466
 20
6.3354797213
 30
0.0
 10
10.5993798716
 20
6.3411678635
 30
0.0
 10
10.6056687466
 20
6.3461815118
 30
0.0
 10
10.6124494916
 20
6.3504878825
 30
0.0
 10
10.6197161414
 20
6.3540555419
 30
0.0
 10
10.6274538841
 20
6.3568563443
 30
0.0
 10
10.6356396152
 20
6.3588682404
 30
0.0
 10
10.6442406382
 20
6.3600747114
 30
0.0
 10
10.6501184054
 20
6.3603318604
 30
0.0
 10
10.6531063078
 20
6.3603318604
 30
0.0
  0
SPLINE
  5
2EA
100
AcDbEntity
  8
0
100
AcDbSpline
 62
9
  6
CONTINUOUS
 70
0
 71
3
 72
36
 73
32
 74
0
 42
0.0000001
 43
0.0000001
 44
0.0000000001
 40
0.0
 40
0.0
 40
0.0
 40
0.0
 40
0.0750093047
 40
0.1122486857
 40
0.1491599211
 40
0.2215623259
 40
0.2569037712
 40
0.2915568503
 40
0.3254579961
 40
0.3585578567
 40
0.3908232436
 40
0.4222390497
 40
0.4528100641
 40
0.4825624828
 40
0.5115450415
 40
0.5398295213
 40
0.5675103722
 40
0.5947031913
 40
0.6215417892
 40
0.648173885
 40
0.6747555943
 40
0.7014451183
 40
0.7283962145
 40
0.7557521074
 40
0.7836403898
 40
0.8121692284
 40
0.8414249672
 40
0.8714709975
 40
0.9023477202
 40
0.934073355
 40
1.0
 40
1.0
 40
1.0
 40
1.0
 10
10.8037284852
 20
6.1553318604
 30
0.0
 10
10.8037284852
 20
6.1457342432
 30
0.0
 10
10.8029458836
 20
6.1313551514
 30
0.0
 10
10.800332106
 20
6.112442025
 30
0.0
 10
10.796726899
 20
6.094032277
 30
0.0
 10
10.7916237656
 20
6.0761875648
 30
0.0
 10
10.7850304328
 20
6.0591923691
 30
0.0
 10
10.7794481268
 20
6.0471169789
 30
0.0
 10
10.7732230596
 20
6.0356855031
 30
0.0
 10
10.7663915168
 20
6.0249653239
 30
0.0
 10
10.7589936021
 20
6.0150205141
 30
0.0
 10
10.7510726086
 20
6.0059104655
 30
0.0
 10
10.742674921
 20
5.9976898324
 30
0.0
 10
10.7338497109
 20
5.9904082574
 30
0.0
 10
10.7246487744
 20
5.9841101516
 30
0.0
 10
10.7151263714
 20
5.9788344485
 30
0.0
 10
10.7053390881
 20
5.9746143196
 30
0.0
 10
10.695345702
 20
5.9714767307
 30
0.0
 10
10.6852068782
 20
5.969442114
 30
0.0
 10
10.6749847853
 20
5.9685239472
 30
0.0
 10
10.6647425329
 20
5.9687283926
 30
0.0
 10
10.65454348
 20
5.9700541247
 30
0.0
 10
10.644450482
 20
5.9724922705
 30
0.0
 10
10.6345252131
 20
5.9760267271
 30
0.0
 10
10.6248276707
 20
5.9806346059
 30
0.0
 10
10.6154158578
 20
5.9862866238
 30
0.0
 10
10.6063455146
 20
5.9929476015
 30
0.0
 10
10.5976702136
 20
6.0005763484
 30
0.0
 10
10.58944012
 20
6.009127435
 30
0.0
 10
10.5789955235
 20
6.021846333
 30
0.0
 10
10.5721771138
 20
6.0323838276
 30
0.0
 10
10.5680694895
 20
6.0397516338
 30
0.0
  0
SPLINE
  5
2EB
100
AcDbEntity
  8
0
100
AcDbSpline
 62
9
  6
CONTINUOUS
 70
0
 71
3
 72
13
 73
9
 74
0
 42
0.0000001
 43
0.0000001
 44
0.0000000001
 40
0.0
 40
0.0
 40
0.0
 40
0.0
 40
0.2601502308
 40
0.3889375581
 40
0.5161293513
 40
0.6412483121
 40
0.7638647985
 40
1.0
 40
1.0
 40
1.0
 40
1.0
 10
10.82598969
 20
6.1553318604
 30
0.0
 10
10.82598969
 20
6.1433788186
 30
0.0
 10
10.8248348306
 20
6.1254784627
 30
0.0
 10
10.8209756838
 20
6.1020677893
 30
0.0
 10
10.8169697474
 20
6.0850074662
 30
0.0
 10
10.8118755539
 20
6.0685346072
 30
0.0
 10
10.8037966222
 20
6.0478105259
 30
0.0
 10
10.7961039739
 20
6.0331301067
 30
0.0
 10
10.7902657361
 20
6.0239851919
 30
0.0
  0
SPLINE
  5
2EC
100
AcDbEntity
  8
0
100
AcDbSpline
 62
9
  6
CONTINUOUS
 70
0
 71
3
 72
36
 73
32
 74
0
 42
0.0000001
 43
0.0000001
 44
0.0000000001
 40
0.0
 40
0.0
 40
0.0
 40
0.0
 40
0.0659211482
 40
0.0976440711
 40
0.1285182018
 40
0.1585618304
 40
0.1878154236
 40
0.2163424312
 40
0.2442292465
 40
0.2715840731
 40
0.2985345247
 40
0.3252238288
 40
0.351805727
 40
0.3784383871
 40
0.4052778763
 40
0.4324718542
 40
0.4601540664
 40
0.4884400439
 40
0.5174241739
 40
0.5471781805
 40
0.5777507508
 40
0.6091680413
 40
0.6414348114
 40
0.6745359338
 40
0.7084382079
 40
0.7430922777
 40
0.7784345787
 40
0.8508383372
 40
0.8877500939
 40
0.9249899215
 40
1.0
 40
1.0
 40
1.0
 40
1.0
 10
10.5680938317
 20
6.270955736
 30
0.0
 10
10.5722024995
 20
6.2783208987
 30
0.0
 10
10.5790222351
 20
6.2888543425
 30
0.0
 10
10.5894680618
 20
6.3015676725
 30
0.0
 10
10.5976987781
 20
6.3101146491
 30
0.0
 10
10.6063744263
 20
6.3177393427
 30
0.0
 10
10.6154448506
 20
6.324396358
 30
0.0
 10
10.6248564905
 20
6.3300445361
 30
0.0
 10
10.6345536184
 20
6.3346487293
 30
0.0
 10
10.6444782459
 20
6.3381796837
 30
0.0
 10
10.6545703923
 20
6.3406145385
 30
0.0
 10
10.6647684019
 20
6.3419372162
 30
0.0
 10
10.6750094405
 20
6.3421388656
 30
0.0
 10
10.6852301722
 20
6.3412181801
 30
0.0
 10
10.695367512
 20
6.3391813377
 30
0.0
 10
10.7053593171
 20
6.3360418268
 30
0.0
 10
10.7151449483
 20
6.3318200864
 30
0.0
 10
10.7246656534
 20
6.3265430842
 30
0.0
 10
10.7338648706
 20
6.3202439901
 30
0.0
 10
10.7426883638
 20
6.3129617334
 30
0.0
 10
10.7510843595
 20
6.3047407177
 30
0.0
 10
10.7590037077
 20
6.2956305752
 30
0.0
 10
10.7664000444
 20
6.2856859473
 30
0.0
 10
10.7732300955
 20
6.2749662099
 30
0.0
 10
10.7794537757
 20
6.2635354176
 30
0.0
 10
10.785034816
 20
6.2514609324
 30
0.0
 10
10.7916266197
 20
6.2344672508
 30
0.0
 10
10.7967285611
 20
6.2166243591
 30
0.0
 10
10.8003329182
 20
6.1982166304
 30
0.0
 10
10.8029460705
 20
6.1793057018
 30
0.0
 10
10.8037284852
 20
6.1649283281
 30
0.0
 10
10.8037284852
 20
6.1553318604
 30
0.0
  0
SPLINE
  5
2ED
100
AcDbEntity
  8
0
100
AcDbSpline
 62
7
  6
CONTINUOUS
 70
0
 71
3
 72
24
 73
20
 74
0
 42
0.0000001
 43
0.0000001
 44
0.0000000001
 40
0.0
 40
0.0
 40
0.0
 40
0.0
 40
0.0255923064
 40
0.0513485391
 40
0.0773174087
 40
0.1035448306
 40
0.1569172038
 40
0.2117803013
 40
0.2683528542
 40
0.326779263
 40
0.387130972
 40
0.4494107402
 40
0.5135587621
 40
0.5794597943
 40
0.6469503978
 40
0.7158264688
 40
0.7858504538
 40
0.8567579386
 40
1.0
 40
1.0
 40
1.0
 40
1.0
 10
10.4115707778
 20
6.3435236686
 30
0.0
 10
10.413617785
 20
6.3432403646
 30
0.0
 10
10.4177077302
 20
6.342538923
 30
0.0
 10
10.4237849795
 20
6.3410919581
 30
0.0
 10
10.429808665
 20
6.3392508308
 30
0.0
 10
10.4377956262
 20
6.3362589874
 30
0.0
 10
10.4475988803
 20
6.3315273921
 30
0.0
 10
10.4588629801
 20
6.3243905348
 30
0.0
 10
10.4696072676
 20
6.3158239828
 30
0.0
 10
10.4797414951
 20
6.3059030706
 30
0.0
 10
10.4891826016
 20
6.2947130867
 30
0.0
 10
10.4978528072
 20
6.2823493472
 30
0.0
 10
10.5056807007
 20
6.2689164397
 30
0.0
 10
10.5126016127
 20
6.2545276647
 30
0.0
 10
10.5185582132
 20
6.2393040303
 30
0.0
 10
10.5235009903
 20
6.2233740507
 30
0.0
 10
10.5273889524
 20
6.2068700901
 30
0.0
 10
10.531134449
 20
6.1842196324
 30
0.0
 10
10.5322553169
 20
6.1668983208
 30
0.0
 10
10.5322553169
 20
6.1553318604
 30
0.0
  0
SPLINE
  5
2EE
100
AcDbEntity
  8
0
100
AcDbSpline
 62
7
  6
CONTINUOUS
 70
0
 71
3
 72
23
 73
19
 74
0
 42
0.0000001
 43
0.0000001
 44
0.0000000001
 40
0.0
 40
0.0
 40
0.0
 40
0.0
 40
0.063995005
 40
0.1258011077
 40
0.1857306634
 40
0.2442064226
 40
0.3017101502
 40
0.3587675888
 40
0.415912118
 40
0.4736536244
 40
0.5324575201
 40
0.5927305045
 40
0.6548126287
 40
0.7189797843
 40
0.7854475559
 40
0.8543750831
 40
0.9258720896
 40
1.0
 40
1.0
 40
1.0
 40
1.0
 10
11.4415303688
 20
6.3603318604
 30
0.0
 10
11.4445182121
 20
6.3603318604
 30
0.0
 10
11.4503958683
 20
6.3600747203
 30
0.0
 10
11.4589967333
 20
6.3588682987
 30
0.0
 10
11.4671823249
 20
6.3568564789
 30
0.0
 10
11.4749199461
 20
6.3540557861
 30
0.0
 10
11.4821864948
 20
6.3504882631
 30
0.0
 10
11.4889671587
 20
6.3461820556
 30
0.0
 10
11.4952559722
 20
6.3411685943
 30
0.0
 10
11.5010548542
 20
6.3354806615
 30
0.0
 10
11.5063728361
 20
6.3291509087
 30
0.0
 10
11.5112242361
 20
6.3222101761
 30
0.0
 10
11.5156269252
 20
6.314686787
 30
0.0
 10
11.5196012738
 20
6.3066066236
 30
0.0
 10
11.5231688034
 20
6.2979931983
 30
0.0
 10
11.5263516379
 20
6.2888681883
 30
0.0
 10
11.5291718513
 20
6.2792524767
 30
0.0
 10
11.5307953892
 20
6.2726477941
 30
0.0
 10
11.5315572813
 20
6.2692717618
 30
0.0
  0
SPLINE
  5
2EF
100
AcDbEntity
  8
0
100
AcDbSpline
 62
7
  6
CONTINUOUS
 70
0
 71
3
 72
23
 73
19
 74
0
 42
0.0000001
 43
0.0000001
 44
0.0000000001
 40
0.0
 40
0.0
 40
0.0
 40
0.0
 40
0.074113211
 40
0.1455970488
 40
0.2145132499
 40
0.2809718063
 40
0.345132071
 40
0.4072097764
 40
0.4674809302
 40
0.5262855795
 40
0.5840303112
 40
0.6411803089
 40
0.6982450585
 40
0.7557574189
 40
0.8142425401
 40
0.8741815813
 40
0.9359967666
 40
1.0
 40
1.0
 40
1.0
 40
1.0
 10
11.5315359854
 20
6.0412976723
 30
0.0
 10
11.5307735671
 20
6.0379249092
 30
0.0
 10
11.5291490263
 20
6.0313266408
 30
0.0
 10
11.5263275005
 20
6.0217204202
 30
0.0
 10
11.5231435923
 20
6.0126045077
 30
0.0
 10
11.5195752662
 20
6.0039997557
 30
0.0
 10
11.5156004378
 20
5.9959278156
 30
0.0
 10
11.5111976311
 20
5.988412172
 30
0.0
 10
11.5063465216
 20
5.9814786778
 30
0.0
 10
11.5010292862
 20
5.9751556206
 30
0.0
 10
11.4952316564
 20
5.9694737938
 30
0.0
 10
11.48894464
 20
5.9644657977
 30
0.0
 10
11.4821663488
 20
5.9601643522
 30
0.0
 10
11.474902763
 20
5.9566008225
 30
0.0
 10
11.4671686875
 20
5.9538032946
 30
0.0
 10
11.4589871965
 20
5.9517937622
 30
0.0
 10
11.4503909404
 20
5.9505887145
 30
0.0
 10
11.4445165352
 20
5.9503318604
 30
0.0
 10
11.4415303688
 20
5.9503318604
 30
0.0
  0
SPLINE
  5
2F0
100
AcDbEntity
  8
0
100
AcDbSpline
 62
7
  6
CONTINUOUS
 70
0
 71
3
 72
24
 73
20
 74
0
 42
0.0000001
 43
0.0000001
 44
0.0000000001
 40
0.0
 40
0.0
 40
0.0
 40
0.0
 40
0.0255924251
 40
0.0513483167
 40
0.07731645
 40
0.1035428051
 40
0.1569122996
 40
0.2117719902
 40
0.2683410803
 40
0.3267643658
 40
0.3871135967
 40
0.4493917464
 40
0.5135391351
 40
0.5794405667
 40
0.646932579
 40
0.715810988
 40
0.7858381086
 40
0.8567493642
 40
1.0
 40
1.0
 40
1.0
 40
1.0
 10
10.4115045249
 20
5.9671309064
 30
0.0
 10
10.4135523029
 20
5.9674128621
 30
0.0
 10
10.4176438398
 20
5.9681116961
 30
0.0
 10
10.4237236374
 20
5.9695550697
 30
0.0
 10
10.4297499656
 20
5.9713929093
 30
0.0
 10
10.4377405397
 20
5.9743807412
 30
0.0
 10
10.4475485348
 20
5.9791081166
 30
0.0
 10
10.4588184605
 20
5.9862412296
 30
0.0
 10
10.4695685869
 20
5.9948052834
 30
0.0
 10
10.4797085549
 20
6.0047249079
 30
0.0
 10
10.4891552013
 20
6.0159147629
 30
0.0
 10
10.4978306496
 20
6.0282794659
 30
0.0
 10
10.505663399
 20
6.0417143495
 30
0.0
 10
10.5125886979
 20
6.0561060195
 30
0.0
 10
10.5185491425
 20
6.0713333619
 30
0.0
 10
10.5234951561
 20
6.0872677449
 30
0.0
 10
10.5273856937
 20
6.1037766793
 30
0.0
 10
10.5311336997
 20
6.1264344132
 30
0.0
 10
10.5322553169
 20
6.1437615191
 30
0.0
 10
10.5322553169
 20
6.1553318604
 30
0.0
  0
SPLINE
  5
2F1
100
AcDbEntity
  8
0
100
AcDbSpline
 62
9
  6
CONTINUOUS
 70
0
 71
3
 72
22
 73
18
 74
0
 42
0.0000001
 43
0.0000001
 44
0.0000000001
 40
0.0
 40
0.0
 40
0.0
 40
0.0
 40
0.0514738946
 40
0.1040085233
 40
0.1578759377
 40
0.21328972
 40
0.270401189
 40
0.3292993365
 40
0.3900134781
 40
0.4525176187
 40
0.5167357758
 40
0.5825477544
 40
0.6497951908
 40
0.7182872071
 40
0.7878067504
 40
0.858114092
 40
1.0
 40
1.0
 40
1.0
 40
1.0
 10
10.4207753317
 20
6.3334734036
 30
0.0
 10
10.4244675782
 20
6.3325519807
 30
0.0
 10
10.4318223112
 20
6.3302365862
 30
0.0
 10
10.4424969305
 20
6.3254578105
 30
0.0
 10
10.4528300525
 20
6.3193828621
 30
0.0
 10
10.4627416093
 20
6.3120611826
 30
0.0
 10
10.4721582061
 20
6.3035503767
 30
0.0
 10
10.4810097539
 20
6.2939165217
 30
0.0
 10
10.4892306989
 20
6.2832335266
 30
0.0
 10
10.4967600708
 20
6.2715827891
 30
0.0
 10
10.5035419401
 20
6.259052705
 30
0.0
 10
10.509525813
 20
6.2457381672
 30
0.0
 10
10.5146670213
 20
6.2317397876
 30
0.0
 10
10.518927108
 20
6.2171637469
 30
0.0
 10
10.5222742174
 20
6.2021189418
 30
0.0
 10
10.525494991
 20
6.1815327803
 30
0.0
 10
10.5264590485
 20
6.1658215363
 30
0.0
 10
10.5264590485
 20
6.1553318604
 30
0.0
  0
SPLINE
  5
2F2
100
AcDbEntity
  8
0
100
AcDbSpline
 62
9
  6
CONTINUOUS
 70
0
 71
3
 72
23
 73
19
 74
0
 42
0.0000001
 43
0.0000001
 44
0.0000000001
 40
0.0
 40
0.0
 40
0.0
 40
0.0
 40
0.1169601202
 40
0.1473153348
 40
0.1780601718
 40
0.2405988799
 40
0.3043477221
 40
0.3690325876
 40
0.4343549186
 40
0.5
 40
0.5656450814
 40
0.6309674124
 40
0.6956522779
 40
0.7594011201
 40
0.8219398282
 40
0.8526846652
 40
0.8830398798
 40
1.0
 40
1.0
 40
1.0
 40
1.0
 10
11.6604032398
 20
6.3161586801
 30
0.0
 10
11.6526348857
 20
6.3053839588
 30
0.0
 10
11.6441444411
 20
6.2908267213
 30
0.0
 10
11.6357799164
 20
6.2724171883
 30
0.0
 10
11.6304930426
 20
6.2594040345
 30
0.0
 10
11.6247726621
 20
6.2424921202
 30
0.0
 10
11.6193942971
 20
6.2214605753
 30
0.0
 10
11.6155147761
 20
6.1997808033
 30
0.0
 10
11.6131719068
 20
6.1776657473
 30
0.0
 10
11.6123884064
 20
6.1553318604
 30
0.0
 10
11.6131719068
 20
6.1329979735
 30
0.0
 10
11.6155147761
 20
6.1108829175
 30
0.0
 10
11.6193942971
 20
6.0892031455
 30
0.0
 10
11.6247726621
 20
6.0681716006
 30
0.0
 10
11.6304930426
 20
6.0512596863
 30
0.0
 10
11.6357799164
 20
6.0382465325
 30
0.0
 10
11.6441444411
 20
6.0198369995
 30
0.0
 10
11.6526348857
 20
6.005279762
 30
0.0
 10
11.6604032398
 20
5.9945050407
 30
0.0
  0
SPLINE
  5
2F3
100
AcDbEntity
  8
0
100
AcDbSpline
 62
9
  6
CONTINUOUS
 70
0
 71
3
 72
22
 73
18
 74
0
 42
0.0000001
 43
0.0000001
 44
0.0000000001
 40
0.0
 40
0.0
 40
0.0
 40
0.0
 40
0.051472458
 40
0.1040046414
 40
0.157869036
 40
0.213279626
 40
0.2703880781
 40
0.3292836648
 40
0.3899959109
 40
0.4524989604
 40
0.5167169047
 40
0.5825295635
 40
0.6497785372
 40
0.7182728693
 40
0.7877953912
 40
0.8581062364
 40
1.0
 40
1.0
 40
1.0
 40
1.0
 10
10.4207205129
 20
5.9771766542
 30
0.0
 10
10.4244141452
 20
5.9780960798
 30
0.0
 10
10.4317718137
 20
5.9804077852
 30
0.0
 10
10.4424511477
 20
5.9851821153
 30
0.0
 10
10.4527891148
 20
5.9912536196
 30
0.0
 10
10.4627055555
 20
5.9985728487
 30
0.0
 10
10.4721269924
 20
6.0070821748
 30
0.0
 10
10.4809832566
 20
6.0167154874
 30
0.0
 10
10.4892087196
 20
6.0273988327
 30
0.0
 10
10.4967423409
 20
6.0390507584
 30
0.0
 10
10.5035281257
 20
6.0515828042
 30
0.0
 10
10.5095155205
 20
6.0649000031
 30
0.0
 10
10.5146598036
 20
6.0789016608
 30
0.0
 10
10.5189224716
 20
6.0934815057
 30
0.0
 10
10.5222716302
 20
6.1085305455
 30
0.0
 10
10.5254943959
 20
6.1291228392
 30
0.0
 10
10.5264590485
 20
6.1448389357
 30
0.0
 10
10.5264590485
 20
6.1553318604
 30
0.0
  0
SPLINE
  5
2F4
100
AcDbEntity
  8
0
100
AcDbSpline
 62
7
  6
CONTINUOUS
 70
0
 71
3
 72
9
 73
5
 74
0
 42
0.0000001
 43
0.0000001
 44
0.0000000001
 40
0.0
 40
0.0
 40
0.0
 40
0.0
 40
0.4938775584
 40
1.0
 40
1.0
 40
1.0
 40
1.0
 10
11.4144258924
 20
5.9536379739
 30
0.0
 10
11.4192095154
 20
5.9548678958
 30
0.0
 10
11.4287330202
 20
5.9580313399
 30
0.0
 10
11.4377559488
 20
5.9624141095
 30
0.0
 10
11.4421653988
 20
5.9648995087
 30
0.0
  0
SPLINE
  5
2F5
100
AcDbEntity
  8
0
100
AcDbSpline
 62
7
  6
CONTINUOUS
 70
0
 71
3
 72
9
 73
5
 74
0
 42
0.0000001
 43
0.0000001
 44
0.0000000001
 40
0.0
 40
0.0
 40
0.0
 40
0.0
 40
0.5061174633
 40
1.0
 40
1.0
 40
1.0
 40
1.0
 10
11.4421481053
 20
6.3457739578
 30
0.0
 10
11.4377412145
 20
6.3482569868
 30
0.0
 10
11.4287237259
 20
6.3526357102
 30
0.0
 10
11.4192064108
 20
6.3557966229
 30
0.0
 10
11.4144258994
 20
6.3570257451
 30
0.0
  0
SPLINE
  5
2F6
100
AcDbEntity
  8
0
100
AcDbSpline
 62
7
  6
CONTINUOUS
 70
0
 71
3
 72
9
 73
5
 74
0
 42
0.0000001
 43
0.0000001
 44
0.0000000001
 40
0.0
 40
0.0
 40
0.0
 40
0.0
 40
0.4938793311
 40
1.0
 40
1.0
 40
1.0
 40
1.0
 10
10.6802108672
 20
5.9536379526
 30
0.0
 10
10.6754283456
 20
5.9548675872
 30
0.0
 10
10.6659070312
 20
5.9580301268
 30
0.0
 10
10.6568860266
 20
5.962411456
 30
0.0
 10
10.6524774816
 20
5.9648960122
 30
0.0
  0
SPLINE
  5
2F7
100
AcDbEntity
  8
0
100
AcDbSpline
 62
7
  6
CONTINUOUS
 70
0
 71
3
 72
9
 73
5
 74
0
 42
0.0000001
 43
0.0000001
 44
0.0000000001
 40
0.0
 40
0.0
 40
0.0
 40
0.0
 40
0.5061191915
 40
1.0
 40
1.0
 40
1.0
 40
1.0
 10
10.6524826281
 20
6.345770609
 30
0.0
 10
10.6568904156
 20
6.3482544621
 30
0.0
 10
10.6659098099
 20
6.3526345907
 30
0.0
 10
10.6754292916
 20
6.355796378
 30
0.0
 10
10.6802108919
 20
6.3570257746
 30
0.0
  0
ENDSEC
  0
SECTION
  2
OBJECTS
  0
DICTIONARY
  5
C
100
AcDbDictionary
280
0
281
1
  3
ACAD_GROUP
350
D
  3
ACAD_MLINESTYLE
350
17
  3
ACAD_LAYOUT
350
1A
  3
ACAD_PLOTSETTINGS
350
19
  3
ACAD_PLOTSTYLENAME
350
E
  0
DICTIONARY
  5
D
102
{ACAD_REACTORS
330
C
102
}
100
AcDbDictionary
280
0
281
1
  0
ACDBDICTIONARYWDFLT
  5
E
102
{ACAD_REACTORS
330
C
102
}
100
AcDbDictionary
281
1
  3
Normal
350
F
100
AcDbDictionaryWithDefault
340
F
  0
DICTIONARY
  5
17
102
{ACAD_REACTORS
330
C
102
}
100
AcDbDictionary
280
0
281
1
  3
Standard
350
18
  0
DICTIONARY
  5
19
102
{ACAD_REACTORS
330
C
102
}
100
AcDbDictionary
281
1
  0
DICTIONARY
  5
1A
102
{ACAD_REACTORS
330
C
102
}
100
AcDbDictionary
281
1
  3
Model
350
2F8
  3
Layout1
350
2F9
  0
ACDBPLACEHOLDER
  5
F
102
{ACAD_REACTORS
330
E
102
}
  0
MLINESTYLE
  5
18
102
{ACAD_REACTORS
330
17
102
}
100
AcDbMlineStyle
  2
STANDARD
 70
0
  3

 62
256
 51
90.0
 52
90.0
 71
2
 49
0.5
 62
256
  6
BYLAYER
 49
-0.5
 62
256
  6
BYLAYER
  0
LAYOUT
  5
2F8
102
{ACAD_REACTORS
330
1A
102
}
100
AcDbPlotSettings
  1

  2
none_device
  4
ANSI_C_(22.00_x_17.00_Inches)
  6

 40
0.0
 41
0.0
 42
0.0
 43
0.0
 44
558.8
 45
431.8
 46
0.0
 47
0.0
 48
0.0
 49
0.0
140
0.0
141
0.0
142
1.0
143
1.0
 70
1024
 72
0
 73
0
 74
0
  7

 75
0
147
1.0
148
0.0
149
0.0
100
AcDbLayout
  1
Model
 70
0
 71
0
 10
0.0
 20
0.0
 11
22.0
 21
17.0
 12
0.0
 22
0.0
 32
0.0
 14
0.0
 24
0.0
 34
0.0
 15
0.0
 25
0.0
 35
0.0
146
0.0
 13
0.0
 23
0.0
 33
0.0
 16
1.0
 26
0.0
 36
0.0
 17
0.0
 27
1.0
 37
0.0
 76
0
330
205
345
0
346
0
  0
LAYOUT
  5
2F9
102
{ACAD_REACTORS
330
1A
102
}
100
AcDbPlotSettings
  1

  2
none_device
  4
ANSI_C_(22.00_x_17.00_Inches)
  6

 40
0.0
 41
0.0
 42
0.0
 43
0.0
 44
558.8
 45
431.8
 46
0.0
 47
0.0
 48
0.0
 49
0.0
140
0.0
141
0.0
142
1.0
143
1.0
 70
0
 72
0
 73
0
 74
0
  7

 75
0
147
1.0
148
0.0
149
0.0
100
AcDbLayout
  1
Layout1
 70
0
 71
1
 10
0.0
 20
0.0
 11
22.0
 21
17.0
 12
0.0
 22
0.0
 32
0.0
 14
0.0
 24
0.0
 34
0.0
 15
0.0
 25
0.0
 35
0.0
146
0.0
 13
0.0
 23
0.0
 33
0.0
 16
1.0
 26
0.0
 36
0.0
 17
0.0
 27
1.0
 37
0.0
 76
0
330
206
345
0
346
0
  0
ENDSEC
  0
EOF
