999
DXF file: E:\BT Custom\CADOUTPUT\_TOP.dxf
999
Pro/ENGINEER 2018400 by Parametric Technology Corporation
  0
SECTION
  2
HEADER
  9
$ACADVER
  1
AC1018
  9
$DWGCODEPAGE
  3
ANSI_1252
  9
$EXTMAX
 10
22.0
 20
17.0
 30
0.0
  9
$EXTMIN
 10
0.0
 20
0.0
 30
0.0
  9
$LIMMIN
 10
0.0
 20
0.0
  9
$LIMMAX
 10
22.0
 20
17.0
  9
$VIEWCTR
 10
11.0
 20
8.5
  9
$VIEWSIZE
 40
17.0
  9
$CLAYER
  8
0
  9
$LTSCALE
 40
1.21
  9
$CELTYPE
  6
BYLAYER
  9
$DIMSCALE
 40
1.0
  9
$DIMASZ
 40
0.1
  9
$DIMEXO
 40
0.0625
  9
$DIMDLI
 40
0.836
  9
$DIMEXE
 40
0.125
  9
$DIMCEN
 40
0.198
  9
$DIMLFAC
 40
1.0
  9
$DIMBLK
  1
_FILLED
  9
$DIMALT
 70
1
  9
$DIMALTD
 70
2
  9
$DIMALTTD
 70
2
  9
$DIMALTF
 40
25.4
  9
$DIMTXT
 40
0.08
  9
$DIMTOL
 70
1
  9
$DIMLIM
 70
0
  9
$DIMTFAC
 40
1.0
  9
$DIMTP
 40
0.001
  9
$DIMTM
 40
0.001
  9
$DIMGAP
 40
0.09
  9
$DIMDSEP
 70
46
  9
$AUNITS
 70
0
  9
$PDMODE
 70
3
  9
$PDSIZE
 40
0.06
  9
$HANDSEED
  5
4BF
  9
$TILEMODE
 70
1
  9
$MEASUREMENT
 70
0
  9
$INSUNITS
 70
1
  0
ENDSEC
  0
SECTION
  2
CLASSES
  0
CLASS
  1
ACDBDICTIONARYWDFLT
  2
AcDbDictionaryWithDefault
  3
AutoCAD 2000
 90
0
 91
1
280
0
281
0
  0
CLASS
  1
ACDBPLACEHOLDER
  2
AcDbPlaceHolder
  3
AutoCAD 2000
 90
0
 91
1
280
0
281
0
  0
CLASS
  1
LAYOUT
  2
AcDbLayout
  3
AutoCAD 2000
 90
0
 91
0
280
0
281
0
  0
ENDSEC
  0
SECTION
  2
TABLES
  0
TABLE
  2
VPORT
  5
8
100
AcDbSymbolTable
 70
2
  0
VPORT
  5
1F4
100
AcDbSymbolTableRecord
100
AcDbViewportTableRecord
  2
*ACTIVE
 70
0
 10
0.0
 20
0.0
 11
1.0
 21
1.0
 12
11.0
 22
8.5
 13
0.0
 23
0.0
 14
1.0
 24
1.0
 15
0.0
 25
0.0
 16
0.0
 26
0.0
 36
1.0
 17
0.0
 27
0.0
 37
0.0
 40
17.0
 41
1.2941176471
 42
50.0
 43
0.0
 44
0.0
 50
0.0
 51
0.0
 71
0
 72
100
 73
1
 74
1
 75
0
 76
0
 77
0
 78
0
  0
ENDTAB
  0
TABLE
  2
LTYPE
  5
5
100
AcDbSymbolTable
 70
6
  0
LTYPE
  5
14
100
AcDbSymbolTableRecord
100
AcDbLinetypeTableRecord
  2
BYBLOCK
 70
0
  3

 72
65
 73
0
 40
0.0
  0
LTYPE
  5
15
100
AcDbSymbolTableRecord
100
AcDbLinetypeTableRecord
  2
BYLAYER
 70
0
  3

 72
65
 73
0
 40
0.0
  0
LTYPE
  5
16
100
AcDbSymbolTableRecord
100
AcDbLinetypeTableRecord
  2
CONTINUOUS
 70
64
  3
Solid line
 72
65
 73
0
 40
0.0
  0
LTYPE
  5
1F5
100
AcDbSymbolTableRecord
100
AcDbLinetypeTableRecord
  2
CENTER
 70
64
  3
____ _ ____ _ ____ _ ____ _ ____ _ ____ _ ____
 72
65
 73
4
 40
0.6
 49
0.375
 74
0
 49
-0.075
 74
0
 49
0.075
 74
0
 49
-0.075
 74
0
  0
LTYPE
  5
1F6
100
AcDbSymbolTableRecord
100
AcDbLinetypeTableRecord
  2
HIDDEN
 70
64
  3
- - - - - - - - - - - - - - - - - - - -
 72
65
 73
2
 40
0.2
 49
0.1
 74
0
 49
-0.1
 74
0
  0
LTYPE
  5
1F7
100
AcDbSymbolTableRecord
100
AcDbLinetypeTableRecord
  2
PHANTOM
 70
64
  3
_____ _ _ _____ _ _ _____ _ _ _____
 72
65
 73
6
 40
0.8
 49
0.45
 74
0
 49
-0.05
 74
0
 49
0.1
 74
0
 49
-0.05
 74
0
 49
0.1
 74
0
 49
-0.05
 74
0
  0
LTYPE
  5
1F8
100
AcDbSymbolTableRecord
100
AcDbLinetypeTableRecord
  2
DOT
 70
64
  3
. . . . . . . . . . . . . . . . . . . .
 72
65
 73
2
 40
0.2
 49
0.1
 74
0
 49
-0.1
 74
0
  0
LTYPE
  5
1F9
100
AcDbSymbolTableRecord
100
AcDbLinetypeTableRecord
  2
DASHED
 70
64
  3
- - - - - - - - - - - - - - - - - - - -
 72
65
 73
2
 40
0.2
 49
0.1
 74
0
 49
-0.1
 74
0
  0
ENDTAB
  0
TABLE
  2
LAYER
  5
2
100
AcDbSymbolTable
 70
36
  0
LAYER
  5
10
100
AcDbSymbolTableRecord
100
AcDbLayerTableRecord
  2
0
 70
0
 62
7
  6
CONTINUOUS
370
-3
390
F
  0
LAYER
  5
1FA
100
AcDbSymbolTableRecord
100
AcDbLayerTableRecord
  2
DEFAULT_1
 70
0
 62
7
  6
CENTER
370
-3
390
F
  0
LAYER
  5
1FB
100
AcDbSymbolTableRecord
100
AcDbLayerTableRecord
  2
DEFAULT_2
 70
0
 62
8
  6
HIDDEN
370
-3
390
F
  0
LAYER
  5
1FC
100
AcDbSymbolTableRecord
100
AcDbLayerTableRecord
  2
DEFAULT_3
 70
0
 62
7
  6
PHANTOM
370
-3
390
F
  0
LAYER
  5
1FD
100
AcDbSymbolTableRecord
100
AcDbLayerTableRecord
  2
ALL_FEATURES
 70
0
 62
7
  6
CONTINUOUS
370
-3
390
F
  0
LAYER
  5
1FE
100
AcDbSymbolTableRecord
100
AcDbLayerTableRecord
  2
AXES_FEATURES
 70
0
 62
7
  6
CONTINUOUS
370
-3
390
F
  0
LAYER
  5
1FF
100
AcDbSymbolTableRecord
100
AcDbLayerTableRecord
  2
DEFAULT_COORDINATE_SYSTEM
 70
0
 62
7
  6
CONTINUOUS
370
-3
390
F
  0
LAYER
  5
200
100
AcDbSymbolTableRecord
100
AcDbLayerTableRecord
  2
DEFAULT_DATUM_AXES
 70
0
 62
7
  6
CONTINUOUS
370
-3
390
F
  0
LAYER
  5
201
100
AcDbSymbolTableRecord
100
AcDbLayerTableRecord
  2
DEFAULT_DATUM_PLANES
 70
0
 62
7
  6
CONTINUOUS
370
-3
390
F
  0
LAYER
  5
202
100
AcDbSymbolTableRecord
100
AcDbLayerTableRecord
  2
DIMENSIONS
 70
0
 62
7
  6
CONTINUOUS
370
-3
390
F
  0
ENDTAB
  0
TABLE
  2
STYLE
  5
3
100
AcDbSymbolTable
 70
1
  0
STYLE
  5
11
100
AcDbSymbolTableRecord
100
AcDbTextStyleTableRecord
  2
STANDARD
 70
0
 40
0.0
 41
0.8
 50
0.0
 71
0
 42
0.2
  3
txt
  4

  0
STYLE
  5
203
100
AcDbSymbolTableRecord
100
AcDbTextStyleTableRecord
  2
TEXTSTYLE_1
 70
0
 40
0.0
 41
0.8
 50
0.0
 71
0
 42
0.2
  3
gdt
  4

  0
ENDTAB
  0
TABLE
  2
VIEW
  5
6
100
AcDbSymbolTable
 70
0
  0
ENDTAB
  0
TABLE
  2
UCS
  5
7
100
AcDbSymbolTable
 70
0
  0
ENDTAB
  0
TABLE
  2
APPID
  5
9
100
AcDbSymbolTable
 70
1
  0
APPID
  5
204
100
AcDbSymbolTableRecord
100
AcDbRegAppTableRecord
  2
ACAD
 70
0
  0
ENDTAB
  0
TABLE
  2
BLOCK_RECORD
  5
1
100
AcDbSymbolTable
 70
0
  0
BLOCK_RECORD
  5
205
100
AcDbSymbolTableRecord
100
AcDbBlockTableRecord
  2
*Model_Space
  0
BLOCK_RECORD
  5
206
100
AcDbSymbolTableRecord
100
AcDbBlockTableRecord
  2
*Paper_Space
  0
BLOCK_RECORD
  5
207
100
AcDbSymbolTableRecord
100
AcDbBlockTableRecord
  2
_FILLED
  0
ENDTAB
  0
TABLE
  2
DIMSTYLE
  5
A
100
AcDbSymbolTable
 70
1
100
AcDbDimStyleTable
 71
0
  0
DIMSTYLE
105
208
100
AcDbSymbolTableRecord
100
AcDbDimStyleTableRecord
  2
STANDARD
 70
0
  3

  4

 40
1.0
 41
0.1
 42
0.0625
 43
0.38
 44
0.125
 45
0.0
 46
0.0
 47
0.001
 48
0.001
140
0.08
141
0.09
142
0.0
143
25.4
144
1.0
145
0.0
146
1.0
147
0.09
 71
1.0
 72
0.0
 73
1
 74
1
 75
0
 76
0
 77
0
 78
4
 79
1
170
1
171
2
172
0
173
0
174
0
175
0
176
0
177
0
178
0
270
2
179
3
271
3
272
3
273
2
274
2
275
0
280
0
281
0
282
0
283
1
284
4
285
0
286
0
287
3
288
0
340
11
278
46
341
207
342
207
343
207
344
207
  0
ENDTAB
  0
ENDSEC
  0
SECTION
  2
BLOCKS
  0
BLOCK
  5
20
100
AcDbEntity
  8
0
100
AcDbBlockBegin
  2
*Model_Space
 70
0
 10
0.0
 20
0.0
 30
0.0
  3
*Model_Space
  1

  0
ENDBLK
  5
21
100
AcDbEntity
  8
0
100
AcDbBlockEnd
  0
BLOCK
  5
1C
100
AcDbEntity
  8
0
100
AcDbBlockBegin
  2
*Paper_Space
 70
0
 10
0.0
 20
0.0
 30
0.0
  3
*Paper_Space
  1

  0
ENDBLK
  5
1D
100
AcDbEntity
  8
0
100
AcDbBlockEnd
  0
BLOCK
  5
209
100
AcDbEntity
  8
0
100
AcDbBlockBegin
  2
_FILLED
 70
64
 10
0.0
 20
0.0
  3
_FILLED
  1

  0
SOLID
  5
20A
100
AcDbEntity
  8
0
  6
BYBLOCK
 62
0
100
AcDbTrace
 10
0.0
 20
0.0
 11
-1.0
 21
0.2
 12
-1.0
 22
-0.2
 13
-1.0
 23
-0.2
  0
ENDBLK
  5
20B
100
AcDbEntity
  8
0
  6
BYBLOCK
 62
0
100
AcDbBlockEnd
  0
ENDSEC
  0
SECTION
  2
ENTITIES
  0
LINE
  5
20C
100
AcDbEntity
  8
0
100
AcDbLine
 62
7
  6
CONTINUOUS
 10
11.1723149347
 20
5.4053318604
 11
10.9223217419
 21
5.4053318604
  0
LINE
  5
20D
100
AcDbEntity
  8
0
100
AcDbLine
 62
9
  6
CONTINUOUS
 10
11.1923183383
 20
5.4253318604
 11
10.9023183383
 21
5.4253318604
  0
LINE
  5
20E
100
AcDbEntity
  8
0
100
AcDbLine
 62
7
  6
CONTINUOUS
 10
11.2473149713
 20
5.4453318604
 11
10.8473217053
 21
5.4453318604
  0
LINE
  5
20F
100
AcDbEntity
  8
0
100
AcDbLine
 62
9
  6
CONTINUOUS
 10
11.2673183383
 20
5.4653318604
 11
10.8273183383
 21
5.4653318604
  0
LINE
  5
210
100
AcDbEntity
  8
0
100
AcDbLine
 62
7
  6
CONTINUOUS
 10
9.7514181353
 20
8.6168704832
 11
9.7416168784
 21
8.6045886861
  0
LINE
  5
211
100
AcDbEntity
  8
0
100
AcDbLine
 62
7
  6
CONTINUOUS
 10
9.7019821618
 20
8.6168728827
 11
9.6918596565
 21
8.6045918192
  0
LINE
  5
212
100
AcDbEntity
  8
0
100
AcDbLine
 62
7
  6
CONTINUOUS
 10
9.7317659367
 20
8.616779343
 11
9.7216111212
 21
8.6044590794
  0
LINE
  5
213
100
AcDbEntity
  8
0
100
AcDbLine
 62
7
  6
CONTINUOUS
 10
9.6698969922
 20
8.6168437639
 11
9.659603997
 21
8.6045527965
  0
LINE
  5
214
100
AcDbEntity
  8
0
100
AcDbLine
 62
7
  6
CONTINUOUS
 10
9.6716162542
 20
8.616779343
 11
9.6612987251
 21
8.6044590794
  0
LINE
  5
215
100
AcDbEntity
  8
0
100
AcDbLine
 62
7
  6
CONTINUOUS
 10
9.6760229712
 20
8.6168704832
 11
9.6657376556
 21
8.6045886861
  0
LINE
  5
216
100
AcDbEntity
  8
0
100
AcDbLine
 62
7
  6
CONTINUOUS
 10
9.6935782655
 20
8.616764764
 11
9.6832538173
 21
8.6044362382
  0
LWPOLYLINE
  5
217
100
AcDbEntity
  8
0
100
AcDbPolyline
 62
7
  6
CONTINUOUS
 90
5
 70
0
 10
11.2673183383
 20
5.4813558053
 10
11.2735821269
 20
5.4830280423
 10
11.2840992075
 20
5.486482594
 10
11.2941290296
 20
5.4906438117
 10
11.3027993528
 20
5.4953318604
  0
LINE
  5
218
100
AcDbEntity
  8
0
100
AcDbLine
 62
7
  6
CONTINUOUS
 10
11.3273150407
 20
5.4953318604
 11
10.7673216359
 21
5.4953318604
  0
LINE
  5
219
100
AcDbEntity
  8
0
100
AcDbLine
 62
9
  6
CONTINUOUS
 10
11.3473183383
 20
5.5153318604
 11
10.7473183383
 21
5.5153318604
  0
LINE
  5
21A
100
AcDbEntity
  8
0
100
AcDbLine
 62
7
  6
CONTINUOUS
 10
11.4475111396
 20
5.5753318604
 11
10.6684444905
 21
5.5753318604
  0
LINE
  5
21B
100
AcDbEntity
  8
0
100
AcDbLine
 62
7
  6
CONTINUOUS
 10
11.0423183383
 20
5.6928318604
 11
11.5086850578
 21
5.692831868
  0
LWPOLYLINE
  5
21C
100
AcDbEntity
  8
0
100
AcDbPolyline
 62
7
  6
CONTINUOUS
 90
6
 70
0
 10
10.7894968573
 20
5.4953318604
 10
10.7899010416
 20
5.4951482219
 10
10.798122791
 20
5.4915626953
 10
10.8071214384
 20
5.4877963203
 10
10.8205980183
 20
5.4831626579
 10
10.8273183383
 20
5.4814127911
  0
LINE
  5
21D
100
AcDbEntity
  8
0
100
AcDbLine
 62
7
  6
CONTINUOUS
 10
9.6596039525
 20
8.6045528693
 11
9.6596037021
 21
8.6045505011
  0
LINE
  5
21E
100
AcDbEntity
  8
0
100
AcDbLine
 62
7
  6
CONTINUOUS
 10
10.0108212351
 20
8.6168728827
 11
10.0028810685
 21
8.6045918192
  0
LINE
  5
21F
100
AcDbEntity
  8
0
100
AcDbLine
 62
7
  6
CONTINUOUS
 10
9.9082394752
 20
8.6168704832
 11
9.8995381259
 21
8.6045886861
  0
LINE
  5
220
100
AcDbEntity
  8
0
100
AcDbLine
 62
7
  6
CONTINUOUS
 10
9.98342948
 20
8.616764764
 11
9.9746950246
 21
8.6044362382
  0
LINE
  5
221
100
AcDbEntity
  8
0
100
AcDbLine
 62
9
  6
CONTINUOUS
 10
10.0032798392
 20
8.5466864827
 11
9.9948125219
 21
8.5347350175
  0
LINE
  5
222
100
AcDbEntity
  8
0
100
AcDbLine
 62
7
  6
CONTINUOUS
 10
10.0109871365
 20
8.5335416638
 11
10.0017411539
 21
8.5204911267
  0
LINE
  5
223
100
AcDbEntity
  8
0
100
AcDbLine
 62
7
  6
CONTINUOUS
 10
9.8177732794
 20
8.6168728827
 11
9.8084490042
 21
8.6045918192
  0
LINE
  5
224
100
AcDbEntity
  8
0
100
AcDbLine
 62
7
  6
CONTINUOUS
 10
9.8745766148
 20
8.616779343
 11
9.8652225773
 21
8.6044590794
  0
LINE
  5
225
100
AcDbEntity
  8
0
100
AcDbLine
 62
9
  6
CONTINUOUS
 10
9.9141230371
 20
8.5411991476
 11
9.9048421915
 21
8.5289752855
  0
LINE
  5
226
100
AcDbEntity
  8
0
100
AcDbLine
 62
7
  6
CONTINUOUS
 10
9.9257288702
 20
8.5311242028
 11
9.916301219
 21
8.5187069822
  0
LINE
  5
227
100
AcDbEntity
  8
0
100
AcDbLine
 62
7
  6
CONTINUOUS
 10
9.7992949222
 20
8.616764764
 11
9.7894563743
 21
8.6044362382
  0
LINE
  5
228
100
AcDbEntity
  8
0
100
AcDbLine
 62
9
  6
CONTINUOUS
 10
9.8384093006
 20
8.5411880127
 11
9.8332596092
 21
8.5347350175
  0
LINE
  5
229
100
AcDbEntity
  8
0
100
AcDbLine
 62
7
  6
CONTINUOUS
 10
9.86044846
 20
8.5242525895
 11
9.8557090956
 21
8.5183137682
  0
LINE
  5
22A
100
AcDbEntity
  8
0
100
AcDbLine
 62
9
  6
CONTINUOUS
 10
9.7917554512
 20
8.5346415675
 11
9.7870850926
 21
8.5289752855
  0
LINE
  5
22B
100
AcDbEntity
  8
0
100
AcDbLine
 62
7
  6
CONTINUOUS
 10
9.8157791669
 20
8.521552168
 11
9.8126391434
 21
8.5177425549
  0
LINE
  5
22C
100
AcDbEntity
  8
0
100
AcDbLine
 62
9
  6
CONTINUOUS
 10
9.7498736342
 20
8.5369837208
 11
9.7479904714
 21
8.5347350175
  0
LINE
  5
22D
100
AcDbEntity
  8
0
100
AcDbLine
 62
9
  6
CONTINUOUS
 10
9.7488531303
 20
8.5293813389
 11
9.7485130834
 21
8.5289752855
  0
LINE
  5
22E
100
AcDbEntity
  8
0
100
AcDbLine
 62
7
  6
CONTINUOUS
 10
9.7926354604
 20
8.5187501524
 11
9.7916555277
 21
8.5175800051
  0
LINE
  5
22F
100
AcDbEntity
  8
0
100
AcDbLine
 62
7
  6
CONTINUOUS
 10
11.0423183383
 20
5.9478318604
 11
11.5086850578
 21
5.9478318614
  0
LINE
  5
230
100
AcDbEntity
  8
0
100
AcDbLine
 62
9
  6
CONTINUOUS
 10
11.0259377113
 20
5.7157739759
 11
11.0428928977
 21
5.7078676426
  0
LINE
  5
231
100
AcDbEntity
  8
0
100
AcDbLine
 62
7
  6
CONTINUOUS
 10
9.8723183383
 20
8.5153318604
 11
9.8723183383
 21
8.5019833743
  0
LINE
  5
232
100
AcDbEntity
  8
0
100
AcDbLine
 62
7
  6
CONTINUOUS
 10
10.2689961157
 20
8.6168728827
 11
10.2629389676
 21
8.6045918192
  0
LINE
  5
233
100
AcDbEntity
  8
0
100
AcDbLine
 62
7
  6
CONTINUOUS
 10
10.2444225216
 20
8.5312302503
 11
10.237669462
 21
8.5175382038
  0
LINE
  5
234
100
AcDbEntity
  8
0
100
AcDbLine
 62
7
  6
CONTINUOUS
 10
10.1366333293
 20
8.6168704832
 11
10.1295786254
 21
8.6045886861
  0
LINE
  5
235
100
AcDbEntity
  8
0
100
AcDbLine
 62
7
  6
CONTINUOUS
 10
10.1296928414
 20
8.5216361704
 11
10.1273398807
 21
8.5175398134
  0
LINE
  5
236
100
AcDbEntity
  8
0
100
AcDbLine
 62
7
  6
CONTINUOUS
 10
10.2344120875
 20
8.616764764
 11
10.2273305425
 21
8.6044362382
  0
LINE
  5
237
100
AcDbEntity
  8
0
100
AcDbLine
 62
9
  6
CONTINUOUS
 10
10.2293632061
 20
8.5466864827
 11
10.222498246
 21
8.5347350175
  0
LINE
  5
238
100
AcDbEntity
  8
0
100
AcDbLine
 62
7
  6
CONTINUOUS
 10
10.2287369677
 20
8.5378599988
 11
10.2215659894
 21
8.5253757752
  0
LINE
  5
239
100
AcDbEntity
  8
0
100
AcDbLine
 62
7
  6
CONTINUOUS
 10
10.0910749685
 20
8.616779343
 11
10.0831094576
 21
8.6044590794
  0
LINE
  5
23A
100
AcDbEntity
  8
0
100
AcDbLine
 62
9
  6
CONTINUOUS
 10
10.1022884521
 20
8.5411991476
 11
10.0943852684
 21
8.5289752855
  0
LINE
  5
23B
100
AcDbEntity
  8
0
100
AcDbLine
 62
7
  6
CONTINUOUS
 10
10.1049897199
 20
8.5339472408
 11
10.0965999987
 21
8.5209708506
  0
LINE
  5
23C
100
AcDbEntity
  8
0
100
AcDbLine
 62
7
  6
CONTINUOUS
 10
10.1273398807
 20
8.5175398134
 11
10.1293062935
 21
8.5193640918
  0
LWPOLYLINE
  5
23D
100
AcDbEntity
  8
0
100
AcDbPolyline
 62
7
  6
CONTINUOUS
 90
8
 70
0
 10
10.6684393679
 20
6.0653322494
 10
10.6560233865
 20
6.0640966689
 10
10.6440608528
 20
6.060424321
 10
10.633060095
 20
6.0544600691
 10
10.6234551316
 20
6.0464392149
 10
10.615624908
 20
6.0366781982
 10
10.6098783518
 20
6.0255621118
 10
10.6076895525
 20
6.0190200975
  0
LINE
  5
23E
100
AcDbEntity
  8
0
100
AcDbLine
 62
7
  6
CONTINUOUS
 10
10.6684415646
 20
6.0653318604
 11
11.4475306957
 21
6.0653318604
  0
LINE
  5
23F
100
AcDbEntity
  8
0
100
AcDbLine
 62
9
  6
CONTINUOUS
 10
11.3973183383
 20
6.1305959482
 11
10.6973183383
 21
6.1305959482
  0
LINE
  5
240
100
AcDbEntity
  8
0
100
AcDbLine
 62
9
  6
CONTINUOUS
 10
11.3904918649
 20
6.1583912007
 11
10.7041448116
 21
6.1583912007
  0
LINE
  5
241
100
AcDbEntity
  8
0
100
AcDbLine
 62
9
  6
CONTINUOUS
 10
10.7415403445
 20
6.2299304811
 11
11.353096332
 21
6.2299304811
  0
LINE
  5
242
100
AcDbEntity
  8
0
100
AcDbLine
 62
9
  6
CONTINUOUS
 10
10.7434025277
 20
6.2816228181
 11
11.3512341489
 21
6.2816228181
  0
LINE
  5
243
100
AcDbEntity
  8
0
100
AcDbLine
 62
9
  6
CONTINUOUS
 10
11.0517258029
 20
5.9328044605
 11
11.1369201581
 21
5.8930776803
  0
LINE
  5
244
100
AcDbEntity
  8
0
100
AcDbLine
 62
7
  6
CONTINUOUS
 10
10.2449161604
 20
8.5228826709
 11
10.2460042908
 21
8.5277993362
  0
LINE
  5
245
100
AcDbEntity
  8
0
100
AcDbLine
 62
7
  6
CONTINUOUS
 10
10.3491033348
 20
8.5380923057
 11
10.3498335704
 21
8.5411991476
  0
LINE
  5
246
100
AcDbEntity
  8
0
100
AcDbLine
 62
7
  6
CONTINUOUS
 10
10.3438046347
 20
8.5289752855
 11
10.3429529022
 21
8.525622104
  0
LINE
  5
247
100
AcDbEntity
  8
0
100
AcDbLine
 62
7
  6
CONTINUOUS
 10
10.375259949
 20
8.5312310011
 11
10.3697254325
 21
8.5175398134
  0
LINE
  5
248
100
AcDbEntity
  8
0
100
AcDbLine
 62
9
  6
CONTINUOUS
 10
10.389587227
 20
8.5400198135
 11
10.384614283
 21
8.5277178338
  0
LINE
  5
249
100
AcDbEntity
  8
0
100
AcDbLine
 62
7
  6
CONTINUOUS
 10
10.4222488717
 20
8.6168704832
 11
10.4172840863
 21
8.6045886861
  0
LINE
  5
24A
100
AcDbEntity
  8
0
100
AcDbLine
 62
7
  6
CONTINUOUS
 10
10.5364725844
 20
8.616764764
 11
10.5314889093
 21
8.6044362382
  0
LINE
  5
24B
100
AcDbEntity
  8
0
100
AcDbLine
 62
7
  6
CONTINUOUS
 10
10.3676576099
 20
8.616779343
 11
10.3615811279
 21
8.6044590794
  0
LINE
  5
24C
100
AcDbEntity
  8
0
100
AcDbLine
 62
9
  6
CONTINUOUS
 10
10.3498335704
 20
8.5411991476
 11
10.3438046347
 21
8.5289752855
  0
LINE
  5
24D
100
AcDbEntity
  8
0
100
AcDbLine
 62
7
  6
CONTINUOUS
 10
10.3490846515
 20
8.5380544227
 11
10.3444497888
 21
8.5286570888
  0
LINE
  5
24E
100
AcDbEntity
  8
0
100
AcDbLine
 62
9
  6
CONTINUOUS
 10
11.4129625448
 20
6.4237851844
 11
10.6816741318
 21
6.4237851844
  0
LINE
  5
24F
100
AcDbEntity
  8
0
100
AcDbLine
 62
9
  6
CONTINUOUS
 10
11.4145583364
 20
6.4675032944
 11
10.6800783402
 21
6.4675032944
  0
LINE
  5
250
100
AcDbEntity
  8
0
100
AcDbLine
 62
9
  6
CONTINUOUS
 10
10.7124243795
 20
6.5599205495
 11
11.3822122971
 21
6.5599205495
  0
LINE
  5
251
100
AcDbEntity
  8
0
100
AcDbLine
 62
9
  6
CONTINUOUS
 10
10.7146589541
 20
6.5913512733
 11
11.3799777225
 21
6.5913512733
  0
LWPOLYLINE
  5
252
100
AcDbEntity
  8
0
100
AcDbPolyline
 62
7
  6
CONTINUOUS
 90
7
 70
0
 10
10.6900732626
 20
5.5753318604
 10
10.6917103137
 20
5.5710227364
 10
10.7006690028
 20
5.5557945176
 10
10.7111009584
 20
5.5436303612
 10
10.7225293016
 20
5.5334263078
 10
10.7351107666
 20
5.5242616804
 10
10.7473183383
 20
5.5166570137
  0
LWPOLYLINE
  5
253
100
AcDbEntity
  8
0
100
AcDbPolyline
 62
7
  6
CONTINUOUS
 90
8
 70
0
 10
10.607691677
 20
5.6216427484
 10
10.6098902966
 20
5.6150761529
 10
10.6156564999
 20
5.6039395335
 10
10.6235140292
 20
5.594165824
 10
10.6331514479
 20
5.5861421662
 10
10.6441867861
 20
5.5801863576
 10
10.6561824393
 20
5.5765342611
 10
10.6684425027
 20
5.575329814
  0
LINE
  5
254
100
AcDbEntity
  8
0
100
AcDbLine
 62
7
  6
CONTINUOUS
 10
10.6575436552
 20
8.5312310011
 11
10.6546866385
 21
8.5175398134
  0
LINE
  5
255
100
AcDbEntity
  8
0
100
AcDbLine
 62
9
  6
CONTINUOUS
 10
10.6848857651
 20
8.5400198135
 11
10.6823186422
 21
8.5277178338
  0
LINE
  5
256
100
AcDbEntity
  8
0
100
AcDbLine
 62
7
  6
CONTINUOUS
 10
10.5068672547
 20
8.5312302503
 11
10.502637875
 21
8.5175382038
  0
LINE
  5
257
100
AcDbEntity
  8
0
100
AcDbLine
 62
9
  6
CONTINUOUS
 10
10.5282523986
 20
8.5400961985
 11
10.5244539817
 21
8.5277993362
  0
LINE
  5
258
100
AcDbEntity
  8
0
100
AcDbLine
 62
7
  6
CONTINUOUS
 10
10.576075844
 20
8.6168728827
 11
10.5722823073
 21
8.6045918192
  0
LINE
  5
259
100
AcDbEntity
  8
0
100
AcDbLine
 62
7
  6
CONTINUOUS
 10
10.6869458345
 20
8.616779343
 11
10.6831401891
 21
8.6044590794
  0
LINE
  5
25A
100
AcDbEntity
  8
0
100
AcDbLine
 62
9
  6
CONTINUOUS
 10
11.410428465
 20
6.7457494042
 11
10.6842082116
 21
6.7457494042
  0
LINE
  5
25B
100
AcDbEntity
  8
0
100
AcDbLine
 62
9
  6
CONTINUOUS
 10
11.4123183383
 20
6.7650989014
 11
10.6823183383
 21
6.7650989014
  0
LINE
  5
25C
100
AcDbEntity
  8
0
100
AcDbLine
 62
7
  6
CONTINUOUS
 10
10.6823183383
 20
6.8653318604
 11
11.4123183383
 21
6.8653318604
  0
LINE
  5
25D
100
AcDbEntity
  8
0
100
AcDbLine
 62
7
  6
CONTINUOUS
 10
11.3523183383
 20
6.8853318604
 11
10.7423183383
 21
6.8853318604
  0
LINE
  5
25E
100
AcDbEntity
  8
0
100
AcDbLine
 62
7
  6
CONTINUOUS
 10
9.6698968369
 20
8.6168425604
 11
9.6648183383
 21
8.6264131018
  0
LINE
  5
25F
100
AcDbEntity
  8
0
100
AcDbLine
 62
7
  6
CONTINUOUS
 10
10.7434025277
 20
6.2816228181
 11
10.6816741318
 21
6.4237851844
  0
LINE
  5
260
100
AcDbEntity
  8
0
100
AcDbLine
 62
7
  6
CONTINUOUS
 10
10.6842082116
 20
6.7457494042
 11
10.6823183383
 21
6.7650989014
  0
LINE
  5
261
100
AcDbEntity
  8
0
100
AcDbLine
 62
7
  6
CONTINUOUS
 10
10.6823183383
 20
6.7650989014
 11
10.6823183383
 21
6.8653318604
  0
LINE
  5
262
100
AcDbEntity
  8
0
100
AcDbLine
 62
7
  6
CONTINUOUS
 10
10.6973183383
 20
6.0653318604
 11
10.6973183383
 21
6.1305959482
  0
LINE
  5
263
100
AcDbEntity
  8
0
100
AcDbLine
 62
7
  6
CONTINUOUS
 10
10.7473183383
 20
5.5153318604
 11
10.7473183383
 21
5.5753318604
  0
LINE
  5
264
100
AcDbEntity
  8
0
100
AcDbLine
 62
7
  6
CONTINUOUS
 10
10.8027785294
 20
8.5265520977
 11
10.8018305646
 21
8.5175382038
  0
LINE
  5
265
100
AcDbEntity
  8
0
100
AcDbLine
 62
9
  6
CONTINUOUS
 10
10.837050388
 20
8.5400961985
 11
10.835757163
 21
8.5277993362
  0
LINE
  5
266
100
AcDbEntity
  8
0
100
AcDbLine
 62
7
  6
CONTINUOUS
 10
10.7471398276
 20
8.6168704832
 11
10.7445769163
 21
8.6045886861
  0
LINE
  5
267
100
AcDbEntity
  8
0
100
AcDbLine
 62
7
  6
CONTINUOUS
 10
10.8706313987
 20
8.616764764
 11
10.8680587363
 21
8.6044362382
  0
LINE
  5
268
100
AcDbEntity
  8
0
100
AcDbLine
 62
7
  6
CONTINUOUS
 10
11.4223183383
 20
7.0253318604
 11
10.6723183383
 21
7.0253318604
  0
LINE
  5
269
100
AcDbEntity
  8
0
100
AcDbLine
 62
7
  6
CONTINUOUS
 10
11.3904918649
 20
6.1583912007
 11
11.353096332
 21
6.2299304811
  0
LINE
  5
26A
100
AcDbEntity
  8
0
100
AcDbLine
 62
7
  6
CONTINUOUS
 10
10.7146589541
 20
6.5913512733
 11
10.6842082116
 21
6.7457494042
  0
LINE
  5
26B
100
AcDbEntity
  8
0
100
AcDbLine
 62
7
  6
CONTINUOUS
 10
10.8273183383
 20
5.4653318604
 11
10.8273183383
 21
5.4953318604
  0
LINE
  5
26C
100
AcDbEntity
  8
0
100
AcDbLine
 62
7
  6
CONTINUOUS
 10
10.8473183383
 20
6.8853318604
 11
10.8473183383
 21
6.8653318604
  0
LINE
  5
26D
100
AcDbEntity
  8
0
100
AcDbLine
 62
7
  6
CONTINUOUS
 10
10.9023183383
 20
5.4253318604
 11
10.9023183383
 21
5.4453318604
  0
LINE
  5
26E
100
AcDbEntity
  8
0
100
AcDbLine
 62
7
  6
CONTINUOUS
 10
10.9463183383
 20
8.5238865573
 11
10.9463183383
 21
8.5175346399
  0
LINE
  5
26F
100
AcDbEntity
  8
0
100
AcDbLine
 62
9
  6
CONTINUOUS
 10
11.0227267613
 20
8.5448183031
 11
11.0227267613
 21
8.5327966721
  0
LINE
  5
270
100
AcDbEntity
  8
0
100
AcDbLine
 62
9
  6
CONTINUOUS
 10
11.047319214
 20
5.9782428128
 11
11.0473201468
 21
5.9478318433
  0
LINE
  5
271
100
AcDbEntity
  8
0
100
AcDbLine
 62
9
  6
CONTINUOUS
 10
11.0473201468
 20
5.6928318787
 11
11.0473180221
 21
5.6624214431
  0
LINE
  5
272
100
AcDbEntity
  8
0
100
AcDbLine
 62
7
  6
CONTINUOUS
 10
10.9127654713
 20
8.6168728827
 11
10.9114739078
 21
8.6045918192
  0
LINE
  5
273
100
AcDbEntity
  8
0
100
AcDbLine
 62
7
  6
CONTINUOUS
 10
11.0288775888
 20
8.616779343
 11
11.0275819028
 21
8.6044590794
  0
LINE
  5
274
100
AcDbEntity
  8
0
100
AcDbLine
 62
7
  6
CONTINUOUS
 10
10.6800783402
 20
6.4675032944
 11
10.7124243795
 21
6.5599205495
  0
LINE
  5
275
100
AcDbEntity
  8
0
100
AcDbLine
 62
9
  6
CONTINUOUS
 10
11.5923183383
 20
7.2539673528
 11
10.5023183383
 21
7.2539673528
  0
LINE
  5
276
100
AcDbEntity
  8
0
100
AcDbLine
 62
7
  6
CONTINUOUS
 10
11.4145583364
 20
6.4675032944
 11
11.3822122971
 21
6.5599205495
  0
LINE
  5
277
100
AcDbEntity
  8
0
100
AcDbLine
 62
7
  6
CONTINUOUS
 10
11.1158338765
 20
8.5233791714
 11
11.1164481539
 21
8.5175382038
  0
LINE
  5
278
100
AcDbEntity
  8
0
100
AcDbLine
 62
9
  6
CONTINUOUS
 10
11.1590602861
 20
8.5400961985
 11
11.1603535111
 21
8.5277993362
  0
LINE
  5
279
100
AcDbEntity
  8
0
100
AcDbLine
 62
7
  6
CONTINUOUS
 10
11.2579095501
 20
8.6168728827
 11
11.2592011136
 21
8.6045918192
  0
LINE
  5
27A
100
AcDbEntity
  8
0
100
AcDbLine
 62
7
  6
CONTINUOUS
 10
11.1032623294
 20
8.6168638629
 11
11.1032623294
 21
8.6045799586
  0
LINE
  5
27B
100
AcDbEntity
  8
0
100
AcDbLine
 62
7
  6
CONTINUOUS
 10
11.1923183383
 20
5.4253318604
 11
11.1923183383
 21
5.4453318604
  0
LINE
  5
27C
100
AcDbEntity
  8
0
100
AcDbLine
 62
7
  6
CONTINUOUS
 10
11.2182623294
 20
8.6167623297
 11
11.2182623294
 21
8.6044323537
  0
LINE
  5
27D
100
AcDbEntity
  8
0
100
AcDbLine
 62
7
  6
CONTINUOUS
 10
11.2473183383
 20
6.8853318604
 11
11.2473183383
 21
6.8653318604
  0
LINE
  5
27E
100
AcDbEntity
  8
0
100
AcDbLine
 62
7
  6
CONTINUOUS
 10
11.2673183383
 20
5.4653318604
 11
11.2673183383
 21
5.4953318604
  0
LINE
  5
27F
100
AcDbEntity
  8
0
100
AcDbLine
 62
7
  6
CONTINUOUS
 10
11.3473183383
 20
5.5153318604
 11
11.3473183383
 21
5.5753318604
  0
LINE
  5
280
100
AcDbEntity
  8
0
100
AcDbLine
 62
7
  6
CONTINUOUS
 10
10.6917214199
 20
6.069665195
 11
10.6900743724
 21
6.0653318604
  0
LINE
  5
281
100
AcDbEntity
  8
0
100
AcDbLine
 62
7
  6
CONTINUOUS
 10
10.7041448116
 20
6.1583912007
 11
10.7415403445
 21
6.2299304811
  0
LINE
  5
282
100
AcDbEntity
  8
0
100
AcDbLine
 62
7
  6
CONTINUOUS
 10
11.5189021668
 20
5.9782423406
 11
11.5083137153
 21
6.0190202383
  0
LINE
  5
283
100
AcDbEntity
  8
0
100
AcDbLine
 62
7
  6
CONTINUOUS
 10
11.3719680433
 20
8.616779343
 11
11.3732637293
 21
8.6044590794
  0
LINE
  5
284
100
AcDbEntity
  8
0
100
AcDbLine
 62
7
  6
CONTINUOUS
 10
11.3973183383
 20
6.0653318604
 11
11.3973183383
 21
6.1305959482
  0
LINE
  5
285
100
AcDbEntity
  8
0
100
AcDbLine
 62
7
  6
CONTINUOUS
 10
11.4123183383
 20
6.7650989014
 11
11.4123183383
 21
6.8653318604
  0
LINE
  5
286
100
AcDbEntity
  8
0
100
AcDbLine
 62
9
  6
CONTINUOUS
 10
11.4743021438
 20
5.9478318604
 11
11.4743021438
 21
5.9404445015
  0
LINE
  5
287
100
AcDbEntity
  8
0
100
AcDbLine
 62
9
  6
CONTINUOUS
 10
11.4743021438
 20
5.7056722879
 11
11.4743021438
 21
5.6928318604
  0
LINE
  5
288
100
AcDbEntity
  8
0
100
AcDbLine
 62
7
  6
CONTINUOUS
 10
11.5086850578
 20
5.6928318592
 11
11.5086850578
 21
5.6961193675
  0
LINE
  5
289
100
AcDbEntity
  8
0
100
AcDbLine
 62
7
  6
CONTINUOUS
 10
11.5086850578
 20
5.9434903116
 11
11.5086850578
 21
5.9478318608
  0
LINE
  5
28A
100
AcDbEntity
  8
0
100
AcDbLine
 62
7
  6
CONTINUOUS
 10
11.410428465
 20
6.7457494042
 11
11.4123183383
 21
6.7650989014
  0
LINE
  5
28B
100
AcDbEntity
  8
0
100
AcDbLine
 62
7
  6
CONTINUOUS
 10
11.3799777225
 20
6.5913512733
 11
11.410428465
 21
6.7457494042
  0
LINE
  5
28C
100
AcDbEntity
  8
0
100
AcDbLine
 62
7
  6
CONTINUOUS
 10
10.6973183383
 20
6.0791699696
 11
10.6917214199
 21
6.069665195
  0
LINE
  5
28D
100
AcDbEntity
  8
0
100
AcDbLine
 62
7
  6
CONTINUOUS
 10
9.7354618488
 20
8.5348821864
 11
9.7485130834
 21
8.5289752855
  0
LINE
  5
28E
100
AcDbEntity
  8
0
100
AcDbLine
 62
7
  6
CONTINUOUS
 10
11.2771432268
 20
8.5272295259
 11
11.2791652333
 21
8.5175398134
  0
LINE
  5
28F
100
AcDbEntity
  8
0
100
AcDbLine
 62
9
  6
CONTINUOUS
 10
11.3238161531
 20
8.5400198135
 11
11.326383276
 21
8.5277178338
  0
LINE
  5
290
100
AcDbEntity
  8
0
100
AcDbLine
 62
7
  6
CONTINUOUS
 10
11.4319064791
 20
8.6168704832
 11
11.4344693904
 21
8.6045886861
  0
LINE
  5
291
100
AcDbEntity
  8
0
100
AcDbLine
 62
7
  6
CONTINUOUS
 10
11.5083136632
 20
5.6216434816
 11
11.5189021265
 21
5.6624214106
  0
LINE
  5
292
100
AcDbEntity
  8
0
100
AcDbLine
 62
7
  6
CONTINUOUS
 10
11.3512341489
 20
6.2816228181
 11
11.4129625448
 21
6.4237851844
  0
LINE
  5
293
100
AcDbEntity
  8
0
100
AcDbLine
 62
7
  6
CONTINUOUS
 10
12.4247398397
 20
8.6168425604
 11
12.4298183383
 21
8.6264131018
  0
LINE
  5
294
100
AcDbEntity
  8
0
100
AcDbLine
 62
7
  6
CONTINUOUS
 10
12.3055468081
 20
8.5175382038
 11
12.3125781289
 21
8.5187963935
  0
LINE
  5
295
100
AcDbEntity
  8
0
100
AcDbLine
 62
9
  6
CONTINUOUS
 10
12.0800827759
 20
8.2703318604
 11
10.0145539007
 21
8.2703318604
  0
LINE
  5
296
100
AcDbEntity
  8
0
100
AcDbLine
 62
7
  6
CONTINUOUS
 10
9.7863001265
 20
8.5180086324
 11
9.7890347127
 21
8.5175408592
  0
LINE
  5
297
100
AcDbEntity
  8
0
100
AcDbLine
 62
7
  6
CONTINUOUS
 10
11.5767709845
 20
8.5241531004
 11
11.5794443352
 21
8.5175398134
  0
LINE
  5
298
100
AcDbEntity
  8
0
100
AcDbLine
 62
7
  6
CONTINUOUS
 10
11.4252608689
 20
8.5222686218
 11
11.4267220627
 21
8.5175382038
  0
LINE
  5
299
100
AcDbEntity
  8
0
100
AcDbLine
 62
9
  6
CONTINUOUS
 10
11.4742804407
 20
8.539347027
 11
11.4778474436
 21
8.5277993362
  0
LINE
  5
29A
100
AcDbEntity
  8
0
100
AcDbLine
 62
7
  6
CONTINUOUS
 10
11.5898214086
 20
8.6168728827
 11
11.5936149453
 21
8.6045918192
  0
LINE
  5
29B
100
AcDbEntity
  8
0
100
AcDbLine
 62
7
  6
CONTINUOUS
 10
11.5505606983
 20
8.616764764
 11
11.5531333607
 21
8.6044362382
  0
LINE
  5
29C
100
AcDbEntity
  8
0
100
AcDbLine
 62
7
  6
CONTINUOUS
 10
12.2223183383
 20
8.5153318604
 11
12.2223183383
 21
8.5019833743
  0
LINE
  5
29D
100
AcDbEntity
  8
0
100
AcDbLine
 62
7
  6
CONTINUOUS
 10
9.812637092
 20
8.5177400661
 11
9.8112562833
 21
8.5175518684
  0
LINE
  5
29E
100
AcDbEntity
  8
0
100
AcDbLine
 62
7
  6
CONTINUOUS
 10
9.7916524014
 20
8.5175762719
 11
9.7914504972
 21
8.5175518684
  0
LINE
  5
29F
100
AcDbEntity
  8
0
100
AcDbLine
 62
7
  6
CONTINUOUS
 10
12.1623183383
 20
8.4103318604
 11
9.9323183383
 21
8.4103318604
  0
LINE
  5
2A0
100
AcDbEntity
  8
0
100
AcDbLine
 62
9
  6
CONTINUOUS
 10
12.2223183383
 20
8.5019833743
 11
9.8723183383
 21
8.5019833743
  0
LINE
  5
2A1
100
AcDbEntity
  8
0
100
AcDbLine
 62
7
  6
CONTINUOUS
 10
9.8298220094
 20
8.5153318604
 11
12.2648146672
 21
8.5153318604
  0
LINE
  5
2A2
100
AcDbEntity
  8
0
100
AcDbLine
 62
9
  6
CONTINUOUS
 10
10.6575436552
 20
8.5303318604
 11
10.6384170688
 21
8.5303318604
  0
LINE
  5
2A3
100
AcDbEntity
  8
0
100
AcDbLine
 62
9
  6
CONTINUOUS
 10
10.5068672547
 20
8.5303318604
 11
10.4989080683
 21
8.5303318604
  0
LINE
  5
2A4
100
AcDbEntity
  8
0
100
AcDbLine
 62
9
  6
CONTINUOUS
 10
10.375259949
 20
8.5303318604
 11
10.3452758035
 21
8.5303318604
  0
LINE
  5
2A5
100
AcDbEntity
  8
0
100
AcDbLine
 62
9
  6
CONTINUOUS
 10
10.2444225216
 20
8.5303318604
 11
10.2244127807
 21
8.5303318604
  0
LINE
  5
2A6
100
AcDbEntity
  8
0
100
AcDbLine
 62
9
  6
CONTINUOUS
 10
10.1279337791
 20
8.5303318604
 11
10.1049897199
 21
8.5303318604
  0
LINE
  5
2A7
100
AcDbEntity
  8
0
100
AcDbLine
 62
9
  6
CONTINUOUS
 10
10.0179041086
 20
8.5303318604
 11
10.0109871365
 21
8.5303318604
  0
LINE
  5
2A8
100
AcDbEntity
  8
0
100
AcDbLine
 62
9
  6
CONTINUOUS
 10
9.9278865425
 20
8.5303318604
 11
9.9264644417
 21
8.5303318604
  0
LINE
  5
2A9
100
AcDbEntity
  8
0
100
AcDbLine
 62
9
  6
CONTINUOUS
 10
9.6648183383
 20
8.6264131018
 11
12.4298183383
 21
8.6264131018
  0
LINE
  5
2AA
100
AcDbEntity
  8
0
100
AcDbLine
 62
7
  6
CONTINUOUS
 10
9.6506737913
 20
8.6403318604
 11
12.4439628852
 21
8.6403318604
  0
LINE
  5
2AB
100
AcDbEntity
  8
0
100
AcDbLine
 62
7
  6
CONTINUOUS
 10
10.6869458345
 20
8.616779343
 11
10.576075844
 21
8.6168728827
  0
LINE
  5
2AC
100
AcDbEntity
  8
0
100
AcDbLine
 62
7
  6
CONTINUOUS
 10
10.8706313987
 20
8.616764764
 11
10.7471398276
 21
8.6168704832
  0
LINE
  5
2AD
100
AcDbEntity
  8
0
100
AcDbLine
 62
7
  6
CONTINUOUS
 10
11.0288775888
 20
8.616779343
 11
10.9127654713
 21
8.6168728827
  0
LINE
  5
2AE
100
AcDbEntity
  8
0
100
AcDbLine
 62
7
  6
CONTINUOUS
 10
11.2182623294
 20
8.6167623297
 11
11.1032623294
 21
8.6168638629
  0
LINE
  5
2AF
100
AcDbEntity
  8
0
100
AcDbLine
 62
7
  6
CONTINUOUS
 10
11.3719680433
 20
8.616779343
 11
11.2579095501
 21
8.6168728827
  0
LINE
  5
2B0
100
AcDbEntity
  8
0
100
AcDbLine
 62
7
  6
CONTINUOUS
 10
11.5505606983
 20
8.616764764
 11
11.4319064791
 21
8.6168704832
  0
LINE
  5
2B1
100
AcDbEntity
  8
0
100
AcDbLine
 62
7
  6
CONTINUOUS
 10
11.6946595628
 20
8.616779343
 11
11.5898214086
 21
8.6168728827
  0
LINE
  5
2B2
100
AcDbEntity
  8
0
100
AcDbLine
 62
7
  6
CONTINUOUS
 10
10.2344120875
 20
8.616764764
 11
10.1366333293
 21
8.6168704832
  0
LINE
  5
2B3
100
AcDbEntity
  8
0
100
AcDbLine
 62
7
  6
CONTINUOUS
 10
10.3676576099
 20
8.616779343
 11
10.2689961157
 21
8.6168728827
  0
LINE
  5
2B4
100
AcDbEntity
  8
0
100
AcDbLine
 62
7
  6
CONTINUOUS
 10
10.5364725844
 20
8.616764764
 11
10.4222488717
 21
8.6168704832
  0
LINE
  5
2B5
100
AcDbEntity
  8
0
100
AcDbLine
 62
7
  6
CONTINUOUS
 10
11.853608725
 20
8.616764764
 11
11.7487557676
 21
8.6168704832
  0
LINE
  5
2B6
100
AcDbEntity
  8
0
100
AcDbLine
 62
7
  6
CONTINUOUS
 10
11.9766762525
 20
8.616779343
 11
11.887645804
 21
8.6168728827
  0
LINE
  5
2B7
100
AcDbEntity
  8
0
100
AcDbLine
 62
7
  6
CONTINUOUS
 10
10.0910749685
 20
8.616779343
 11
10.0108212351
 21
8.6168728827
  0
LINE
  5
2B8
100
AcDbEntity
  8
0
100
AcDbLine
 62
7
  6
CONTINUOUS
 10
12.1059945613
 20
8.616764764
 11
12.0215311627
 21
8.6168704832
  0
LINE
  5
2B9
100
AcDbEntity
  8
0
100
AcDbLine
 62
7
  6
CONTINUOUS
 10
9.98342948
 20
8.616764764
 11
9.9082394752
 21
8.6168704832
  0
LINE
  5
2BA
100
AcDbEntity
  8
0
100
AcDbLine
 62
7
  6
CONTINUOUS
 10
12.2002979664
 20
8.616779343
 11
12.1326693342
 21
8.6168728827
  0
LINE
  5
2BB
100
AcDbEntity
  8
0
100
AcDbLine
 62
7
  6
CONTINUOUS
 10
9.8745766148
 20
8.616779343
 11
9.8177732794
 21
8.6168728827
  0
LINE
  5
2BC
100
AcDbEntity
  8
0
100
AcDbLine
 62
7
  6
CONTINUOUS
 10
12.291859877
 20
8.616764764
 11
12.2330931831
 21
8.6168704832
  0
LINE
  5
2BD
100
AcDbEntity
  8
0
100
AcDbLine
 62
7
  6
CONTINUOUS
 10
9.7992949222
 20
8.616764764
 11
9.7514181353
 21
8.6168704832
  0
LINE
  5
2BE
100
AcDbEntity
  8
0
100
AcDbLine
 62
7
  6
CONTINUOUS
 10
12.3514737299
 20
8.616779343
 11
12.3094962697
 21
8.6168728827
  0
LINE
  5
2BF
100
AcDbEntity
  8
0
100
AcDbLine
 62
7
  6
CONTINUOUS
 10
9.7317659367
 20
8.616779343
 11
9.7019821618
 21
8.6168728827
  0
LINE
  5
2C0
100
AcDbEntity
  8
0
100
AcDbLine
 62
7
  6
CONTINUOUS
 10
12.3995260708
 20
8.616764764
 11
12.3701486091
 21
8.6168704832
  0
LINE
  5
2C1
100
AcDbEntity
  8
0
100
AcDbLine
 62
7
  6
CONTINUOUS
 10
9.6935782655
 20
8.616764764
 11
9.6760229712
 21
8.6168704832
  0
LINE
  5
2C2
100
AcDbEntity
  8
0
100
AcDbLine
 62
7
  6
CONTINUOUS
 10
12.4207046139
 20
8.616779343
 11
12.4070159238
 21
8.6168728827
  0
LINE
  5
2C3
100
AcDbEntity
  8
0
100
AcDbLine
 62
7
  6
CONTINUOUS
 10
9.6716162542
 20
8.616779343
 11
9.6698967937
 21
8.6168426359
  0
LINE
  5
2C4
100
AcDbEntity
  8
0
100
AcDbLine
 62
7
  6
CONTINUOUS
 10
12.4247396807
 20
8.6168437575
 11
12.4240857441
 21
8.6168704832
  0
LINE
  5
2C5
100
AcDbEntity
  8
0
100
AcDbLine
 62
7
  6
CONTINUOUS
 10
12.4343710596
 20
8.6045886861
 11
12.4350326758
 21
8.6045527905
  0
LINE
  5
2C6
100
AcDbEntity
  8
0
100
AcDbLine
 62
7
  6
CONTINUOUS
 10
9.7890346206
 20
8.5175408742
 11
9.7890474713
 21
8.5175398134
  0
LINE
  5
2C7
100
AcDbEntity
  8
0
100
AcDbLine
 62
7
  6
CONTINUOUS
 10
11.8433868272
 20
8.5225905799
 11
11.8462880037
 21
8.5175398134
  0
LINE
  5
2C8
100
AcDbEntity
  8
0
100
AcDbLine
 62
7
  6
CONTINUOUS
 10
11.7112801978
 20
8.5213427512
 11
11.7131566401
 21
8.5175382038
  0
LINE
  5
2C9
100
AcDbEntity
  8
0
100
AcDbLine
 62
9
  6
CONTINUOUS
 10
11.7643594276
 20
8.5357679869
 11
11.7682896489
 21
8.5277993362
  0
LINE
  5
2CA
100
AcDbEntity
  8
0
100
AcDbLine
 62
9
  6
CONTINUOUS
 10
11.6273016568
 20
8.5400198135
 11
11.6322746009
 21
8.5277178338
  0
LINE
  5
2CB
100
AcDbEntity
  8
0
100
AcDbLine
 62
7
  6
CONTINUOUS
 10
11.7487557676
 20
8.6168704832
 11
11.753720553
 21
8.6045886861
  0
LINE
  5
2CC
100
AcDbEntity
  8
0
100
AcDbLine
 62
7
  6
CONTINUOUS
 10
11.853608725
 20
8.616764764
 11
11.8585924
 21
8.6044362382
  0
LINE
  5
2CD
100
AcDbEntity
  8
0
100
AcDbLine
 62
7
  6
CONTINUOUS
 10
11.6946595628
 20
8.616779343
 11
11.6984652082
 21
8.6044590794
  0
LINE
  5
2CE
100
AcDbEntity
  8
0
100
AcDbLine
 62
7
  6
CONTINUOUS
 10
11.3864698403
 20
5.7078605018
 11
11.3889100013
 21
5.7110248994
  0
LWPOLYLINE
  5
2CF
100
AcDbEntity
  8
0
100
AcDbPolyline
 62
7
  6
CONTINUOUS
 90
7
 70
0
 10
11.5086850578
 20
5.9478318608
 10
11.5101723457
 20
5.9491242177
 10
11.5150343939
 20
5.954945967
 10
11.5182809156
 20
5.9618010656
 10
11.5197043775
 20
5.9692513032
 10
11.519213785
 20
5.976820425
 10
11.5189021658
 20
5.9782423403
  0
LINE
  5
2D0
100
AcDbEntity
  8
0
100
AcDbLine
 62
7
  6
CONTINUOUS
 10
13.8041570779
 20
8.8053318604
 11
8.2904795986
 21
8.8053318604
  0
LINE
  5
2D1
100
AcDbEntity
  8
0
100
AcDbLine
 62
9
  6
CONTINUOUS
 10
14.0212377081
 20
8.9313318604
 11
8.0733989685
 21
8.9313318604
  0
LINE
  5
2D2
100
AcDbEntity
  8
0
100
AcDbLine
 62
7
  6
CONTINUOUS
 10
12.1434062038
 20
8.5198292082
 11
12.1451456261
 21
8.5175382038
  0
LINE
  5
2D3
100
AcDbEntity
  8
0
100
AcDbLine
 62
7
  6
CONTINUOUS
 10
12.0603314418
 20
8.5212068828
 11
12.0629294697
 21
8.5175398134
  0
LINE
  5
2D4
100
AcDbEntity
  8
0
100
AcDbLine
 62
9
  6
CONTINUOUS
 10
12.1107612624
 20
8.536356527
 11
12.1168815627
 21
8.5277178338
  0
LINE
  5
2D5
100
AcDbEntity
  8
0
100
AcDbLine
 62
7
  6
CONTINUOUS
 10
11.9558519187
 20
8.5204803841
 11
11.9577541483
 21
8.5175382038
  0
LINE
  5
2D6
100
AcDbEntity
  8
0
100
AcDbLine
 62
9
  6
CONTINUOUS
 10
12.0097357089
 20
8.5335141898
 11
12.0134305753
 21
8.5277993362
  0
LINE
  5
2D7
100
AcDbEntity
  8
0
100
AcDbLine
 62
9
  6
CONTINUOUS
 10
11.8943446757
 20
8.5400198135
 11
11.9014109724
 21
8.5277178338
  0
LINE
  5
2D8
100
AcDbEntity
  8
0
100
AcDbLine
 62
7
  6
CONTINUOUS
 10
12.0215311627
 20
8.6168704832
 11
12.0285858665
 21
8.6045886861
  0
LINE
  5
2D9
100
AcDbEntity
  8
0
100
AcDbLine
 62
7
  6
CONTINUOUS
 10
12.1059945613
 20
8.616764764
 11
12.1130761063
 21
8.6044362382
  0
LINE
  5
2DA
100
AcDbEntity
  8
0
100
AcDbLine
 62
7
  6
CONTINUOUS
 10
11.887645804
 20
8.6168728827
 11
11.8937029521
 21
8.6045918192
  0
LINE
  5
2DB
100
AcDbEntity
  8
0
100
AcDbLine
 62
7
  6
CONTINUOUS
 10
11.9766762525
 20
8.616779343
 11
11.9827527344
 21
8.6044590794
  0
LINE
  5
2DC
100
AcDbEntity
  8
0
100
AcDbLine
 62
7
  6
CONTINUOUS
 10
14.2382345161
 20
9.0573318464
 11
7.8564021604
 21
9.0573318464
  0
LINE
  5
2DD
100
AcDbEntity
  8
0
100
AcDbLine
 62
9
  6
CONTINUOUS
 10
14.4552392802
 20
9.1833346126
 11
7.6393973963
 21
9.1833346126
  0
LINE
  5
2DE
100
AcDbEntity
  8
0
100
AcDbLine
 62
7
  6
CONTINUOUS
 10
12.2942568923
 20
8.5186253628
 11
12.295165979
 21
8.5175398134
  0
LINE
  5
2DF
100
AcDbEntity
  8
0
100
AcDbLine
 62
9
  6
CONTINUOUS
 10
12.3353934994
 20
8.5295082499
 11
12.3368928723
 21
8.5277178338
  0
LINE
  5
2E0
100
AcDbEntity
  8
0
100
AcDbLine
 62
7
  6
CONTINUOUS
 10
12.4240857441
 20
8.6168704832
 11
12.4343710596
 21
8.6045886861
  0
LINE
  5
2E1
100
AcDbEntity
  8
0
100
AcDbLine
 62
7
  6
CONTINUOUS
 10
12.4350326795
 20
8.6045527965
 11
12.4247396844
 21
8.6168437639
  0
LINE
  5
2E2
100
AcDbEntity
  8
0
100
AcDbLine
 62
7
  6
CONTINUOUS
 10
12.2623694209
 20
8.5189785142
 11
12.2635565779
 21
8.5175382038
  0
LINE
  5
2E3
100
AcDbEntity
  8
0
100
AcDbLine
 62
9
  6
CONTINUOUS
 10
12.308338538
 20
8.5298277689
 11
12.310010447
 21
8.5277993362
  0
LINE
  5
2E4
100
AcDbEntity
  8
0
100
AcDbLine
 62
7
  6
CONTINUOUS
 10
12.4070159238
 20
8.6168728827
 11
12.4171384291
 21
8.6045918192
  0
LINE
  5
2E5
100
AcDbEntity
  8
0
100
AcDbLine
 62
7
  6
CONTINUOUS
 10
12.4207046139
 20
8.616779343
 11
12.4308594294
 21
8.6044590794
  0
LINE
  5
2E6
100
AcDbEntity
  8
0
100
AcDbLine
 62
7
  6
CONTINUOUS
 10
12.2137917041
 20
8.5200016836
 11
12.2157563532
 21
8.5175398134
  0
LINE
  5
2E7
100
AcDbEntity
  8
0
100
AcDbLine
 62
9
  6
CONTINUOUS
 10
12.2609806579
 20
8.5329393142
 11
12.265147562
 21
8.5277178338
  0
LINE
  5
2E8
100
AcDbEntity
  8
0
100
AcDbLine
 62
7
  6
CONTINUOUS
 10
12.3701486091
 20
8.6168704832
 11
12.379949866
 21
8.6045886861
  0
LINE
  5
2E9
100
AcDbEntity
  8
0
100
AcDbLine
 62
7
  6
CONTINUOUS
 10
12.3995260708
 20
8.616764764
 11
12.4093646187
 21
8.6044362382
  0
LINE
  5
2EA
100
AcDbEntity
  8
0
100
AcDbLine
 62
9
  6
CONTINUOUS
 10
12.1949112122
 20
8.5316925772
 11
12.1978671167
 21
8.5277993362
  0
LINE
  5
2EB
100
AcDbEntity
  8
0
100
AcDbLine
 62
7
  6
CONTINUOUS
 10
12.3094962697
 20
8.6168728827
 11
12.3188205449
 21
8.6045918192
  0
LINE
  5
2EC
100
AcDbEntity
  8
0
100
AcDbLine
 62
7
  6
CONTINUOUS
 10
12.3514737299
 20
8.616779343
 11
12.3608277674
 21
8.6044590794
  0
LINE
  5
2ED
100
AcDbEntity
  8
0
100
AcDbLine
 62
7
  6
CONTINUOUS
 10
12.2330931831
 20
8.6168704832
 11
12.2417945324
 21
8.6045886861
  0
LINE
  5
2EE
100
AcDbEntity
  8
0
100
AcDbLine
 62
7
  6
CONTINUOUS
 10
12.291859877
 20
8.616764764
 11
12.3005943325
 21
8.6044362382
  0
LINE
  5
2EF
100
AcDbEntity
  8
0
100
AcDbLine
 62
7
  6
CONTINUOUS
 10
12.1326693342
 20
8.6168728827
 11
12.1406095008
 21
8.6045918192
  0
LINE
  5
2F0
100
AcDbEntity
  8
0
100
AcDbLine
 62
7
  6
CONTINUOUS
 10
12.2002979664
 20
8.616779343
 11
12.2082634773
 21
8.6044590794
  0
LINE
  5
2F1
100
AcDbEntity
  8
0
100
AcDbLine
 62
7
  6
CONTINUOUS
 10
12.4350326758
 20
8.6045527905
 11
12.4350329521
 21
8.6045504644
  0
LINE
  5
2F2
100
AcDbEntity
  8
0
100
AcDbLine
 62
7
  6
CONTINUOUS
 10
14.6723183383
 20
9.3093318604
 11
7.4223183383
 21
9.3093318604
  0
LINE
  5
2F3
100
AcDbEntity
  8
0
100
AcDbLine
 62
7
  6
CONTINUOUS
 10
14.9223183383
 20
9.5593318604
 11
7.1723183383
 21
9.5593318604
  0
ARC
  5
2F4
100
AcDbEntity
  8
0
100
AcDbCircle
 62
7
  6
CONTINUOUS
 10
9.6974926399
 20
-12.748293131
 40
21.3529274068
100
AcDbArc
 50
89.753235234
 51
89.8816024431
  0
ARC
  5
2F5
100
AcDbEntity
  8
0
100
AcDbCircle
 62
7
  6
CONTINUOUS
 10
9.1030836233
 20
7.2076833139
 40
1.4
100
AcDbArc
 50
1.8945452827
 51
49.3791708116
  0
ARC
  5
2F6
100
AcDbEntity
  8
0
100
AcDbCircle
 62
7
  6
CONTINUOUS
 10
7.8564859863
 20
9.3073428097
 40
0.2500109774
100
AcDbArc
 50
209.7364395186
 51
269.9807893772
  0
ARC
  5
2F7
100
AcDbEntity
  8
0
100
AcDbCircle
 62
7
  6
CONTINUOUS
 10
7.4223183383
 20
9.5593318604
 40
0.25
100
AcDbArc
 50
180.0
 51
270.0
  0
ARC
  5
2F8
100
AcDbEntity
  8
0
100
AcDbCircle
 62
7
  6
CONTINUOUS
 10
7.4223183383
 20
9.0593318604
 40
0.25
100
AcDbArc
 50
29.7364395186
 51
90.0
  0
ARC
  5
2F9
100
AcDbEntity
  8
0
100
AcDbCircle
 62
7
  6
CONTINUOUS
 10
7.8563183383
 20
8.8073318604
 40
0.25
100
AcDbArc
 50
29.7357131076
 51
89.9807893772
  0
ARC
  5
2FA
100
AcDbEntity
  8
0
100
AcDbCircle
 62
7
  6
CONTINUOUS
 10
8.2904795986
 20
9.0553318604
 40
0.25
100
AcDbArc
 50
209.7357131076
 51
270.0
  0
ARC
  5
2FB
100
AcDbEntity
  8
0
100
AcDbCircle
 62
7
  6
CONTINUOUS
 10
9.6527384329
 20
-3.4980115705
 40
12.1026666185
100
AcDbArc
 50
89.6739449425
 51
89.8147941298
  0
ARC
  5
2FC
100
AcDbEntity
  8
0
100
AcDbCircle
 62
9
  6
CONTINUOUS
 10
9.9869349841
 20
6.0175857535
 40
1.5388179234
100
AcDbArc
 50
345.0899160091
 51
346.655626843
  0
ARC
  5
2FD
100
AcDbEntity
  8
0
100
AcDbCircle
 62
9
  6
CONTINUOUS
 10
9.9872444271
 20
5.6231558503
 40
1.5384988596
100
AcDbArc
 50
13.3442107933
 51
14.9102463546
  0
ARC
  5
2FE
100
AcDbEntity
  8
0
100
AcDbCircle
 62
7
  6
CONTINUOUS
 10
9.9155355246
 20
6.0189857551
 40
1.4999953723
100
AcDbArc
 50
342.6889670888
 51
342.7835088016
  0
ARC
  5
2FF
100
AcDbEntity
  8
0
100
AcDbCircle
 62
7
  6
CONTINUOUS
 10
10.1773164502
 20
8.4600905294
 40
0.25
100
AcDbArc
 50
191.4805151999
 51
229.3791708116
  0
ARC
  5
300
100
AcDbEntity
  8
0
100
AcDbCircle
 62
7
  6
CONTINUOUS
 10
9.8724460011
 20
8.6975646612
 40
0.1889678869
100
AcDbArc
 50
243.1457952706
 51
246.7655338868
  0
ARC
  5
301
100
AcDbEntity
  8
0
100
AcDbCircle
 62
7
  6
CONTINUOUS
 10
9.8192165853
 20
8.7022100761
 40
0.1871193873
100
AcDbArc
 50
211.4605179007
 51
212.5441751209
  0
ARC
  5
302
100
AcDbEntity
  8
0
100
AcDbCircle
 62
7
  6
CONTINUOUS
 10
9.8173947131
 20
8.6985000753
 40
0.1829846106
100
AcDbArc
 50
249.1572973907
 51
252.5648213008
  0
ARC
  5
303
100
AcDbEntity
  8
0
100
AcDbCircle
 62
7
  6
CONTINUOUS
 10
9.8170669344
 20
8.6976554694
 40
0.1820786503
100
AcDbArc
 50
247.8825267318
 51
249.1591273178
  0
ARC
  5
304
100
AcDbEntity
  8
0
100
AcDbCircle
 62
7
  6
CONTINUOUS
 10
9.816480659
 20
8.6956827225
 40
0.180022824
100
AcDbArc
 50
252.5737027275
 51
253.2669200575
  0
ARC
  5
305
100
AcDbEntity
  8
0
100
AcDbCircle
 62
7
  6
CONTINUOUS
 10
9.834956698
 20
8.6911049883
 40
0.1789264998
100
AcDbArc
 50
240.919077431
 51
243.211953507
  0
ARC
  5
306
100
AcDbEntity
  8
0
100
AcDbCircle
 62
7
  6
CONTINUOUS
 10
9.817637769
 20
8.6928442364
 40
0.1776298918
100
AcDbArc
 50
248.3739965315
 51
252.5948619925
  0
ARC
  5
307
100
AcDbEntity
  8
0
100
AcDbCircle
 62
7
  6
CONTINUOUS
 10
9.8174303879
 20
8.6922687958
 40
0.1770188782
100
AcDbArc
 50
252.9318375027
 51
259.8714001577
  0
ARC
  5
308
100
AcDbEntity
  8
0
100
AcDbCircle
 62
7
  6
CONTINUOUS
 10
9.817333833
 20
8.6918923626
 40
0.1766306858
100
AcDbArc
 50
252.5965777393
 51
252.9259388393
  0
ARC
  5
309
100
AcDbEntity
  8
0
100
AcDbCircle
 62
7
  6
CONTINUOUS
 10
9.8128482126
 20
8.6920029006
 40
0.1750176214
100
AcDbArc
 50
210.0132354032
 51
210.8099311617
  0
ARC
  5
30A
100
AcDbEntity
  8
0
100
AcDbCircle
 62
7
  6
CONTINUOUS
 10
9.832981057
 20
8.6871991679
 40
0.1745494483
100
AcDbArc
 50
243.2130353059
 51
245.7126409221
  0
ARC
  5
30B
100
AcDbEntity
  8
0
100
AcDbCircle
 62
7
  6
CONTINUOUS
 10
9.8161405269
 20
8.6890918773
 40
0.1735898606
100
AcDbArc
 50
246.0933205936
 51
248.3769444745
  0
ARC
  5
30C
100
AcDbEntity
  8
0
100
AcDbCircle
 62
7
  6
CONTINUOUS
 10
9.8155020576
 20
8.6876498497
 40
0.1720128109
100
AcDbArc
 50
242.3282627299
 51
246.0930920748
  0
ARC
  5
30D
100
AcDbEntity
  8
0
100
AcDbCircle
 62
7
  6
CONTINUOUS
 10
9.8301899062
 20
8.6810647253
 40
0.1678099044
100
AcDbArc
 50
245.7197904094
 51
249.9844386632
  0
ARC
  5
30E
100
AcDbEntity
  8
0
100
AcDbCircle
 62
7
  6
CONTINUOUS
 10
9.8330542961
 20
8.6755449181
 40
0.1658210716
100
AcDbArc
 50
205.3931902624
 51
206.830663004
  0
ARC
  5
30F
100
AcDbEntity
  8
0
100
AcDbCircle
 62
7
  6
CONTINUOUS
 10
9.8139994777
 20
8.693325291
 40
0.1616547695
100
AcDbArc
 50
208.2627016876
 51
209.4965776953
  0
ARC
  5
310
100
AcDbEntity
  8
0
100
AcDbCircle
 62
7
  6
CONTINUOUS
 10
9.8349804317
 20
8.678615212
 40
0.1543374566
100
AcDbArc
 50
203.6249563594
 51
205.080334028
  0
ARC
  5
311
100
AcDbEntity
  8
0
100
AcDbCircle
 62
7
  6
CONTINUOUS
 10
9.8340525286
 20
8.6781797255
 40
0.1533124437
100
AcDbArc
 50
205.0799233795
 51
206.231412928
  0
ARC
  5
312
100
AcDbEntity
  8
0
100
AcDbCircle
 62
7
  6
CONTINUOUS
 10
9.9458756734
 20
8.6505255677
 40
0.1504184447
100
AcDbArc
 50
192.9702974103
 51
198.5062024352
  0
ARC
  5
313
100
AcDbEntity
  8
0
100
AcDbCircle
 62
7
  6
CONTINUOUS
 10
9.8719678406
 20
8.6647365484
 40
0.1481771488
100
AcDbArc
 50
198.8836713188
 51
204.8127071199
  0
ARC
  5
314
100
AcDbEntity
  8
0
100
AcDbCircle
 62
7
  6
CONTINUOUS
 10
9.9311903746
 20
8.6476282926
 40
0.1422763834
100
AcDbArc
 50
237.3759966686
 51
239.8429755281
  0
ARC
  5
315
100
AcDbEntity
  8
0
100
AcDbCircle
 62
7
  6
CONTINUOUS
 10
9.8256929551
 20
8.6562561408
 40
0.1415001307
100
AcDbArc
 50
254.8251045177
 51
258.6193502054
  0
ARC
  5
316
100
AcDbEntity
  8
0
100
AcDbCircle
 62
7
  6
CONTINUOUS
 10
9.8234901841
 20
8.6563346341
 40
0.1407992365
100
AcDbArc
 50
238.1178401703
 51
245.9089135968
  0
ARC
  5
317
100
AcDbEntity
  8
0
100
AcDbCircle
 62
7
  6
CONTINUOUS
 10
9.8673316143
 20
8.6524004049
 40
0.1407284601
100
AcDbArc
 50
242.3723363239
 51
246.8055999091
  0
ARC
  5
318
100
AcDbEntity
  8
0
100
AcDbCircle
 62
7
  6
CONTINUOUS
 10
9.8232229986
 20
8.6558682481
 40
0.1402620922
100
AcDbArc
 50
234.8073382364
 51
238.1098925589
  0
ARC
  5
319
100
AcDbEntity
  8
0
100
AcDbCircle
 62
7
  6
CONTINUOUS
 10
9.8634560434
 20
8.6434623555
 40
0.1309864441
100
AcDbArc
 50
246.8239951022
 51
248.0372071281
  0
ARC
  5
31A
100
AcDbEntity
  8
0
100
AcDbCircle
 62
7
  6
CONTINUOUS
 10
9.8532150607
 20
8.6254824116
 40
0.1103373977
100
AcDbArc
 50
235.5617145289
 51
236.3708971574
  0
ARC
  5
31B
100
AcDbEntity
  8
0
100
AcDbCircle
 62
7
  6
CONTINUOUS
 10
9.8526479748
 20
8.6245969315
 40
0.1092860526
100
AcDbArc
 50
236.3613483676
 51
242.4332955616
  0
ARC
  5
31C
100
AcDbEntity
  8
0
100
AcDbCircle
 62
7
  6
CONTINUOUS
 10
9.9723183383
 20
8.5019833743
 40
0.1
100
AcDbArc
 50
180.0
 51
246.4218215218
  0
ARC
  5
31D
100
AcDbEntity
  8
0
100
AcDbCircle
 62
7
  6
CONTINUOUS
 10
9.9055867573
 20
8.6046393653
 40
0.092416451
100
AcDbArc
 50
222.2984484377
 51
223.3128019042
  0
ARC
  5
31E
100
AcDbEntity
  8
0
100
AcDbCircle
 62
7
  6
CONTINUOUS
 10
9.6378884115
 20
8.6131926994
 40
0.03
100
AcDbArc
 50
26.1472811424
 51
64.7746660919
  0
ARC
  5
31F
100
AcDbEntity
  8
0
100
AcDbCircle
 62
7
  6
CONTINUOUS
 10
10.239645034
 20
8.5526603254
 40
0.0219561496
100
AcDbArc
 50
282.5676524068
 51
283.2958113721
  0
ARC
  5
320
100
AcDbEntity
  8
0
100
AcDbCircle
 62
7
  6
CONTINUOUS
 10
9.8120679494
 20
8.5123446053
 40
0.018
100
AcDbArc
 50
9.552927071
 51
16.9450064816
  0
ARC
  5
321
100
AcDbEntity
  8
0
100
AcDbCircle
 62
7
  6
CONTINUOUS
 10
10.1257006457
 20
8.5214440002
 40
0.0041624956
100
AcDbArc
 50
330.1343015603
 51
335.0719235397
  0
ARC
  5
322
100
AcDbEntity
  8
0
100
AcDbCircle
 62
9
  6
CONTINUOUS
 10
11.0470670926
 20
6.3265511697
 40
0.6641297651
100
AcDbArc
 50
266.5899374078
 51
270.0216481792
  0
ARC
  5
323
100
AcDbEntity
  8
0
100
AcDbCircle
 62
9
  6
CONTINUOUS
 10
11.0470533676
 20
5.314431143
 40
0.6638117156
100
AcDbArc
 50
89.9770539198
 51
93.4107651432
  0
ARC
  5
324
100
AcDbEntity
  8
0
100
AcDbCircle
 62
9
  6
CONTINUOUS
 10
10.9766121186
 20
6.1082723117
 40
0.3266414991
100
AcDbArc
 50
272.3041480949
 51
275.2746980303
  0
ARC
  5
325
100
AcDbEntity
  8
0
100
AcDbCircle
 62
7
  6
CONTINUOUS
 10
10.9196859441
 20
7.0615156633
 40
0.25
100
AcDbArc
 50
188.3219461858
 51
224.8081561684
  0
ARC
  5
326
100
AcDbEntity
  8
0
100
AcDbCircle
 62
7
  6
CONTINUOUS
 10
10.813084787
 20
5.8203318604
 40
0.2431769795
100
AcDbArc
 50
170.9061458753
 51
189.0938681979
  0
ARC
  5
327
100
AcDbEntity
  8
0
100
AcDbCircle
 62
7
  6
CONTINUOUS
 10
11.0273695995
 20
5.8998266931
 40
0.231679532
100
AcDbArc
 50
356.3853429946
 51
358.3308506742
  0
ARC
  5
328
100
AcDbEntity
  8
0
100
AcDbCircle
 62
7
  6
CONTINUOUS
 10
10.9292650422
 20
5.8998391793
 40
0.207765168
100
AcDbArc
 50
355.966688472
 51
358.1350397866
  0
ARC
  5
329
100
AcDbEntity
  8
0
100
AcDbCircle
 62
7
  6
CONTINUOUS
 10
10.9319854637
 20
5.8477698601
 40
0.1785303598
100
AcDbArc
 50
308.4056093954
 51
310.2599394677
  0
ARC
  5
32A
100
AcDbEntity
  8
0
100
AcDbCircle
 62
7
  6
CONTINUOUS
 10
10.6557928781
 20
6.5797415749
 40
0.06
100
AcDbArc
 50
340.7099537808
 51
11.156817447
  0
ARC
  5
32B
100
AcDbEntity
  8
0
100
AcDbCircle
 62
7
  6
CONTINUOUS
 10
10.7367098416
 20
6.447682269
 40
0.06
100
AcDbArc
 50
160.7099537808
 51
203.4709931182
  0
ARC
  5
32C
100
AcDbEntity
  8
0
100
AcDbCircle
 62
7
  6
CONTINUOUS
 10
10.6883668179
 20
6.2577257336
 40
0.06
100
AcDbArc
 50
332.4027041314
 51
23.4709931182
  0
ARC
  5
32D
100
AcDbEntity
  8
0
100
AcDbCircle
 62
7
  6
CONTINUOUS
 10
10.7573183383
 20
6.1305959482
 40
0.06
100
AcDbArc
 50
152.4027041314
 51
180.0
  0
ARC
  5
32E
100
AcDbEntity
  8
0
100
AcDbCircle
 62
7
  6
CONTINUOUS
 10
11.0126636408
 20
5.7460146219
 40
0.0486723741
100
AcDbArc
 50
307.5368568175
 51
308.3947726001
  0
ARC
  5
32F
100
AcDbEntity
  8
0
100
AcDbCircle
 62
7
  6
CONTINUOUS
 10
10.9223183383
 20
5.4253318604
 40
0.02
100
AcDbArc
 50
180.0
 51
270.0
  0
ARC
  5
330
100
AcDbEntity
  8
0
100
AcDbCircle
 62
7
  6
CONTINUOUS
 10
10.8473183383
 20
5.4653318604
 40
0.02
100
AcDbArc
 50
180.0
 51
270.0
  0
ARC
  5
331
100
AcDbEntity
  8
0
100
AcDbCircle
 62
7
  6
CONTINUOUS
 10
10.7673183383
 20
5.5153318604
 40
0.02
100
AcDbArc
 50
180.0
 51
270.0
  0
ARC
  5
332
100
AcDbEntity
  8
0
100
AcDbCircle
 62
7
  6
CONTINUOUS
 10
10.3502330343
 20
8.8344783657
 40
0.726
100
AcDbArc
 50
182.3008549133
 51
195.5107653603
  0
ARC
  5
333
100
AcDbEntity
  8
0
100
AcDbCircle
 62
7
  6
CONTINUOUS
 10
10.7521816803
 20
7.2622323598
 40
0.25
100
AcDbArc
 50
181.8945452827
 51
251.37012988
  0
ARC
  5
334
100
AcDbEntity
  8
0
100
AcDbCircle
 62
7
  6
CONTINUOUS
 10
11.0143223503
 20
8.7360942758
 40
0.2398853204
100
AcDbArc
 50
306.4108119733
 51
308.2207728568
  0
ARC
  5
335
100
AcDbEntity
  8
0
100
AcDbCircle
 62
7
  6
CONTINUOUS
 10
10.7961311892
 20
8.6413461609
 40
0.1102612328
100
AcDbArc
 50
278.6856641045
 51
280.387840427
  0
ARC
  5
336
100
AcDbEntity
  8
0
100
AcDbCircle
 62
7
  6
CONTINUOUS
 10
10.9252281861
 20
8.5840343017
 40
0.0637502769
100
AcDbArc
 50
287.9967935308
 51
289.4508433272
  0
ARC
  5
337
100
AcDbEntity
  8
0
100
AcDbCircle
 62
7
  6
CONTINUOUS
 10
10.9278340526
 20
8.5768328926
 40
0.0560921528
100
AcDbArc
 50
289.3904870031
 51
292.7167992222
  0
ARC
  5
338
100
AcDbEntity
  8
0
100
AcDbCircle
 62
7
  6
CONTINUOUS
 10
10.783136624
 20
8.5718154776
 40
0.0496310078
100
AcDbArc
 50
296.1181036537
 51
298.2558593302
  0
ARC
  5
339
100
AcDbEntity
  8
0
100
AcDbCircle
 62
7
  6
CONTINUOUS
 10
12.1085346137
 20
-24.9839191373
 40
33.5885262713
100
AcDbArc
 50
89.8298808548
 51
89.9452861992
  0
ARC
  5
33A
100
AcDbEntity
  8
0
100
AcDbCircle
 62
7
  6
CONTINUOUS
 10
12.2131339627
 20
-13.7896588762
 40
22.3942659024
100
AcDbArc
 50
89.7762318791
 51
89.9266718483
  0
ARC
  5
33B
100
AcDbEntity
  8
0
100
AcDbCircle
 62
7
  6
CONTINUOUS
 10
12.3015922105
 20
-3.4944656857
 40
12.099069771
100
AcDbArc
 50
89.7194857927
 51
89.9184142916
  0
ARC
  5
33C
100
AcDbEntity
  8
0
100
AcDbCircle
 62
7
  6
CONTINUOUS
 10
11.6658824932
 20
5.7299460581
 40
0.3410753624
100
AcDbArc
 50
151.5185798446
 51
152.9196585216
  0
ARC
  5
33D
100
AcDbEntity
  8
0
100
AcDbCircle
 62
7
  6
CONTINUOUS
 10
11.0765534607
 20
5.8957691178
 40
0.2861733522
100
AcDbArc
 50
353.3352681241
 51
357.8863606684
  0
ARC
  5
33E
100
AcDbEntity
  8
0
100
AcDbCircle
 62
7
  6
CONTINUOUS
 10
11.0778890656
 20
5.8957209075
 40
0.2848368779
100
AcDbArc
 50
357.8861430848
 51
359.7232861081
  0
ARC
  5
33F
100
AcDbEntity
  8
0
100
AcDbCircle
 62
7
  6
CONTINUOUS
 10
11.168560835
 20
5.8759686553
 40
0.2752500211
100
AcDbArc
 50
333.7980037962
 51
5.0686358384
  0
ARC
  5
340
100
AcDbEntity
  8
0
100
AcDbCircle
 62
7
  6
CONTINUOUS
 10
11.16899983
 20
5.8756701177
 40
0.2747269968
100
AcDbArc
 50
332.3029912989
 51
333.8134427664
  0
ARC
  5
341
100
AcDbEntity
  8
0
100
AcDbCircle
 62
7
  6
CONTINUOUS
 10
11.1698573142
 20
5.8752163035
 40
0.273756834
100
AcDbArc
 50
323.1446079843
 51
332.3036736372
  0
ARC
  5
342
100
AcDbEntity
  8
0
100
AcDbCircle
 62
7
  6
CONTINUOUS
 10
11.5883732627
 20
5.7408214443
 40
0.2627554128
100
AcDbArc
 50
176.8112217363
 51
178.5247549495
  0
ARC
  5
343
100
AcDbEntity
  8
0
100
AcDbCircle
 62
7
  6
CONTINUOUS
 10
11.2364370476
 20
5.8513335091
 40
0.2619350356
100
AcDbArc
 50
328.0262594392
 51
335.5711911929
  0
ARC
  5
344
100
AcDbEntity
  8
0
100
AcDbCircle
 62
7
  6
CONTINUOUS
 10
11.291799749
 20
5.8243349899
 40
0.251750735
100
AcDbArc
 50
335.4839809733
 51
336.7193792777
  0
ARC
  5
345
100
AcDbEntity
  8
0
100
AcDbCircle
 62
7
  6
CONTINUOUS
 10
11.1921009081
 20
5.7580444937
 40
0.2241566777
100
AcDbArc
 50
128.7730048298
 51
130.2185548095
  0
ARC
  5
346
100
AcDbEntity
  8
0
100
AcDbCircle
 62
7
  6
CONTINUOUS
 10
11.4337525332
 20
5.7408225064
 40
0.2199312245
100
AcDbArc
 50
176.1874195531
 51
178.2379649398
  0
ARC
  5
347
100
AcDbEntity
  8
0
100
AcDbCircle
 62
7
  6
CONTINUOUS
 10
11.2918677659
 20
5.7408241358
 40
0.2043968122
100
AcDbArc
 50
175.8964585808
 51
178.1045916822
  0
ARC
  5
348
100
AcDbEntity
  8
0
100
AcDbCircle
 62
7
  6
CONTINUOUS
 10
11.1706283596
 20
5.7834706552
 40
0.1908766607
100
AcDbArc
 50
130.2250407097
 51
132.2381966197
  0
ARC
  5
349
100
AcDbEntity
  8
0
100
AcDbCircle
 62
7
  6
CONTINUOUS
 10
11.649706924
 20
5.7323865653
 40
0.1539324043
100
AcDbArc
 50
187.2458949811
 51
188.3303673108
  0
ARC
  5
34A
100
AcDbEntity
  8
0
100
AcDbCircle
 62
7
  6
CONTINUOUS
 10
11.4051971013
 20
5.7460219456
 40
0.0630117396
100
AcDbArc
 50
312.6825100876
 51
328.0001052995
  0
ARC
  5
34B
100
AcDbEntity
  8
0
100
AcDbCircle
 62
7
  6
CONTINUOUS
 10
11.2997196842
 20
5.894648519
 40
0.0630036672
100
AcDbArc
 50
359.7242263705
 51
23.8613592574
  0
ARC
  5
34C
100
AcDbEntity
  8
0
100
AcDbCircle
 62
7
  6
CONTINUOUS
 10
11.379982536
 20
5.8946490743
 40
0.0630000508
100
AcDbArc
 50
5.1336931414
 51
43.6567533741
  0
ARC
  5
34D
100
AcDbEntity
  8
0
100
AcDbCircle
 62
7
  6
CONTINUOUS
 10
11.4311700596
 20
5.8946489634
 40
0.0630000346
100
AcDbArc
 50
12.1816968937
 51
50.4844800611
  0
ARC
  5
34E
100
AcDbEntity
  8
0
100
AcDbCircle
 62
7
  6
CONTINUOUS
 10
11.4475642376
 20
6.0023318604
 40
0.063
100
AcDbArc
 50
15.3607050932
 51
90.0
  0
ARC
  5
34F
100
AcDbEntity
  8
0
100
AcDbCircle
 62
7
  6
CONTINUOUS
 10
11.4475641986
 20
5.6383318604
 40
0.063
100
AcDbArc
 50
270.0
 51
344.6392909421
  0
ARC
  5
350
100
AcDbEntity
  8
0
100
AcDbCircle
 62
7
  6
CONTINUOUS
 10
11.4565099603
 20
5.8946492174
 40
0.0629994671
100
AcDbArc
 50
17.3878105612
 51
51.8443590847
  0
ARC
  5
351
100
AcDbEntity
  8
0
100
AcDbCircle
 62
7
  6
CONTINUOUS
 10
11.4635370166
 20
5.7460128774
 40
0.0629968148
100
AcDbArc
 50
307.8858162422
 51
335.4831005171
  0
ARC
  5
352
100
AcDbEntity
  8
0
100
AcDbCircle
 62
7
  6
CONTINUOUS
 10
11.4435969604
 20
5.7460127164
 40
0.0629967408
100
AcDbArc
 50
308.6741829472
 51
332.6804132449
  0
ARC
  5
353
100
AcDbEntity
  8
0
100
AcDbCircle
 62
7
  6
CONTINUOUS
 10
11.468962416
 20
5.8946507172
 40
0.0629966554
100
AcDbArc
 50
20.3361599803
 51
52.3231194104
  0
ARC
  5
354
100
AcDbEntity
  8
0
100
AcDbCircle
 62
7
  6
CONTINUOUS
 10
11.4702484425
 20
5.7460073816
 40
0.0629725393
100
AcDbArc
 50
307.6277687553
 51
338.3777108526
  0
ARC
  5
355
100
AcDbEntity
  8
0
100
AcDbCircle
 62
7
  6
CONTINUOUS
 10
11.4062698587
 20
6.2577257336
 40
0.06
100
AcDbArc
 50
156.5290068818
 51
207.5972958686
  0
ARC
  5
356
100
AcDbEntity
  8
0
100
AcDbCircle
 62
7
  6
CONTINUOUS
 10
11.3373183383
 20
6.1305959482
 40
0.06
100
AcDbArc
 50
0.0
 51
27.5972958686
  0
ARC
  5
357
100
AcDbEntity
  8
0
100
AcDbCircle
 62
7
  6
CONTINUOUS
 10
11.4897620367
 20
5.6695527
 40
0.0299999999
100
AcDbArc
 50
346.2485997869
 51
50.8932391299
  0
ARC
  5
358
100
AcDbEntity
  8
0
100
AcDbCircle
 62
7
  6
CONTINUOUS
 10
11.1723183383
 20
5.4253318604
 40
0.02
100
AcDbArc
 50
270.0
 51
360.0
  0
ARC
  5
359
100
AcDbEntity
  8
0
100
AcDbCircle
 62
7
  6
CONTINUOUS
 10
11.2473183383
 20
5.4653318604
 40
0.02
100
AcDbArc
 50
270.0
 51
360.0
  0
ARC
  5
35A
100
AcDbEntity
  8
0
100
AcDbCircle
 62
7
  6
CONTINUOUS
 10
11.3273183383
 20
5.5153318604
 40
0.02
100
AcDbArc
 50
270.0
 51
360.0
  0
ARC
  5
35B
100
AcDbEntity
  8
0
100
AcDbCircle
 62
7
  6
CONTINUOUS
 10
11.7444036422
 20
8.8344783657
 40
0.726
100
AcDbArc
 50
344.4892346397
 51
357.6991450867
  0
ARC
  5
35C
100
AcDbEntity
  8
0
100
AcDbCircle
 62
7
  6
CONTINUOUS
 10
11.6779770462
 20
8.8181447555
 40
0.2906757699
100
AcDbArc
 50
293.6574339341
 51
310.2884485831
  0
ARC
  5
35D
100
AcDbEntity
  8
0
100
AcDbCircle
 62
7
  6
CONTINUOUS
 10
11.6824051375
 20
8.8129311108
 40
0.2838354452
100
AcDbArc
 50
310.2871542299
 51
316.3108014516
  0
ARC
  5
35E
100
AcDbEntity
  8
0
100
AcDbCircle
 62
7
  6
CONTINUOUS
 10
11.1749507325
 20
7.0615156633
 40
0.25
100
AcDbArc
 50
315.1918438316
 51
351.6780538142
  0
ARC
  5
35F
100
AcDbEntity
  8
0
100
AcDbCircle
 62
7
  6
CONTINUOUS
 10
11.3424549963
 20
7.2622323598
 40
0.25
100
AcDbArc
 50
288.62987012
 51
358.1054547173
  0
ARC
  5
360
100
AcDbEntity
  8
0
100
AcDbCircle
 62
7
  6
CONTINUOUS
 10
11.3597316462
 20
8.7436182384
 40
0.2345211743
100
AcDbArc
 50
297.0412328489
 51
299.288564992
  0
ARC
  5
361
100
AcDbEntity
  8
0
100
AcDbCircle
 62
7
  6
CONTINUOUS
 10
11.3908865578
 20
8.7253967863
 40
0.2061947309
100
AcDbArc
 50
279.8230946534
 51
281.5682547286
  0
ARC
  5
362
100
AcDbEntity
  8
0
100
AcDbCircle
 62
7
  6
CONTINUOUS
 10
11.0845084661
 20
8.658424969
 40
0.1386603632
100
AcDbArc
 50
282.8718154754
 51
283.6900964458
  0
ARC
  5
363
100
AcDbEntity
  8
0
100
AcDbCircle
 62
7
  6
CONTINUOUS
 10
11.2520250055
 20
8.5908984232
 40
0.0687412729
100
AcDbArc
 50
292.1788897307
 51
295.7346585833
  0
ARC
  5
364
100
AcDbEntity
  8
0
100
AcDbCircle
 62
7
  6
CONTINUOUS
 10
11.4388437985
 20
6.5797415749
 40
0.06
100
AcDbArc
 50
168.843182553
 51
199.2900462192
  0
ARC
  5
365
100
AcDbEntity
  8
0
100
AcDbCircle
 62
7
  6
CONTINUOUS
 10
11.357926835
 20
6.447682269
 40
0.06
100
AcDbArc
 50
336.5290068818
 51
19.2900462192
  0
ARC
  5
366
100
AcDbEntity
  8
0
100
AcDbCircle
 62
7
  6
CONTINUOUS
 10
12.369276744
 20
3.7073563349
 40
4.8972439818
100
AcDbArc
 50
89.5309827949
 51
89.8751286778
  0
ARC
  5
367
100
AcDbEntity
  8
0
100
AcDbCircle
 62
7
  6
CONTINUOUS
 10
12.0540859297
 20
5.6216779657
 40
1.4999818221
100
AcDbArc
 50
164.639102312
 51
170.9056086043
  0
ARC
  5
368
100
AcDbEntity
  8
0
100
AcDbCircle
 62
7
  6
CONTINUOUS
 10
12.0540859325
 20
6.0189857551
 40
1.4999773814
100
AcDbArc
 50
189.094393733
 51
195.3609513525
  0
ARC
  5
369
100
AcDbEntity
  8
0
100
AcDbCircle
 62
7
  6
CONTINUOUS
 10
12.5618804912
 20
5.7436743146
 40
1.0542698309
100
AcDbArc
 50
182.270900637
 51
182.4725438911
  0
ARC
  5
36A
100
AcDbEntity
  8
0
100
AcDbCircle
 62
7
  6
CONTINUOUS
 10
11.9431795207
 20
5.7159163522
 40
0.5325147365
100
AcDbArc
 50
159.7639213829
 51
160.0131732415
  0
ARC
  5
36B
100
AcDbEntity
  8
0
100
AcDbCircle
 62
7
  6
CONTINUOUS
 10
11.9408926954
 20
5.7167623286
 40
0.5300764505
100
AcDbArc
 50
159.333312544
 51
159.7642208921
  0
ARC
  5
36C
100
AcDbEntity
  8
0
100
AcDbCircle
 62
7
  6
CONTINUOUS
 10
11.979295177
 20
5.8223863483
 40
0.502622897
100
AcDbArc
 50
167.2658928994
 51
168.3991393248
  0
ARC
  5
36D
100
AcDbEntity
  8
0
100
AcDbCircle
 62
7
  6
CONTINUOUS
 10
11.9173202263
 20
8.4600905294
 40
0.25
100
AcDbArc
 50
310.6208291884
 51
348.5194848001
  0
ARC
  5
36E
100
AcDbEntity
  8
0
100
AcDbCircle
 62
7
  6
CONTINUOUS
 10
12.1223183383
 20
8.5019833743
 40
0.1
100
AcDbArc
 50
293.5781784782
 51
360.0
  0
ARC
  5
36F
100
AcDbEntity
  8
0
100
AcDbCircle
 62
7
  6
CONTINUOUS
 10
11.9248616532
 20
8.8192309526
 40
0.3045929103
100
AcDbArc
 50
286.9045404309
 51
287.3292240483
  0
ARC
  5
370
100
AcDbEntity
  8
0
100
AcDbCircle
 62
7
  6
CONTINUOUS
 10
12.108250833
 20
8.8100481286
 40
0.2924271588
100
AcDbArc
 50
277.1682851699
 51
277.9093564676
  0
ARC
  5
371
100
AcDbEntity
  8
0
100
AcDbCircle
 62
7
  6
CONTINUOUS
 10
12.1134504743
 20
8.8006226244
 40
0.2855848668
100
AcDbArc
 50
287.1930481759
 51
288.7608927369
  0
ARC
  5
372
100
AcDbEntity
  8
0
100
AcDbCircle
 62
7
  6
CONTINUOUS
 10
12.0431396877
 20
8.7778062242
 40
0.2607931939
100
AcDbArc
 50
281.254588344
 51
282.3484778791
  0
ARC
  5
373
100
AcDbEntity
  8
0
100
AcDbCircle
 62
7
  6
CONTINUOUS
 10
12.1683544558
 20
8.7697349588
 40
0.254749074
100
AcDbArc
 50
289.0768856891
 51
291.7786660543
  0
ARC
  5
374
100
AcDbEntity
  8
0
100
AcDbCircle
 62
7
  6
CONTINUOUS
 10
11.9497900523
 20
8.7853483594
 40
0.2486540125
100
AcDbArc
 50
312.0974194721
 51
317.347528744
  0
ARC
  5
375
100
AcDbEntity
  8
0
100
AcDbCircle
 62
7
  6
CONTINUOUS
 10
12.0588524819
 20
8.7701249213
 40
0.2320490137
100
AcDbArc
 50
312.1394121771
 51
318.6665657858
  0
ARC
  5
376
100
AcDbEntity
  8
0
100
AcDbCircle
 62
7
  6
CONTINUOUS
 10
12.1459197966
 20
8.7526159833
 40
0.2125639948
100
AcDbArc
 50
316.3614747239
 51
320.3125893035
  0
ARC
  5
377
100
AcDbEntity
  8
0
100
AcDbCircle
 62
7
  6
CONTINUOUS
 10
12.1329582614
 20
8.706074675
 40
0.185312421
100
AcDbArc
 50
290.0059687249
 51
292.3920524171
  0
ARC
  5
378
100
AcDbEntity
  8
0
100
AcDbCircle
 62
7
  6
CONTINUOUS
 10
12.2949502427
 20
8.5971126299
 40
0.0800260014
100
AcDbArc
 50
277.5859633533
 51
277.7138454145
  0
ARC
  5
379
100
AcDbEntity
  8
0
100
AcDbCircle
 62
7
  6
CONTINUOUS
 10
12.4567482651
 20
8.6131926994
 40
0.03
100
AcDbArc
 50
115.2253339081
 51
153.8527188576
  0
ARC
  5
37A
100
AcDbEntity
  8
0
100
AcDbCircle
 62
7
  6
CONTINUOUS
 10
12.2825687272
 20
8.5123446053
 40
0.018
100
AcDbArc
 50
163.0585955955
 51
170.447072929
  0
ARC
  5
37B
100
AcDbEntity
  8
0
100
AcDbCircle
 62
7
  6
CONTINUOUS
 10
12.2312037674
 20
8.7871295325
 40
0.2715256689
100
AcDbArc
 50
276.8431612411
 51
277.0292390928
  0
ARC
  5
37C
100
AcDbEntity
  8
0
100
AcDbCircle
 62
7
  6
CONTINUOUS
 10
12.234133455
 20
8.7531861019
 40
0.2378161308
100
AcDbArc
 50
288.6059289039
 51
291.7548604936
  0
ARC
  5
37D
100
AcDbEntity
  8
0
100
AcDbCircle
 62
7
  6
CONTINUOUS
 10
12.1942605058
 20
8.7518773262
 40
0.2351172885
100
AcDbArc
 50
283.2791558648
 51
284.4345284157
  0
ARC
  5
37E
100
AcDbEntity
  8
0
100
AcDbCircle
 62
7
  6
CONTINUOUS
 10
12.2352040797
 20
8.7504620826
 40
0.2348893095
100
AcDbArc
 50
291.7585797561
 51
294.2671418638
  0
ARC
  5
37F
100
AcDbEntity
  8
0
100
AcDbCircle
 62
7
  6
CONTINUOUS
 10
12.2342377288
 20
8.746192737
 40
0.2289969791
100
AcDbArc
 50
277.2472874711
 51
282.0943351557
  0
ARC
  5
380
100
AcDbEntity
  8
0
100
AcDbCircle
 62
7
  6
CONTINUOUS
 10
12.2342709791
 20
8.7454665355
 40
0.2282723922
100
AcDbArc
 50
276.5238918035
 51
277.2620027245
  0
ARC
  5
381
100
AcDbEntity
  8
0
100
AcDbCircle
 62
7
  6
CONTINUOUS
 10
12.1971491643
 20
8.7407593439
 40
0.2236302017
100
AcDbArc
 50
284.4278532496
 51
287.7019963242
  0
ARC
  5
382
100
AcDbEntity
  8
0
100
AcDbCircle
 62
7
  6
CONTINUOUS
 10
12.2598813439
 20
8.7271482954
 40
0.2118464489
100
AcDbArc
 50
290.6980764934
 51
291.0799450661
  0
ARC
  5
383
100
AcDbEntity
  8
0
100
AcDbCircle
 62
7
  6
CONTINUOUS
 10
12.2384734503
 20
8.7275056022
 40
0.2098372705
100
AcDbArc
 50
282.0325329256
 51
288.1407443792
  0
ARC
  5
384
100
AcDbEntity
  8
0
100
AcDbCircle
 62
7
  6
CONTINUOUS
 10
12.266682055
 20
8.7221142862
 40
0.206687057
100
AcDbArc
 50
289.8583687792
 51
290.9765185336
  0
ARC
  5
385
100
AcDbEntity
  8
0
100
AcDbCircle
 62
7
  6
CONTINUOUS
 10
12.2418621684
 20
8.7168744061
 40
0.1986794378
100
AcDbArc
 50
288.1666315998
 51
289.7698849022
  0
ARC
  5
386
100
AcDbEntity
  8
0
100
AcDbCircle
 62
7
  6
CONTINUOUS
 10
12.2586551295
 20
8.7201974217
 40
0.1961673051
100
AcDbArc
 50
322.3776623547
 51
323.8911283398
  0
ARC
  5
387
100
AcDbEntity
  8
0
100
AcDbCircle
 62
7
  6
CONTINUOUS
 10
12.2143619233
 20
8.7354280453
 40
0.1957687079
100
AcDbArc
 50
318.2090170117
 51
322.7279582238
  0
ARC
  5
388
100
AcDbEntity
  8
0
100
AcDbCircle
 62
7
  6
CONTINUOUS
 10
12.2712612362
 20
8.7094351094
 40
0.1932063144
100
AcDbArc
 50
289.3533475225
 51
289.8584244479
  0
ARC
  5
389
100
AcDbEntity
  8
0
100
AcDbCircle
 62
7
  6
CONTINUOUS
 10
12.244673755
 20
8.7093319697
 40
0.1906305857
100
AcDbArc
 50
289.7414252253
 51
293.6673348745
  0
ARC
  5
38A
100
AcDbEntity
  8
0
100
AcDbCircle
 62
7
  6
CONTINUOUS
 10
12.2754200912
 20
8.7022100761
 40
0.1871193873
100
AcDbArc
 50
290.6946286835
 51
328.5394820993
  0
ARC
  5
38B
100
AcDbEntity
  8
0
100
AcDbCircle
 62
7
  6
CONTINUOUS
 10
12.2817247812
 20
8.7016387569
 40
0.1808856063
100
AcDbArc
 50
326.8444730275
 51
327.5524496617
  0
ARC
  5
38C
100
AcDbEntity
  8
0
100
AcDbCircle
 62
7
  6
CONTINUOUS
 10
12.2581630311
 20
8.7190717906
 40
0.1805599813
100
AcDbArc
 50
323.6086822204
 51
323.991336015
  0
ARC
  5
38D
100
AcDbEntity
  8
0
100
AcDbCircle
 62
7
  6
CONTINUOUS
 10
12.2590402053
 20
8.7184387045
 40
0.1794782143
100
AcDbArc
 50
323.9901943546
 51
325.5355360701
  0
ARC
  5
38E
100
AcDbEntity
  8
0
100
AcDbCircle
 62
7
  6
CONTINUOUS
 10
12.2782958452
 20
8.694598656
 40
0.1789828782
100
AcDbArc
 50
289.2851638281
 51
290.6944491234
  0
ARC
  5
38F
100
AcDbEntity
  8
0
100
AcDbCircle
 62
7
  6
CONTINUOUS
 10
12.27836465
 20
8.694403287
 40
0.1787757478
100
AcDbArc
 50
288.7609973946
 51
289.2850294232
  0
ARC
  5
390
100
AcDbEntity
  8
0
100
AcDbCircle
 62
7
  6
CONTINUOUS
 10
12.2785705567
 20
8.6937924001
 40
0.1781310943
100
AcDbArc
 50
286.9518454421
 51
288.7614822957
  0
ARC
  5
391
100
AcDbEntity
  8
0
100
AcDbCircle
 62
7
  6
CONTINUOUS
 10
12.2772356831
 20
8.6932671835
 40
0.1779939824
100
AcDbArc
 50
281.449339329
 51
283.5716243572
  0
ARC
  5
392
100
AcDbEntity
  8
0
100
AcDbCircle
 62
7
  6
CONTINUOUS
 10
12.2774004421
 20
8.6925912735
 40
0.1772981847
100
AcDbArc
 50
285.3661742206
 51
287.0932733575
  0
ARC
  5
393
100
AcDbEntity
  8
0
100
AcDbCircle
 62
7
  6
CONTINUOUS
 10
12.2791195918
 20
8.6919901288
 40
0.1762470505
100
AcDbArc
 50
283.2041914961
 51
286.9519445512
  0
ARC
  5
394
100
AcDbEntity
  8
0
100
AcDbCircle
 62
7
  6
CONTINUOUS
 10
12.2810939507
 20
8.6835775462
 40
0.1676058909
100
AcDbArc
 50
280.3057660378
 51
283.2040063867
  0
ARC
  5
395
100
AcDbEntity
  8
0
100
AcDbCircle
 62
7
  6
CONTINUOUS
 10
12.2808237174
 20
8.7021001018
 40
0.1666976306
100
AcDbArc
 50
328.3002227628
 51
328.540182047
  0
ARC
  5
396
100
AcDbEntity
  8
0
100
AcDbCircle
 62
7
  6
CONTINUOUS
 10
12.2809873469
 20
8.7020002852
 40
0.1665059593
100
AcDbArc
 50
328.5400946332
 51
329.2514189274
  0
ARC
  5
397
100
AcDbEntity
  8
0
100
AcDbCircle
 62
7
  6
CONTINUOUS
 10
12.9915530533
 20
7.2076833139
 40
1.4
100
AcDbArc
 50
130.6208291884
 51
178.1054547173
  0
ARC
  5
398
100
AcDbEntity
  8
0
100
AcDbCircle
 62
7
  6
CONTINUOUS
 10
14.2381506903
 20
9.3073428097
 40
0.2500109774
100
AcDbArc
 50
270.0192106228
 51
330.2635604814
  0
ARC
  5
399
100
AcDbEntity
  8
0
100
AcDbCircle
 62
7
  6
CONTINUOUS
 10
14.6723183383
 20
9.5593318604
 40
0.25
100
AcDbArc
 50
270.0
 51
360.0
  0
ARC
  5
39A
100
AcDbEntity
  8
0
100
AcDbCircle
 62
7
  6
CONTINUOUS
 10
14.6723183383
 20
9.0593318604
 40
0.25
100
AcDbArc
 50
90.0
 51
150.2635604814
  0
ARC
  5
39B
100
AcDbEntity
  8
0
100
AcDbCircle
 62
7
  6
CONTINUOUS
 10
14.2383183383
 20
8.8073318604
 40
0.25
100
AcDbArc
 50
90.0192106228
 51
150.2642868924
  0
ARC
  5
39C
100
AcDbEntity
  8
0
100
AcDbCircle
 62
7
  6
CONTINUOUS
 10
13.8041570779
 20
9.0553318604
 40
0.25
100
AcDbArc
 50
270.0
 51
330.2642868924
  0
LINE
  5
39D
100
AcDbEntity
  8
0
100
AcDbLine
 62
7
  6
CONTINUOUS
 10
12.3110788505
 20
8.5186756346
 11
12.3056917848
 21
8.5178108004
  0
LINE
  5
39E
100
AcDbEntity
  8
0
100
AcDbLine
 62
7
  6
CONTINUOUS
 10
12.3054329575
 20
8.5177761754
 11
12.3031861794
 21
8.5175518684
  0
SPLINE
  5
39F
100
AcDbEntity
  8
0
100
AcDbSpline
 62
7
  6
CONTINUOUS
 70
0
 71
3
 72
13
 73
9
 74
0
 42
0.0000001
 43
0.0000001
 44
0.0000000001
 40
0.0
 40
0.0
 40
0.0
 40
0.0
 40
0.124811353
 40
0.2500204735
 40
0.5008013332
 40
0.7512267251
 40
0.8760308635
 40
1.0
 40
1.0
 40
1.0
 40
1.0
 10
11.534028527
 20
5.8981787021
 30
0.0
 10
11.5363415675
 20
5.8911062675
 30
0.0
 10
11.5403600655
 20
5.8767282331
 30
0.0
 10
11.5458788552
 20
5.8473555524
 30
0.0
 10
11.5479883949
 20
5.8098709935
 30
0.0
 10
11.5436389419
 20
5.7726026701
 30
0.0
 10
11.5363703884
 20
5.7437118654
 30
0.0
 10
11.5315128971
 20
5.7296737872
 30
0.0
 10
11.5287898062
 20
5.7228028683
 30
0.0
  0
SPLINE
  5
3A0
100
AcDbEntity
  8
0
100
AcDbSpline
 62
7
  6
CONTINUOUS
 70
0
 71
3
 72
14
 73
10
 74
0
 42
0.0000001
 43
0.0000001
 44
0.0000000001
 40
0.0
 40
0.0
 40
0.0
 40
0.0
 40
0.248729301
 40
0.3740602734
 40
0.4996256262
 40
0.6252173018
 40
0.7506167239
 40
0.8756675773
 40
1.0
 40
1.0
 40
1.0
 40
1.0
 10
11.5280324769
 20
5.916543787
 30
0.0
 10
11.5336891707
 20
5.9012817275
 30
0.0
 10
11.5399891979
 20
5.8774246444
 30
0.0
 10
11.5437792947
 20
5.8449174678
 30
0.0
 10
11.5443063978
 20
5.8202458994
 30
0.0
 10
11.5425032424
 20
5.7956345899
 30
0.0
 10
11.5383846949
 20
5.7713355639
 30
0.0
 10
11.5320005101
 20
5.7476192143
 30
0.0
 10
11.5262687339
 20
5.7323080638
 30
0.0
 10
11.5230529681
 20
5.7248343305
 30
0.0
  0
SPLINE
  5
3A1
100
AcDbEntity
  8
0
100
AcDbSpline
 62
7
  6
CONTINUOUS
 70
0
 71
3
 72
11
 73
7
 74
0
 42
0.0000001
 43
0.0000001
 44
0.0000000001
 40
0.0
 40
0.0
 40
0.0
 40
0.0
 40
0.2490846865
 40
0.4999937082
 40
0.7509056211
 40
1.0
 40
1.0
 40
1.0
 40
1.0
 10
11.5166306686
 20
5.9134758598
 30
0.0
 10
11.5216388046
 20
5.897482938
 30
0.0
 10
11.528523656
 20
5.8642954976
 30
0.0
 10
11.5290294269
 20
5.8134703883
 30
0.0
 10
11.5197651377
 20
5.7634935076
 30
0.0
 10
11.5072589513
 20
5.7319901433
 30
0.0
 10
11.4995670693
 20
5.717100154
 30
0.0
  0
SPLINE
  5
3A2
100
AcDbEntity
  8
0
100
AcDbSpline
 62
7
  6
CONTINUOUS
 70
0
 71
3
 72
11
 73
7
 74
0
 42
0.0000001
 43
0.0000001
 44
0.0000000001
 40
0.0
 40
0.0
 40
0.0
 40
0.0
 40
0.2487384797
 40
0.4990684485
 40
0.7498267206
 40
1.0
 40
1.0
 40
1.0
 40
1.0
 10
11.4927516006
 20
5.9079427735
 30
0.0
 10
11.4957006255
 20
5.8942817418
 30
0.0
 10
11.4994005503
 20
5.8663426499
 30
0.0
 10
11.4982115907
 20
5.8240573232
 30
0.0
 10
11.4903339018
 20
5.7824134798
 30
0.0
 10
11.4807366159
 20
5.7558046064
 30
0.0
 10
11.4749225674
 20
5.7430070593
 30
0.0
  0
SPLINE
  5
3A3
100
AcDbEntity
  8
0
100
AcDbSpline
 62
7
  6
CONTINUOUS
 70
0
 71
3
 72
14
 73
10
 74
0
 42
0.0000001
 43
0.0000001
 44
0.0000000001
 40
0.0
 40
0.0
 40
0.0
 40
0.0
 40
0.0541096198
 40
0.124530047
 40
0.2147463269
 40
0.3265530785
 40
0.4607434523
 40
0.6176335537
 40
1.0
 40
1.0
 40
1.0
 40
1.0
 10
9.8557088264
 20
8.5183135636
 30
0.0
 10
9.8556492965
 20
8.5182389811
 30
0.0
 10
9.8554719198
 20
8.5181007702
 30
0.0
 10
9.8551229796
 20
8.5179499915
 30
0.0
 10
9.8546579615
 20
8.5178243155
 30
0.0
 10
9.8540732546
 20
8.5177231461
 30
0.0
 10
9.853366694
 20
8.5176450737
 30
0.0
 10
9.8521813512
 20
8.5175667533
 30
0.0
 10
9.8512298442
 20
8.5175518684
 30
0.0
 10
9.8505555063
 20
8.5175518684
 30
0.0
  0
SPLINE
  5
3A4
100
AcDbEntity
  8
0
100
AcDbSpline
 62
7
  6
CONTINUOUS
 70
0
 71
3
 72
14
 73
10
 74
0
 42
0.0000001
 43
0.0000001
 44
0.0000000001
 40
0.0
 40
0.0
 40
0.0
 40
0.0
 40
0.0548231957
 40
0.1253541364
 40
0.2153698106
 40
0.3268809737
 40
0.4609811222
 40
0.617918336
 40
1.0
 40
1.0
 40
1.0
 40
1.0
 10
9.9163012016
 20
8.5187069544
 30
0.0
 10
9.9162151188
 20
8.5185935799
 30
0.0
 10
9.915957375
 20
8.5183820008
 30
0.0
 10
9.9154452179
 20
8.5181513555
 30
0.0
 10
9.9147630542
 20
8.5179607058
 30
0.0
 10
9.9139042222
 20
8.5178084326
 30
0.0
 10
9.9128650497
 20
8.5176913675
 30
0.0
 10
9.911120815
 20
8.5175741244
 30
0.0
 10
9.9097204924
 20
8.5175518684
 30
0.0
 10
9.9087283942
 20
8.5175518684
 30
0.0
  0
SPLINE
  5
3A5
100
AcDbEntity
  8
0
100
AcDbSpline
 62
7
  6
CONTINUOUS
 70
0
 71
3
 72
15
 73
11
 74
0
 42
0.0000001
 43
0.0000001
 44
0.0000000001
 40
0.0
 40
0.0
 40
0.0
 40
0.0
 40
0.0616378281
 40
0.1356459181
 40
0.2267988701
 40
0.3378268853
 40
0.4701643222
 40
0.624666363
 40
0.8014351006
 40
1.0
 40
1.0
 40
1.0
 40
1.0
 10
10.0017411752
 20
8.5204911367
 30
0.0
 10
10.0015332146
 20
8.5201976577
 30
0.0
 10
10.000944401
 20
8.5196434639
 30
0.0
 10
9.9997610213
 20
8.5190307198
 30
0.0
 10
9.9982193999
 20
8.5185435701
 30
0.0
 10
9.9963019378
 20
8.5181646605
 30
0.0
 10
9.9939960623
 20
8.5178819604
 30
0.0
 10
9.9912969387
 20
8.5176868174
 30
0.0
 10
9.9882066697
 20
8.5175733815
 30
0.0
 10
9.9860162621
 20
8.5175518684
 30
0.0
 10
9.9848575256
 20
8.5175518684
 30
0.0
  0
SPLINE
  5
3A6
100
AcDbEntity
  8
0
100
AcDbSpline
 62
7
  6
CONTINUOUS
 70
0
 71
3
 72
16
 73
12
 74
0
 42
0.0000001
 43
0.0000001
 44
0.0000000001
 40
0.0
 40
0.0
 40
0.0
 40
0.0
 40
0.0617009194
 40
0.0967441919
 40
0.1355341538
 40
0.2263654899
 40
0.3372655573
 40
0.4697140618
 40
0.6245151941
 40
0.8015842852
 40
1.0
 40
1.0
 40
1.0
 40
1.0
 10
10.0966002149
 20
8.5209708202
 30
0.0
 10
10.096380952
 20
8.5206320425
 30
0.0
 10
10.0959261349
 20
8.5201699785
 30
0.0
 10
10.0951849964
 20
8.5196826587
 30
0.0
 10
10.09422008
 20
8.5191986772
 30
0.0
 10
10.092719686
 20
8.5187039708
 30
0.0
 10
10.0905765597
 20
8.5182629412
 30
0.0
 10
10.0879914276
 20
8.5179346114
 30
0.0
 10
10.0849622409
 20
8.5177084057
 30
0.0
 10
10.0814959256
 20
8.517576936
 30
0.0
 10
10.0790399971
 20
8.5175518684
 30
0.0
 10
10.0777422987
 20
8.5175518684
 30
0.0
  0
SPLINE
  5
3A7
100
AcDbEntity
  8
0
100
AcDbSpline
 62
7
  6
CONTINUOUS
 70
0
 71
3
 72
17
 73
13
 74
0
 42
0.0000001
 43
0.0000001
 44
0.0000000001
 40
0.0
 40
0.0
 40
0.0
 40
0.0
 40
0.0361845164
 40
0.0731178187
 40
0.1529102563
 40
0.1975167192
 40
0.2460239513
 40
0.3563280788
 40
0.4862332986
 40
0.6368690539
 40
0.8084497673
 40
1.0
 40
1.0
 40
1.0
 40
1.0
 10
10.2215663175
 20
8.5253757148
 30
0.0
 10
10.2213397933
 20
8.5249814085
 30
0.0
 10
10.2208177162
 20
8.5242196674
 30
0.0
 10
10.2194930707
 20
8.52281837
 30
0.0
 10
10.2177874692
 20
8.5216745059
 30
0.0
 10
10.2158162275
 20
8.5207578857
 30
0.0
 10
10.2134089267
 20
8.5198875311
 30
0.0
 10
10.2098715726
 20
8.5190385862
 30
0.0
 10
10.2050066785
 20
8.5183350959
 30
0.0
 10
10.199341448
 20
8.5178672516
 30
0.0
 10
10.1928890643
 20
8.5176024339
 30
0.0
 10
10.1883251388
 20
8.5175518684
 30
0.0
 10
10.1859178652
 20
8.5175518684
 30
0.0
  0
SPLINE
  5
3A8
100
AcDbEntity
  8
0
100
AcDbSpline
 62
7
  6
CONTINUOUS
 70
0
 71
3
 72
13
 73
9
 74
0
 42
0.0000001
 43
0.0000001
 44
0.0000000001
 40
0.0
 40
0.0
 40
0.0
 40
0.0
 40
0.0915515594
 40
0.1884157699
 40
0.2933284117
 40
0.4085009406
 40
0.6758542989
 40
1.0
 40
1.0
 40
1.0
 40
1.0
 10
10.1294753532
 20
8.5196895906
 30
0.0
 10
10.1295818502
 20
8.5199186407
 30
0.0
 10
10.1297584894
 20
8.5204108053
 30
0.0
 10
10.1299041674
 20
8.5212098937
 30
0.0
 10
10.1299392156
 20
8.5220861081
 30
0.0
 10
10.1298367774
 20
8.5234294569
 30
0.0
 10
10.1294096602
 20
8.5253405884
 30
0.0
 10
10.1288724503
 20
8.5268836211
 30
0.0
 10
10.1285500569
 20
8.5277178338
 30
0.0
  0
SPLINE
  5
3A9
100
AcDbEntity
  8
0
100
AcDbSpline
 62
7
  6
CONTINUOUS
 70
0
 71
3
 72
18
 73
14
 74
0
 42
0.0000001
 43
0.0000001
 44
0.0000000001
 40
0.0
 40
0.0
 40
0.0
 40
0.0
 40
0.0355163459
 40
0.0717688862
 40
0.1504052723
 40
0.1946568197
 40
0.2429774796
 40
0.2958010165
 40
0.35344173
 40
0.4840175811
 40
0.6356503303
 40
0.8082014258
 40
1.0
 40
1.0
 40
1.0
 40
1.0
 10
10.3429364474
 20
8.5255900223
 30
0.0
 10
10.3427402142
 20
8.5251920739
 30
0.0
 10
10.3422741246
 20
8.5244201109
 30
0.0
 10
10.3410418571
 20
8.5229915762
 30
0.0
 10
10.3393986733
 20
8.5218210372
 30
0.0
 10
10.3374761257
 20
8.520881657
 30
0.0
 10
10.3357748142
 20
8.5202375166
 30
0.0
 10
10.3338706543
 20
8.5196768078
 30
0.0
 10
10.3309338963
 20
8.5190040794
 30
0.0
 10
10.3267302224
 20
8.5183714346
 30
0.0
 10
10.3210680551
 20
8.517882577
 30
0.0
 10
10.3146264161
 20
8.5176053926
 30
0.0
 10
10.3100743445
 20
8.5175518684
 30
0.0
 10
10.3076782317
 20
8.5175518684
 30
0.0
  0
LINE
  5
3AA
100
AcDbEntity
  8
0
100
AcDbLine
 62
7
  6
CONTINUOUS
 10
11.0473183383
 20
8.5175518684
 11
10.9463183383
 21
8.5175346399
  0
SPLINE
  5
3AB
100
AcDbEntity
  8
0
100
AcDbSpline
 62
7
  6
CONTINUOUS
 70
0
 71
3
 72
10
 73
6
 74
0
 42
0.0000001
 43
0.0000001
 44
0.0000000001
 40
0.0
 40
0.0
 40
0.0
 40
0.0
 40
0.4797377076
 40
0.7345166516
 40
1.0
 40
1.0
 40
1.0
 40
1.0
 10
11.143953235
 20
8.5343262579
 30
0.0
 10
11.140057204
 20
8.5318795857
 30
0.0
 10
11.1336743135
 20
8.5287782921
 30
0.0
 10
11.1246158803
 20
8.5256244238
 30
0.0
 10
11.1197988172
 20
8.5243065656
 30
0.0
 10
11.1173252435
 20
8.5237039408
 30
0.0
  0
SPLINE
  5
3AC
100
AcDbEntity
  8
0
100
AcDbSpline
 62
7
  6
CONTINUOUS
 70
0
 71
3
 72
11
 73
7
 74
0
 42
0.0000001
 43
0.0000001
 44
0.0000000001
 40
0.0
 40
0.0
 40
0.0
 40
0.0
 40
0.2295897405
 40
0.47530535
 40
0.7339658786
 40
1.0
 40
1.0
 40
1.0
 40
1.0
 10
11.1153979172
 20
8.5232490165
 30
0.0
 10
11.1102919356
 20
8.5220817127
 30
0.0
 10
11.0995890047
 20
8.5202369708
 30
0.0
 10
11.0829177211
 20
8.5185931569
 30
0.0
 10
11.065358338
 20
8.5177281232
 30
0.0
 10
11.0533874711
 20
8.5175518684
 30
0.0
 10
11.0473183383
 20
8.5175518684
 30
0.0
  0
SPLINE
  5
3AD
100
AcDbEntity
  8
0
100
AcDbSpline
 62
7
  6
CONTINUOUS
 70
0
 71
3
 72
11
 73
7
 74
0
 42
0.0000001
 43
0.0000001
 44
0.0000000001
 40
0.0
 40
0.0
 40
0.0
 40
0.0
 40
0.2671873017
 40
0.5237541408
 40
0.7683518675
 40
1.0
 40
1.0
 40
1.0
 40
1.0
 10
11.2182623294
 20
8.6044323537
 30
0.0
 10
11.2138858757
 20
8.598854749
 30
0.0
 10
11.2050293348
 20
8.5881351632
 30
0.0
 10
11.1912054275
 20
8.5731356391
 30
0.0
 10
11.1772091266
 20
8.5596213124
 30
0.0
 10
11.1675671804
 20
8.5514349107
 30
0.0
 10
11.1627377838
 20
8.5476325395
 30
0.0
  0
SPLINE
  5
3AE
100
AcDbEntity
  8
0
100
AcDbSpline
 62
7
  6
CONTINUOUS
 70
0
 71
3
 72
9
 73
5
 74
0
 42
0.0000001
 43
0.0000001
 44
0.0000000001
 40
0.0
 40
0.0
 40
0.0
 40
0.0
 40
0.2558860295
 40
1.0
 40
1.0
 40
1.0
 40
1.0
 10
11.156711263
 20
8.5430389354
 30
0.0
 10
11.1556503744
 20
8.5422570077
 30
0.0
 10
11.1514781219
 20
8.5392372185
 30
0.0
 10
11.1471987998
 20
8.5363644432
 30
0.0
 10
11.143953235
 20
8.5343262579
 30
0.0
  0
LINE
  5
3AF
100
AcDbEntity
  8
0
100
AcDbLine
 62
7
  6
CONTINUOUS
 10
10.8896051499
 20
8.5175518684
 11
10.8018305646
 21
8.5175382038
  0
SPLINE
  5
3B0
100
AcDbEntity
  8
0
100
AcDbSpline
 62
7
  6
CONTINUOUS
 70
0
 71
3
 72
9
 73
5
 74
0
 42
0.0000001
 43
0.0000001
 44
0.0000000001
 40
0.0
 40
0.0
 40
0.0
 40
0.0
 40
0.240024978
 40
1.0
 40
1.0
 40
1.0
 40
1.0
 10
10.9568069691
 20
8.5289752855
 30
0.0
 10
10.9562573042
 20
8.5286045847
 30
0.0
 10
10.9539227455
 20
8.5271262792
 30
0.0
 10
10.9514315328
 20
8.5259035011
 30
0.0
 10
10.9494955247
 20
8.5250920941
 30
0.0
  0
SPLINE
  5
3B1
100
AcDbEntity
  8
0
100
AcDbSpline
 62
7
  6
CONTINUOUS
 70
0
 71
3
 72
14
 73
10
 74
0
 42
0.0000001
 43
0.0000001
 44
0.0000000001
 40
0.0
 40
0.0
 40
0.0
 40
0.0
 40
0.1023373472
 40
0.2117047326
 40
0.3281625348
 40
0.4514675523
 40
0.5811870722
 40
0.7165870408
 40
1.0
 40
1.0
 40
1.0
 40
1.0
 10
10.944924712
 20
8.523403083
 30
0.0
 10
10.9431137272
 20
8.5228142523
 30
0.0
 10
10.93931488
 20
8.5217548247
 30
0.0
 10
10.9333343057
 20
8.5205056134
 30
0.0
 10
10.9269111046
 20
8.5195148457
 30
0.0
 10
10.9200763832
 20
8.5187540263
 30
0.0
 10
10.9128690053
 20
8.518195531
 30
0.0
 10
10.9026738314
 20
8.5176842016
 30
0.0
 10
10.8948789378
 20
8.5175518684
 30
0.0
 10
10.8896051499
 20
8.5175518684
 30
0.0
  0
SPLINE
  5
3B2
100
AcDbEntity
  8
0
100
AcDbSpline
 62
7
  6
CONTINUOUS
 70
0
 71
3
 72
15
 73
11
 74
0
 42
0.0000001
 43
0.0000001
 44
0.0000000001
 40
0.0
 40
0.0
 40
0.0
 40
0.0
 40
0.147318882
 40
0.2891270953
 40
0.4248513187
 40
0.5540902897
 40
0.676505085
 40
0.7918004293
 40
0.8997168741
 40
1.0
 40
1.0
 40
1.0
 40
1.0
 10
11.0275819028
 20
8.6044590794
 30
0.0
 10
11.024663592
 20
8.6002678007
 30
0.0
 10
11.0188079102
 20
8.5921302655
 30
0.0
 10
11.0098099509
 20
8.5804662362
 30
0.0
 10
11.0008003984
 20
8.5696135642
 30
0.0
 10
10.9918251525
 20
8.5596188419
 30
0.0
 10
10.9829259183
 20
8.5505226005
 30
0.0
 10
10.9741430695
 20
8.5423643015
 30
0.0
 10
10.9655197597
 20
8.5351852612
 30
0.0
 10
10.959689306
 20
8.5309191693
 30
0.0
 10
10.9568069691
 20
8.5289752855
 30
0.0
  0
LINE
  5
3B3
100
AcDbEntity
  8
0
100
AcDbLine
 62
7
  6
CONTINUOUS
 10
10.7343791927
 20
8.5175518684
 11
10.6546866385
 21
8.5175398134
  0
SPLINE
  5
3B4
100
AcDbEntity
  8
0
100
AcDbSpline
 62
7
  6
CONTINUOUS
 70
0
 71
3
 72
9
 73
5
 74
0
 42
0.0000001
 43
0.0000001
 44
0.0000000001
 40
0.0
 40
0.0
 40
0.0
 40
0.0
 40
0.4898719265
 40
1.0
 40
1.0
 40
1.0
 40
1.0
 10
10.8157863539
 20
8.5347350175
 30
0.0
 10
10.8144669491
 20
8.533436872
 30
0.0
 10
10.8115554135
 20
8.5310023258
 30
0.0
 10
10.8083301356
 20
8.5290110647
 30
0.0
 10
10.8066324269
 20
8.5280983851
 30
0.0
  0
LINE
  5
3B5
100
AcDbEntity
  8
0
100
AcDbLine
 62
7
  6
CONTINUOUS
 10
10.80498533
 20
8.5272523653
 11
10.7991164372
 21
8.5247735914
  0
SPLINE
  5
3B6
100
AcDbEntity
  8
0
100
AcDbSpline
 62
7
  6
CONTINUOUS
 70
0
 71
3
 72
15
 73
11
 74
0
 42
0.0000001
 43
0.0000001
 44
0.0000000001
 40
0.0
 40
0.0
 40
0.0
 40
0.0
 40
0.1006661728
 40
0.2082469958
 40
0.3231105294
 40
0.4453383455
 40
0.5747467459
 40
0.710885446
 40
0.8530380149
 40
1.0
 40
1.0
 40
1.0
 40
1.0
 10
10.7991164372
 20
8.5247735914
 30
0.0
 10
10.7970527049
 20
8.5240253299
 30
0.0
 10
10.7927069792
 20
8.5226846409
 30
0.0
 10
10.785831348
 20
8.5211230136
 30
0.0
 10
10.7784113639
 20
8.5199015594
 30
0.0
 10
10.7704705707
 20
8.518977446
 30
0.0
 10
10.7620394729
 20
8.5183088927
 30
0.0
 10
10.7531592097
 20
8.5178613831
 30
0.0
 10
10.7438887527
 20
8.5176051798
 30
0.0
 10
10.7375839473
 20
8.5175518684
 30
0.0
 10
10.7343791927
 20
8.5175518684
 30
0.0
  0
SPLINE
  5
3B7
100
AcDbEntity
  8
0
100
AcDbSpline
 62
7
  6
CONTINUOUS
 70
0
 71
3
 72
14
 73
10
 74
0
 42
0.0000001
 43
0.0000001
 44
0.0000000001
 40
0.0
 40
0.0
 40
0.0
 40
0.0
 40
0.290956549
 40
0.4271120436
 40
0.5565023142
 40
0.6787925499
 40
0.7936722981
 40
0.9008444905
 40
1.0
 40
1.0
 40
1.0
 40
1.0
 10
10.8680587363
 20
8.6044362382
 30
0.0
 10
10.8636444721
 20
8.5972091438
 30
0.0
 10
10.8569565507
 20
8.5867235768
 30
0.0
 10
10.8477623437
 20
8.57338687
 30
0.0
 10
10.8411180979
 20
8.5642592896
 30
0.0
 10
10.834596448
 20
8.5558135442
 30
0.0
 10
10.8282206545
 20
8.548078072
 30
0.0
 10
10.8220153857
 20
8.5410824131
 30
0.0
 10
10.8178435814
 20
8.5367590973
 30
0.0
 10
10.8157863539
 20
8.5347350175
 30
0.0
  0
LINE
  5
3B8
100
AcDbEntity
  8
0
100
AcDbLine
 62
7
  6
CONTINUOUS
 10
10.5840884727
 20
8.5175518684
 11
10.502637875
 21
8.5175382038
  0
SPLINE
  5
3B9
100
AcDbEntity
  8
0
100
AcDbSpline
 62
7
  6
CONTINUOUS
 70
0
 71
3
 72
17
 73
13
 74
0
 42
0.0000001
 43
0.0000001
 44
0.0000000001
 40
0.0
 40
0.0
 40
0.0
 40
0.0
 40
0.0398951059
 40
0.0812266903
 40
0.1704874494
 40
0.2194664766
 40
0.2717924972
 40
0.3873952386
 40
0.5184449703
 40
0.6650399533
 40
0.8262935753
 40
1.0
 40
1.0
 40
1.0
 40
1.0
 10
10.6374283543
 20
8.5289752855
 30
0.0
 10
10.6369636621
 20
8.5283943345
 30
0.0
 10
10.6359326574
 20
8.5272771481
 30
0.0
 10
10.6334869111
 20
8.5252350814
 30
0.0
 10
10.6305524593
 20
8.5235646499
 30
0.0
 10
10.6272661489
 20
8.5222095271
 30
0.0
 10
10.6234203267
 20
8.5209448275
 30
0.0
 10
10.6179731446
 20
8.5197066907
 30
0.0
 10
10.6107072494
 20
8.5186808547
 30
0.0
 10
10.602547551
 20
8.5180055482
 30
0.0
 10
10.5935741833
 20
8.5176274935
 30
0.0
 10
10.5873276351
 20
8.5175518684
 30
0.0
 10
10.5840884727
 20
8.5175518684
 30
0.0
  0
SPLINE
  5
3BA
100
AcDbEntity
  8
0
100
AcDbSpline
 62
7
  6
CONTINUOUS
 70
0
 71
3
 72
14
 73
10
 74
0
 42
0.0000001
 43
0.0000001
 44
0.0000000001
 40
0.0
 40
0.0
 40
0.0
 40
0.0
 40
0.3096584578
 40
0.4509136182
 40
0.5823316624
 40
0.7034193583
 40
0.8137042797
 40
0.9127240376
 40
1.0
 40
1.0
 40
1.0
 40
1.0
 10
10.6831401891
 20
8.6044590794
 30
0.0
 10
10.6789352511
 20
8.5963659811
 30
0.0
 10
10.6726674558
 20
8.5846545674
 30
0.0
 10
10.6642074115
 20
8.5697342265
 30
0.0
 10
10.6583053513
 20
8.5597501657
 30
0.0
 10
10.6526768698
 20
8.5506665539
 30
0.0
 10
10.6473478291
 20
8.5425229886
 30
0.0
 10
10.6423454966
 20
8.5353603608
 30
0.0
 10
10.6390339991
 20
8.5309826378
 30
0.0
 10
10.6374283543
 20
8.5289752855
 30
0.0
  0
LINE
  5
3BB
100
AcDbEntity
  8
0
100
AcDbLine
 62
7
  6
CONTINUOUS
 10
10.4411031645
 20
8.5175518684
 11
10.3697254325
 21
8.5175398134
  0
SPLINE
  5
3BC
100
AcDbEntity
  8
0
100
AcDbSpline
 62
7
  6
CONTINUOUS
 70
0
 71
3
 72
22
 73
18
 74
0
 42
0.0000001
 43
0.0000001
 44
0.0000000001
 40
0.0
 40
0.0
 40
0.0
 40
0.0
 40
0.0436434195
 40
0.0866029561
 40
0.1298937617
 40
0.1744845815
 40
0.2212693754
 40
0.2709862823
 40
0.3242158733
 40
0.3814044428
 40
0.4428829257
 40
0.5088627685
 40
0.579462155
 40
0.6547331222
 40
0.7346115147
 40
0.8189811008
 40
1.0
 40
1.0
 40
1.0
 40
1.0
 10
10.5020104499
 20
8.5347350175
 30
0.0
 10
10.5016270325
 20
8.5338477321
 30
0.0
 10
10.5007414784
 20
8.5321373852
 30
0.0
 10
10.4990491698
 20
8.5297984395
 30
0.0
 10
10.497017535
 20
8.527717998
 30
0.0
 10
10.4946519713
 20
8.5258875088
 30
0.0
 10
10.491957466
 20
8.5242914948
 30
0.0
 10
10.4889359376
 20
8.5229123463
 30
0.0
 10
10.4855873202
 20
8.5217323649
 30
0.0
 10
10.4819105372
 20
8.5207343016
 30
0.0
 10
10.4779047536
 20
8.5199016574
 30
0.0
 10
10.4735704017
 20
8.5192187133
 30
0.0
 10
10.4689096415
 20
8.5186707366
 30
0.0
 10
10.4639275658
 20
8.5182432417
 30
0.0
 10
10.4586319202
 20
8.5179253373
 30
0.0
 10
10.4509906578
 20
8.5176263824
 30
0.0
 10
10.445112244
 20
8.5175518684
 30
0.0
 10
10.4411031645
 20
8.5175518684
 30
0.0
  0
LINE
  5
3BD
100
AcDbEntity
  8
0
100
AcDbLine
 62
7
  6
CONTINUOUS
 10
10.5314889093
 20
8.6044362382
 11
10.5020104499
 21
8.5347350175
  0
SPLINE
  5
3BE
100
AcDbEntity
  8
0
100
AcDbSpline
 62
7
  6
CONTINUOUS
 70
0
 71
3
 72
15
 73
11
 74
0
 42
0.0000001
 43
0.0000001
 44
0.0000000001
 40
0.0
 40
0.0
 40
0.0
 40
0.0
 40
0.0766100894
 40
0.1675968743
 40
0.2727353956
 40
0.3917630013
 40
0.5243825353
 40
0.6702620694
 40
0.8290071947
 40
1.0
 40
1.0
 40
1.0
 40
1.0
 10
10.2460042908
 20
8.5277993362
 30
0.0
 10
10.2460585786
 20
8.5298109896
 30
0.0
 10
10.2463784914
 20
8.5342062741
 30
0.0
 10
10.2473024471
 20
8.5413127726
 30
0.0
 10
10.2487142748
 20
8.5494719714
 30
0.0
 10
10.2506117605
 20
8.5586511425
 30
0.0
 10
10.2529926229
 20
8.5688193073
 30
0.0
 10
10.2558540217
 20
8.5799434382
 30
0.0
 10
10.2591908285
 20
8.5919836843
 30
0.0
 10
10.2616391991
 20
8.6002923703
 30
0.0
 10
10.2629389676
 20
8.6045918192
 30
0.0
  0
LINE
  5
3BF
100
AcDbEntity
  8
0
100
AcDbLine
 62
7
  6
CONTINUOUS
 10
10.3076782317
 20
8.5175518684
 11
10.237669462
 21
8.5175382038
  0
SPLINE
  5
3C0
100
AcDbEntity
  8
0
100
AcDbSpline
 62
7
  6
CONTINUOUS
 70
0
 71
3
 72
15
 73
11
 74
0
 42
0.0000001
 43
0.0000001
 44
0.0000000001
 40
0.0
 40
0.0
 40
0.0
 40
0.0
 40
0.0811320419
 40
0.174318306
 40
0.2800588699
 40
0.3985945426
 40
0.5299904618
 40
0.6741866499
 40
0.8310031434
 40
1.0
 40
1.0
 40
1.0
 40
1.0
 10
10.1285500569
 20
8.5277178338
 30
0.0
 10
10.1277933468
 20
8.5296758676
 30
0.0
 10
10.126513142
 20
8.5340177823
 30
0.0
 10
10.1252671429
 20
8.541166177
 30
0.0
 10
10.1245707527
 20
8.5493592316
 30
0.0
 10
10.124430736
 20
8.5585664062
 30
0.0
 10
10.1248530776
 20
8.5687596546
 30
0.0
 10
10.1258454813
 20
8.5799070309
 30
0.0
 10
10.1274141677
 20
8.5919690131
 30
0.0
 10
10.1287962776
 20
8.6002867092
 30
0.0
 10
10.1295786254
 20
8.6045886861
 30
0.0
  0
LINE
  5
3C1
100
AcDbEntity
  8
0
100
AcDbLine
 62
7
  6
CONTINUOUS
 10
10.1859178652
 20
8.5175518684
 11
10.129285845
 21
8.5175405634
  0
LINE
  5
3C2
100
AcDbEntity
  8
0
100
AcDbLine
 62
7
  6
CONTINUOUS
 10
10.129285845
 20
8.5175405634
 11
10.1273398807
 21
8.5175398134
  0
SPLINE
  5
3C3
100
AcDbEntity
  8
0
100
AcDbSpline
 62
7
  6
CONTINUOUS
 70
0
 71
3
 72
10
 73
6
 74
0
 42
0.0000001
 43
0.0000001
 44
0.0000000001
 40
0.0
 40
0.0
 40
0.0
 40
0.0
 40
0.4687282865
 40
0.7259490439
 40
1.0
 40
1.0
 40
1.0
 40
1.0
 10
10.0179041086
 20
8.5277993362
 30
0.0
 10
10.015741512
 20
8.5305252008
 30
0.0
 10
10.0129026194
 20
8.5351644818
 30
0.0
 10
10.0098933119
 20
8.5419530906
 30
0.0
 10
10.0085868189
 20
8.5456800495
 30
0.0
 10
10.0079801347
 20
8.5476218585
 30
0.0
  0
SPLINE
  5
3C4
100
AcDbEntity
  8
0
100
AcDbSpline
 62
7
  6
CONTINUOUS
 70
0
 71
3
 72
11
 73
7
 74
0
 42
0.0000001
 43
0.0000001
 44
0.0000000001
 40
0.0
 40
0.0
 40
0.0
 40
0.0
 40
0.2122845788
 40
0.44929271
 40
0.7118772565
 40
1.0
 40
1.0
 40
1.0
 40
1.0
 10
10.0079801347
 20
8.5476218585
 30
0.0
 10
10.0067673523
 20
8.5515036004
 30
0.0
 10
10.004758863
 20
8.5598973439
 30
0.0
 10
10.0029722026
 20
8.5734354313
 30
0.0
 10
10.0022841163
 20
8.588525773
 30
0.0
 10
10.0025671982
 20
8.5990811126
 30
0.0
 10
10.0028810685
 20
8.6045918192
 30
0.0
  0
SPLINE
  5
3C5
100
AcDbEntity
  8
0
100
AcDbSpline
 62
7
  6
CONTINUOUS
 70
0
 71
3
 72
17
 73
13
 74
0
 42
0.0000001
 43
0.0000001
 44
0.0000000001
 40
0.0
 40
0.0
 40
0.0
 40
0.0
 40
0.0293402724
 40
0.0599471515
 40
0.0931521356
 40
0.1299908914
 40
0.2172684895
 40
0.3256734972
 40
0.4571867866
 40
0.6129792876
 40
0.793758734
 40
1.0
 40
1.0
 40
1.0
 40
1.0
 10
10.0235742656
 20
8.5175382038
 30
0.0
 10
10.023626894
 20
8.5176438652
 30
0.0
 10
10.0237106229
 20
8.5178724684
 30
0.0
 10
10.0237624889
 20
8.518245998
 30
0.0
 10
10.0237445461
 20
8.5186523869
 30
0.0
 10
10.0236239612
 20
8.5192755
 30
0.0
 10
10.0232864916
 20
8.5201541671
 30
0.0
 10
10.0226609289
 20
8.5213138971
 30
0.0
 10
10.0217974674
 20
8.5226528572
 30
0.0
 10
10.0207028151
 20
8.5241856366
 30
0.0
 10
10.0193824207
 20
8.5259253816
 30
0.0
 10
10.018419818
 20
8.5271493055
 30
0.0
 10
10.0179041086
 20
8.5277993362
 30
0.0
  0
LINE
  5
3C6
100
AcDbEntity
  8
0
100
AcDbLine
 62
7
  6
CONTINUOUS
 10
10.0777422987
 20
8.5175518684
 11
10.0235742656
 21
8.5175382038
  0
SPLINE
  5
3C7
100
AcDbEntity
  8
0
100
AcDbSpline
 62
7
  6
CONTINUOUS
 70
0
 71
3
 72
9
 73
5
 74
0
 42
0.0000001
 43
0.0000001
 44
0.0000000001
 40
0.0
 40
0.0
 40
0.0
 40
0.0
 40
0.4869883741
 40
1.0
 40
1.0
 40
1.0
 40
1.0
 10
9.9302154209
 20
8.5277178338
 30
0.0
 10
9.9277470911
 20
8.529794792
 30
0.0
 10
9.9230310581
 20
8.5344913352
 30
0.0
 10
9.9190730774
 20
8.5398328437
 30
0.0
 10
9.9172297254
 20
8.542687726
 30
0.0
  0
SPLINE
  5
3C8
100
AcDbEntity
  8
0
100
AcDbSpline
 62
7
  6
CONTINUOUS
 70
0
 71
3
 72
11
 73
7
 74
0
 42
0.0000001
 43
0.0000001
 44
0.0000000001
 40
0.0
 40
0.0
 40
0.0
 40
0.0
 40
0.2172870485
 40
0.4549385329
 40
0.7154268559
 40
1.0
 40
1.0
 40
1.0
 40
1.0
 10
9.9172297254
 20
8.542687726
 30
0.0
 10
9.9146756736
 20
8.5466433011
 30
0.0
 10
9.9100632557
 20
8.5554119495
 30
0.0
 10
9.9048943299
 20
8.5700724834
 30
0.0
 10
9.9012517452
 20
8.5866748037
 30
0.0
 10
9.8999471368
 20
8.5984357401
 30
0.0
 10
9.8995381259
 20
8.6045886861
 30
0.0
  0
LINE
  5
3C9
100
AcDbEntity
  8
0
100
AcDbLine
 62
7
  6
CONTINUOUS
 10
9.9427599589
 20
8.5175398134
 11
9.9302154209
 21
8.5277178338
  0
LINE
  5
3CA
100
AcDbEntity
  8
0
100
AcDbLine
 62
7
  6
CONTINUOUS
 10
9.9848575256
 20
8.5175518684
 11
9.9427599589
 21
8.5175398134
  0
SPLINE
  5
3CB
100
AcDbEntity
  8
0
100
AcDbSpline
 62
7
  6
CONTINUOUS
 70
0
 71
3
 72
9
 73
5
 74
0
 42
0.0000001
 43
0.0000001
 44
0.0000000001
 40
0.0
 40
0.0
 40
0.0
 40
0.0
 40
0.4948972412
 40
1.0
 40
1.0
 40
1.0
 40
1.0
 10
9.8544858083
 20
8.5277993362
 30
0.0
 10
9.85156053
 20
8.5296698859
 30
0.0
 10
9.8458878651
 20
8.5338342222
 30
0.0
 10
9.8407737791
 20
8.5386649443
 30
0.0
 10
9.8383427451
 20
8.5412434408
 30
0.0
  0
SPLINE
  5
3CC
100
AcDbEntity
  8
0
100
AcDbSpline
 62
7
  6
CONTINUOUS
 70
0
 71
3
 72
11
 73
7
 74
0
 42
0.0000001
 43
0.0000001
 44
0.0000000001
 40
0.0
 40
0.0
 40
0.0
 40
0.0
 40
0.2274762563
 40
0.4681522428
 40
0.7249982771
 40
1.0
 40
1.0
 40
1.0
 40
1.0
 10
9.8372309922
 20
8.5424437883
 30
0.0
 10
9.8336948089
 20
8.5463300666
 30
0.0
 10
9.8270883534
 20
8.5549591794
 30
0.0
 10
9.8190063735
 20
8.5696880828
 30
0.0
 10
9.8126107724
 20
8.5863987885
 30
0.0
 10
9.8096465817
 20
8.5983536685
 30
0.0
 10
9.8084490042
 20
8.6045918192
 30
0.0
  0
SPLINE
  5
3CD
100
AcDbEntity
  8
0
100
AcDbSpline
 62
7
  6
CONTINUOUS
 70
0
 71
3
 72
10
 73
6
 74
0
 42
0.0000001
 43
0.0000001
 44
0.0000000001
 40
0.0
 40
0.0
 40
0.0
 40
0.0
 40
0.1825312631
 40
0.4108116288
 40
1.0
 40
1.0
 40
1.0
 40
1.0
 10
9.8738046744
 20
8.5175382038
 30
0.0
 10
9.8729240433
 20
8.5179195127
 30
0.0
 10
9.8709463947
 20
8.5187880001
 30
0.0
 10
9.866186242
 20
8.5210209542
 30
0.0
 10
9.8623933635
 20
8.5230530431
 30
0.0
 10
9.8597147683
 20
8.5246087536
 30
0.0
  0
LINE
  5
3CE
100
AcDbEntity
  8
0
100
AcDbLine
 62
7
  6
CONTINUOUS
 10
9.9087283942
 20
8.5175518684
 11
9.8738046744
 21
8.5175382038
  0
SPLINE
  5
3CF
100
AcDbEntity
  8
0
100
AcDbSpline
 62
7
  6
CONTINUOUS
 70
0
 71
3
 72
13
 73
9
 74
0
 42
0.0000001
 43
0.0000001
 44
0.0000000001
 40
0.0
 40
0.0
 40
0.0
 40
0.0
 40
0.1173021587
 40
0.2357748256
 40
0.3559762851
 40
0.4784530438
 40
0.7320081913
 40
1.0
 40
1.0
 40
1.0
 40
1.0
 10
9.7908172515
 20
8.5344832098
 30
0.0
 10
9.7880046703
 20
8.5364117739
 30
0.0
 10
9.7825279607
 20
8.5405527442
 30
0.0
 10
9.7748654323
 20
8.54752876
 30
0.0
 10
9.7677526175
 20
8.5552712031
 30
0.0
 10
9.7589400392
 20
8.566713319
 30
0.0
 10
9.749454568
 20
8.5829586356
 30
0.0
 10
9.7439281147
 20
8.5971481803
 30
0.0
 10
9.7416168784
 20
8.6045886861
 30
0.0
  0
SPLINE
  5
3D0
100
AcDbEntity
  8
0
100
AcDbSpline
 62
7
  6
CONTINUOUS
 70
0
 71
3
 72
9
 73
5
 74
0
 42
0.0000001
 43
0.0000001
 44
0.0000000001
 40
0.0
 40
0.0
 40
0.0
 40
0.0
 40
0.212594999
 40
1.0
 40
1.0
 40
1.0
 40
1.0
 10
9.8275835023
 20
8.5175398134
 30
0.0
 10
9.8266364533
 20
8.5177982633
 30
0.0
 10
9.8221983789
 20
8.5190741362
 30
0.0
 10
9.8178386314
 20
8.5206222351
 30
0.0
 10
9.8144665352
 20
8.5219820006
 30
0.0
  0
LINE
  5
3D1
100
AcDbEntity
  8
0
100
AcDbLine
 62
7
  6
CONTINUOUS
 10
9.8505555063
 20
8.5175518684
 11
9.8346640814
 21
8.517546226
  0
LINE
  5
3D2
100
AcDbEntity
  8
0
100
AcDbLine
 62
7
  6
CONTINUOUS
 10
9.8346640814
 20
8.517546226
 11
9.8275835023
 21
8.5175398134
  0
SPLINE
  5
3D3
100
AcDbEntity
  8
0
100
AcDbSpline
 62
7
  6
CONTINUOUS
 70
0
 71
3
 72
11
 73
7
 74
0
 42
0.0000001
 43
0.0000001
 44
0.0000000001
 40
0.0
 40
0.0
 40
0.0
 40
0.0
 40
0.2429276881
 40
0.4890280924
 40
0.7407085397
 40
1.0
 40
1.0
 40
1.0
 40
1.0
 10
9.742386076
 20
8.5412434408
 30
0.0
 10
9.736959137
 20
8.5450707352
 30
0.0
 10
9.7265691478
 20
8.5535660573
 30
0.0
 10
9.7128101496
 20
8.5685083528
 30
0.0
 10
9.7009979737
 20
8.5855787664
 30
0.0
 10
9.6946533096
 20
8.5980774778
 30
0.0
 10
9.6918596565
 20
8.6045918192
 30
0.0
  0
SPLINE
  5
3D4
100
AcDbEntity
  8
0
100
AcDbSpline
 62
7
  6
CONTINUOUS
 70
0
 71
3
 72
9
 73
5
 74
0
 42
0.0000001
 43
0.0000001
 44
0.0000000001
 40
0.0
 40
0.0
 40
0.0
 40
0.0
 40
0.2247903288
 40
1.0
 40
1.0
 40
1.0
 40
1.0
 10
9.7886529859
 20
8.5196899384
 30
0.0
 10
9.7869130402
 20
8.5201611078
 30
0.0
 10
9.7792123493
 20
8.5224008506
 30
0.0
 10
9.7716924103
 20
8.5252614987
 30
0.0
 10
9.7660175628
 20
8.5277993362
 30
0.0
  0
LINE
  5
3D5
100
AcDbEntity
  8
0
100
AcDbLine
 62
7
  6
CONTINUOUS
 10
9.8112562833
 20
8.5175518684
 11
9.7977712625
 21
8.5175382038
  0
SPLINE
  5
3D6
100
AcDbEntity
  8
0
100
AcDbSpline
 62
7
  6
CONTINUOUS
 70
0
 71
3
 72
11
 73
7
 74
0
 42
0.0000001
 43
0.0000001
 44
0.0000000001
 40
0.0
 40
0.0
 40
0.0
 40
0.0
 40
0.2482292591
 40
0.496139849
 40
0.7460184049
 40
1.0
 40
1.0
 40
1.0
 40
1.0
 10
9.7356184061
 20
8.5353113801
 30
0.0
 10
9.7283060961
 20
8.5391467244
 30
0.0
 10
9.7142257825
 20
8.5478889695
 30
0.0
 10
9.6952424409
 20
8.5640095624
 30
0.0
 10
9.6787518294
 20
8.5829296583
 30
0.0
 10
9.6697245985
 20
8.5971401583
 30
0.0
 10
9.6657376556
 20
8.6045886861
 30
0.0
  0
LINE
  5
3D7
100
AcDbEntity
  8
0
100
AcDbLine
 62
7
  6
CONTINUOUS
 10
9.7914504972
 20
8.5175518684
 11
9.7890348983
 21
8.5175418636
  0
LINE
  5
3D8
100
AcDbEntity
  8
0
100
AcDbLine
 62
7
  6
CONTINUOUS
 10
9.7914504972
 20
8.5175518684
 11
9.7936624024
 21
8.517550174
  0
LINE
  5
3D9
100
AcDbEntity
  8
0
100
AcDbLine
 62
7
  6
CONTINUOUS
 10
9.7936624024
 20
8.517550174
 11
9.7965955557
 21
8.5175454476
  0
LINE
  5
3DA
100
AcDbEntity
  8
0
100
AcDbLine
 62
7
  6
CONTINUOUS
 10
9.7965955557
 20
8.5175454476
 11
9.7976935623
 21
8.5175433666
  0
LINE
  5
3DB
100
AcDbEntity
  8
0
100
AcDbLine
 62
7
  6
CONTINUOUS
 10
9.7646496623
 20
8.5232827082
 11
9.7649276875
 21
8.5231993648
  0
LINE
  5
3DC
100
AcDbEntity
  8
0
100
AcDbLine
 62
7
  6
CONTINUOUS
 10
9.8125794012
 20
8.5175517704
 11
9.8167333768
 21
8.517550385
  0
LINE
  5
3DD
100
AcDbEntity
  8
0
100
AcDbLine
 62
7
  6
CONTINUOUS
 10
9.8167333768
 20
8.517550385
 11
9.8228394521
 21
8.517546226
  0
LINE
  5
3DE
100
AcDbEntity
  8
0
100
AcDbLine
 62
7
  6
CONTINUOUS
 10
9.8228394521
 20
8.517546226
 11
9.8275141411
 21
8.517541923
  0
LINE
  5
3DF
100
AcDbEntity
  8
0
100
AcDbLine
 62
7
  6
CONTINUOUS
 10
12.2833803933
 20
8.5175518684
 11
12.2882451588
 21
8.517550385
  0
LINE
  5
3E0
100
AcDbEntity
  8
0
100
AcDbLine
 62
7
  6
CONTINUOUS
 10
12.2882451588
 20
8.517550385
 11
12.2952276936
 21
8.5175417699
  0
LINE
  5
3E1
100
AcDbEntity
  8
0
100
AcDbLine
 62
7
  6
CONTINUOUS
 10
12.3031861794
 20
8.5175518684
 11
12.3055739098
 21
8.5175434109
  0
LINE
  5
3E2
100
AcDbEntity
  8
0
100
AcDbLine
 62
7
  6
CONTINUOUS
 10
12.3031861794
 20
8.5175518684
 11
12.295165979
 21
8.5175398134
  0
LINE
  5
3E3
100
AcDbEntity
  8
0
100
AcDbLine
 62
7
  6
CONTINUOUS
 10
12.2833803933
 20
8.5175518684
 11
12.2648617249
 21
8.517539601
  0
SPLINE
  5
3E4
100
AcDbEntity
  8
0
100
AcDbSpline
 62
7
  6
CONTINUOUS
 70
0
 71
3
 72
17
 73
13
 74
0
 42
0.0000001
 43
0.0000001
 44
0.0000000001
 40
0.0
 40
0.0
 40
0.0
 40
0.0
 40
0.1800049761
 40
0.3492280782
 40
0.5053005648
 40
0.6459701332
 40
0.7686122658
 40
0.8703040579
 40
0.9124016463
 40
0.9482088038
 40
0.9774783581
 40
1.0
 40
1.0
 40
1.0
 40
1.0
 10
12.3347570814
 20
8.5289752855
 30
0.0
 10
12.3317923169
 20
8.5278551068
 30
0.0
 10
12.3259828495
 20
8.5258309444
 30
0.0
 10
12.3174461917
 20
8.5233145251
 30
0.0
 10
12.3094781575
 20
8.5213496774
 30
0.0
 10
12.3022419749
 20
8.5198703423
 30
0.0
 10
12.2959021535
 20
8.518810846
 30
0.0
 10
12.2912518706
 20
8.5181867223
 30
0.0
 10
12.2881075997
 20
8.5178498833
 30
0.0
 10
12.2862278421
 20
8.5176828397
 30
0.0
 10
12.284688712
 20
8.5175820437
 30
0.0
 10
12.2837769292
 20
8.5175518684
 30
0.0
 10
12.2833803933
 20
8.5175518684
 30
0.0
  0
SPLINE
  5
3E5
100
AcDbEntity
  8
0
100
AcDbSpline
 62
7
  6
CONTINUOUS
 70
0
 71
3
 72
13
 73
9
 74
0
 42
0.0000001
 43
0.0000001
 44
0.0000000001
 40
0.0
 40
0.0
 40
0.0
 40
0.0
 40
0.2726158638
 40
0.5315288899
 40
0.6551454724
 40
0.7745564853
 40
0.8895780996
 40
1.0
 40
1.0
 40
1.0
 40
1.0
 10
11.3732637293
 20
8.6044590794
 30
0.0
 10
11.3663391948
 20
8.5961086476
 30
0.0
 10
11.3521321758
 20
8.5803966179
 30
0.0
 10
11.3328962636
 20
8.5627348559
 30
0.0
 10
11.3171655856
 20
8.5504133734
 30
0.0
 10
11.3054758183
 20
8.5422541758
 30
0.0
 10
11.2937706933
 20
8.5350764871
 30
0.0
 10
11.2858300938
 20
8.5308847467
 30
0.0
 10
11.2818727462
 20
8.5289752855
 30
0.0
  0
SPLINE
  5
3E6
100
AcDbEntity
  8
0
100
AcDbSpline
 62
7
  6
CONTINUOUS
 70
0
 71
3
 72
11
 73
7
 74
0
 42
0.0000001
 43
0.0000001
 44
0.0000000001
 40
0.0
 40
0.0
 40
0.0
 40
0.0
 40
0.2475521696
 40
0.4959013912
 40
0.7463423736
 40
1.0
 40
1.0
 40
1.0
 40
1.0
 10
12.4308594294
 20
8.6044590794
 30
0.0
 10
12.4252539314
 20
8.5960309976
 30
0.0
 10
12.4126309068
 20
8.5800320546
 30
0.0
 10
12.3901078443
 20
8.5592665999
 30
0.0
 10
12.3644724197
 20
8.5420494305
 30
0.0
 10
12.3457537359
 20
8.5332090819
 30
0.0
 10
12.3360762047
 20
8.5294787199
 30
0.0
  0
SPLINE
  5
3E7
100
AcDbEntity
  8
0
100
AcDbSpline
 62
7
  6
CONTINUOUS
 70
0
 71
3
 72
15
 73
11
 74
0
 42
0.0000001
 43
0.0000001
 44
0.0000000001
 40
0.0
 40
0.0
 40
0.0
 40
0.0
 40
0.1069552144
 40
0.220282767
 40
0.3397489979
 40
0.4649249456
 40
0.5949458777
 40
0.7286147167
 40
0.8643507583
 40
1.0
 40
1.0
 40
1.0
 40
1.0
 10
11.2779748106
 20
8.5272433353
 30
0.0
 10
11.2755333678
 20
8.5262447034
 30
0.0
 10
11.2703958799
 20
8.5244497791
 30
0.0
 10
11.2622784114
 20
8.5223450571
 30
0.0
 10
11.2535994952
 20
8.5206984957
 30
0.0
 10
11.2444400976
 20
8.5194551796
 30
0.0
 10
11.2348893332
 20
8.5185605244
 30
0.0
 10
11.225055099
 20
8.5179648678
 30
0.0
 10
11.2150702618
 20
8.5176257812
 30
0.0
 10
11.2083769784
 20
8.5175518684
 30
0.0
 10
11.2050315267
 20
8.5175518684
 30
0.0
  0
LINE
  5
3E8
100
AcDbEntity
  8
0
100
AcDbLine
 62
7
  6
CONTINUOUS
 10
12.2440811702
 20
8.5175518684
 11
12.2157563532
 21
8.5175398134
  0
SPLINE
  5
3E9
100
AcDbEntity
  8
0
100
AcDbSpline
 62
7
  6
CONTINUOUS
 70
0
 71
3
 72
11
 73
7
 74
0
 42
0.0000001
 43
0.0000001
 44
0.0000000001
 40
0.0
 40
0.0
 40
0.0
 40
0.0
 40
0.3075758769
 40
0.5786355937
 40
0.8102203545
 40
1.0
 40
1.0
 40
1.0
 40
1.0
 10
12.2602067209
 20
8.5186723064
 30
0.0
 10
12.2585594787
 20
8.5184839697
 30
0.0
 10
12.2554565524
 20
8.5181634752
 30
0.0
 10
12.2511025478
 20
8.5178157779
 30
0.0
 10
12.2473754769
 20
8.5176087829
 30
0.0
 10
12.2451041689
 20
8.5175518684
 30
0.0
 10
12.2440811702
 20
8.5175518684
 30
0.0
  0
SPLINE
  5
3EA
100
AcDbEntity
  8
0
100
AcDbSpline
 62
7
  6
CONTINUOUS
 70
0
 71
3
 72
11
 73
7
 74
0
 42
0.0000001
 43
0.0000001
 44
0.0000000001
 40
0.0
 40
0.0
 40
0.0
 40
0.0
 40
0.2467655959
 40
0.4953454455
 40
0.74628951
 40
1.0
 40
1.0
 40
1.0
 40
1.0
 10
12.4093646187
 20
8.6044362382
 30
0.0
 10
12.4038327445
 20
8.59690539
 30
0.0
 10
12.3916565713
 20
8.5825464033
 30
0.0
 10
12.3705961872
 20
8.5635849583
 30
0.0
 10
12.3470383664
 20
8.5473700401
 30
0.0
 10
12.3299961961
 20
8.5385933678
 30
0.0
 10
12.3211977673
 20
8.5347350175
 30
0.0
  0
LINE
  5
3EB
100
AcDbEntity
  8
0
100
AcDbLine
 62
7
  6
CONTINUOUS
 10
11.2050315267
 20
8.5175518684
 11
11.1164481539
 21
8.5175382038
  0
LINE
  5
3EC
100
AcDbEntity
  8
0
100
AcDbLine
 62
7
  6
CONTINUOUS
 10
12.1859082824
 20
8.5175518684
 11
12.1451456261
 21
8.5175382038
  0
SPLINE
  5
3ED
100
AcDbEntity
  8
0
100
AcDbSpline
 62
7
  6
CONTINUOUS
 70
0
 71
3
 72
14
 73
10
 74
0
 42
0.0000001
 43
0.0000001
 44
0.0000000001
 40
0.0
 40
0.0
 40
0.0
 40
0.0
 40
0.3069569255
 40
0.4515561365
 40
0.5876795302
 40
0.7131110886
 40
0.8253290744
 40
0.9217577346
 40
1.0
 40
1.0
 40
1.0
 40
1.0
 10
12.2516124814
 20
8.5289752855
 30
0.0
 10
12.245139402
 20
8.5267367104
 30
0.0
 10
12.2354221845
 20
8.5239813284
 30
0.0
 10
12.2225815942
 20
8.5213123644
 30
0.0
 10
12.213637347
 20
8.51983556
 30
0.0
 10
12.2053631234
 20
8.518777306
 30
0.0
 10
12.1979408074
 20
8.5180721314
 30
0.0
 10
12.1915514668
 20
8.5176657492
 30
0.0
 10
12.187654128
 20
8.5175518684
 30
0.0
 10
12.1859082824
 20
8.5175518684
 30
0.0
  0
SPLINE
  5
3EE
100
AcDbEntity
  8
0
100
AcDbSpline
 62
7
  6
CONTINUOUS
 70
0
 71
3
 72
12
 73
8
 74
0
 42
0.0000001
 43
0.0000001
 44
0.0000000001
 40
0.0
 40
0.0
 40
0.0
 40
0.0
 40
0.2462259225
 40
0.3703326632
 40
0.4950438123
 40
0.7462436389
 40
1.0
 40
1.0
 40
1.0
 40
1.0
 10
12.3608277674
 20
8.6044590794
 30
0.0
 10
12.3545170805
 20
8.5966420197
 30
0.0
 10
12.3441966635
 20
8.5855237209
 30
0.0
 10
12.3290621997
 20
8.5721329252
 30
0.0
 10
12.3129337087
 20
8.5596173018
 30
0.0
 10
12.2911729389
 20
8.5458296136
 30
0.0
 10
12.2724866865
 20
8.5370103094
 30
0.0
 10
12.2628719898
 20
8.5331688444
 30
0.0
  0
LINE
  5
3EF
100
AcDbEntity
  8
0
100
AcDbLine
 62
7
  6
CONTINUOUS
 10
12.109779151
 20
8.5175518684
 11
12.0629294697
 21
8.5175398134
  0
SPLINE
  5
3F0
100
AcDbEntity
  8
0
100
AcDbSpline
 62
7
  6
CONTINUOUS
 70
0
 71
3
 72
9
 73
5
 74
0
 42
0.0000001
 43
0.0000001
 44
0.0000000001
 40
0.0
 40
0.0
 40
0.0
 40
0.0
 40
0.51627062
 40
1.0
 40
1.0
 40
1.0
 40
1.0
 10
12.1963569824
 20
8.5319445641
 30
0.0
 10
12.1883848617
 20
8.529038874
 30
0.0
 10
12.172560235
 20
8.5244279748
 30
0.0
 10
12.1563653211
 20
8.5214969608
 30
0.0
 10
12.1484906511
 20
8.5204028279
 30
0.0
  0
SPLINE
  5
3F1
100
AcDbEntity
  8
0
100
AcDbSpline
 62
7
  6
CONTINUOUS
 70
0
 71
3
 72
11
 73
7
 74
0
 42
0.0000001
 43
0.0000001
 44
0.0000000001
 40
0.0
 40
0.0
 40
0.0
 40
0.0
 40
0.2890549343
 40
0.5550207869
 40
0.7934348267
 40
1.0
 40
1.0
 40
1.0
 40
1.0
 10
12.1447410785
 20
8.5199066025
 30
0.0
 10
12.1413893661
 20
8.519484918
 30
0.0
 10
12.1349394092
 20
8.5187849585
 30
0.0
 10
12.1256932804
 20
8.5180666477
 30
0.0
 10
12.1173937205
 20
8.5176571269
 30
0.0
 10
12.1121932422
 20
8.5175518684
 30
0.0
 10
12.109779151
 20
8.5175518684
 30
0.0
  0
SPLINE
  5
3F2
100
AcDbEntity
  8
0
100
AcDbSpline
 62
7
  6
CONTINUOUS
 70
0
 71
3
 72
12
 73
8
 74
0
 42
0.0000001
 43
0.0000001
 44
0.0000000001
 40
0.0
 40
0.0
 40
0.0
 40
0.0
 40
0.2468181873
 40
0.3711680689
 40
0.4960461729
 40
0.7471908059
 40
1.0
 40
1.0
 40
1.0
 40
1.0
 10
12.3005943325
 20
8.6044362382
 30
0.0
 10
12.294161915
 20
8.5968881333
 30
0.0
 10
12.2837534851
 20
8.5861377156
 30
0.0
 10
12.2686452079
 20
8.5731259755
 30
0.0
 10
12.2526493319
 20
8.560927965
 30
0.0
 10
12.2312383145
 20
8.5474025786
 30
0.0
 10
12.2129430548
 20
8.538605717
 30
0.0
 10
12.2035515693
 20
8.5347350175
 30
0.0
  0
LINE
  5
3F3
100
AcDbEntity
  8
0
100
AcDbLine
 62
7
  6
CONTINUOUS
 10
12.0168943778
 20
8.5175518684
 11
11.9577541483
 21
8.5175382038
  0
SPLINE
  5
3F4
100
AcDbEntity
  8
0
100
AcDbSpline
 62
7
  6
CONTINUOUS
 70
0
 71
3
 72
14
 73
10
 74
0
 42
0.0000001
 43
0.0000001
 44
0.0000000001
 40
0.0
 40
0.0
 40
0.0
 40
0.0
 40
0.1397160554
 40
0.2787728366
 40
0.5484158602
 40
0.675619236
 40
0.7948765385
 40
0.9038141413
 40
1.0
 40
1.0
 40
1.0
 40
1.0
 10
12.0927976514
 20
8.5289752855
 30
0.0
 10
12.0893983137
 20
8.5278248531
 30
0.0
 10
12.0825390974
 20
8.5257505874
 30
0.0
 10
12.068841278
 20
8.5224413108
 30
0.0
 10
12.0552402575
 20
8.5201921817
 30
0.0
 10
12.0420605357
 20
8.5187566463
 30
0.0
 10
12.0329571499
 20
8.5180552745
 30
0.0
 10
12.0246339158
 20
8.5176534802
 30
0.0
 10
12.0193649972
 20
8.5175518684
 30
0.0
 10
12.0168943778
 20
8.5175518684
 30
0.0
  0
SPLINE
  5
3F5
100
AcDbEntity
  8
0
100
AcDbSpline
 62
7
  6
CONTINUOUS
 70
0
 71
3
 72
11
 73
7
 74
0
 42
0.0000001
 43
0.0000001
 44
0.0000000001
 40
0.0
 40
0.0
 40
0.0
 40
0.0
 40
0.2480135766
 40
0.4978660961
 40
0.7487968594
 40
1.0
 40
1.0
 40
1.0
 40
1.0
 10
12.2082634773
 20
8.6044590794
 30
0.0
 10
12.2005623992
 20
8.5958906193
 30
0.0
 10
12.1839116844
 20
8.5797254932
 30
0.0
 10
12.1559636684
 20
8.5588682347
 30
0.0
 10
12.1254914292
 20
8.5416120462
 30
0.0
 10
12.1038506355
 20
8.5327159292
 30
0.0
 10
12.0927976514
 20
8.5289752855
 30
0.0
  0
LINE
  5
3F6
100
AcDbEntity
  8
0
100
AcDbLine
 62
7
  6
CONTINUOUS
 10
11.9087188114
 20
8.5175518684
 11
11.8462880037
 21
8.5175398134
  0
SPLINE
  5
3F7
100
AcDbEntity
  8
0
100
AcDbSpline
 62
7
  6
CONTINUOUS
 70
0
 71
3
 72
14
 73
10
 74
0
 42
0.0000001
 43
0.0000001
 44
0.0000000001
 40
0.0
 40
0.0
 40
0.0
 40
0.0
 40
0.2676215619
 40
0.4010509876
 40
0.5324508365
 40
0.660171917
 40
0.7822013195
 40
0.8962788642
 40
1.0
 40
1.0
 40
1.0
 40
1.0
 10
12.0132549851
 20
8.5347350175
 30
0.0
 10
12.0044710067
 20
8.5311049593
 30
0.0
 10
11.9908163707
 20
8.5268102327
 30
0.0
 10
11.972316872
 20
8.5228786684
 30
0.0
 10
11.9585379165
 20
8.5207114805
 30
0.0
 10
11.945082818
 20
8.5192008649
 30
0.0
 10
11.9321959321
 20
8.5182256794
 30
0.0
 10
11.9201377598
 20
8.5176827526
 30
0.0
 10
11.9124024382
 20
8.5175518684
 30
0.0
 10
11.9087188114
 20
8.5175518684
 30
0.0
  0
SPLINE
  5
3F8
100
AcDbEntity
  8
0
100
AcDbSpline
 62
7
  6
CONTINUOUS
 70
0
 71
3
 72
11
 73
7
 74
0
 42
0.0000001
 43
0.0000001
 44
0.0000000001
 40
0.0
 40
0.0
 40
0.0
 40
0.0
 40
0.2620739949
 40
0.5169910109
 40
0.763324053
 40
1.0
 40
1.0
 40
1.0
 40
1.0
 10
11.5531333607
 20
8.6044362382
 30
0.0
 10
11.5472372228
 20
8.5976692378
 30
0.0
 10
11.5350851032
 20
8.5847627514
 30
0.0
 10
11.5156784465
 20
8.5672053336
 30
0.0
 10
11.4955584601
 20
8.5518634945
 30
0.0
 10
11.4815311328
 20
8.5430412245
 30
0.0
 10
11.4744613736
 20
8.539076627
 30
0.0
  0
SPLINE
  5
3F9
100
AcDbEntity
  8
0
100
AcDbSpline
 62
7
  6
CONTINUOUS
 70
0
 71
3
 72
12
 73
8
 74
0
 42
0.0000001
 43
0.0000001
 44
0.0000000001
 40
0.0
 40
0.0
 40
0.0
 40
0.0
 40
0.2498057369
 40
0.5002840293
 40
0.6255482499
 40
0.7506830095
 40
1.0
 40
1.0
 40
1.0
 40
1.0
 10
12.1130761063
 20
8.6044362382
 30
0.0
 10
12.106175952
 20
8.5969055493
 30
0.0
 10
12.0914894778
 20
8.5825969426
 30
0.0
 10
12.0712876802
 20
8.5668266761
 30
0.0
 10
12.0541717905
 20
8.5555644895
 30
0.0
 10
12.0365172166
 20
8.5452657881
 30
0.0
 10
12.0226760965
 20
8.5386283766
 30
0.0
 10
12.0132549851
 20
8.5347350175
 30
0.0
  0
SPLINE
  5
3FA
100
AcDbEntity
  8
0
100
AcDbSpline
 62
7
  6
CONTINUOUS
 70
0
 71
3
 72
9
 73
5
 74
0
 42
0.0000001
 43
0.0000001
 44
0.0000000001
 40
0.0
 40
0.0
 40
0.0
 40
0.0
 40
0.4852551065
 40
1.0
 40
1.0
 40
1.0
 40
1.0
 10
11.4663523815
 20
8.5347350175
 30
0.0
 10
11.4611601982
 20
8.5320867497
 30
0.0
 10
11.4499586762
 20
8.5275949783
 30
0.0
 10
11.4382928213
 20
8.5246314449
 30
0.0
 10
11.4322358485
 20
8.5233905904
 30
0.0
  0
SPLINE
  5
3FB
100
AcDbEntity
  8
0
100
AcDbSpline
 62
7
  6
CONTINUOUS
 70
0
 71
3
 72
11
 73
7
 74
0
 42
0.0000001
 43
0.0000001
 44
0.0000000001
 40
0.0
 40
0.0
 40
0.0
 40
0.0
 40
0.2453728812
 40
0.4968807717
 40
0.7503063116
 40
1.0
 40
1.0
 40
1.0
 40
1.0
 10
11.4260647565
 20
8.5222250329
 30
0.0
 10
11.4207425969
 20
8.5213009028
 30
0.0
 10
11.4098961154
 20
8.5198191884
 30
0.0
 10
11.3934305759
 20
8.5184484545
 30
0.0
 10
11.3768309597
 20
8.5177113287
 30
0.0
 10
11.3657544008
 20
8.5175518684
 30
0.0
 10
11.3602574839
 20
8.5175518684
 30
0.0
  0
LINE
  5
3FC
100
AcDbEntity
  8
0
100
AcDbLine
 62
7
  6
CONTINUOUS
 10
11.7869584449
 20
8.5175518684
 11
11.7131566401
 21
8.5175382038
  0
SPLINE
  5
3FD
100
AcDbEntity
  8
0
100
AcDbSpline
 62
7
  6
CONTINUOUS
 70
0
 71
3
 72
15
 73
11
 74
0
 42
0.0000001
 43
0.0000001
 44
0.0000000001
 40
0.0
 40
0.0
 40
0.0
 40
0.0
 40
0.1270616794
 40
0.2564622127
 40
0.3869219501
 40
0.5172042732
 40
0.6457160141
 40
0.7705206688
 40
0.8894298059
 40
1.0
 40
1.0
 40
1.0
 40
1.0
 10
11.8682915112
 20
8.5289752855
 30
0.0
 10
11.86499709
 20
8.5278121654
 30
0.0
 10
11.8582561297
 20
8.525718428
 30
0.0
 10
11.8479101712
 20
8.5232151013
 30
0.0
 10
11.8373574277
 20
8.5212617527
 30
0.0
 10
11.8267526946
 20
8.5197925935
 30
0.0
 10
11.8162556028
 20
8.5187412492
 30
0.0
 10
11.8060431319
 20
8.5180436677
 30
0.0
 10
11.7963087362
 20
8.5176462787
 30
0.0
 10
11.7899987084
 20
8.5175518684
 30
0.0
 10
11.7869584449
 20
8.5175518684
 30
0.0
  0
SPLINE
  5
3FE
100
AcDbEntity
  8
0
100
AcDbSpline
 62
7
  6
CONTINUOUS
 70
0
 71
3
 72
11
 73
7
 74
0
 42
0.0000001
 43
0.0000001
 44
0.0000000001
 40
0.0
 40
0.0
 40
0.0
 40
0.0
 40
0.2530052515
 40
0.5048721871
 40
0.7542680148
 40
1.0
 40
1.0
 40
1.0
 40
1.0
 10
11.9827527344
 20
8.6044590794
 30
0.0
 10
11.9747906691
 20
8.5959322931
 30
0.0
 10
11.9578575686
 20
8.5798617368
 30
0.0
 10
11.929929766
 20
8.5590045422
 30
0.0
 10
11.9000380958
 20
8.5417349902
 30
0.0
 10
11.8789759939
 20
8.5327475226
 30
0.0
 10
11.8682915112
 20
8.5289752855
 30
0.0
  0
LINE
  5
3FF
100
AcDbEntity
  8
0
100
AcDbLine
 62
7
  6
CONTINUOUS
 10
11.3602574839
 20
8.5175518684
 11
11.2791652333
 21
8.5175398134
  0
LINE
  5
400
100
AcDbEntity
  8
0
100
AcDbLine
 62
7
  6
CONTINUOUS
 10
11.6535335121
 20
8.5175518684
 11
11.5794443352
 21
8.5175398134
  0
SPLINE
  5
401
100
AcDbEntity
  8
0
100
AcDbSpline
 62
7
  6
CONTINUOUS
 70
0
 71
3
 72
15
 73
11
 74
0
 42
0.0000001
 43
0.0000001
 44
0.0000000001
 40
0.0
 40
0.0
 40
0.0
 40
0.0
 40
0.1224714734
 40
0.2479254875
 40
0.3755302317
 40
0.5043450601
 40
0.6330661859
 40
0.759990561
 40
0.883085778
 40
1.0
 40
1.0
 40
1.0
 40
1.0
 10
11.7622650489
 20
8.5347350175
 30
0.0
 10
11.758127832
 20
8.5329053894
 30
0.0
 10
11.7495590327
 20
8.5296297011
 30
0.0
 10
11.7362176933
 20
8.5257876351
 30
0.0
 10
11.7224123345
 20
8.5228468627
 30
0.0
 10
11.7083451807
 20
8.520686227
 30
0.0
 10
11.6942202989
 20
8.5191813732
 30
0.0
 10
11.6802618716
 20
8.518211832
 30
0.0
 10
11.6667175236
 20
8.517674704
 30
0.0
 10
11.6578519706
 20
8.5175518684
 30
0.0
 10
11.6535335121
 20
8.5175518684
 30
0.0
  0
SPLINE
  5
402
100
AcDbEntity
  8
0
100
AcDbSpline
 62
7
  6
CONTINUOUS
 70
0
 71
3
 72
11
 73
7
 74
0
 42
0.0000001
 43
0.0000001
 44
0.0000000001
 40
0.0
 40
0.0
 40
0.0
 40
0.0
 40
0.2553582965
 40
0.5079569782
 40
0.7565356348
 40
1.0
 40
1.0
 40
1.0
 40
1.0
 10
11.8585924
 20
8.6044362382
 30
0.0
 10
11.8516845214
 20
8.596950297
 30
0.0
 10
11.8371905969
 20
8.5827346104
 30
0.0
 10
11.8136203749
 20
8.5638118482
 30
0.0
 10
11.7886681547
 20
8.5476066521
 30
0.0
 10
11.771147
 20
8.53866294
 30
0.0
 10
11.7622650489
 20
8.5347350175
 30
0.0
  0
LINE
  5
403
100
AcDbEntity
  8
0
100
AcDbLine
 62
7
  6
CONTINUOUS
 10
11.5105482038
 20
8.5175518684
 11
11.4267220627
 21
8.5175382038
  0
SPLINE
  5
404
100
AcDbEntity
  8
0
100
AcDbSpline
 62
7
  6
CONTINUOUS
 70
0
 71
3
 72
15
 73
11
 74
0
 42
0.0000001
 43
0.0000001
 44
0.0000000001
 40
0.0
 40
0.0
 40
0.0
 40
0.0
 40
0.115835045
 40
0.2365007464
 40
0.3611436045
 40
0.4888906582
 40
0.6184783733
 40
0.7482623592
 40
0.8762486611
 40
1.0
 40
1.0
 40
1.0
 40
1.0
 10
11.5922006071
 20
8.5289752855
 30
0.0
 10
11.5892241132
 20
8.5277997324
 30
0.0
 10
11.5830314634
 20
8.5256865808
 30
0.0
 10
11.5733645033
 20
8.5231880986
 30
0.0
 10
11.5632379954
 20
8.5212396055
 30
0.0
 10
11.5527834308
 20
8.5197750391
 30
0.0
 10
11.5421372889
 20
8.5187278457
 30
0.0
 10
11.5314564664
 20
8.5180342797
 30
0.0
 10
11.5209222545
 20
8.5176410292
 30
0.0
 10
11.5139671359
 20
8.5175518684
 30
0.0
 10
11.5105482038
 20
8.5175518684
 30
0.0
  0
SPLINE
  5
405
100
AcDbEntity
  8
0
100
AcDbSpline
 62
7
  6
CONTINUOUS
 70
0
 71
3
 72
11
 73
7
 74
0
 42
0.0000001
 43
0.0000001
 44
0.0000000001
 40
0.0
 40
0.0
 40
0.0
 40
0.0
 40
0.2568296305
 40
0.5097864617
 40
0.7577606315
 40
1.0
 40
1.0
 40
1.0
 40
1.0
 10
11.6984652082
 20
8.6044590794
 30
0.0
 10
11.6929526594
 20
8.5984019942
 30
0.0
 10
11.6815541083
 20
8.5867855498
 30
0.0
 10
11.6633544608
 20
8.5708549183
 30
0.0
 10
11.6443490146
 20
8.5566585366
 30
0.0
 10
11.6310982468
 20
8.5483253115
 30
0.0
 10
11.6243894059
 20
8.5444960434
 30
0.0
  0
SPLINE
  5
406
100
AcDbEntity
  8
0
100
AcDbSpline
 62
7
  6
CONTINUOUS
 70
0
 71
3
 72
9
 73
5
 74
0
 42
0.0000001
 43
0.0000001
 44
0.0000000001
 40
0.0
 40
0.0
 40
0.0
 40
0.0
 40
0.2545195509
 40
1.0
 40
1.0
 40
1.0
 40
1.0
 10
11.6243894059
 20
8.5444960434
 30
0.0
 10
11.6217551165
 20
8.5429924454
 30
0.0
 10
11.6113068481
 20
8.5372595942
 30
0.0
 10
11.600463655
 20
8.5322387399
 30
0.0
 10
11.5922006071
 20
8.5289752855
 30
0.0
  0
SPLINE
  5
407
100
AcDbEntity
  8
0
100
AcDbSpline
 62
9
  6
CONTINUOUS
 70
0
 71
3
 72
12
 73
8
 74
0
 42
0.0000001
 43
0.0000001
 44
0.0000000001
 40
0.0
 40
0.0
 40
0.0
 40
0.0
 40
0.2700808575
 40
0.5171174665
 40
0.6364950457
 40
0.7555359336
 40
1.0
 40
1.0
 40
1.0
 40
1.0
 10
11.5265932231
 20
5.7347932197
 30
0.0
 10
11.5273092116
 20
5.7338914091
 30
0.0
 10
11.5285248022
 20
5.7320273949
 30
0.0
 10
11.5294083968
 20
5.7294243556
 30
0.0
 10
11.5296378839
 20
5.727360392
 30
0.0
 10
11.5295676608
 20
5.7252970438
 30
0.0
 10
11.5291735251
 20
5.7237718811
 30
0.0
 10
11.5287896777
 20
5.7228028759
 30
0.0
  0
SPLINE
  5
408
100
AcDbEntity
  8
0
100
AcDbSpline
 62
9
  6
CONTINUOUS
 70
0
 71
3
 72
15
 73
11
 74
0
 42
0.0000001
 43
0.0000001
 44
0.0000000001
 40
0.0
 40
0.0
 40
0.0
 40
0.0
 40
0.1597543062
 40
0.3101392139
 40
0.4503239902
 40
0.5799903292
 40
0.699154408
 40
0.8082054945
 40
0.9080020497
 40
1.0
 40
1.0
 40
1.0
 40
1.0
 10
11.5067259166
 20
5.9327021153
 30
0.0
 10
11.508098002
 20
5.9321949034
 30
0.0
 10
11.5107356157
 20
5.9311371877
 30
0.0
 10
11.5144624616
 20
5.9293656585
 30
0.0
 10
11.5178138264
 20
5.9274670472
 30
0.0
 10
11.5207614302
 20
5.9254585344
 30
0.0
 10
11.5232819848
 20
5.9233548293
 30
0.0
 10
11.5253553276
 20
5.9211704438
 30
0.0
 10
11.5269638875
 20
5.9189220526
 30
0.0
 10
11.5277394313
 20
5.9173336853
 30
0.0
 10
11.5280321544
 20
5.9165437752
 30
0.0
  0
SPLINE
  5
409
100
AcDbEntity
  8
0
100
AcDbSpline
 62
9
  6
CONTINUOUS
 70
0
 71
3
 72
15
 73
11
 74
0
 42
0.0000001
 43
0.0000001
 44
0.0000000001
 40
0.0
 40
0.0
 40
0.0
 40
0.0
 40
0.1651897454
 40
0.3154364993
 40
0.4511966862
 40
0.5737566439
 40
0.6856434883
 40
0.7906498474
 40
0.8936826922
 40
1.0
 40
1.0
 40
1.0
 40
1.0
 10
11.5094956903
 20
5.7401289211
 30
0.0
 10
11.5107181022
 20
5.7394274094
 30
0.0
 10
11.5129978795
 20
5.7379879172
 30
0.0
 10
11.5160229734
 20
5.735593593
 30
0.0
 10
11.5184645512
 20
5.7330889422
 30
0.0
 10
11.5202909188
 20
5.7304919651
 30
0.0
 10
11.5214756504
 20
5.7278250379
 30
0.0
 10
11.5219847026
 20
5.7251150626
 30
0.0
 10
11.5217988844
 20
5.7224109836
 30
0.0
 10
11.5212301542
 20
5.7206968992
 30
0.0
 10
11.5208535746
 20
5.7198716607
 30
0.0
  0
SPLINE
  5
40A
100
AcDbEntity
  8
0
100
AcDbSpline
 62
9
  6
CONTINUOUS
 70
0
 71
3
 72
15
 73
11
 74
0
 42
0.0000001
 43
0.0000001
 44
0.0000000001
 40
0.0
 40
0.0
 40
0.0
 40
0.0
 40
0.1632196979
 40
0.3170270717
 40
0.4599425284
 40
0.5911594227
 40
0.7102850534
 40
0.8174350025
 40
0.9133984228
 40
1.0
 40
1.0
 40
1.0
 40
1.0
 10
11.4890350437
 20
5.9331779467
 30
0.0
 10
11.4908427353
 20
5.9325848687
 30
0.0
 10
11.494322601
 20
5.9313339307
 30
0.0
 10
11.4992462787
 20
5.929202863
 30
0.0
 10
11.5036717057
 20
5.9268903651
 30
0.0
 10
11.5075450513
 20
5.9244267836
 30
0.0
 10
11.5108213057
 20
5.9218381652
 30
0.0
 10
11.5134650246
 20
5.9191525982
 30
0.0
 10
11.5154403473
 20
5.916394583
 30
0.0
 10
11.5163290271
 20
5.9144391692
 30
0.0
 10
11.5166306682
 20
5.9134758598
 30
0.0
  0
SPLINE
  5
40B
100
AcDbEntity
  8
0
100
AcDbSpline
 62
9
  6
CONTINUOUS
 70
0
 71
3
 72
19
 73
15
 74
0
 42
0.0000001
 43
0.0000001
 44
0.0000000001
 40
0.0
 40
0.0
 40
0.0
 40
0.0
 40
0.1787747512
 40
0.341559522
 40
0.4867607319
 40
0.6137970487
 40
0.6708075395
 40
0.7238507204
 40
0.7734309631
 40
0.8202636417
 40
0.8652547846
 40
0.9094590904
 40
0.954010429
 40
1.0
 40
1.0
 40
1.0
 40
1.0
 10
11.4752172248
 20
5.7441645059
 30
0.0
 10
11.4775041763
 20
5.7433446558
 30
0.0
 10
11.481816972
 20
5.7416114022
 30
0.0
 10
11.4877095432
 20
5.7385801816
 30
0.0
 10
11.4926371803
 20
5.7352884421
 30
0.0
 10
11.4959776684
 20
5.7322744587
 30
0.0
 10
11.4980204984
 20
5.7297755016
 30
0.0
 10
11.4991971396
 20
5.7279465202
 30
0.0
 10
11.500065276
 20
5.726102977
 30
0.0
 10
11.5006178231
 20
5.7242542052
 30
0.0
 10
11.5008497573
 20
5.7224111004
 30
0.0
 10
11.500755291
 20
5.7205861836
 30
0.0
 10
11.5003356405
 20
5.718794525
 30
0.0
 10
11.4998535955
 20
5.7176555191
 30
0.0
 10
11.4995668971
 20
5.7171001814
 30
0.0
  0
SPLINE
  5
40C
100
AcDbEntity
  8
0
100
AcDbSpline
 62
9
  6
CONTINUOUS
 70
0
 71
3
 72
15
 73
11
 74
0
 42
0.0000001
 43
0.0000001
 44
0.0000000001
 40
0.0
 40
0.0
 40
0.0
 40
0.0
 40
0.1625131394
 40
0.3172050847
 40
0.461967906
 40
0.5953006471
 40
0.7160324996
 40
0.8234736478
 40
0.9177311565
 40
1.0
 40
1.0
 40
1.0
 40
1.0
 10
11.4569092663
 20
5.9328036404
 30
0.0
 10
11.4591452926
 20
5.9321032149
 30
0.0
 10
11.4634744829
 20
5.9306195293
 30
0.0
 10
11.4696420542
 20
5.9280933387
 30
0.0
 10
11.4752527748
 20
5.9253505185
 30
0.0
 10
11.4802172644
 20
5.9224356184
 30
0.0
 10
11.4844610817
 20
5.9193946856
 30
0.0
 10
11.4879203504
 20
5.9162695121
 30
0.0
 10
11.4905434785
 20
5.91310491
 30
0.0
 10
11.4917791931
 20
5.910851233
 30
0.0
 10
11.4922071981
 20
5.9097449662
 30
0.0
  0
LINE
  5
40D
100
AcDbEntity
  8
0
100
AcDbLine
 62
9
  6
CONTINUOUS
 10
11.4922071981
 20
5.9097449662
 11
11.4927514242
 21
5.9079427931
  0
SPLINE
  5
40E
100
AcDbEntity
  8
0
100
AcDbSpline
 62
9
  6
CONTINUOUS
 70
0
 71
3
 72
21
 73
17
 74
0
 42
0.0000001
 43
0.0000001
 44
0.0000000001
 40
0.0
 40
0.0
 40
0.0
 40
0.0
 40
0.1807768954
 40
0.3515799663
 40
0.4315466416
 40
0.5071005677
 40
0.5777303929
 40
0.6430598435
 40
0.7028366927
 40
0.7570038476
 40
0.8057263873
 40
0.8495052427
 40
0.8892464551
 40
0.9263450744
 40
0.9626053329
 40
1.0
 40
1.0
 40
1.0
 40
1.0
 10
11.4131683533
 20
5.7475842712
 30
0.0
 10
11.4169203704
 20
5.7467313896
 30
0.0
 10
11.424156388
 20
5.7447888625
 30
0.0
 10
11.4328086274
 20
5.7416642564
 30
0.0
 10
11.4391472859
 20
5.7388176488
 30
0.0
 10
11.4434258689
 20
5.7366063055
 30
0.0
 10
11.4472915127
 20
5.73429244
 30
0.0
 10
11.4507071853
 20
5.7318997918
 30
0.0
 10
11.4536396009
 20
5.7294498629
 30
0.0
 10
11.4560619896
 20
5.726965924
 30
0.0
 10
11.4579502125
 20
5.7244673703
 30
0.0
 10
11.4592848299
 20
5.7219731759
 30
0.0
 10
11.4600430324
 20
5.7195001426
 30
0.0
 10
11.4602015424
 20
5.7170731815
 30
0.0
 10
11.4597444398
 20
5.714734271
 30
0.0
 10
11.4590559535
 20
5.7133058995
 30
0.0
 10
11.4586342188
 20
5.7126308923
 30
0.0
  0
SPLINE
  5
40F
100
AcDbEntity
  8
0
100
AcDbSpline
 62
9
  6
CONTINUOUS
 70
0
 71
3
 72
18
 73
14
 74
0
 42
0.0000001
 43
0.0000001
 44
0.0000000001
 40
0.0
 40
0.0
 40
0.0
 40
0.0
 40
0.1684395292
 40
0.3317835058
 40
0.4854199778
 40
0.6252985772
 40
0.6889952494
 40
0.7480466443
 40
0.8022072779
 40
0.8513213886
 40
0.8953756046
 40
0.9345465171
 40
1.0
 40
1.0
 40
1.0
 40
1.0
 10
11.3920202413
 20
5.9328033278
 30
0.0
 10
11.3953711025
 20
5.9318036519
 30
0.0
 10
11.4019160511
 20
5.9296427158
 30
0.0
 10
11.4112853011
 20
5.9259146816
 30
0.0
 10
11.4198557977
 20
5.9218360382
 30
0.0
 10
11.4263009336
 20
5.9181475225
 30
0.0
 10
11.4308231857
 20
5.9150979701
 30
0.0
 10
11.4337512452
 20
5.9128775511
 30
0.0
 10
11.4363011274
 20
5.9106696685
 30
0.0
 10
11.4384529074
 20
5.9084919972
 30
0.0
 10
11.4401923597
 20
5.9063551241
 30
0.0
 10
11.4418425905
 20
5.9037494691
 30
0.0
 10
11.4426079637
 20
5.901639667
 30
0.0
 10
11.4427298287
 20
5.9002863295
 30
0.0
  0
SPLINE
  5
410
100
AcDbEntity
  8
0
100
AcDbSpline
 62
9
  6
CONTINUOUS
 70
0
 71
3
 72
18
 73
14
 74
0
 42
0.0000001
 43
0.0000001
 44
0.0000000001
 40
0.0
 40
0.0
 40
0.0
 40
0.0
 40
0.1521682021
 40
0.3044046698
 40
0.4522761045
 40
0.5916396183
 40
0.7186865221
 40
0.7765937626
 40
0.830305077
 40
0.8795825699
 40
0.9242800885
 40
0.9643690759
 40
1.0
 40
1.0
 40
1.0
 40
1.0
 10
11.3257049424
 20
5.7475860925
 30
0.0
 10
11.3291433548
 20
5.7467982825
 30
0.0
 10
11.3359751917
 20
5.745011904
 30
0.0
 10
11.3459520854
 20
5.741770709
 30
0.0
 10
11.3554411996
 20
5.7380444485
 30
0.0
 10
11.3641384988
 20
5.7339548407
 30
0.0
 10
11.3706907241
 20
5.7302470775
 30
0.0
 10
11.3752961039
 20
5.7271769745
 30
0.0
 10
11.3782828291
 20
5.7249391716
 30
0.0
 10
11.3808870669
 20
5.7227125813
 30
0.0
 10
11.383089325
 20
5.7205141434
 30
0.0
 10
11.3848719021
 20
5.7183600611
 30
0.0
 10
11.3858266135
 20
5.7168793056
 30
0.0
 10
11.3862168339
 20
5.7161513106
 30
0.0
  0
SPLINE
  5
411
100
AcDbEntity
  8
0
100
AcDbSpline
 62
9
  6
CONTINUOUS
 70
0
 71
3
 72
11
 73
7
 74
0
 42
0.0000001
 43
0.0000001
 44
0.0000000001
 40
0.0
 40
0.0
 40
0.0
 40
0.0
 40
0.2852994434
 40
0.5368696704
 40
0.7689555059
 40
1.0
 40
1.0
 40
1.0
 40
1.0
 10
11.3862168339
 20
5.7161513106
 30
0.0
 10
11.3866082165
 20
5.7154211474
 30
0.0
 10
11.3872367885
 20
5.7139817983
 30
0.0
 10
11.3876461289
 20
5.7117610345
 30
0.0
 10
11.3874130253
 20
5.709665674
 30
0.0
 10
11.3868365613
 20
5.7084223043
 30
0.0
 10
11.3864698403
 20
5.7078605018
 30
0.0
  0
SPLINE
  5
412
100
AcDbEntity
  8
0
100
AcDbSpline
 62
9
  6
CONTINUOUS
 70
0
 71
3
 72
22
 73
18
 74
0
 42
0.0000001
 43
0.0000001
 44
0.0000000001
 40
0.0
 40
0.0
 40
0.0
 40
0.0
 40
0.1641224644
 40
0.3302744134
 40
0.4909192079
 40
0.5668940616
 40
0.6388239792
 40
0.7059306162
 40
0.7675066658
 40
0.8229539729
 40
0.8717890672
 40
0.9137149176
 40
0.9320622099
 40
0.94869168
 40
0.9636682084
 40
0.9770983343
 40
1.0
 40
1.0
 40
1.0
 40
1.0
 10
11.2970063487
 20
5.9328033907
 30
0.0
 10
11.3010822747
 20
5.9315370574
 30
0.0
 10
11.309213967
 20
5.9287566594
 30
0.0
 10
11.3210713746
 20
5.9240115821
 30
0.0
 10
11.3305855514
 20
5.9196161645
 30
0.0
 10
11.3377122726
 20
5.9159265549
 30
0.0
 10
11.3425920896
 20
5.9131943326
 30
0.0
 10
11.3470484904
 20
5.9104790986
 30
0.0
 10
11.3510283323
 20
5.9078134012
 30
0.0
 10
11.3544855184
 20
5.9052300354
 30
0.0
 10
11.3573793166
 20
5.9027592073
 30
0.0
 10
11.3593783383
 20
5.9007375425
 30
0.0
 10
11.360646768
 20
5.8991893922
 30
0.0
 10
11.3613950336
 20
5.8981260735
 30
0.0
 10
11.3619820427
 20
5.8971094074
 30
0.0
 10
11.3625180039
 20
5.8958877089
 30
0.0
 10
11.3627247945
 20
5.8949410412
 30
0.0
 10
11.3627220664
 20
5.8943454748
 30
0.0
  0
SPLINE
  5
413
100
AcDbEntity
  8
0
100
AcDbSpline
 62
9
  6
CONTINUOUS
 70
0
 71
3
 72
21
 73
17
 74
0
 42
0.0000001
 43
0.0000001
 44
0.0000000001
 40
0.0
 40
0.0
 40
0.0
 40
0.0
 40
0.1473056728
 40
0.3027963465
 40
0.4586938792
 40
0.6071551747
 40
0.6762808604
 40
0.7408556353
 40
0.8001276597
 40
0.8534388733
 40
0.9002640545
 40
0.9402675051
 40
0.9576850037
 40
0.9733988844
 40
0.987468985
 40
1.0
 40
1.0
 40
1.0
 40
1.0
 10
11.2139253023
 20
5.7475850542
 30
0.0
 10
11.2180702658
 20
5.7465348658
 30
0.0
 10
11.2265165007
 20
5.7440786143
 30
0.0
 10
11.2390774967
 20
5.7396438419
 30
0.0
 10
11.2514140991
 20
5.7345296916
 30
0.0
 10
11.2611886249
 20
5.7298227985
 30
0.0
 10
11.2683821964
 20
5.7259034493
 30
0.0
 10
11.2731989836
 20
5.7230411312
 30
0.0
 10
11.2775039606
 20
5.7202249323
 30
0.0
 10
11.2812414081
 20
5.7174920742
 30
0.0
 10
11.2843634122
 20
5.7148793342
 30
0.0
 10
11.2865134462
 20
5.7127408104
 30
0.0
 10
11.2878685652
 20
5.711104578
 30
0.0
 10
11.2886603893
 20
5.7099843289
 30
0.0
 10
11.289273613
 20
5.7089177953
 30
0.0
 10
11.289578356
 20
5.7082052629
 30
0.0
 10
11.2896945541
 20
5.7078605762
 30
0.0
  0
SPLINE
  5
414
100
AcDbEntity
  8
0
100
AcDbSpline
 62
9
  6
CONTINUOUS
 70
0
 71
3
 72
19
 73
15
 74
0
 42
0.0000001
 43
0.0000001
 44
0.0000000001
 40
0.0
 40
0.0
 40
0.0
 40
0.0
 40
0.1394652783
 40
0.2901282465
 40
0.4441182212
 40
0.5933414022
 40
0.7299896688
 40
0.7913446437
 40
0.8469743911
 40
0.8961748832
 40
0.9383592821
 40
0.9730662395
 40
0.9875165457
 40
1.0
 40
1.0
 40
1.0
 40
1.0
 10
11.1801720515
 20
5.9328034827
 30
0.0
 10
11.1840515122
 20
5.9314200018
 30
0.0
 10
11.192063635
 20
5.9283775891
 30
0.0
 10
11.2041773868
 20
5.9233449061
 30
0.0
 10
11.216407503
 20
5.9178544638
 30
0.0
 10
11.2281034035
 20
5.9121979176
 30
0.0
 10
11.237191476
 20
5.9074425559
 30
0.0
 10
11.2437165291
 20
5.9037629978
 30
0.0
 10
11.2479317357
 20
5.9012481018
 30
0.0
 10
11.2515925352
 20
5.8989120131
 30
0.0
 10
11.2546509837
 20
5.8967860862
 30
0.0
 10
11.2567815196
 20
5.8951271263
 30
0.0
 10
11.2581393423
 20
5.8939136868
 30
0.0
 10
11.2587017066
 20
5.8933500877
 30
0.0
 10
11.2589508272
 20
5.8930783245
 30
0.0
  0
SPLINE
  5
415
100
AcDbEntity
  8
0
100
AcDbSpline
 62
7
  6
CONTINUOUS
 70
0
 71
3
 72
15
 73
11
 74
0
 42
0.0000001
 43
0.0000001
 44
0.0000000001
 40
0.0
 40
0.0
 40
0.0
 40
0.0
 40
0.1165552424
 40
0.2374517191
 40
0.3614798569
 40
0.4877716409
 40
0.6155483066
 40
0.744064113
 40
0.8725553164
 40
1.0
 40
1.0
 40
1.0
 40
1.0
 10
11.2585882358
 20
5.8852202657
 30
0.0
 10
11.2577294919
 20
5.8799434612
 30
0.0
 10
11.2556440089
 20
5.8692470749
 30
0.0
 10
11.2517340512
 20
5.8531299684
 30
0.0
 10
11.2470828241
 20
5.8367462647
 30
0.0
 10
11.2417601676
 20
5.8202369535
 30
0.0
 10
11.2358098236
 20
5.8037244075
 30
0.0
 10
11.2292617037
 20
5.7873306889
 30
0.0
 10
11.2221409685
 20
5.7711940679
 30
0.0
 10
11.2169897434
 20
5.7606406907
 30
0.0
 10
11.2143080401
 20
5.7554463903
 30
0.0
  0
SPLINE
  5
416
100
AcDbEntity
  8
0
100
AcDbSpline
 62
9
  6
CONTINUOUS
 70
0
 71
3
 72
18
 73
14
 74
0
 42
0.0000001
 43
0.0000001
 44
0.0000000001
 40
0.0
 40
0.0
 40
0.0
 40
0.0
 40
0.056516125
 40
0.1180192096
 40
0.2525268222
 40
0.3965364745
 40
0.5424883259
 40
0.6827287844
 40
0.8099227945
 40
0.8665240959
 40
0.9174802259
 40
0.9621634191
 40
1.0
 40
1.0
 40
1.0
 40
1.0
 10
11.0875827854
 20
5.7475845772
 30
0.0
 10
11.089260484
 20
5.7470577878
 30
0.0
 10
11.0927488884
 20
5.7459095766
 30
0.0
 10
11.1001578126
 20
5.74329229
 30
0.0
 10
11.1100305918
 20
5.7394840912
 30
0.0
 10
11.1222055775
 20
5.7343616157
 30
0.0
 10
11.1343944753
 20
5.7288253001
 30
0.0
 10
11.1459488393
 20
5.7231703922
 30
0.0
 10
11.1548584208
 20
5.7184455415
 30
0.0
 10
11.1611953733
 20
5.7148120746
 30
0.0
 10
11.1652427105
 20
5.7123495889
 30
0.0
 10
11.1687187678
 20
5.7100757024
 30
0.0
 10
11.1708064182
 20
5.708578474
 30
0.0
 10
11.1717388558
 20
5.707859796
 30
0.0
  0
LINE
  5
417
100
AcDbEntity
  8
0
100
AcDbLine
 62
7
  6
CONTINUOUS
 10
11.0075619983
 20
5.663592903
 11
11.0423183383
 21
5.6928318604
  0
SPLINE
  5
418
100
AcDbEntity
  8
0
100
AcDbSpline
 62
9
  6
CONTINUOUS
 70
0
 71
3
 72
11
 73
7
 74
0
 42
0.0000001
 43
0.0000001
 44
0.0000000001
 40
0.0
 40
0.0
 40
0.0
 40
0.0
 40
0.247830068
 40
0.4976289106
 40
0.7487089189
 40
1.0
 40
1.0
 40
1.0
 40
1.0
 10
11.4743015861
 20
5.6928311526
 30
0.0
 10
11.4764254673
 20
5.6910500165
 30
0.0
 10
11.4801988898
 20
5.6868409467
 30
0.0
 10
11.4838960763
 20
5.6792122628
 30
0.0
 10
11.485400765
 20
5.6708316945
 30
0.0
 10
11.4848536047
 20
5.6651562599
 30
0.0
 10
11.4842049568
 20
5.6624215441
 30
0.0
  0
SPLINE
  5
419
100
AcDbEntity
  8
0
100
AcDbSpline
 62
9
  6
CONTINUOUS
 70
0
 71
3
 72
11
 73
7
 74
0
 42
0.0000001
 43
0.0000001
 44
0.0000000001
 40
0.0
 40
0.0
 40
0.0
 40
0.0
 40
0.2512909959
 40
0.5023709322
 40
0.7521697737
 40
1.0
 40
1.0
 40
1.0
 40
1.0
 10
11.4842055055
 20
5.9782423153
 30
0.0
 10
11.4848542246
 20
5.9755075388
 30
0.0
 10
11.4854014969
 20
5.9698319574
 30
0.0
 10
11.4838968585
 20
5.9614511422
 30
0.0
 10
11.4801996165
 20
5.9538222245
 30
0.0
 10
11.4764260983
 20
5.9496130279
 30
0.0
 10
11.4743021576
 20
5.9478318428
 30
0.0
  0
LINE
  5
41A
100
AcDbEntity
  8
0
100
AcDbLine
 62
7
  6
CONTINUOUS
 10
11.0423183383
 20
5.9478318604
 11
11.0075590648
 21
5.9770714407
  0
SPLINE
  5
41B
100
AcDbEntity
  8
0
100
AcDbSpline
 62
9
  6
CONTINUOUS
 70
0
 71
3
 72
15
 73
11
 74
0
 42
0.0000001
 43
0.0000001
 44
0.0000000001
 40
0.0
 40
0.0
 40
0.0
 40
0.0
 40
0.2509370454
 40
0.3761525587
 40
0.5011935357
 40
0.6260785487
 40
0.6884815685
 40
0.7508686753
 40
0.8755281096
 40
1.0
 40
1.0
 40
1.0
 40
1.0
 10
10.9897434443
 20
5.8587688287
 30
0.0
 10
10.9903758333
 20
5.8687763322
 30
0.0
 10
10.9915121724
 20
5.8837675477
 30
0.0
 10
10.9935599573
 20
5.9036913713
 30
0.0
 10
10.9954000027
 20
5.9185699756
 30
0.0
 10
10.9972471421
 20
5.9309150469
 30
0.0
 10
10.9989474389
 20
5.9407465312
 30
0.0
 10
11.0008050876
 20
5.9505403069
 30
0.0
 10
11.0034734713
 20
5.9627031014
 30
0.0
 10
11.0060985568
 20
5.9723128583
 30
0.0
 10
11.0075605982
 20
5.9770670335
 30
0.0
  0
SPLINE
  5
41C
100
AcDbEntity
  8
0
100
AcDbSpline
 62
9
  6
CONTINUOUS
 70
0
 71
3
 72
10
 73
6
 74
0
 42
0.0000001
 43
0.0000001
 44
0.0000000001
 40
0.0
 40
0.0
 40
0.0
 40
0.0
 40
0.513724832
 40
0.7632421432
 40
1.0
 40
1.0
 40
1.0
 40
1.0
 10
10.9897434443
 20
5.8587688287
 30
0.0
 10
10.9948604978
 20
5.8585631964
 30
0.0
 10
11.0024575229
 20
5.8580806274
 30
0.0
 10
11.0123778522
 20
5.8570932552
 30
0.0
 10
11.0171883397
 20
5.8564885987
 30
0.0
 10
11.019525316
 20
5.8561584973
 30
0.0
  0
SPLINE
  5
41D
100
AcDbEntity
  8
0
100
AcDbSpline
 62
7
  6
CONTINUOUS
 70
0
 71
3
 72
12
 73
8
 74
0
 42
0.0000001
 43
0.0000001
 44
0.0000000001
 40
0.0
 40
0.0
 40
0.0
 40
0.0
 40
0.2405656563
 40
0.4887602555
 40
0.6150025046
 40
0.742427363
 40
1.0
 40
1.0
 40
1.0
 40
1.0
 10
11.0423183383
 20
5.9247874555
 30
0.0
 10
11.0399044739
 20
5.9195018638
 30
0.0
 10
11.0352665508
 20
5.9086396442
 30
0.0
 10
11.0301078062
 20
5.8947018308
 30
0.0
 10
11.0263703602
 20
5.8831684544
 30
0.0
 10
11.0229101298
 20
5.8713135186
 30
0.0
 10
11.0207395188
 20
5.8622603382
 30
0.0
 10
11.0195252419
 20
5.8561584958
 30
0.0
  0
SPLINE
  5
41E
100
AcDbEntity
  8
0
100
AcDbSpline
 62
7
  6
CONTINUOUS
 70
0
 71
3
 72
11
 73
7
 74
0
 42
0.0000001
 43
0.0000001
 44
0.0000000001
 40
0.0
 40
0.0
 40
0.0
 40
0.0
 40
0.2473126214
 40
0.4974881657
 40
0.7489318189
 40
1.0
 40
1.0
 40
1.0
 40
1.0
 10
11.0195252419
 20
5.8561584958
 30
0.0
 10
11.0183304043
 20
5.8501537048
 30
0.0
 10
11.0160812654
 20
5.8380439447
 30
0.0
 10
11.0129376335
 20
5.8197716285
 30
0.0
 10
11.0098612683
 20
5.801393764
 30
0.0
 10
11.0077506869
 20
5.7891335026
 30
0.0
 10
11.0066411943
 20
5.7830178439
 30
0.0
  0
SPLINE
  5
41F
100
AcDbEntity
  8
0
100
AcDbSpline
 62
7
  6
CONTINUOUS
 70
0
 71
3
 72
22
 73
18
 74
0
 42
0.0000001
 43
0.0000001
 44
0.0000000001
 40
0.0
 40
0.0
 40
0.0
 40
0.0
 40
0.1276950413
 40
0.1914267267
 40
0.2550718251
 40
0.3186162795
 40
0.3820912742
 40
0.5086484215
 40
0.5718106001
 40
0.6033242424
 40
0.6347976878
 40
0.6975240612
 40
0.728742266
 40
0.7598225151
 40
0.8215014378
 40
0.8823387439
 40
1.0
 40
1.0
 40
1.0
 40
1.0
 10
11.0066411943
 20
5.7830178439
 30
0.0
 10
11.0060696104
 20
5.7798660682
 30
0.0
 10
11.0053059974
 20
5.7751227572
 30
0.0
 10
11.00455891
 20
5.7687672497
 30
0.0
 10
11.0041582871
 20
5.7639938189
 30
0.0
 10
11.0039586712
 20
5.7592131256
 30
0.0
 10
11.0040080425
 20
5.7528516218
 30
0.0
 10
11.0046459426
 20
5.746503033
 30
0.0
 10
11.0059473531
 20
5.741098681
 30
0.0
 10
11.0069329615
 20
5.7380899187
 30
0.0
 10
11.0080880876
 20
5.7351541246
 30
0.0
 10
11.0094994942
 20
5.7323323772
 30
0.0
 10
11.0111523221
 20
5.729665154
 30
0.0
 10
11.0129531806
 20
5.7271274965
 30
0.0
 10
11.015456607
 20
5.7241870626
 30
0.0
 10
11.0198193109
 20
5.7200206004
 30
0.0
 10
11.0234542429
 20
5.71736887
 30
0.0
 10
11.0259377113
 20
5.7157739759
 30
0.0
  0
SPLINE
  5
420
100
AcDbEntity
  8
0
100
AcDbSpline
 62
9
  6
CONTINUOUS
 70
0
 71
3
 72
15
 73
11
 74
0
 42
0.0000001
 43
0.0000001
 44
0.0000000001
 40
0.0
 40
0.0
 40
0.0
 40
0.0
 40
0.1244715922
 40
0.2491311843
 40
0.311518408
 40
0.3739214746
 40
0.4988064343
 40
0.6238472832
 40
0.7490627873
 40
1.0
 40
1.0
 40
1.0
 40
1.0
 10
11.007563528
 20
5.6635973024
 30
0.0
 10
11.0061010511
 20
5.6683513178
 30
0.0
 10
11.0034756126
 20
5.6779609666
 30
0.0
 10
11.0008074294
 20
5.6901237729
 30
0.0
 10
10.9989498804
 20
5.6999175536
 30
0.0
 10
10.9972495533
 20
5.7097490107
 30
0.0
 10
10.9954022144
 20
5.7220940124
 30
0.0
 10
10.99356179
 20
5.736972523
 30
0.0
 10
10.9915135209
 20
5.7568962466
 30
0.0
 10
10.990376898
 20
5.7718874102
 30
0.0
 10
10.9897443754
 20
5.781894886
 30
0.0
  0
SPLINE
  5
421
100
AcDbEntity
  8
0
100
AcDbSpline
 62
7
  6
CONTINUOUS
 70
0
 71
3
 72
10
 73
6
 74
0
 42
0.0000001
 43
0.0000001
 44
0.0000000001
 40
0.0
 40
0.0
 40
0.0
 40
0.0
 40
0.2724249487
 40
0.5316343476
 40
1.0
 40
1.0
 40
1.0
 40
1.0
 10
11.0259377113
 20
5.7157739759
 30
0.0
 10
11.0273442727
 20
5.7148706761
 30
0.0
 10
11.0301520305
 20
5.7132046425
 30
0.0
 10
11.0355913178
 20
5.7103608297
 30
0.0
 10
11.0396673592
 20
5.7085292183
 30
0.0
 10
11.0423183383
 20
5.7074192994
 30
0.0
  0
LINE
  5
422
100
AcDbEntity
  8
0
100
AcDbLine
 62
9
  6
CONTINUOUS
 10
11.0473183383
 20
5.9478318604
 11
11.0473618465
 21
5.9292076318
  0
LINE
  5
423
100
AcDbEntity
  8
0
100
AcDbLine
 62
7
  6
CONTINUOUS
 10
11.0423183383
 20
5.9247874555
 11
11.0423183383
 21
5.9478318604
  0
SPLINE
  5
424
100
AcDbEntity
  8
0
100
AcDbSpline
 62
7
  6
CONTINUOUS
 70
0
 71
3
 72
23
 73
19
 74
0
 42
0.0000001
 43
0.0000001
 44
0.0000000001
 40
0.0
 40
0.0
 40
0.0
 40
0.0
 40
0.0627560207
 40
0.1255066532
 40
0.1881140986
 40
0.2505911722
 40
0.312934796
 40
0.3751803108
 40
0.4373793873
 40
0.4995844492
 40
0.5618383153
 40
0.6241717982
 40
0.6866028264
 40
0.7491380727
 40
0.8117653789
 40
0.8744632285
 40
0.9372481225
 40
1.0
 40
1.0
 40
1.0
 40
1.0
 10
11.1369201581
 20
5.8930776803
 30
0.0
 10
11.1369996773
 20
5.8955341994
 30
0.0
 10
11.1367833146
 20
5.9004672153
 30
0.0
 10
11.1353481044
 20
5.9077209016
 30
0.0
 10
11.132837898
 20
5.9146659794
 30
0.0
 10
11.129325846
 20
5.921142805
 30
0.0
 10
11.1249027432
 20
5.9270167519
 30
0.0
 10
11.1196775898
 20
5.9321735232
 30
0.0
 10
11.1137702092
 20
5.9365215797
 30
0.0
 10
11.107307478
 20
5.9399898174
 30
0.0
 10
11.1004205472
 20
5.9425260531
 30
0.0
 10
11.0932425454
 20
5.9440945513
 30
0.0
 10
11.0859074283
 20
5.9446747913
 30
0.0
 10
11.078549722
 20
5.9442587598
 30
0.0
 10
11.0713051067
 20
5.9428521725
 30
0.0
 10
11.0643080669
 20
5.9404725162
 30
0.0
 10
11.0577012507
 20
5.9371514767
 30
0.0
 10
11.053641991
 20
5.9343433677
 30
0.0
 10
11.0517258029
 20
5.9328044605
 30
0.0
  0
SPLINE
  5
425
100
AcDbEntity
  8
0
100
AcDbSpline
 62
7
  6
CONTINUOUS
 70
0
 71
3
 72
10
 73
6
 74
0
 42
0.0000001
 43
0.0000001
 44
0.0000000001
 40
0.0
 40
0.0
 40
0.0
 40
0.0
 40
0.2479030452
 40
0.4975049856
 40
1.0
 40
1.0
 40
1.0
 40
1.0
 10
11.1801720515
 20
5.9328034827
 30
0.0
 10
11.1760822609
 20
5.9293585296
 30
0.0
 10
11.1681167273
 20
5.9221521169
 30
0.0
 10
11.1530698725
 20
5.9066846312
 30
0.0
 10
11.142829894
 20
5.8940355703
 30
0.0
 10
11.1365156435
 20
5.8852257167
 30
0.0
  0
LINE
  5
426
100
AcDbEntity
  8
0
100
AcDbLine
 62
7
  6
CONTINUOUS
 10
11.1032623294
 20
8.6045799586
 11
11.2182623294
 21
8.6044323537
  0
SPLINE
  5
427
100
AcDbEntity
  8
0
100
AcDbSpline
 62
7
  6
CONTINUOUS
 70
0
 71
3
 72
14
 73
10
 74
0
 42
0.0000001
 43
0.0000001
 44
0.0000000001
 40
0.0
 40
0.0
 40
0.0
 40
0.0
 40
0.1443293487
 40
0.2838363979
 40
0.4177161829
 40
0.5456782675
 40
0.6676570053
 40
0.7838129638
 40
1.0
 40
1.0
 40
1.0
 40
1.0
 10
10.9463183383
 20
8.5175346399
 30
0.0
 10
10.9500978036
 20
8.517666385
 30
0.0
 10
10.9575282234
 20
8.5180012008
 30
0.0
 10
10.9684468107
 20
8.5187844754
 30
0.0
 10
10.9789072801
 20
8.5198930065
 30
0.0
 10
10.9888556148
 20
8.5213900592
 30
0.0
 10
10.9982561677
 20
8.5233414038
 30
0.0
 10
11.0097180254
 20
8.5265611383
 30
0.0
 10
11.0178195011
 20
8.5299671029
 30
0.0
 10
11.0227267613
 20
8.5327966721
 30
0.0
  0
SPLINE
  5
428
100
AcDbEntity
  8
0
100
AcDbSpline
 62
7
  6
CONTINUOUS
 70
0
 71
3
 72
23
 73
19
 74
0
 42
0.0000001
 43
0.0000001
 44
0.0000000001
 40
0.0
 40
0.0
 40
0.0
 40
0.0
 40
0.0656532428
 40
0.1310695592
 40
0.1958414904
 40
0.2597865994
 40
0.3227961141
 40
0.3848998213
 40
0.4462371023
 40
0.5070227419
 40
0.5675105668
 40
0.6279620871
 40
0.6886188141
 40
0.7496827582
 40
0.8112948076
 40
0.8735371802
 40
0.9364783746
 40
1.0
 40
1.0
 40
1.0
 40
1.0
 10
11.2589508272
 20
5.8930783245
 30
0.0
 10
11.2590219989
 20
5.8955345811
 30
0.0
 10
11.2588292116
 20
5.9004543799
 30
0.0
 10
11.2575489471
 20
5.907693865
 30
0.0
 10
11.2553047233
 20
5.9146295853
 30
0.0
 10
11.2521543548
 20
5.9211036129
 30
0.0
 10
11.2481698733
 20
5.9269810904
 30
0.0
 10
11.2434397768
 20
5.9321461378
 30
0.0
 10
11.238063772
 20
5.9365046226
 30
0.0
 10
11.2321503322
 20
5.9399826748
 30
0.0
 10
11.2258146085
 20
5.9425258877
 30
0.0
 10
11.2191762175
 20
5.9440973692
 30
0.0
 10
11.2123578676
 20
5.9446764939
 30
0.0
 10
11.2054848619
 20
5.9442560795
 30
0.0
 10
11.1986854251
 20
5.9428433663
 30
0.0
 10
11.1920883496
 20
5.940457613
 30
0.0
 10
11.1858321462
 20
5.9371319158
 30
0.0
 10
11.1819904302
 20
5.9343351576
 30
0.0
 10
11.1801720515
 20
5.9328034827
 30
0.0
  0
LINE
  5
429
100
AcDbEntity
  8
0
100
AcDbLine
 62
7
  6
CONTINUOUS
 10
10.9114739078
 20
8.6045918192
 11
11.0275819028
 21
8.6044590794
  0
SPLINE
  5
42A
100
AcDbEntity
  8
0
100
AcDbSpline
 62
7
  6
CONTINUOUS
 70
0
 71
3
 72
15
 73
11
 74
0
 42
0.0000001
 43
0.0000001
 44
0.0000000001
 40
0.0
 40
0.0
 40
0.0
 40
0.0
 40
0.0994198641
 40
0.2065092465
 40
0.3211280873
 40
0.4431221476
 40
0.5722985817
 40
0.7084114006
 40
0.8511482269
 40
1.0
 40
1.0
 40
1.0
 40
1.0
 10
10.835757163
 20
8.5277993362
 30
0.0
 10
10.8388110576
 20
8.5296948024
 30
0.0
 10
10.8449978497
 20
8.5338873868
 30
0.0
 10
10.8541650454
 20
8.5410218465
 30
0.0
 10
10.8635234823
 20
8.5492055251
 30
0.0
 10
10.8730298046
 20
8.5584057112
 30
0.0
 10
10.8826432776
 20
8.5685910586
 30
0.0
 10
10.8923204886
 20
8.5797295777
 30
0.0
 10
10.9020124757
 20
8.5917819939
 30
0.0
 10
10.908324324
 20
8.6002283649
 30
0.0
 10
10.9114739078
 20
8.6045918192
 30
0.0
  0
SPLINE
  5
42B
100
AcDbEntity
  8
0
100
AcDbSpline
 62
7
  6
CONTINUOUS
 70
0
 71
3
 72
11
 73
7
 74
0
 42
0.0000001
 43
0.0000001
 44
0.0000000001
 40
0.0
 40
0.0
 40
0.0
 40
0.0
 40
0.2770825951
 40
0.5345064095
 40
0.7743817118
 40
1.0
 40
1.0
 40
1.0
 40
1.0
 10
10.8018305646
 20
8.5175382038
 30
0.0
 10
10.8051025947
 20
8.5179447582
 30
0.0
 10
10.8113956031
 20
8.5189050077
 30
0.0
 10
10.8203789156
 20
8.5210154414
 30
0.0
 10
10.8285176965
 20
8.5238582463
 30
0.0
 10
10.8334760456
 20
8.5263835109
 30
0.0
 10
10.835757163
 20
8.5277993362
 30
0.0
  0
LINE
  5
42C
100
AcDbEntity
  8
0
100
AcDbLine
 62
9
  6
CONTINUOUS
 10
11.5083163979
 20
5.6216434876
 11
11.4739421281
 21
5.6216434922
  0
SPLINE
  5
42D
100
AcDbEntity
  8
0
100
AcDbSpline
 62
7
  6
CONTINUOUS
 70
0
 71
3
 72
10
 73
6
 74
0
 42
0.0000001
 43
0.0000001
 44
0.0000000001
 40
0.0
 40
0.0
 40
0.0
 40
0.0
 40
0.2434528423
 40
0.4918471682
 40
1.0
 40
1.0
 40
1.0
 40
1.0
 10
11.2970063487
 20
5.9328033907
 30
0.0
 10
11.2934477329
 20
5.929331457
 30
0.0
 10
11.2864901586
 20
5.9220756783
 30
0.0
 10
11.2732353924
 20
5.9065310005
 30
0.0
 10
11.264195184
 20
5.8939524866
 30
0.0
 10
11.2585882358
 20
5.8852202657
 30
0.0
  0
SPLINE
  5
42E
100
AcDbEntity
  8
0
100
AcDbSpline
 62
7
  6
CONTINUOUS
 70
0
 71
3
 72
10
 73
6
 74
0
 42
0.0000001
 43
0.0000001
 44
0.0000000001
 40
0.0
 40
0.0
 40
0.0
 40
0.0
 40
0.2382663084
 40
0.4850885673
 40
1.0
 40
1.0
 40
1.0
 40
1.0
 10
11.3920202413
 20
5.9328033278
 30
0.0
 10
11.3896927071
 20
5.9297952895
 30
0.0
 10
11.3851032797
 20
5.9235544795
 30
0.0
 10
11.3761935995
 20
5.9103062478
 30
0.0
 10
11.3700065889
 20
5.8998205028
 30
0.0
 10
11.3660868682
 20
5.8925959462
 30
0.0
  0
LINE
  5
42F
100
AcDbEntity
  8
0
100
AcDbLine
 62
7
  6
CONTINUOUS
 10
10.7445769163
 20
8.6045886861
 11
10.8680587363
 21
8.6044362382
  0
SPLINE
  5
430
100
AcDbEntity
  8
0
100
AcDbSpline
 62
7
  6
CONTINUOUS
 70
0
 71
3
 72
15
 73
11
 74
0
 42
0.0000001
 43
0.0000001
 44
0.0000000001
 40
0.0
 40
0.0
 40
0.0
 40
0.0
 40
0.0925009234
 40
0.1947989686
 40
0.3066788889
 40
0.4279075083
 40
0.5582158022
 40
0.697288268
 40
0.8447445678
 40
1.0
 40
1.0
 40
1.0
 40
1.0
 10
10.6823186422
 20
8.5277178338
 30
0.0
 10
10.6847008275
 20
8.5296414184
 30
0.0
 10
10.6895582861
 20
8.5338909791
 30
0.0
 10
10.6967863676
 20
8.5410250387
 30
0.0
 10
10.7042917843
 20
8.549211506
 30
0.0
 10
10.7120397437
 20
8.5584174304
 30
0.0
 10
10.7199974816
 20
8.5686112024
 30
0.0
 10
10.7281301479
 20
8.5797600166
 30
0.0
 10
10.7363983216
 20
8.5918238439
 30
0.0
 10
10.7418395971
 20
8.6002392835
 30
0.0
 10
10.7445769163
 20
8.6045886861
 30
0.0
  0
SPLINE
  5
431
100
AcDbEntity
  8
0
100
AcDbSpline
 62
7
  6
CONTINUOUS
 70
0
 71
3
 72
11
 73
7
 74
0
 42
0.0000001
 43
0.0000001
 44
0.0000000001
 40
0.0
 40
0.0
 40
0.0
 40
0.0
 40
0.2819523302
 40
0.539623598
 40
0.776999677
 40
1.0
 40
1.0
 40
1.0
 40
1.0
 10
10.6546866385
 20
8.5175398134
 30
0.0
 10
10.6574557535
 20
8.5179432525
 30
0.0
 10
10.6627336771
 20
8.5188914791
 30
0.0
 10
10.6701711646
 20
8.5209913752
 30
0.0
 10
10.676738961
 20
8.5238200241
 30
0.0
 10
10.6805966862
 20
8.5263273761
 30
0.0
 10
10.6823186422
 20
8.5277178338
 30
0.0
  0
SPLINE
  5
432
100
AcDbEntity
  8
0
100
AcDbSpline
 62
7
  6
CONTINUOUS
 70
0
 71
3
 72
9
 73
5
 74
0
 42
0.0000001
 43
0.0000001
 44
0.0000000001
 40
0.0
 40
0.0
 40
0.0
 40
0.0
 40
0.4810954188
 40
1.0
 40
1.0
 40
1.0
 40
1.0
 10
11.4569092663
 20
5.9328036404
 30
0.0
 10
11.4548248287
 20
5.9282293602
 30
0.0
 10
11.4506787043
 20
5.9186358699
 30
0.0
 10
11.4468405472
 20
5.908915661
 30
0.0
 10
11.4449269889
 20
5.9038426896
 30
0.0
  0
LINE
  5
433
100
AcDbEntity
  8
0
100
AcDbLine
 62
9
  6
CONTINUOUS
 10
10.989743786
 20
5.8587692653
 11
10.5729632392
 21
5.8587669697
  0
LINE
  5
434
100
AcDbEntity
  8
0
100
AcDbLine
 62
7
  6
CONTINUOUS
 10
10.5722823073
 20
8.6045918192
 11
10.6831401891
 21
8.6044590794
  0
SPLINE
  5
435
100
AcDbEntity
  8
0
100
AcDbSpline
 62
7
  6
CONTINUOUS
 70
0
 71
3
 72
14
 73
10
 74
0
 42
0.0000001
 43
0.0000001
 44
0.0000000001
 40
0.0
 40
0.0
 40
0.0
 40
0.0
 40
0.085164575
 40
0.1824352415
 40
0.2914617891
 40
0.4119026658
 40
0.5434029252
 40
0.6855800249
 40
1.0
 40
1.0
 40
1.0
 40
1.0
 10
10.5244539817
 20
8.5277993362
 30
0.0
 10
10.5261148643
 20
8.5297633916
 30
0.0
 10
10.5295446403
 20
8.5340792816
 30
0.0
 10
10.5347263236
 20
8.5411975654
 30
0.0
 10
10.5402655185
 20
8.5493664401
 30
0.0
 10
10.5461370042
 20
8.5585536015
 30
0.0
 10
10.5523170718
 20
8.5687279256
 30
0.0
 10
10.5612372904
 20
8.584088399
 30
0.0
 10
10.5678440165
 20
8.5961966062
 30
0.0
 10
10.5722823073
 20
8.6045918192
 30
0.0
  0
SPLINE
  5
436
100
AcDbEntity
  8
0
100
AcDbSpline
 62
7
  6
CONTINUOUS
 70
0
 71
3
 72
12
 73
8
 74
0
 42
0.0000001
 43
0.0000001
 44
0.0000000001
 40
0.0
 40
0.0
 40
0.0
 40
0.0
 40
0.2876844148
 40
0.5444797836
 40
0.7780474163
 40
0.8896932178
 40
1.0
 40
1.0
 40
1.0
 40
1.0
 10
10.502637875
 20
8.5175382038
 30
0.0
 10
10.5049623935
 20
8.5179359034
 30
0.0
 10
10.5093369225
 20
8.518868741
 30
0.0
 10
10.5153782311
 20
8.5209801471
 30
0.0
 10
10.5197096662
 20
8.5234238047
 30
0.0
 10
10.5226066168
 20
8.5257919651
 30
0.0
 10
10.5238701017
 20
8.5271088764
 30
0.0
 10
10.5244539817
 20
8.5277993362
 30
0.0
  0
SPLINE
  5
437
100
AcDbEntity
  8
0
100
AcDbSpline
 62
9
  6
CONTINUOUS
 70
0
 71
3
 72
13
 73
9
 74
0
 42
0.0000001
 43
0.0000001
 44
0.0000000001
 40
0.0
 40
0.0
 40
0.0
 40
0.0
 40
0.2492469801
 40
0.3745400391
 40
0.4999999332
 40
0.6254598504
 40
0.7507529471
 40
1.0
 40
1.0
 40
1.0
 40
1.0
 10
10.9897444483
 20
5.781893819
 30
0.0
 10
10.9893905166
 20
5.788273758
 30
0.0
 10
10.9890266189
 20
5.7978706354
 30
0.0
 10
10.988795514
 20
5.8106867682
 30
0.0
 10
10.9887368375
 20
5.8203315271
 30
0.0
 10
10.9887954816
 20
5.8299762868
 30
0.0
 10
10.9890263741
 20
5.8427924259
 30
0.0
 10
10.9893899807
 20
5.8523893173
 30
0.0
 10
10.989743786
 20
5.8587692653
 30
0.0
  0
LINE
  5
438
100
AcDbEntity
  8
0
100
AcDbLine
 62
7
  6
CONTINUOUS
 10
10.4172840863
 20
8.6045886861
 11
10.5314889093
 21
8.6044362382
  0
SPLINE
  5
439
100
AcDbEntity
  8
0
100
AcDbSpline
 62
7
  6
CONTINUOUS
 70
0
 71
3
 72
11
 73
7
 74
0
 42
0.0000001
 43
0.0000001
 44
0.0000000001
 40
0.0
 40
0.0
 40
0.0
 40
0.0
 40
0.1715158171
 40
0.3977268485
 40
0.6751647218
 40
1.0
 40
1.0
 40
1.0
 40
1.0
 10
10.384614283
 20
8.5277178338
 30
0.0
 10
10.3865367237
 20
8.5320891095
 30
0.0
 10
10.3909355277
 20
8.5422515829
 30
0.0
 10
10.3983159954
 20
8.5595400315
 30
0.0
 10
10.4072990467
 20
8.5807856371
 30
0.0
 10
10.4137907129
 20
8.5962465544
 30
0.0
 10
10.4172840863
 20
8.6045886861
 30
0.0
  0
SPLINE
  5
43A
100
AcDbEntity
  8
0
100
AcDbSpline
 62
7
  6
CONTINUOUS
 70
0
 71
3
 72
14
 73
10
 74
0
 42
0.0000001
 43
0.0000001
 44
0.0000000001
 40
0.0
 40
0.0
 40
0.0
 40
0.0
 40
0.1494385144
 40
0.2882506884
 40
0.5393959409
 40
0.6559690225
 40
0.7697064632
 40
0.8834157805
 40
1.0
 40
1.0
 40
1.0
 40
1.0
 10
10.3697254325
 20
8.5175398134
 30
0.0
 10
10.3706373816
 20
8.5177431207
 30
0.0
 10
10.3723863475
 20
8.5181867172
 30
0.0
 10
10.3755851727
 20
8.519257233
 30
0.0
 10
10.37845683
 20
8.520663614
 30
0.0
 10
10.3808595725
 20
8.522491145
 30
0.0
 10
10.3823769223
 20
8.5240266223
 30
0.0
 10
10.3836499945
 20
8.5257699216
 30
0.0
 10
10.384320836
 20
8.5270505894
 30
0.0
 10
10.384614283
 20
8.5277178338
 30
0.0
  0
LINE
  5
43B
100
AcDbEntity
  8
0
100
AcDbLine
 62
7
  6
CONTINUOUS
 10
10.2629389676
 20
8.6045918192
 11
10.3615811279
 21
8.6044590794
  0
SPLINE
  5
43C
100
AcDbEntity
  8
0
100
AcDbSpline
 62
7
  6
CONTINUOUS
 70
0
 71
3
 72
11
 73
7
 74
0
 42
0.0000001
 43
0.0000001
 44
0.0000000001
 40
0.0
 40
0.0
 40
0.0
 40
0.0
 40
0.2856496898
 40
0.5388805849
 40
0.7717767277
 40
1.0
 40
1.0
 40
1.0
 40
1.0
 10
10.237669462
 20
8.5175382038
 30
0.0
 10
10.2385128117
 20
8.5177957649
 30
0.0
 10
10.2400804106
 20
8.5183705892
 30
0.0
 10
10.2421640816
 20
8.5195551473
 30
0.0
 10
10.243815356
 20
8.5210472689
 30
0.0
 10
10.2446057187
 20
8.5222528673
 30
0.0
 10
10.2449172407
 20
8.5228847791
 30
0.0
  0
SPLINE
  5
43D
100
AcDbEntity
  8
0
100
AcDbSpline
 62
7
  6
CONTINUOUS
 70
0
 71
3
 72
14
 73
10
 74
0
 42
0.0000001
 43
0.0000001
 44
0.0000000001
 40
0.0
 40
0.0
 40
0.0
 40
0.0
 40
0.3235202968
 40
0.4681901377
 40
0.6006919877
 40
0.7205544091
 40
0.8273341074
 40
0.9206144094
 40
1.0
 40
1.0
 40
1.0
 40
1.0
 10
10.3615811279
 20
8.6044590794
 30
0.0
 10
10.3590992096
 20
8.5964583996
 30
0.0
 10
10.3556464319
 20
8.5848352488
 30
0.0
 10
10.351603842
 20
8.5698155526
 30
0.0
 10
10.3491269657
 20
8.5598372924
 30
0.0
 10
10.3470978523
 20
8.5507611865
 30
0.0
 10
10.3455237152
 20
8.5426268794
 30
0.0
 10
10.344411593
 20
8.5354755778
 30
0.0
 10
10.3439414984
 20
8.5310262281
 30
0.0
 10
10.3438046347
 20
8.5289752855
 30
0.0
  0
LINE
  5
43E
100
AcDbEntity
  8
0
100
AcDbLine
 62
7
  6
CONTINUOUS
 10
10.1295786254
 20
8.6045886861
 11
10.2273305425
 21
8.6044362382
  0
SPLINE
  5
43F
100
AcDbEntity
  8
0
100
AcDbSpline
 62
9
  6
CONTINUOUS
 70
0
 71
3
 72
15
 73
11
 74
0
 42
0.0000001
 43
0.0000001
 44
0.0000000001
 40
0.0
 40
0.0
 40
0.0
 40
0.0
 40
0.1234210988
 40
0.2471137848
 40
0.371139456
 40
0.4957154252
 40
0.6209052417
 40
0.7467059622
 40
0.8731487534
 40
1.0
 40
1.0
 40
1.0
 40
1.0
 10
11.4150581649
 20
6.0653318604
 30
0.0
 10
11.4183690841
 20
6.0653318694
 30
0.0
 10
11.4250114814
 20
6.0647717404
 30
0.0
 10
11.4346968761
 20
6.0622802564
 30
0.0
 10
11.4438630869
 20
6.0581983904
 30
0.0
 10
11.4522637714
 20
6.0526404206
 30
0.0
 10
11.4596765814
 20
6.0457512454
 30
0.0
 10
11.4659095121
 20
6.0377153756
 30
0.0
 10
11.4707932583
 20
6.0287477675
 30
0.0
 10
11.4730667922
 20
6.0223086623
 30
0.0
 10
11.4739423828
 20
6.0190203008
 30
0.0
  0
SPLINE
  5
440
100
AcDbEntity
  8
0
100
AcDbSpline
 62
7
  6
CONTINUOUS
 70
0
 71
3
 72
11
 73
7
 74
0
 42
0.0000001
 43
0.0000001
 44
0.0000000001
 40
0.0
 40
0.0
 40
0.0
 40
0.0
 40
0.2929939147
 40
0.5517809131
 40
0.7839014899
 40
1.0
 40
1.0
 40
1.0
 40
1.0
 10
10.222498246
 20
8.5347350175
 30
0.0
 10
10.2226634992
 20
8.5338132602
 30
0.0
 10
10.2228930393
 20
8.5320601261
 30
0.0
 10
10.2228817423
 20
8.5295448834
 30
0.0
 10
10.2224738775
 20
8.527308115
 30
0.0
 10
10.2219103731
 20
8.5259746056
 30
0.0
 10
10.2215663175
 20
8.5253757148
 30
0.0
  0
LINE
  5
441
100
AcDbEntity
  8
0
100
AcDbLine
 62
9
  6
CONTINUOUS
 10
11.4739423828
 20
6.0190203008
 11
11.5083155652
 21
6.0190202361
  0
SPLINE
  5
442
100
AcDbEntity
  8
0
100
AcDbSpline
 62
7
  6
CONTINUOUS
 70
0
 71
3
 72
15
 73
11
 74
0
 42
0.0000001
 43
0.0000001
 44
0.0000000001
 40
0.0
 40
0.0
 40
0.0
 40
0.0
 40
0.1592104965
 40
0.3092639875
 40
0.4497116998
 40
0.5802636206
 40
0.7006973574
 40
0.8108489863
 40
0.9106224387
 40
1.0
 40
1.0
 40
1.0
 40
1.0
 10
10.2273305425
 20
8.6044362382
 30
0.0
 10
10.2266027163
 20
8.6007820859
 30
0.0
 10
10.2252757387
 20
8.5936662116
 30
0.0
 10
10.2236338164
 20
8.5832692125
 30
0.0
 10
10.2224002562
 20
8.5734911963
 30
0.0
 10
10.2215759948
 20
8.5643656027
 30
0.0
 10
10.2211610237
 20
8.5559215588
 30
0.0
 10
10.2211551769
 20
8.5481865674
 30
0.0
 10
10.2215580361
 20
8.5411894838
 30
0.0
 10
10.2221291365
 20
8.5367938545
 30
0.0
 10
10.222498246
 20
8.5347350175
 30
0.0
  0
LINE
  5
443
100
AcDbEntity
  8
0
100
AcDbLine
 62
7
  6
CONTINUOUS
 10
10.0028810685
 20
8.6045918192
 11
10.0831094576
 21
8.6044590794
  0
SPLINE
  5
444
100
AcDbEntity
  8
0
100
AcDbSpline
 62
7
  6
CONTINUOUS
 70
0
 71
3
 72
15
 73
11
 74
0
 42
0.0000001
 43
0.0000001
 44
0.0000000001
 40
0.0
 40
0.0
 40
0.0
 40
0.0
 40
0.1816188093
 40
0.3439730856
 40
0.4877605906
 40
0.6141031429
 40
0.7248052959
 40
0.8228193866
 40
0.9125916216
 40
1.0
 40
1.0
 40
1.0
 40
1.0
 10
10.0943852684
 20
8.5289752855
 30
0.0
 10
10.0946797049
 20
8.5285362283
 30
0.0
 10
10.095221557
 20
8.5276938229
 30
0.0
 10
10.0959252043
 20
8.5264597329
 30
0.0
 10
10.0964701035
 20
8.525323383
 30
0.0
 10
10.0968525294
 20
8.5242805535
 30
0.0
 10
10.0970680798
 20
8.5233257271
 30
0.0
 10
10.0971090836
 20
8.5224519773
 30
0.0
 10
10.0969639883
 20
8.5216561134
 30
0.0
 10
10.0967384541
 20
8.5211844102
 30
0.0
 10
10.0966002149
 20
8.5209708202
 30
0.0
  0
SPLINE
  5
445
100
AcDbEntity
  8
0
100
AcDbSpline
 62
9
  6
CONTINUOUS
 70
0
 71
3
 72
15
 73
11
 74
0
 42
0.0000001
 43
0.0000001
 44
0.0000000001
 40
0.0
 40
0.0
 40
0.0
 40
0.0
 40
0.1234208117
 40
0.2471132782
 40
0.3711388225
 40
0.495714769
 40
0.6209046637
 40
0.7467055432
 40
0.8731485416
 40
1.0
 40
1.0
 40
1.0
 40
1.0
 10
11.4150581649
 20
5.5753318263
 30
0.0
 10
11.4183690698
 20
5.575331826
 30
0.0
 10
11.425011439
 20
5.5758919727
 30
0.0
 10
11.4346967895
 20
5.5783834821
 30
0.0
 10
11.4438629577
 20
5.5824653705
 30
0.0
 10
11.4522636042
 20
5.5880233577
 30
0.0
 10
11.4596763841
 20
5.5949125436
 30
0.0
 10
11.4659092964
 20
5.6029484166
 30
0.0
 10
11.4707930395
 20
5.6119160202
 30
0.0
 10
11.4730665839
 20
5.6183551185
 30
0.0
 10
11.4739421833
 20
5.6216434766
 30
0.0
  0
SPLINE
  5
446
100
AcDbEntity
  8
0
100
AcDbSpline
 62
7
  6
CONTINUOUS
 70
0
 71
3
 72
15
 73
11
 74
0
 42
0.0000001
 43
0.0000001
 44
0.0000000001
 40
0.0
 40
0.0
 40
0.0
 40
0.0
 40
0.1605672042
 40
0.3110633128
 40
0.4511670249
 40
0.58081961
 40
0.7001238871
 40
0.809361609
 40
0.9090501585
 40
1.0
 40
1.0
 40
1.0
 40
1.0
 10
10.0831094576
 20
8.6044590794
 30
0.0
 10
10.0827728214
 20
8.6003216773
 30
0.0
 10
10.0822934266
 20
8.5922907633
 30
0.0
 10
10.0821740932
 20
8.5806223967
 30
0.0
 10
10.0826714769
 20
8.5697626786
 30
0.0
 10
10.0837769667
 20
8.55975733
 30
0.0
 10
10.085481766
 20
8.5506451777
 30
0.0
 10
10.0877794489
 20
8.5424623162
 30
0.0
 10
10.09066286
 20
8.5352487402
 30
0.0
 10
10.0930756817
 20
8.5309281125
 30
0.0
 10
10.0943852684
 20
8.5289752855
 30
0.0
  0
LINE
  5
447
100
AcDbEntity
  8
0
100
AcDbLine
 62
7
  6
CONTINUOUS
 10
9.8995381259
 20
8.6045886861
 11
9.9746950246
 21
8.6044362382
  0
LINE
  5
448
100
AcDbEntity
  8
0
100
AcDbLine
 62
9
  6
CONTINUOUS
 10
11.4739421833
 20
5.6216434766
 11
10.6076921046
 21
5.6216426812
  0
SPLINE
  5
449
100
AcDbEntity
  8
0
100
AcDbSpline
 62
7
  6
CONTINUOUS
 70
0
 71
3
 72
17
 73
13
 74
0
 42
0.0000001
 43
0.0000001
 44
0.0000000001
 40
0.0
 40
0.0
 40
0.0
 40
0.0
 40
0.2039542818
 40
0.3831498442
 40
0.5376638415
 40
0.6679739836
 40
0.7753682207
 40
0.8212365076
 40
0.8625008682
 40
0.9341481477
 40
0.9670938399
 40
1.0
 40
1.0
 40
1.0
 40
1.0
 10
9.9948125219
 20
8.5347350175
 30
0.0
 10
9.9955034793
 20
8.5338485159
 30
0.0
 10
9.9967914099
 20
8.5321751318
 30
0.0
 10
9.9985443537
 20
8.5297858681
 30
0.0
 10
9.9999795848
 20
8.5276681467
 30
0.0
 10
10.0010830089
 20
8.5258078329
 30
0.0
 10
10.0017485579
 20
8.5243883858
 30
0.0
 10
10.0020753252
 20
8.5233651229
 30
0.0
 10
10.0022512894
 20
8.5225077717
 30
0.0
 10
10.0022549767
 20
8.5216853804
 30
0.0
 10
10.0020267676
 20
8.5209573808
 30
0.0
 10
10.0018460208
 20
8.5206390975
 30
0.0
 10
10.0017411752
 20
8.5204911367
 30
0.0
  0
SPLINE
  5
44A
100
AcDbEntity
  8
0
100
AcDbSpline
 62
7
  6
CONTINUOUS
 70
0
 71
3
 72
14
 73
10
 74
0
 42
0.0000001
 43
0.0000001
 44
0.0000000001
 40
0.0
 40
0.0
 40
0.0
 40
0.0
 40
0.1494632258
 40
0.29170178
 40
0.4266448593
 40
0.554412654
 40
0.6752421187
 40
0.7894889858
 40
1.0
 40
1.0
 40
1.0
 40
1.0
 10
9.9746950246
 20
8.6044362382
 30
0.0
 10
9.974813421
 20
8.600768585
 30
0.0
 10
9.9752252096
 20
8.5936146249
 30
0.0
 10
9.9764128991
 20
8.5832015904
 30
0.0
 10
9.9781465672
 20
8.57340451
 30
0.0
 10
9.9804145649
 20
8.5642575484
 30
0.0
 10
9.9832080185
 20
8.5557864126
 30
0.0
 10
9.9874963343
 20
8.5457163658
 30
0.0
 10
9.9916352698
 20
8.5388114471
 30
0.0
 10
9.9948125219
 20
8.5347350175
 30
0.0
  0
LINE
  5
44B
100
AcDbEntity
  8
0
100
AcDbLine
 62
7
  6
CONTINUOUS
 10
9.8084490042
 20
8.6045918192
 11
9.8652225773
 21
8.6044590794
  0
SPLINE
  5
44C
100
AcDbEntity
  8
0
100
AcDbSpline
 62
7
  6
CONTINUOUS
 70
0
 71
3
 72
18
 73
14
 74
0
 42
0.0000001
 43
0.0000001
 44
0.0000000001
 40
0.0
 40
0.0
 40
0.0
 40
0.0
 40
0.0923427417
 40
0.1353498121
 40
0.1780051599
 40
0.2217643421
 40
0.2679414584
 40
0.3175939946
 40
0.3715459152
 40
0.4944710495
 40
0.6397909041
 40
0.8085390595
 40
1.0
 40
1.0
 40
1.0
 40
1.0
 10
11.4712562084
 20
5.9432506133
 30
0.0
 10
11.4707715193
 20
5.9436499417
 30
0.0
 10
11.4699710246
 20
5.9441483988
 30
0.0
 10
11.4687985747
 20
5.9444746947
 30
0.0
 10
11.4679154616
 20
5.9445438275
 30
0.0
 10
11.4670144212
 20
5.9444424401
 30
0.0
 10
11.4660996184
 20
5.9441735073
 30
0.0
 10
11.4651740513
 20
5.943740141
 30
0.0
 10
11.4638725018
 20
5.9429092755
 30
0.0
 10
11.462240634
 20
5.9414249353
 30
0.0
 10
11.4603745548
 20
5.9391020294
 30
0.0
 10
11.4585491598
 20
5.9361811255
 30
0.0
 10
11.4574491921
 20
5.933988503
 30
0.0
 10
11.4569092663
 20
5.9328036404
 30
0.0
  0
SPLINE
  5
44D
100
AcDbEntity
  8
0
100
AcDbSpline
 62
7
  6
CONTINUOUS
 70
0
 71
3
 72
19
 73
15
 74
0
 42
0.0000001
 43
0.0000001
 44
0.0000000001
 40
0.0
 40
0.0
 40
0.0
 40
0.0
 40
0.2209593251
 40
0.4148791343
 40
0.5808272289
 40
0.7180393806
 40
0.7757495631
 40
0.8261898244
 40
0.8694351468
 40
0.9056842668
 40
0.9353799075
 40
0.9594792889
 40
0.9799342948
 40
1.0
 40
1.0
 40
1.0
 40
1.0
 10
9.9048421915
 20
8.5289752855
 30
0.0
 10
9.9057849673
 20
8.5282850202
 30
0.0
 10
9.9075587598
 20
8.5269939174
 30
0.0
 10
9.9100417924
 20
8.5251859434
 30
0.0
 10
9.9121524699
 20
8.5236192532
 30
0.0
 10
9.913658779
 20
8.5224466797
 30
0.0
 10
9.9146485287
 20
8.5216073321
 30
0.0
 10
9.9152382313
 20
8.5210654016
 30
0.0
 10
9.9157168582
 20
8.520571686
 30
0.0
 10
9.9160823656
 20
8.520123291
 30
0.0
 10
9.9163327756
 20
8.5197159939
 30
0.0
 10
9.91646575
 20
8.519341522
 30
0.0
 10
9.9164646162
 20
8.518990358
 30
0.0
 10
9.916365368
 20
8.5187914643
 30
0.0
 10
9.9163012016
 20
8.5187069544
 30
0.0
  0
SPLINE
  5
44E
100
AcDbEntity
  8
0
100
AcDbSpline
 62
7
  6
CONTINUOUS
 70
0
 71
3
 72
14
 73
10
 74
0
 42
0.0000001
 43
0.0000001
 44
0.0000000001
 40
0.0
 40
0.0
 40
0.0
 40
0.0
 40
0.144762543
 40
0.2830758319
 40
0.5409732758
 40
0.6617870424
 40
0.7779846428
 40
0.890412203
 40
1.0
 40
1.0
 40
1.0
 40
1.0
 10
9.8652225773
 20
8.6044590794
 30
0.0
 10
9.865858855
 20
8.6002894339
 30
0.0
 10
9.8673862505
 20
8.592173948
 30
0.0
 10
9.8714722484
 20
8.5769422368
 30
0.0
 10
9.8771378917
 20
8.5628778367
 30
0.0
 10
9.8844646732
 20
8.5504326902
 30
0.0
 10
9.8905413539
 20
8.5422366645
 30
0.0
 10
9.8972891447
 20
8.5350254959
 30
0.0
 10
9.9022658748
 20
8.5308615685
 30
0.0
 10
9.9048421915
 20
8.5289752855
 30
0.0
  0
SPLINE
  5
44F
100
AcDbEntity
  8
0
100
AcDbSpline
 62
9
  6
CONTINUOUS
 70
0
 71
3
 72
11
 73
7
 74
0
 42
0.0000001
 43
0.0000001
 44
0.0000000001
 40
0.0
 40
0.0
 40
0.0
 40
0.0
 40
0.237258039
 40
0.4853097869
 40
0.7400660695
 40
1.0
 40
1.0
 40
1.0
 40
1.0
 10
10.8042147004
 20
5.495345691
 30
0.0
 10
10.8060011145
 20
5.4945009366
 30
0.0
 10
10.8096673086
 20
5.492798302
 30
0.0
 10
10.8153023598
 20
5.4902998427
 30
0.0
 10
10.8211277267
 20
5.4877660808
 30
0.0
 10
10.8250428967
 20
5.4860189271
 30
0.0
 10
10.8270409466
 20
5.4851853995
 30
0.0
  0
SPLINE
  5
450
100
AcDbEntity
  8
0
100
AcDbSpline
 62
9
  6
CONTINUOUS
 70
0
 71
3
 72
9
 73
5
 74
0
 42
0.0000001
 43
0.0000001
 44
0.0000000001
 40
0.0
 40
0.0
 40
0.0
 40
0.0
 40
0.5477369735
 40
1.0
 40
1.0
 40
1.0
 40
1.0
 10
11.2673678471
 20
5.4851935113
 30
0.0
 10
11.268389849
 20
5.4856705255
 30
0.0
 10
11.2702256488
 20
5.4866084178
 30
0.0
 10
11.271951985
 20
5.4877456362
 30
0.0
 10
11.2726795023
 20
5.4883269719
 30
0.0
  0
SPLINE
  5
451
100
AcDbEntity
  8
0
100
AcDbSpline
 62
9
  6
CONTINUOUS
 70
0
 71
3
 72
14
 73
10
 74
0
 42
0.0000001
 43
0.0000001
 44
0.0000000001
 40
0.0
 40
0.0
 40
0.0
 40
0.0
 40
0.3105016982
 40
0.4445981158
 40
0.5669254229
 40
0.6800944934
 40
0.7873940203
 40
0.8926716309
 40
1.0
 40
1.0
 40
1.0
 40
1.0
 10
11.2726795023
 20
5.4883269719
 30
0.0
 10
11.2732002948
 20
5.4887431205
 30
0.0
 10
11.2739113111
 20
5.489391349
 30
0.0
 10
11.2746587228
 20
5.490355471
 30
0.0
 10
11.2750575447
 20
5.491044834
 30
0.0
 10
11.2753208121
 20
5.4917360105
 30
0.0
 10
11.2754460834
 20
5.4924285776
 30
0.0
 10
11.2754313784
 20
5.4931197549
 30
0.0
 10
11.2753302779
 20
5.4935682868
 30
0.0
 10
11.2752595803
 20
5.4937876039
 30
0.0
  0
LINE
  5
452
100
AcDbEntity
  8
0
100
AcDbLine
 62
9
  6
CONTINUOUS
 10
11.2752595803
 20
5.4937876039
 11
11.2743846937
 21
5.4953494322
  0
SPLINE
  5
453
100
AcDbEntity
  8
0
100
AcDbSpline
 62
7
  6
CONTINUOUS
 70
0
 71
3
 72
10
 73
6
 74
0
 42
0.0000001
 43
0.0000001
 44
0.0000000001
 40
0.0
 40
0.0
 40
0.0
 40
0.0
 40
0.5718293022
 40
0.804522159
 40
1.0
 40
1.0
 40
1.0
 40
1.0
 10
9.8332596092
 20
8.5347350175
 30
0.0
 10
9.8363140208
 20
8.5324394793
 30
0.0
 10
9.8406978402
 20
8.5293227462
 30
0.0
 10
9.8462743085
 20
8.525641555
 30
0.0
 10
9.848682339
 20
8.5240966599
 30
0.0
 10
9.8497811939
 20
8.5233905904
 30
0.0
  0
LINE
  5
454
100
AcDbEntity
  8
0
100
AcDbLine
 62
7
  6
CONTINUOUS
 10
9.8497811939
 20
8.5233905904
 11
9.8542438065
 21
8.5203981339
  0
SPLINE
  5
455
100
AcDbEntity
  8
0
100
AcDbSpline
 62
7
  6
CONTINUOUS
 70
0
 71
3
 72
14
 73
10
 74
0
 42
0.0000001
 43
0.0000001
 44
0.0000000001
 40
0.0
 40
0.0
 40
0.0
 40
0.0
 40
0.3857684738
 40
0.5389306617
 40
0.6665767023
 40
0.7705855568
 40
0.8548979617
 40
0.9273102826
 40
1.0
 40
1.0
 40
1.0
 40
1.0
 10
9.8542438065
 20
8.5203981339
 30
0.0
 10
9.8545266047
 20
8.5201841997
 30
0.0
 10
9.8549155659
 20
8.5198757183
 30
0.0
 10
9.85535644
 20
8.5194494528
 30
0.0
 10
9.8555870938
 20
8.5191802209
 30
0.0
 10
9.8557433314
 20
8.5189337686
 30
0.0
 10
9.8558237971
 20
8.5187043048
 30
0.0
 10
9.855816547
 20
8.5184872213
 30
0.0
 10
9.8557505085
 20
8.5183657855
 30
0.0
 10
9.8557088264
 20
8.5183135636
 30
0.0
  0
LINE
  5
456
100
AcDbEntity
  8
0
100
AcDbLine
 62
9
  6
CONTINUOUS
 10
11.4842054655
 20
5.6624214156
 11
11.5188942648
 21
5.6624214058
  0
SPLINE
  5
457
100
AcDbEntity
  8
0
100
AcDbSpline
 62
7
  6
CONTINUOUS
 70
0
 71
3
 72
13
 73
9
 74
0
 42
0.0000001
 43
0.0000001
 44
0.0000000001
 40
0.0
 40
0.0
 40
0.0
 40
0.0
 40
0.2695033418
 40
0.5238355371
 40
0.6462783598
 40
0.7661111818
 40
0.8838486386
 40
1.0
 40
1.0
 40
1.0
 40
1.0
 10
9.7894563743
 20
8.6044362382
 30
0.0
 10
9.7913631563
 20
8.5971504355
 30
0.0
 10
9.7960272985
 20
8.5832138796
 30
0.0
 10
9.8043394611
 20
8.5670864762
 30
0.0
 10
9.8122244223
 20
8.5556479434
 30
0.0
 10
9.8186477807
 20
8.5478868053
 30
0.0
 10
9.8256289343
 20
8.5408700101
 30
0.0
 10
9.830664889
 20
8.5366850754
 30
0.0
 10
9.8332596092
 20
8.5347350175
 30
0.0
  0
LINE
  5
458
100
AcDbEntity
  8
0
100
AcDbLine
 62
9
  6
CONTINUOUS
 10
11.4842054655
 20
5.9782423052
 11
11.5188897491
 21
5.978242299
  0
LINE
  5
459
100
AcDbEntity
  8
0
100
AcDbLine
 62
7
  6
CONTINUOUS
 10
9.7978991634
 20
8.5239224104
 11
9.8060196864
 21
8.5206475516
  0
SPLINE
  5
45A
100
AcDbEntity
  8
0
100
AcDbSpline
 62
7
  6
CONTINUOUS
 70
0
 71
3
 72
21
 73
17
 74
0
 42
0.0000001
 43
0.0000001
 44
0.0000000001
 40
0.0
 40
0.0
 40
0.0
 40
0.0
 40
0.2295571356
 40
0.4306925481
 40
0.6023263969
 40
0.6767475901
 40
0.7434002849
 40
0.8021755674
 40
0.8529918127
 40
0.8957896685
 40
0.9305519925
 40
0.9573569295
 40
0.9765396312
 40
0.9893081185
 40
0.9945167025
 40
1.0
 40
1.0
 40
1.0
 40
1.0
 10
9.8060196864
 20
8.5206475516
 30
0.0
 10
9.8065447281
 20
8.5204473402
 30
0.0
 10
9.8075308158
 20
8.5200743541
 30
0.0
 10
9.8089107967
 20
8.5195552283
 30
0.0
 10
9.8099339869
 20
8.5191661554
 30
0.0
 10
9.8106466653
 20
8.5188868136
 30
0.0
 10
9.8111002559
 20
8.5187035615
 30
0.0
 10
9.8114977848
 20
8.5185358763
 30
0.0
 10
9.8118382639
 20
8.5183834433
 30
0.0
 10
9.8121208721
 20
8.5182456929
 30
0.0
 10
9.812344807
 20
8.5181228286
 30
0.0
 10
9.8125102339
 20
8.518013022
 30
0.0
 10
9.8126178359
 20
8.517918452
 30
0.0
 10
9.812666811
 20
8.5178349324
 30
0.0
 10
9.812661103
 20
8.5177758496
 30
0.0
 10
9.8126471046
 20
8.5177527989
 30
0.0
 10
9.8126385189
 20
8.5177424818
 30
0.0
  0
SPLINE
  5
45B
100
AcDbEntity
  8
0
100
AcDbSpline
 62
7
  6
CONTINUOUS
 70
0
 71
3
 72
14
 73
10
 74
0
 42
0.0000001
 43
0.0000001
 44
0.0000000001
 40
0.0
 40
0.0
 40
0.0
 40
0.0
 40
0.2612614302
 40
0.3879998924
 40
0.5125996494
 40
0.6355617042
 40
0.7574259317
 40
0.8787430085
 40
1.0
 40
1.0
 40
1.0
 40
1.0
 10
9.7216111212
 20
8.6044590794
 30
0.0
 10
9.724751315
 20
8.5961290115
 30
0.0
 10
9.7304461299
 20
8.5841008455
 30
0.0
 10
9.7399838946
 20
8.5694476321
 30
0.0
 10
9.7478992917
 20
8.5594223171
 30
0.0
 10
9.7566023416
 20
8.5503021706
 30
0.0
 10
9.7660527815
 20
8.5421270018
 30
0.0
 10
9.7762036268
 20
8.5349414182
 30
0.0
 10
9.7833988498
 20
8.5308415455
 30
0.0
 10
9.7870850926
 20
8.5289752855
 30
0.0
  0
LINE
  5
45C
100
AcDbEntity
  8
0
100
AcDbLine
 62
7
  6
CONTINUOUS
 10
9.6657376556
 20
8.6045886861
 11
9.6832538173
 21
8.6044362382
  0
LINE
  5
45D
100
AcDbEntity
  8
0
100
AcDbLine
 62
9
  6
CONTINUOUS
 10
10.9897443992
 20
5.7818938124
 11
10.5729632342
 21
5.7818966955
  0
LINE
  5
45E
100
AcDbEntity
  8
0
100
AcDbLine
 62
9
  6
CONTINUOUS
 10
11.0473180221
 20
5.662421452
 11
11.4842054655
 21
5.6624214156
  0
SPLINE
  5
45F
100
AcDbEntity
  8
0
100
AcDbSpline
 62
7
  6
CONTINUOUS
 70
0
 71
3
 72
14
 73
10
 74
0
 42
0.0000001
 43
0.0000001
 44
0.0000000001
 40
0.0
 40
0.0
 40
0.0
 40
0.0
 40
0.3684553898
 40
0.525556161
 40
0.6632759785
 40
0.7805878563
 40
0.8764388824
 40
0.9498648271
 40
1.0
 40
1.0
 40
1.0
 40
1.0
 10
9.7727527128
 20
8.5233905904
 30
0.0
 10
9.7749691838
 20
8.5225840385
 30
0.0
 10
9.7781561889
 20
8.5215018368
 30
0.0
 10
9.7822165472
 20
8.5202598234
 30
0.0
 10
9.784751933
 20
8.5195298591
 30
0.0
 10
9.7869185216
 20
8.5189371571
 30
0.0
 10
9.7886922076
 20
8.5184681955
 30
0.0
 10
9.7900503349
 20
8.5181104021
 30
0.0
 10
9.790813917
 20
8.5179033598
 30
0.0
 10
9.7911210255
 20
8.5178101598
 30
0.0
  0
LINE
  5
460
100
AcDbEntity
  8
0
100
AcDbLine
 62
7
  6
CONTINUOUS
 10
9.7911210255
 20
8.5178101598
 11
9.7916548056
 21
8.5175798025
  0
SPLINE
  5
461
100
AcDbEntity
  8
0
100
AcDbSpline
 62
7
  6
CONTINUOUS
 70
0
 71
3
 72
11
 73
7
 74
0
 42
0.0000001
 43
0.0000001
 44
0.0000000001
 40
0.0
 40
0.0
 40
0.0
 40
0.0
 40
0.2545573098
 40
0.5046552875
 40
0.7524118008
 40
1.0
 40
1.0
 40
1.0
 40
1.0
 10
9.6850847923
 20
8.6007007215
 30
0.0
 10
9.6886250979
 20
8.5937018093
 30
0.0
 10
9.6966466037
 20
8.5803055658
 30
0.0
 10
9.7114058487
 20
8.5623202019
 30
0.0
 10
9.728523138
 20
8.5468801127
 30
0.0
 10
9.741323458
 20
8.5384427317
 30
0.0
 10
9.7479904714
 20
8.5347350175
 30
0.0
  0
LINE
  5
462
100
AcDbEntity
  8
0
100
AcDbLine
 62
9
  6
CONTINUOUS
 10
11.047319214
 20
5.9782428053
 11
11.4842054655
 21
5.9782423052
  0
SPLINE
  5
463
100
AcDbEntity
  8
0
100
AcDbSpline
 62
7
  6
CONTINUOUS
 70
0
 71
3
 72
13
 73
9
 74
0
 42
0.0000001
 43
0.0000001
 44
0.0000000001
 40
0.0
 40
0.0
 40
0.0
 40
0.0
 40
0.1193967126
 40
0.2426297076
 40
0.368316883
 40
0.4954596968
 40
0.7504964405
 40
1.0
 40
1.0
 40
1.0
 40
1.0
 10
11.1365156435
 20
5.8852257167
 30
0.0
 10
11.134875926
 20
5.8799587998
 30
0.0
 10
11.1314245412
 20
5.8692927882
 30
0.0
 10
11.1259421548
 20
5.8531830602
 30
0.0
 10
11.1201394281
 20
5.8368057078
 30
0.0
 10
11.1120483429
 20
5.8147804378
 30
0.0
 10
11.1015185661
 20
5.7875588908
 30
0.0
 10
11.0925727606
 20
5.7660299574
 30
0.0
 10
11.0879949532
 20
5.7554505868
 30
0.0
  0
LINE
  5
464
100
AcDbEntity
  8
0
100
AcDbLine
 62
7
  6
CONTINUOUS
 10
9.9243368321
 20
8.5345546675
 11
9.9141230371
 21
8.5411991476
  0
SPLINE
  5
465
100
AcDbEntity
  8
0
100
AcDbSpline
 62
7
  6
CONTINUOUS
 70
0
 71
3
 72
11
 73
7
 74
0
 42
0.0000001
 43
0.0000001
 44
0.0000000001
 40
0.0
 40
0.0
 40
0.0
 40
0.0
 40
0.2505894376
 40
0.4997528356
 40
0.749022331
 40
1.0
 40
1.0
 40
1.0
 40
1.0
 10
9.6625306302
 20
8.6023603202
 30
0.0
 10
9.6668360449
 20
8.5951407635
 30
0.0
 10
9.6764749905
 20
8.5813410967
 30
0.0
 10
9.6937290181
 20
8.5629627502
 30
0.0
 10
9.713427274
 20
8.5472138348
 30
0.0
 10
9.7279333242
 20
8.5386503866
 30
0.0
 10
9.7354617367
 20
8.5348820039
 30
0.0
  0
SPLINE
  5
466
100
AcDbEntity
  8
0
100
AcDbSpline
 62
7
  6
CONTINUOUS
 70
0
 71
3
 72
18
 73
14
 74
0
 42
0.0000001
 43
0.0000001
 44
0.0000000001
 40
0.0
 40
0.0
 40
0.0
 40
0.0
 40
0.0287835154
 40
0.0577991004
 40
0.0889108461
 40
0.1236005905
 40
0.1629110648
 40
0.2075342421
 40
0.3143526977
 40
0.446289309
 40
0.6043687572
 40
0.7889304246
 40
1.0
 40
1.0
 40
1.0
 40
1.0
 10
10.0109871837
 20
8.5335416844
 30
0.0
 10
10.0110749478
 20
8.5336655226
 30
0.0
 10
10.0112222238
 20
8.5339366998
 30
0.0
 10
10.0113350028
 20
8.5343965035
 30
0.0
 10
10.0113403813
 20
8.534900081
 30
0.0
 10
10.0112448828
 20
8.5354483988
 30
0.0
 10
10.0110535887
 20
8.5360454848
 30
0.0
 10
10.010649754
 20
8.5369681425
 30
0.0
 10
10.0098928885
 20
8.5382612022
 30
0.0
 10
10.0086944822
 20
8.5399774446
 30
0.0
 10
10.0071684156
 20
8.5419617322
 30
0.0
 10
10.0053294988
 20
8.5442299018
 30
0.0
 10
10.0039941345
 20
8.5458328867
 30
0.0
 10
10.0032798392
 20
8.5466864827
 30
0.0
  0
SPLINE
  5
467
100
AcDbEntity
  8
0
100
AcDbSpline
 62
7
  6
CONTINUOUS
 70
0
 71
3
 72
15
 73
11
 74
0
 42
0.0000001
 43
0.0000001
 44
0.0000000001
 40
0.0
 40
0.0
 40
0.0
 40
0.0
 40
0.0797695217
 40
0.1630111777
 40
0.2567981943
 40
0.3660105485
 40
0.4935859383
 40
0.6411886669
 40
0.8097983997
 40
1.0
 40
1.0
 40
1.0
 40
1.0
 10
10.1049900255
 20
8.5339472132
 30
0.0
 10
10.105107603
 20
8.5341287982
 30
0.0
 10
10.1052924531
 20
8.5345397492
 30
0.0
 10
10.1053700508
 20
8.5352409008
 30
0.0
 10
10.1052618412
 20
8.5360154002
 30
0.0
 10
10.1049824905
 20
8.536870508
 30
0.0
 10
10.1045390449
 20
8.5378158988
 30
0.0
 10
10.1039350963
 20
8.5388581027
 30
0.0
 10
10.1031741227
 20
8.5400020668
 30
0.0
 10
10.1025993751
 20
8.5407875827
 30
0.0
 10
10.1022884521
 20
8.5411991476
 30
0.0
  0
SPLINE
  5
468
100
AcDbEntity
  8
0
100
AcDbSpline
 62
7
  6
CONTINUOUS
 70
0
 71
3
 72
21
 73
17
 74
0
 42
0.0000001
 43
0.0000001
 44
0.0000000001
 40
0.0
 40
0.0
 40
0.0
 40
0.0
 40
0.005394397
 40
0.0102620713
 40
0.0217779629
 40
0.0395066466
 40
0.0648838107
 40
0.0983384794
 40
0.1400227862
 40
0.1899877063
 40
0.2482114243
 40
0.3146313143
 40
0.3891727005
 40
0.5622819284
 40
0.766475483
 40
1.0
 40
1.0
 40
1.0
 40
1.0
 10
11.5074645382
 20
5.9445124311
 30
0.0
 10
11.5074494511
 20
5.9445240651
 30
0.0
 10
11.5074173081
 20
5.9445428311
 30
0.0
 10
11.5073375805
 20
5.9445490999
 30
0.0
 10
11.5072321991
 20
5.9444720231
 30
0.0
 10
11.5071297186
 20
5.9443095342
 30
0.0
 10
11.5070185427
 20
5.9440615563
 30
0.0
 10
11.5069050858
 20
5.9437251675
 30
0.0
 10
11.506786971
 20
5.9432991561
 30
0.0
 10
11.5066659111
 20
5.9427838007
 30
0.0
 10
11.5065419868
 20
5.9421796306
 30
0.0
 10
11.5064158031
 20
5.941487522
 30
0.0
 10
11.5062360045
 20
5.9403929202
 30
0.0
 10
11.5060123586
 20
5.9388126753
 30
0.0
 10
11.5057530802
 20
5.9366709186
 30
0.0
 10
11.5055918031
 20
5.9351333664
 30
0.0
 10
11.5055109119
 20
5.9343125879
 30
0.0
  0
LINE
  5
469
100
AcDbEntity
  8
0
100
AcDbLine
 62
7
  6
CONTINUOUS
 10
11.5085921758
 20
5.6981924405
 11
11.5086850326
 21
5.6961189679
  0
SPLINE
  5
46A
100
AcDbEntity
  8
0
100
AcDbSpline
 62
7
  6
CONTINUOUS
 70
0
 71
3
 72
11
 73
7
 74
0
 42
0.0000001
 43
0.0000001
 44
0.0000000001
 40
0.0
 40
0.0
 40
0.0
 40
0.0
 40
0.2104596408
 40
0.4399697212
 40
0.7004403937
 40
1.0
 40
1.0
 40
1.0
 40
1.0
 10
10.2287373939
 20
8.5378599441
 30
0.0
 10
10.2290530504
 20
8.5384093864
 30
0.0
 10
10.2295599216
 20
8.5396510044
 30
0.0
 10
10.2298831257
 20
8.5417493939
 30
0.0
 10
10.2298174934
 20
8.5441350531
 30
0.0
 10
10.2295471716
 20
8.5458035171
 30
0.0
 10
10.2293632061
 20
8.5466864827
 30
0.0
  0
SPLINE
  5
46B
100
AcDbEntity
  8
0
100
AcDbSpline
 62
7
  6
CONTINUOUS
 70
0
 71
3
 72
17
 73
13
 74
0
 42
0.0000001
 43
0.0000001
 44
0.0000000001
 40
0.0
 40
0.0
 40
0.0
 40
0.0
 40
0.1243940814
 40
0.2398552889
 40
0.2957637707
 40
0.351250896
 40
0.4069836597
 40
0.4636018832
 40
0.5815507129
 40
0.7089833764
 40
0.8482312636
 40
1.0
 40
1.0
 40
1.0
 40
1.0
 10
11.4255623376
 20
5.9381402924
 30
0.0
 10
11.4244364105
 20
5.9393201112
 30
0.0
 10
11.4220494253
 20
5.9414065906
 30
0.0
 10
11.4185901064
 20
5.9432479549
 30
0.0
 10
11.415737283
 20
5.9441151987
 30
0.0
 10
11.4135696114
 20
5.9444759596
 30
0.0
 10
11.4113641742
 20
5.9445508102
 30
0.0
 10
11.4083509883
 20
5.9442671258
 30
0.0
 10
11.4045092499
 20
5.9431568441
 30
0.0
 10
11.4000524323
 20
5.9407284388
 30
0.0
 10
11.3957827742
 20
5.9372417664
 30
0.0
 10
11.393237895
 20
5.9343769886
 30
0.0
 10
11.3920202413
 20
5.9328033278
 30
0.0
  0
SPLINE
  5
46C
100
AcDbEntity
  8
0
100
AcDbSpline
 62
7
  6
CONTINUOUS
 70
0
 71
3
 72
19
 73
15
 74
0
 42
0.0000001
 43
0.0000001
 44
0.0000000001
 40
0.0
 40
0.0
 40
0.0
 40
0.0
 40
0.2279481811
 40
0.4274160684
 40
0.5965599511
 40
0.7340250339
 40
0.7906674943
 40
0.8392327785
 40
0.879871574
 40
0.9129334917
 40
0.939170405
 40
0.960209952
 40
0.9791303729
 40
1.0
 40
1.0
 40
1.0
 40
1.0
 10
11.497398639
 20
5.7100847402
 30
0.0
 10
11.4975696224
 20
5.7089209205
 30
0.0
 10
11.4979179479
 20
5.7067425975
 30
0.0
 10
11.4985025661
 20
5.7037193394
 30
0.0
 10
11.4991055294
 20
5.7011775666
 30
0.0
 10
11.4996416894
 20
5.6993792174
 30
0.0
 10
11.5000849953
 20
5.6982074044
 30
0.0
 10
11.5003942966
 20
5.6975205701
 30
0.0
 10
11.5007009595
 20
5.6969680479
 30
0.0
 10
11.5010051653
 20
5.6965492061
 30
0.0
 10
11.5013089576
 20
5.6962623045
 30
0.0
 10
11.5016248334
 20
5.6961092562
 30
0.0
 10
11.5019515129
 20
5.6961194908
 30
0.0
 10
11.5021354877
 20
5.6962255067
 30
0.0
 10
11.5022204482
 20
5.69629169
 30
0.0
  0
SPLINE
  5
46D
100
AcDbEntity
  8
0
100
AcDbSpline
 62
7
  6
CONTINUOUS
 70
0
 71
3
 72
18
 73
14
 74
0
 42
0.0000001
 43
0.0000001
 44
0.0000000001
 40
0.0
 40
0.0
 40
0.0
 40
0.0
 40
0.2038931878
 40
0.3812081204
 40
0.5312462611
 40
0.6547399627
 40
0.7073794564
 40
0.7546972595
 40
0.7976340577
 40
0.8374982075
 40
0.8759279785
 40
0.9147448465
 40
1.0
 40
1.0
 40
1.0
 40
1.0
 10
11.4743021438
 20
5.7056722879
 30
0.0
 10
11.4746193187
 20
5.7047548102
 30
0.0
 10
11.4752560631
 20
5.7030539246
 30
0.0
 10
11.4763055734
 20
5.7007494453
 30
0.0
 10
11.4773763252
 20
5.6988851318
 30
0.0
 10
11.4783310463
 20
5.6976485867
 30
0.0
 10
11.4791136963
 20
5.6969242952
 30
0.0
 10
11.4796722988
 20
5.6965315787
 30
0.0
 10
11.4802339678
 20
5.6962622039
 30
0.0
 10
11.4807976122
 20
5.6961191294
 30
0.0
 10
11.4813600252
 20
5.696105318
 30
0.0
 10
11.4821232463
 20
5.6962644944
 30
0.0
 10
11.4826461703
 20
5.6965767081
 30
0.0
 10
11.4829629809
 20
5.6968304646
 30
0.0
  0
SPLINE
  5
46E
100
AcDbEntity
  8
0
100
AcDbSpline
 62
7
  6
CONTINUOUS
 70
0
 71
3
 72
15
 73
11
 74
0
 42
0.0000001
 43
0.0000001
 44
0.0000000001
 40
0.0
 40
0.0
 40
0.0
 40
0.0
 40
0.1192327508
 40
0.2408198724
 40
0.3643883642
 40
0.4895873396
 40
0.6160837421
 40
0.7435583229
 40
0.8716972759
 40
1.0
 40
1.0
 40
1.0
 40
1.0
 10
11.3607930802
 20
5.8625560829
 30
0.0
 10
11.3602707935
 20
5.8580843945
 30
0.0
 10
11.3589557616
 20
5.8490816276
 30
0.0
 10
11.3562785798
 20
5.8355805654
 30
0.0
 10
11.352909248
 20
5.8220031296
 30
0.0
 10
11.3488723819
 20
5.808415824
 30
0.0
 10
11.3441781936
 20
5.7948851177
 30
0.0
 10
11.3388321866
 20
5.7814784447
 30
0.0
 10
11.332829249
 20
5.7682776934
 30
0.0
 10
11.3283748822
 20
5.7596737704
 30
0.0
 10
11.3260246799
 20
5.7554374646
 30
0.0
  0
LINE
  5
46F
100
AcDbEntity
  8
0
100
AcDbLine
 62
7
  6
CONTINUOUS
 10
10.2466544974
 20
8.5318736357
 11
10.2446944784
 21
8.5312926952
  0
SPLINE
  5
470
100
AcDbEntity
  8
0
100
AcDbSpline
 62
7
  6
CONTINUOUS
 70
0
 71
3
 72
9
 73
5
 74
0
 42
0.0000001
 43
0.0000001
 44
0.0000000001
 40
0.0
 40
0.0
 40
0.0
 40
0.0
 40
0.4973984834
 40
1.0
 40
1.0
 40
1.0
 40
1.0
 10
12.214542715
 20
8.5980572135
 30
0.0
 10
12.2041135056
 20
8.5886021476
 30
0.0
 10
12.1814472887
 20
8.5714022369
 30
0.0
 10
12.1563146044
 20
8.5581043085
 30
0.0
 10
12.1432612754
 20
8.5524523349
 30
0.0
  0
SPLINE
  5
471
100
AcDbEntity
  8
0
100
AcDbSpline
 62
7
  6
CONTINUOUS
 70
0
 71
3
 72
19
 73
15
 74
0
 42
0.0000001
 43
0.0000001
 44
0.0000000001
 40
0.0
 40
0.0
 40
0.0
 40
0.0
 40
0.1363918959
 40
0.2644694491
 40
0.3259120182
 40
0.3859768482
 40
0.4450743736
 40
0.5036583178
 40
0.5621922179
 40
0.6211208506
 40
0.6808461395
 40
0.7416945872
 40
0.8675279373
 40
1.0
 40
1.0
 40
1.0
 40
1.0
 10
11.3573380805
 20
5.9201349991
 30
0.0
 10
11.3559803808
 20
5.9232051686
 30
0.0
 10
11.3527869182
 20
5.9289345233
 30
0.0
 10
11.347420373
 20
5.9349984191
 30
0.0
 10
11.3425642853
 20
5.9387841253
 30
0.0
 10
11.338730513
 20
5.9410588074
 30
0.0
 10
11.334696455
 20
5.9427844089
 30
0.0
 10
11.3305042216
 20
5.9439461588
 30
0.0
 10
11.3261982242
 20
5.944534464
 30
0.0
 10
11.3218245098
 20
5.9445451089
 30
0.0
 10
11.3174304062
 20
5.9439778871
 30
0.0
 10
11.3115480501
 20
5.9424448628
 30
0.0
 10
11.3043728866
 20
5.9390601132
 30
0.0
 10
11.2993401174
 20
5.9350803126
 30
0.0
 10
11.2970063487
 20
5.9328033907
 30
0.0
  0
SPLINE
  5
472
100
AcDbEntity
  8
0
100
AcDbSpline
 62
7
  6
CONTINUOUS
 70
0
 71
3
 72
9
 73
5
 74
0
 42
0.0000001
 43
0.0000001
 44
0.0000000001
 40
0.0
 40
0.0
 40
0.0
 40
0.0
 40
0.4989831345
 40
1.0
 40
1.0
 40
1.0
 40
1.0
 10
12.1164860116
 20
8.6008455813
 30
0.0
 10
12.1099879175
 20
8.5949670474
 30
0.0
 10
12.0963542959
 20
8.5838460393
 30
0.0
 10
12.0817011337
 20
8.5741131977
 30
0.0
 10
12.074150111
 20
8.5695974906
 30
0.0
  0
SPLINE
  5
473
100
AcDbEntity
  8
0
100
AcDbSpline
 62
7
  6
CONTINUOUS
 70
0
 71
3
 72
11
 73
7
 74
0
 42
0.0000001
 43
0.0000001
 44
0.0000000001
 40
0.0
 40
0.0
 40
0.0
 40
0.0
 40
0.2505746291
 40
0.5015916349
 40
0.7517856479
 40
1.0
 40
1.0
 40
1.0
 40
1.0
 10
12.0215311627
 20
8.6168704832
 30
0.0
 10
12.0129261983
 20
8.6077338226
 30
0.0
 10
11.994351194
 20
8.5906726178
 30
0.0
 10
11.9633392427
 20
8.5691273102
 30
0.0
 10
11.9298827112
 20
8.5518805353
 30
0.0
 10
11.9063048225
 20
8.543414701
 30
0.0
 10
11.8943446757
 20
8.5400198135
 30
0.0
  0
SPLINE
  5
474
100
AcDbEntity
  8
0
100
AcDbSpline
 62
7
  6
CONTINUOUS
 70
0
 71
3
 72
11
 73
7
 74
0
 42
0.0000001
 43
0.0000001
 44
0.0000000001
 40
0.0
 40
0.0
 40
0.0
 40
0.0
 40
0.2577876593
 40
0.5114530163
 40
0.7592976916
 40
1.0
 40
1.0
 40
1.0
 40
1.0
 10
11.7487557676
 20
8.6168704832
 30
0.0
 10
11.7401846044
 20
8.6078053789
 30
0.0
 10
11.7220123442
 20
8.5908862372
 30
0.0
 10
11.6921465935
 20
8.5693221744
 30
0.0
 10
11.6605528191
 20
8.552041497
 30
0.0
 10
11.6384333209
 20
8.5434519996
 30
0.0
 10
11.6273016568
 20
8.5400198135
 30
0.0
  0
SPLINE
  5
475
100
AcDbEntity
  8
0
100
AcDbSpline
 62
7
  6
CONTINUOUS
 70
0
 71
3
 72
9
 73
5
 74
0
 42
0.0000001
 43
0.0000001
 44
0.0000000001
 40
0.0
 40
0.0
 40
0.0
 40
0.0
 40
0.2461485116
 40
1.0
 40
1.0
 40
1.0
 40
1.0
 10
11.6273016568
 20
8.5400198135
 30
0.0
 10
11.6254846771
 20
8.5394595906
 30
0.0
 10
11.6180605892
 20
8.5373216663
 30
0.0
 10
11.6104929666
 20
8.5356989441
 30
0.0
 10
11.6047554128
 20
8.5347041294
 30
0.0
  0
SPLINE
  5
476
100
AcDbEntity
  8
0
100
AcDbSpline
 62
7
  6
CONTINUOUS
 70
0
 71
3
 72
11
 73
7
 74
0
 42
0.0000001
 43
0.0000001
 44
0.0000000001
 40
0.0
 40
0.0
 40
0.0
 40
0.0
 40
0.261945923
 40
0.5169912813
 40
0.7634021395
 40
1.0
 40
1.0
 40
1.0
 40
1.0
 10
11.5898214086
 20
8.6168728827
 30
0.0
 10
11.5818211337
 20
8.6082470786
 30
0.0
 10
11.5650520833
 20
8.5921014198
 30
0.0
 10
11.5377650953
 20
8.5712218866
 30
0.0
 10
11.5092181144
 20
8.554227881
 30
0.0
 10
11.4892860476
 20
8.5454840741
 30
0.0
 10
11.4792825875
 20
8.5418995841
 30
0.0
  0
SPLINE
  5
477
100
AcDbEntity
  8
0
100
AcDbSpline
 62
7
  6
CONTINUOUS
 70
0
 71
3
 72
12
 73
8
 74
0
 42
0.0000001
 43
0.0000001
 44
0.0000000001
 40
0.0
 40
0.0
 40
0.0
 40
0.0
 40
0.2686677865
 40
0.526096794
 40
0.7702633835
 40
0.887038186
 40
1.0
 40
1.0
 40
1.0
 40
1.0
 10
11.4319064791
 20
8.6168704832
 30
0.0
 10
11.4239363051
 20
8.6079132926
 30
0.0
 10
11.4073634118
 20
8.5912020716
 30
0.0
 10
11.3805246306
 20
8.5696146991
 30
0.0
 10
11.3570482622
 20
8.55495419
 30
0.0
 10
11.3380621235
 20
8.5456068214
 30
0.0
 10
11.3285557424
 20
8.5417371463
 30
0.0
 10
11.3238161531
 20
8.5400198135
 30
0.0
  0
SPLINE
  5
478
100
AcDbEntity
  8
0
100
AcDbSpline
 62
7
  6
CONTINUOUS
 70
0
 71
3
 72
9
 73
5
 74
0
 42
0.0000001
 43
0.0000001
 44
0.0000000001
 40
0.0
 40
0.0
 40
0.0
 40
0.0
 40
0.485202343
 40
1.0
 40
1.0
 40
1.0
 40
1.0
 10
11.3238161531
 20
8.5400198135
 30
0.0
 10
11.3182240196
 20
8.5379935715
 30
0.0
 10
11.3063490525
 20
8.5347651454
 30
0.0
 10
11.2942076722
 20
8.5329466086
 30
0.0
 10
11.2879350333
 20
8.5322545037
 30
0.0
  0
LINE
  5
479
100
AcDbEntity
  8
0
100
AcDbLine
 62
7
  6
CONTINUOUS
 10
11.0423183383
 20
5.6928318604
 11
11.0423183383
 21
5.7074192994
  0
LINE
  5
47A
100
AcDbEntity
  8
0
100
AcDbLine
 62
9
  6
CONTINUOUS
 10
11.0473618465
 20
5.7115297057
 11
11.0473183383
 21
5.6928318604
  0
SPLINE
  5
47B
100
AcDbEntity
  8
0
100
AcDbSpline
 62
7
  6
CONTINUOUS
 70
0
 71
3
 72
15
 73
11
 74
0
 42
0.0000001
 43
0.0000001
 44
0.0000000001
 40
0.0
 40
0.0
 40
0.0
 40
0.0
 40
0.1397210694
 40
0.2758963717
 40
0.4080277092
 40
0.5358296741
 40
0.6590829649
 40
0.7776233079
 40
0.8913144058
 40
1.0
 40
1.0
 40
1.0
 40
1.0
 10
11.2579095501
 20
8.6168728827
 30
0.0
 10
11.254119074
 20
8.6123741591
 30
0.0
 10
11.2464134338
 20
8.6036740553
 30
0.0
 10
11.2343800193
 20
8.5914031984
 30
0.0
 10
11.2220883364
 20
8.580119558
 30
0.0
 10
11.2096174284
 20
8.5698708683
 30
0.0
 10
11.1970376581
 20
8.5606956874
 30
0.0
 10
11.1844152629
 20
8.5526333846
 30
0.0
 10
11.1718212539
 20
8.5457247855
 30
0.0
 10
11.1632966621
 20
8.5418262296
 30
0.0
 10
11.1590602861
 20
8.5400961985
 30
0.0
  0
SPLINE
  5
47C
100
AcDbEntity
  8
0
100
AcDbSpline
 62
7
  6
CONTINUOUS
 70
0
 71
3
 72
9
 73
5
 74
0
 42
0.0000001
 43
0.0000001
 44
0.0000000001
 40
0.0
 40
0.0
 40
0.0
 40
0.0
 40
0.2445110953
 40
1.0
 40
1.0
 40
1.0
 40
1.0
 10
11.1590602861
 20
8.5400961985
 30
0.0
 10
11.1580395872
 20
8.5396793704
 30
0.0
 10
11.1538319502
 20
8.5380561396
 30
0.0
 10
11.1495074903
 20
8.5367434407
 30
0.0
 10
11.1462081984
 20
8.5358951904
 30
0.0
  0
SPLINE
  5
47D
100
AcDbEntity
  8
0
100
AcDbSpline
 62
7
  6
CONTINUOUS
 70
0
 71
3
 72
21
 73
17
 74
0
 42
0.0000001
 43
0.0000001
 44
0.0000000001
 40
0.0
 40
0.0
 40
0.0
 40
0.0
 40
0.1760113502
 40
0.3445225986
 40
0.4236563174
 40
0.4982866406
 40
0.5678373971
 40
0.6319082149
 40
0.6903132832
 40
0.7431387507
 40
0.7908241514
 40
0.8342663275
 40
0.8749034408
 40
0.9146689789
 40
0.9557129807
 40
1.0
 40
1.0
 40
1.0
 40
1.0
 10
11.4131683533
 20
5.7475842712
 30
0.0
 10
11.413091144
 20
5.7433774725
 30
0.0
 10
11.4135449508
 20
5.7351200631
 30
0.0
 10
11.4156002612
 20
5.7251596842
 30
0.0
 10
11.4180673179
 20
5.717853103
 30
0.0
 10
11.4202039022
 20
5.7129532233
 30
0.0
 10
11.4226108393
 20
5.7085866477
 30
0.0
 10
11.4252336447
 20
5.7048082021
 30
0.0
 10
11.4280185053
 20
5.7016618753
 30
0.0
 10
11.4309152976
 20
5.6991821282
 30
0.0
 10
11.4338795315
 20
5.6973972213
 30
0.0
 10
11.4368715198
 20
5.6963348
 30
0.0
 10
11.4398476294
 20
5.6960261152
 30
0.0
 10
11.4427475876
 20
5.6964952361
 30
0.0
 10
11.4455034756
 20
5.6977314161
 30
0.0
 10
11.4471364215
 20
5.6989831135
 30
0.0
 10
11.4479148616
 20
5.6997006185
 30
0.0
  0
SPLINE
  5
47E
100
AcDbEntity
  8
0
100
AcDbSpline
 62
7
  6
CONTINUOUS
 70
0
 71
3
 72
9
 73
5
 74
0
 42
0.0000001
 43
0.0000001
 44
0.0000000001
 40
0.0
 40
0.0
 40
0.0
 40
0.0
 40
0.5150456655
 40
1.0
 40
1.0
 40
1.0
 40
1.0
 10
11.0473183383
 20
8.5609800812
 30
0.0
 10
11.0432944937
 20
8.557919656
 30
0.0
 10
11.0352921415
 20
8.5522215607
 30
0.0
 10
11.0268955135
 20
8.5471161055
 30
0.0
 10
11.0227267613
 20
8.5448183031
 30
0.0
  0
SPLINE
  5
47F
100
AcDbEntity
  8
0
100
AcDbSpline
 62
7
  6
CONTINUOUS
 70
0
 71
3
 72
14
 73
10
 74
0
 42
0.0000001
 43
0.0000001
 44
0.0000000001
 40
0.0
 40
0.0
 40
0.0
 40
0.0
 40
0.2200372839
 40
0.3369652763
 40
0.4589165814
 40
0.5861563125
 40
0.7187849157
 40
0.8567804858
 40
1.0
 40
1.0
 40
1.0
 40
1.0
 10
11.0227267613
 20
8.5448183031
 30
0.0
 10
11.0186182779
 20
8.5425537205
 30
0.0
 10
11.0119404725
 20
8.5397663238
 30
0.0
 10
11.0025409862
 20
8.5370432301
 30
0.0
 10
10.9949127886
 20
8.5353601931
 30
0.0
 10
10.9868785942
 20
8.5340321486
 30
0.0
 10
10.9784555366
 20
8.5330104823
 30
0.0
 10
10.969663803
 20
8.5322500511
 30
0.0
 10
10.9636782178
 20
8.531893018
 30
0.0
 10
10.960628475
 20
8.531741872
 30
0.0
  0
SPLINE
  5
480
100
AcDbEntity
  8
0
100
AcDbSpline
 62
7
  6
CONTINUOUS
 70
0
 71
3
 72
22
 73
18
 74
0
 42
0.0000001
 43
0.0000001
 44
0.0000000001
 40
0.0
 40
0.0
 40
0.0
 40
0.0
 40
0.1512993622
 40
0.2254963266
 40
0.2977836492
 40
0.4343519266
 40
0.4983161293
 40
0.5291504245
 40
0.5592182459
 40
0.6171283414
 40
0.672491893
 40
0.7259695774
 40
0.7784654181
 40
0.8310499879
 40
0.8848447986
 40
0.9409228957
 40
1.0
 40
1.0
 40
1.0
 40
1.0
 10
11.3257049424
 20
5.7475860925
 30
0.0
 10
11.3255798389
 20
5.7426995623
 30
0.0
 10
11.3262681842
 20
5.7353537114
 30
0.0
 10
11.3288936504
 20
5.7260787369
 30
0.0
 10
11.3324480958
 20
5.7176346677
 30
0.0
 10
11.3373710444
 20
5.7101781631
 30
0.0
 10
11.3427185053
 20
5.7049216544
 30
0.0
 10
11.3458957742
 20
5.7024295124
 30
0.0
 10
11.3490905745
 20
5.7002963455
 30
0.0
 10
11.3532369881
 20
5.6981837508
 30
0.0
 10
11.3584115378
 20
5.6965864273
 30
0.0
 10
11.3636212359
 20
5.6959867038
 30
0.0
 10
11.3687607047
 20
5.6964022058
 30
0.0
 10
11.3737259371
 20
5.6978304494
 30
0.0
 10
11.3784203744
 20
5.700248906
 30
0.0
 10
11.3827532937
 20
5.7036131554
 30
0.0
 10
11.3852837129
 20
5.7063651676
 30
0.0
 10
11.3864698403
 20
5.7078605018
 30
0.0
  0
SPLINE
  5
481
100
AcDbEntity
  8
0
100
AcDbSpline
 62
7
  6
CONTINUOUS
 70
0
 71
3
 72
10
 73
6
 74
0
 42
0.0000001
 43
0.0000001
 44
0.0000000001
 40
0.0
 40
0.0
 40
0.0
 40
0.0
 40
0.2477385526
 40
0.4967725848
 40
1.0
 40
1.0
 40
1.0
 40
1.0
 10
11.2896945541
 20
5.7078605762
 30
0.0
 10
11.2932670492
 20
5.7112984074
 30
0.0
 10
11.3001375362
 20
5.7185033213
 30
0.0
 10
11.312804586
 20
5.7340133683
 30
0.0
 10
11.3210614549
 20
5.7466743536
 30
0.0
 10
11.3260246799
 20
5.7554374646
 30
0.0
  0
SPLINE
  5
482
100
AcDbEntity
  8
0
100
AcDbSpline
 62
7
  6
CONTINUOUS
 70
0
 71
3
 72
15
 73
11
 74
0
 42
0.0000001
 43
0.0000001
 44
0.0000000001
 40
0.0
 40
0.0
 40
0.0
 40
0.0
 40
0.1507885262
 40
0.2950605476
 40
0.4321932484
 40
0.5618074492
 40
0.6836051263
 40
0.7973528289
 40
0.9028694762
 40
1.0
 40
1.0
 40
1.0
 40
1.0
 10
10.9127654713
 20
8.6168728827
 30
0.0
 10
10.9096220852
 20
8.6124123494
 30
0.0
 10
10.9033161732
 20
8.6037918189
 30
0.0
 10
10.8936073434
 20
8.5915245608
 30
0.0
 10
10.8839056877
 20
8.5802437889
 30
0.0
 10
10.874269521
 20
8.5699969496
 30
0.0
 10
10.8647504783
 20
8.560822473
 30
0.0
 10
10.8553966049
 20
8.5527583938
 30
0.0
 10
10.8462595108
 20
8.5458445701
 30
0.0
 10
10.840089509
 20
8.5418623278
 30
0.0
 10
10.837050388
 20
8.5400961985
 30
0.0
  0
SPLINE
  5
483
100
AcDbEntity
  8
0
100
AcDbSpline
 62
7
  6
CONTINUOUS
 70
0
 71
3
 72
10
 73
6
 74
0
 42
0.0000001
 43
0.0000001
 44
0.0000000001
 40
0.0
 40
0.0
 40
0.0
 40
0.0
 40
0.4776751772
 40
0.7325025881
 40
1.0
 40
1.0
 40
1.0
 40
1.0
 10
10.837050388
 20
8.5400961985
 30
0.0
 10
10.834010573
 20
8.538329666
 30
0.0
 10
10.8290205114
 20
8.5361680355
 30
0.0
 10
10.8219527232
 20
8.5341083614
 30
0.0
 10
10.8181906611
 20
8.533296896
 30
0.0
 10
10.8162549811
 20
8.5329369402
 30
0.0
  0
LINE
  5
484
100
AcDbEntity
  8
0
100
AcDbLine
 62
7
  6
CONTINUOUS
 10
10.8162549811
 20
8.5329369402
 11
10.8160124366
 21
8.5328921363
  0
SPLINE
  5
485
100
AcDbEntity
  8
0
100
AcDbSpline
 62
7
  6
CONTINUOUS
 70
0
 71
3
 72
23
 73
19
 74
0
 42
0.0000001
 43
0.0000001
 44
0.0000000001
 40
0.0
 40
0.0
 40
0.0
 40
0.0
 40
0.0674777038
 40
0.1348178569
 40
0.2016979652
 40
0.2679482325
 40
0.3333751956
 40
0.3978359049
 40
0.4612304664
 40
0.5235083856
 40
0.5846833222
 40
0.6448470733
 40
0.7041807843
 40
0.7629577363
 40
0.8215231168
 40
0.8802745567
 40
0.9396686889
 40
1.0
 40
1.0
 40
1.0
 40
1.0
 10
11.2139253023
 20
5.7475850542
 30
0.0
 10
11.213850189
 20
5.7451287139
 30
0.0
 10
11.2140544712
 20
5.7402030339
 30
0.0
 10
11.2154067311
 20
5.7329585138
 30
0.0
 10
11.2177648495
 20
5.7260222448
 30
0.0
 10
11.2210495576
 20
5.7195528738
 30
0.0
 10
11.2251629042
 20
5.7136837408
 30
0.0
 10
11.2299897861
 20
5.7085279666
 30
0.0
 10
11.2354061299
 20
5.7041764727
 30
0.0
 10
11.2412835701
 20
5.7007006619
 30
0.0
 10
11.2474927008
 20
5.6981541466
 30
0.0
 10
11.2539055745
 20
5.6965749655
 30
0.0
 10
11.2603968843
 20
5.6959867104
 30
0.0
 10
11.2668441364
 20
5.6964003932
 30
0.0
 10
11.2731272199
 20
5.6978121523
 30
0.0
 10
11.2791309965
 20
5.7002046794
 30
0.0
 10
11.2847374658
 20
5.7035435679
 30
0.0
 10
11.2881113305
 20
5.7063370317
 30
0.0
 10
11.2896945541
 20
5.7078605762
 30
0.0
  0
SPLINE
  5
486
100
AcDbEntity
  8
0
100
AcDbSpline
 62
7
  6
CONTINUOUS
 70
0
 71
3
 72
10
 73
6
 74
0
 42
0.0000001
 43
0.0000001
 44
0.0000000001
 40
0.0
 40
0.0
 40
0.0
 40
0.0
 40
0.2502555685
 40
0.500239022
 40
1.0
 40
1.0
 40
1.0
 40
1.0
 10
11.1717388558
 20
5.707859796
 30
0.0
 10
11.1758332971
 20
5.7112887686
 30
0.0
 10
11.1837495045
 20
5.7184703761
 30
0.0
 10
11.1984879055
 20
5.7339199497
 30
0.0
 10
11.2083279629
 20
5.7466154135
 30
0.0
 10
11.2143080401
 20
5.7554463903
 30
0.0
  0
SPLINE
  5
487
100
AcDbEntity
  8
0
100
AcDbSpline
 62
7
  6
CONTINUOUS
 70
0
 71
3
 72
15
 73
11
 74
0
 42
0.0000001
 43
0.0000001
 44
0.0000000001
 40
0.0
 40
0.0
 40
0.0
 40
0.0
 40
0.1577525289
 40
0.307173848
 40
0.4475502059
 40
0.5784212912
 40
0.6994056658
 40
0.8101769378
 40
0.9104571713
 40
1.0
 40
1.0
 40
1.0
 40
1.0
 10
10.7471398276
 20
8.6168704832
 30
0.0
 10
10.7443941101
 20
8.612425287
 30
0.0
 10
10.7389348007
 20
8.6038386159
 30
0.0
 10
10.7306264722
 20
8.5915603299
 30
0.0
 10
10.7224585458
 20
8.5802697982
 30
0.0
 10
10.7144781068
 20
8.5700153705
 30
0.0
 10
10.7067267849
 20
8.5608364963
 30
0.0
 10
10.6992434386
 20
8.5527713811
 30
0.0
 10
10.6920697744
 20
8.5458600795
 30
0.0
 10
10.6872457387
 20
8.541815876
 30
0.0
 10
10.6848857651
 20
8.5400198135
 30
0.0
  0
SPLINE
  5
488
100
AcDbEntity
  8
0
100
AcDbSpline
 62
7
  6
CONTINUOUS
 70
0
 71
3
 72
11
 73
7
 74
0
 42
0.0000001
 43
0.0000001
 44
0.0000000001
 40
0.0
 40
0.0
 40
0.0
 40
0.0
 40
0.2216081782
 40
0.4582409715
 40
0.7162891611
 40
1.0
 40
1.0
 40
1.0
 40
1.0
 10
10.6848857651
 20
8.5400198135
 30
0.0
 10
10.6831778144
 20
8.5387199742
 30
0.0
 10
10.6793454405
 20
8.53641461
 30
0.0
 10
10.6728398048
 20
8.5339335204
 30
0.0
 10
10.6654836005
 20
8.5322102588
 30
0.0
 10
10.6602771318
 20
8.5315111337
 30
0.0
 10
10.6575436552
 20
8.5312310011
 30
0.0
  0
SPLINE
  5
489
100
AcDbEntity
  8
0
100
AcDbSpline
 62
7
  6
CONTINUOUS
 70
0
 71
3
 72
23
 73
19
 74
0
 42
0.0000001
 43
0.0000001
 44
0.0000000001
 40
0.0
 40
0.0
 40
0.0
 40
0.0
 40
0.0633227079
 40
0.1266774113
 40
0.1899581019
 40
0.2531822516
 40
0.3163163939
 40
0.3793369944
 40
0.4422155337
 40
0.5049171503
 40
0.5674082944
 40
0.6296660434
 40
0.6916884219
 40
0.7535022284
 40
0.8151550446
 40
0.876719261
 40
0.9383297413
 40
1.0
 40
1.0
 40
1.0
 40
1.0
 10
11.0875827854
 20
5.7475845772
 30
0.0
 10
11.0875019782
 20
5.7451280763
 30
0.0
 10
11.087722483
 20
5.7401929534
 30
0.0
 10
11.0891828517
 20
5.7329376526
 30
0.0
 10
11.0917324835
 20
5.7259927603
 30
0.0
 10
11.0952905601
 20
5.719517987
 30
0.0
 10
11.0997573309
 20
5.7136470708
 30
0.0
 10
11.1050149059
 20
5.7084931249
 30
0.0
 10
11.1109354135
 20
5.7041466212
 30
0.0
 10
11.1173853309
 20
5.7006781103
 30
0.0
 10
11.1242285627
 20
5.6981399074
 30
0.0
 10
11.1313288956
 20
5.6965683548
 30
0.0
 10
11.1385512844
 20
5.6959851088
 30
0.0
 10
11.1457621001
 20
5.6963993707
 30
0.0
 10
11.1528286141
 20
5.6978062573
 30
0.0
 10
11.1596213456
 20
5.7001886837
 30
0.0
 10
11.1660050062
 20
5.7035145278
 30
0.0
 10
11.1699037106
 20
5.7063229166
 30
0.0
 10
11.1717388558
 20
5.707859796
 30
0.0
  0
SPLINE
  5
48A
100
AcDbEntity
  8
0
100
AcDbSpline
 62
7
  6
CONTINUOUS
 70
0
 71
3
 72
10
 73
6
 74
0
 42
0.0000001
 43
0.0000001
 44
0.0000000001
 40
0.0
 40
0.0
 40
0.0
 40
0.0
 40
0.2501799025
 40
0.5003007114
 40
1.0
 40
1.0
 40
1.0
 40
1.0
 10
11.0473618385
 20
5.7115296978
 30
0.0
 10
11.0511778047
 20
5.7147600629
 30
0.0
 10
11.0586002269
 20
5.7214713468
 30
0.0
 10
11.0725848307
 20
5.7357578548
 30
0.0
 10
11.0821135033
 20
5.7473801368
 30
0.0
 10
11.0879949532
 20
5.7554505868
 30
0.0
  0
SPLINE
  5
48B
100
AcDbEntity
  8
0
100
AcDbSpline
 62
7
  6
CONTINUOUS
 70
0
 71
3
 72
15
 73
11
 74
0
 42
0.0000001
 43
0.0000001
 44
0.0000000001
 40
0.0
 40
0.0
 40
0.0
 40
0.0
 40
0.165113598
 40
0.3199531866
 40
0.4637352014
 40
0.5959323549
 40
0.7160830971
 40
0.8237554207
 40
0.9185348412
 40
1.0
 40
1.0
 40
1.0
 40
1.0
 10
10.576075844
 20
8.6168728827
 30
0.0
 10
10.57376586
 20
8.6124524956
 30
0.0
 10
10.5692267952
 20
8.6039193767
 30
0.0
 10
10.5624452408
 20
8.5916615784
 30
0.0
 10
10.5559358717
 20
8.5803918727
 30
0.0
 10
10.549733019
 20
8.5701580435
 30
0.0
 10
10.5438667459
 20
8.5609993207
 30
0.0
 10
10.5383657157
 20
8.5529533095
 30
0.0
 10
10.533260514
 20
8.5460594783
 30
0.0
 10
10.5298829645
 20
8.54193925
 30
0.0
 10
10.5282523986
 20
8.5400961985
 30
0.0
  0
SPLINE
  5
48C
100
AcDbEntity
  8
0
100
AcDbSpline
 62
7
  6
CONTINUOUS
 70
0
 71
3
 72
13
 73
9
 74
0
 42
0.0000001
 43
0.0000001
 44
0.0000000001
 40
0.0
 40
0.0
 40
0.0
 40
0.0
 40
0.1092114389
 40
0.2197417409
 40
0.4518301424
 40
0.5768274589
 40
0.7093035024
 40
1.0
 40
1.0
 40
1.0
 40
1.0
 10
10.5282523986
 20
8.5400961985
 30
0.0
 10
10.5276818025
 20
8.5394512458
 30
0.0
 10
10.5264448138
 20
8.5382293017
 30
0.0
 10
10.5236019363
 20
8.5360686728
 30
0.0
 10
10.520280727
 20
8.5343921118
 30
0.0
 10
10.5166308618
 20
8.5331298379
 30
0.0
 10
10.5124457322
 20
8.5320337903
 30
0.0
 10
10.5091427474
 20
8.5315059561
 30
0.0
 10
10.5068672547
 20
8.5312302503
 30
0.0
  0
SPLINE
  5
48D
100
AcDbEntity
  8
0
100
AcDbSpline
 62
7
  6
CONTINUOUS
 70
0
 71
3
 72
11
 73
7
 74
0
 42
0.0000001
 43
0.0000001
 44
0.0000000001
 40
0.0
 40
0.0
 40
0.0
 40
0.0
 40
0.2880254727
 40
0.5549488939
 40
0.7940859151
 40
1.0
 40
1.0
 40
1.0
 40
1.0
 10
11.4692076925
 20
5.7329592171
 30
0.0
 10
11.4694186353
 20
5.730296446
 30
0.0
 10
11.4699532543
 20
5.7251750318
 30
0.0
 10
11.4711081279
 20
5.7178980316
 30
0.0
 10
11.472521665
 20
5.7114446192
 30
0.0
 10
11.4736782125
 20
5.7074771056
 30
0.0
 10
11.4743021438
 20
5.7056722879
 30
0.0
  0
SPLINE
  5
48E
100
AcDbEntity
  8
0
100
AcDbSpline
 62
7
  6
CONTINUOUS
 70
0
 71
3
 72
12
 73
8
 74
0
 42
0.0000001
 43
0.0000001
 44
0.0000000001
 40
0.0
 40
0.0
 40
0.0
 40
0.0
 40
0.331340267
 40
0.6114760774
 40
0.8357782542
 40
0.9256878463
 40
1.0
 40
1.0
 40
1.0
 40
1.0
 10
10.4222488717
 20
8.6168704832
 30
0.0
 10
10.4186893794
 20
8.6083622725
 30
0.0
 10
10.4121050851
 20
8.5926671084
 30
0.0
 10
10.4030480001
 20
8.571238869
 30
0.0
 10
10.3965524668
 20
8.5560237775
 30
0.0
 10
10.392257739
 20
8.5460986334
 30
0.0
 10
10.390424075
 20
8.5419114311
 30
0.0
 10
10.389587227
 20
8.5400198135
 30
0.0
  0
SPLINE
  5
48F
100
AcDbEntity
  8
0
100
AcDbSpline
 62
7
  6
CONTINUOUS
 70
0
 71
3
 72
15
 73
11
 74
0
 42
0.0000001
 43
0.0000001
 44
0.0000000001
 40
0.0
 40
0.0
 40
0.0
 40
0.0
 40
0.1157793678
 40
0.2279944173
 40
0.340097474
 40
0.4554047494
 40
0.5768914122
 40
0.7069594853
 40
0.8475086219
 40
1.0
 40
1.0
 40
1.0
 40
1.0
 10
10.389587227
 20
8.5400198135
 30
0.0
 10
10.3893126545
 20
8.5393991674
 30
0.0
 10
10.3886810506
 20
8.5382141113
 30
0.0
 10
10.3874662874
 20
8.5366225544
 30
0.0
 10
10.3860108948
 20
8.5352516978
 30
0.0
 10
10.3843190625
 20
8.5340899376
 30
0.0
 10
10.3823930318
 20
8.5331210235
 30
0.0
 10
10.3802318714
 20
8.5323268567
 30
0.0
 10
10.3778321197
 20
8.5316897553
 30
0.0
 10
10.3761426245
 20
8.5313719953
 30
0.0
 10
10.375259949
 20
8.5312310011
 30
0.0
  0
SPLINE
  5
490
100
AcDbEntity
  8
0
100
AcDbSpline
 62
7
  6
CONTINUOUS
 70
0
 71
3
 72
13
 73
9
 74
0
 42
0.0000001
 43
0.0000001
 44
0.0000000001
 40
0.0
 40
0.0
 40
0.0
 40
0.0
 40
0.1083415423
 40
0.2217483161
 40
0.3400780911
 40
0.4632024418
 40
0.7231692779
 40
1.0
 40
1.0
 40
1.0
 40
1.0
 10
11.0227267613
 20
8.5327966721
 30
0.0
 10
11.0261189787
 20
8.5347526543
 30
0.0
 10
11.0329399864
 20
8.538970632
 30
0.0
 10
11.0430295535
 20
8.5459994283
 30
0.0
 10
11.0531761012
 20
8.5538528464
 30
0.0
 10
11.0669793174
 20
8.5656044885
 30
0.0
 10
11.0840978043
 20
8.5822545235
 30
0.0
 10
11.0969244049
 20
8.5968379929
 30
0.0
 10
11.1032623294
 20
8.6045799586
 30
0.0
  0
LINE
  5
491
100
AcDbEntity
  8
0
100
AcDbLine
 62
9
  6
CONTINUOUS
 10
10.6076899052
 20
6.0190200541
 11
11.4739422045
 21
6.0190202502
  0
SPLINE
  5
492
100
AcDbEntity
  8
0
100
AcDbSpline
 62
7
  6
CONTINUOUS
 70
0
 71
3
 72
19
 73
15
 74
0
 42
0.0000001
 43
0.0000001
 44
0.0000000001
 40
0.0
 40
0.0
 40
0.0
 40
0.0
 40
0.0321597827
 40
0.0611449382
 40
0.0894846364
 40
0.1198828142
 40
0.1545420958
 40
0.1949328478
 40
0.2419591165
 40
0.296158774
 40
0.4270120745
 40
0.5884731437
 40
0.7800313402
 40
1.0
 40
1.0
 40
1.0
 40
1.0
 10
11.4954311215
 20
5.9441880575
 30
0.0
 10
11.4953121681
 20
5.9442813569
 30
0.0
 10
11.4950669485
 20
5.944437599
 30
0.0
 10
11.4946570434
 20
5.9445581268
 30
0.0
 10
11.4942376463
 20
5.9445399449
 30
0.0
 10
11.4938205632
 20
5.9443855294
 30
0.0
 10
11.4934080188
 20
5.9441044216
 30
0.0
 10
11.492997145
 20
5.9437006982
 30
0.0
 10
11.492586335
 20
5.9431750847
 30
0.0
 10
11.4920016758
 20
5.9422524737
 30
0.0
 10
11.4912935051
 20
5.9407804356
 30
0.0
 10
11.4904987927
 20
5.9386474571
 30
0.0
 10
11.4897259507
 20
5.9360655434
 30
0.0
 10
11.4892632515
 20
5.9341864849
 30
0.0
 10
11.4890350437
 20
5.9331779467
 30
0.0
  0
SPLINE
  5
493
100
AcDbEntity
  8
0
100
AcDbSpline
 62
7
  6
CONTINUOUS
 70
0
 71
3
 72
16
 73
12
 74
0
 42
0.0000001
 43
0.0000001
 44
0.0000000001
 40
0.0
 40
0.0
 40
0.0
 40
0.0
 40
0.0356768767
 40
0.0752135982
 40
0.1656701492
 40
0.2709214027
 40
0.3904664188
 40
0.5237678291
 40
0.6702571093
 40
0.8292950547
 40
1.0
 40
1.0
 40
1.0
 40
1.0
 10
10.3498335704
 20
8.5411991476
 30
0.0
 10
10.3498698696
 20
8.5421237993
 30
0.0
 10
10.3499933459
 20
8.5440714037
 30
0.0
 10
10.3504219731
 20
8.5483476907
 30
0.0
 10
10.3513101441
 20
8.5543874031
 30
0.0
 10
10.3528350466
 20
8.5624222751
 30
0.0
 10
10.3548570361
 20
8.5714889667
 30
0.0
 10
10.3573665588
 20
8.5815389617
 30
0.0
 10
10.3603543234
 20
8.5925226137
 30
0.0
 10
10.3638079266
 20
8.6043827502
 30
0.0
 10
10.3663258325
 20
8.6125567461
 30
0.0
 10
10.3676576099
 20
8.616779343
 30
0.0
  0
SPLINE
  5
494
100
AcDbEntity
  8
0
100
AcDbSpline
 62
7
  6
CONTINUOUS
 70
0
 71
3
 72
15
 73
11
 74
0
 42
0.0000001
 43
0.0000001
 44
0.0000000001
 40
0.0
 40
0.0
 40
0.0
 40
0.0
 40
0.0864663421
 40
0.184192447
 40
0.2931774133
 40
0.4133080624
 40
0.5443819401
 40
0.6861251269
 40
0.83818146
 40
1.0
 40
1.0
 40
1.0
 40
1.0
 10
10.2293632061
 20
8.5466864827
 30
0.0
 10
10.2289477998
 20
8.5486802781
 30
0.0
 10
10.2283043121
 20
8.5529786471
 30
0.0
 10
10.2278409635
 20
8.5598736905
 30
0.0
 10
10.2278227901
 20
8.5675765904
 30
0.0
 10
10.2282501418
 20
8.5760528133
 30
0.0
 10
10.2291230163
 20
8.5852695317
 30
0.0
 10
10.2304413
 20
8.5951917744
 30
0.0
 10
10.2322036202
 20
8.6057792767
 30
0.0
 10
10.2336293658
 20
8.6130345593
 30
0.0
 10
10.2344120875
 20
8.616764764
 30
0.0
  0
SPLINE
  5
495
100
AcDbEntity
  8
0
100
AcDbSpline
 62
7
  6
CONTINUOUS
 70
0
 71
3
 72
11
 73
7
 74
0
 42
0.0000001
 43
0.0000001
 44
0.0000000001
 40
0.0
 40
0.0
 40
0.0
 40
0.0
 40
0.2523830549
 40
0.5019909496
 40
0.7505557569
 40
1.0
 40
1.0
 40
1.0
 40
1.0
 10
12.3406729855
 20
8.5291249555
 30
0.0
 10
12.3501011091
 20
8.5327397164
 30
0.0
 10
12.3683562494
 20
8.5413217009
 30
0.0
 10
12.3933803095
 20
8.5581270517
 30
0.0
 10
12.4154006155
 20
8.5785476594
 30
0.0
 10
12.4277021895
 20
8.5943550171
 30
0.0
 10
12.4331602355
 20
8.6027099657
 30
0.0
  0
SPLINE
  5
496
100
AcDbEntity
  8
0
100
AcDbSpline
 62
7
  6
CONTINUOUS
 70
0
 71
3
 72
9
 73
5
 74
0
 42
0.0000001
 43
0.0000001
 44
0.0000000001
 40
0.0
 40
0.0
 40
0.0
 40
0.0
 40
0.4689123961
 40
1.0
 40
1.0
 40
1.0
 40
1.0
 10
12.295165979
 20
8.5175398134
 30
0.0
 10
12.3015622043
 20
8.5184213626
 30
0.0
 10
12.3151280424
 20
8.5208932959
 30
0.0
 10
12.3283888796
 20
8.5247229154
 30
0.0
 10
12.3352884588
 20
8.5271463422
 30
0.0
  0
LINE
  5
497
100
AcDbEntity
  8
0
100
AcDbLine
 62
7
  6
CONTINUOUS
 10
9.6596037432
 20
8.6045504306
 11
9.6612987251
 21
8.6044590794
  0
SPLINE
  5
498
100
AcDbEntity
  8
0
100
AcDbSpline
 62
7
  6
CONTINUOUS
 70
0
 71
3
 72
11
 73
7
 74
0
 42
0.0000001
 43
0.0000001
 44
0.0000000001
 40
0.0
 40
0.0
 40
0.0
 40
0.0
 40
0.2681920796
 40
0.5249874564
 40
0.7692239646
 40
1.0
 40
1.0
 40
1.0
 40
1.0
 10
11.1032623294
 20
8.6168638629
 30
0.0
 10
11.098849859
 20
8.6113197649
 30
0.0
 10
11.0899201841
 20
8.6006954359
 30
0.0
 10
11.0759737071
 20
8.5858972802
 30
0.0
 10
11.0618742007
 20
8.5726498978
 30
0.0
 10
11.0521713162
 20
8.5646711225
 30
0.0
 10
11.0473183383
 20
8.5609800812
 30
0.0
  0
SPLINE
  5
499
100
AcDbEntity
  8
0
100
AcDbSpline
 62
7
  6
CONTINUOUS
 70
0
 71
3
 72
15
 73
11
 74
0
 42
0.0000001
 43
0.0000001
 44
0.0000000001
 40
0.0
 40
0.0
 40
0.0
 40
0.0
 40
0.0883961876
 40
0.1859916166
 40
0.2938468902
 40
0.4126106852
 40
0.5426152497
 40
0.6839655652
 40
0.83656644
 40
1.0
 40
1.0
 40
1.0
 40
1.0
 10
10.1022884521
 20
8.5411991476
 30
0.0
 10
10.1009050096
 20
8.5430303933
 30
0.0
 10
10.0983584958
 20
8.5471644667
 30
0.0
 10
10.0953499153
 20
8.5541973219
 30
0.0
 10
10.0929812309
 20
8.5622924947
 30
0.0
 10
10.091259371
 20
8.5714023069
 30
0.0
 10
10.0901906637
 20
8.5814840344
 30
0.0
 10
10.0897852316
 20
8.5924914077
 30
0.0
 10
10.0900528358
 20
8.6043695537
 30
0.0
 10
10.0906637806
 20
8.6125560024
 30
0.0
 10
10.0910749685
 20
8.616779343
 30
0.0
  0
LINE
  5
49A
100
AcDbEntity
  8
0
100
AcDbLine
 62
7
  6
CONTINUOUS
 10
12.4171384291
 20
8.6045918192
 11
12.4308594294
 21
8.6044590794
  0
SPLINE
  5
49B
100
AcDbEntity
  8
0
100
AcDbSpline
 62
7
  6
CONTINUOUS
 70
0
 71
3
 72
12
 73
8
 74
0
 42
0.0000001
 43
0.0000001
 44
0.0000000001
 40
0.0
 40
0.0
 40
0.0
 40
0.0
 40
0.2528880517
 40
0.5033157375
 40
0.6279004916
 40
0.7521698056
 40
1.0
 40
1.0
 40
1.0
 40
1.0
 10
12.3317416168
 20
8.5363277985
 30
0.0
 10
12.3398347847
 20
8.5399770728
 30
0.0
 10
12.3555425204
 20
8.5481682195
 30
0.0
 10
12.3737951725
 20
8.5606249411
 30
0.0
 10
12.3873153953
 20
8.5717962987
 30
0.0
 10
12.4000460435
 20
8.5837223785
 30
0.0
 10
12.4087187821
 20
8.593555101
 30
0.0
 10
12.4140297786
 20
8.6004463049
 30
0.0
  0
SPLINE
  5
49C
100
AcDbEntity
  8
0
100
AcDbSpline
 62
7
  6
CONTINUOUS
 70
0
 71
3
 72
9
 73
5
 74
0
 42
0.0000001
 43
0.0000001
 44
0.0000000001
 40
0.0
 40
0.0
 40
0.0
 40
0.0
 40
0.4760600067
 40
1.0
 40
1.0
 40
1.0
 40
1.0
 10
12.2644319497
 20
8.5176446966
 30
0.0
 10
12.2717956687
 20
8.5185526768
 30
0.0
 10
12.2871929933
 20
8.52109903
 30
0.0
 10
12.3022715885
 20
8.5251938002
 30
0.0
 10
12.310010447
 20
8.5277993362
 30
0.0
  0
SPLINE
  5
49D
100
AcDbEntity
  8
0
100
AcDbSpline
 62
7
  6
CONTINUOUS
 70
0
 71
3
 72
14
 73
10
 74
0
 42
0.0000001
 43
0.0000001
 44
0.0000000001
 40
0.0
 40
0.0
 40
0.0
 40
0.0
 40
0.2073931291
 40
0.3207069111
 40
0.4411410996
 40
0.5691070067
 40
0.7048662517
 40
0.8485361975
 40
1.0
 40
1.0
 40
1.0
 40
1.0
 10
10.0032798392
 20
8.5466864827
 30
0.0
 10
9.9999904885
 20
8.5506173171
 30
0.0
 10
9.9957342929
 20
8.5574159433
 30
0.0
 10
9.9914053637
 20
8.5674283213
 30
0.0
 10
9.988619014
 20
8.5759368333
 30
0.0
 10
9.9864066653
 20
8.5851784593
 30
0.0
 10
9.9847781514
 20
8.5951226479
 30
0.0
 10
9.9837469576
 20
8.6057283238
 30
0.0
 10
9.9834715722
 20
8.6130216961
 30
0.0
 10
9.98342948
 20
8.616764764
 30
0.0
  0
SPLINE
  5
49E
100
AcDbEntity
  8
0
100
AcDbSpline
 62
7
  6
CONTINUOUS
 70
0
 71
3
 72
11
 73
7
 74
0
 42
0.0000001
 43
0.0000001
 44
0.0000000001
 40
0.0
 40
0.0
 40
0.0
 40
0.0
 40
0.2545182818
 40
0.5057780476
 40
0.7540890125
 40
1.0
 40
1.0
 40
1.0
 40
1.0
 10
12.265147562
 20
8.5277178338
 30
0.0
 10
12.276460495
 20
8.5313361269
 30
0.0
 10
12.2984873534
 20
8.5400541206
 30
0.0
 10
12.3292048541
 20
8.5574550967
 30
0.0
 10
12.3567977005
 20
8.5788400122
 30
0.0
 10
12.3727521107
 20
8.5956507642
 30
0.0
 10
12.379949866
 20
8.6045886861
 30
0.0
  0
SPLINE
  5
49F
100
AcDbEntity
  8
0
100
AcDbSpline
 62
7
  6
CONTINUOUS
 70
0
 71
3
 72
9
 73
5
 74
0
 42
0.0000001
 43
0.0000001
 44
0.0000000001
 40
0.0
 40
0.0
 40
0.0
 40
0.0
 40
0.4863792211
 40
1.0
 40
1.0
 40
1.0
 40
1.0
 10
12.2157563532
 20
8.5175398134
 30
0.0
 10
12.221072659
 20
8.5181234036
 30
0.0
 10
12.2319744738
 20
8.5196038798
 30
0.0
 10
12.2427691793
 20
8.5217490846
 30
0.0
 10
12.2482659314
 20
8.5230464861
 30
0.0
  0
SPLINE
  5
4A0
100
AcDbEntity
  8
0
100
AcDbSpline
 62
7
  6
CONTINUOUS
 70
0
 71
3
 72
14
 73
10
 74
0
 42
0.0000001
 43
0.0000001
 44
0.0000000001
 40
0.0
 40
0.0
 40
0.0
 40
0.0
 40
0.1086558404
 40
0.2200995996
 40
0.3354693916
 40
0.4557866082
 40
0.7141177288
 40
0.8535412071
 40
1.0
 40
1.0
 40
1.0
 40
1.0
 10
9.9141230371
 20
8.5411991476
 30
0.0
 10
9.9114735472
 20
8.5429622782
 30
0.0
 10
9.9063566765
 20
8.5469240455
 30
0.0
 10
9.8994496801
 20
8.5539495067
 30
0.0
 10
9.8932737872
 20
8.5620588469
 30
0.0
 10
9.8858854096
 20
8.5745305507
 30
0.0
 10
9.8803202516
 20
8.5887712617
 30
0.0
 10
9.8764743505
 20
8.6042493273
 30
0.0
 10
9.8751161895
 20
8.6125236491
 30
0.0
 10
9.8745766148
 20
8.616779343
 30
0.0
  0
SPLINE
  5
4A1
100
AcDbEntity
  8
0
100
AcDbSpline
 62
7
  6
CONTINUOUS
 70
0
 71
3
 72
11
 73
7
 74
0
 42
0.0000001
 43
0.0000001
 44
0.0000000001
 40
0.0
 40
0.0
 40
0.0
 40
0.0
 40
0.2538416783
 40
0.5051727029
 40
0.7539026597
 40
1.0
 40
1.0
 40
1.0
 40
1.0
 10
12.2053001319
 20
8.5302111666
 30
0.0
 10
12.2162901015
 20
8.5339441704
 30
0.0
 10
12.2377325401
 20
8.542716034
 30
0.0
 10
12.2678447925
 20
8.5596780733
 30
0.0
 10
12.2952419354
 20
8.5801692145
 30
0.0
 10
12.3114109204
 20
8.5961231887
 30
0.0
 10
12.3188205449
 20
8.6045918192
 30
0.0
  0
SPLINE
  5
4A2
100
AcDbEntity
  8
0
100
AcDbSpline
 62
7
  6
CONTINUOUS
 70
0
 71
3
 72
9
 73
5
 74
0
 42
0.0000001
 43
0.0000001
 44
0.0000000001
 40
0.0
 40
0.0
 40
0.0
 40
0.0
 40
0.4874176253
 40
1.0
 40
1.0
 40
1.0
 40
1.0
 10
12.1451456261
 20
8.5175382038
 30
0.0
 10
12.1538391822
 20
8.5184122777
 30
0.0
 10
12.1716176259
 20
8.5208677722
 30
0.0
 10
12.1890892296
 20
8.5250832762
 30
0.0
 10
12.1978671167
 20
8.5277993362
 30
0.0
  0
SPLINE
  5
4A3
100
AcDbEntity
  8
0
100
AcDbSpline
 62
7
  6
CONTINUOUS
 70
0
 71
3
 72
9
 73
5
 74
0
 42
0.0000001
 43
0.0000001
 44
0.0000000001
 40
0.0
 40
0.0
 40
0.0
 40
0.0
 40
0.4873963988
 40
1.0
 40
1.0
 40
1.0
 40
1.0
 10
9.8191300761
 20
8.5707390305
 30
0.0
 10
9.8157894837
 20
8.575512287
 30
0.0
 10
9.8097110919
 20
8.5858649236
 30
0.0
 10
9.8051828354
 20
8.5969719123
 30
0.0
 10
9.8032354717
 20
8.6027816533
 30
0.0
  0
SPLINE
  5
4A4
100
AcDbEntity
  8
0
100
AcDbSpline
 62
7
  6
CONTINUOUS
 70
0
 71
3
 72
11
 73
7
 74
0
 42
0.0000001
 43
0.0000001
 44
0.0000000001
 40
0.0
 40
0.0
 40
0.0
 40
0.0
 40
0.2678191986
 40
0.5235040718
 40
0.7673115079
 40
1.0
 40
1.0
 40
1.0
 40
1.0
 10
11.1164481539
 20
8.5175382038
 30
0.0
 10
11.1204673028
 20
8.5179506025
 30
0.0
 10
11.1283077895
 20
8.5189296541
 30
0.0
 10
11.1396974169
 20
8.5210444707
 30
0.0
 10
11.1503840778
 20
8.5238843023
 30
0.0
 10
11.1571398792
 20
8.5263870243
 30
0.0
 10
11.1603535111
 20
8.5277993362
 30
0.0
  0
SPLINE
  5
4A5
100
AcDbEntity
  8
0
100
AcDbSpline
 62
7
  6
CONTINUOUS
 70
0
 71
3
 72
11
 73
7
 74
0
 42
0.0000001
 43
0.0000001
 44
0.0000000001
 40
0.0
 40
0.0
 40
0.0
 40
0.0
 40
0.2527596787
 40
0.5040334987
 40
0.7532673539
 40
1.0
 40
1.0
 40
1.0
 40
1.0
 10
12.1168815627
 20
8.5277178338
 30
0.0
 10
12.1288329871
 20
8.531352656
 30
0.0
 10
12.1522363302
 20
8.5401092928
 30
0.0
 10
12.1852677388
 20
8.5574925314
 30
0.0
 10
12.215530445
 20
8.5788389632
 30
0.0
 10
12.2335179711
 20
8.5956335863
 30
0.0
 10
12.2417945324
 20
8.6045886861
 30
0.0
  0
SPLINE
  5
4A6
100
AcDbEntity
  8
0
100
AcDbSpline
 62
7
  6
CONTINUOUS
 70
0
 71
3
 72
9
 73
5
 74
0
 42
0.0000001
 43
0.0000001
 44
0.0000000001
 40
0.0
 40
0.0
 40
0.0
 40
0.0
 40
0.2453838027
 40
1.0
 40
1.0
 40
1.0
 40
1.0
 10
12.0629294697
 20
8.5175398134
 30
0.0
 10
12.0654891007
 20
8.5177861389
 30
0.0
 10
12.0759091935
 20
8.5188963615
 30
0.0
 10
12.086282662
 20
8.5204845085
 30
0.0
 10
12.0940383992
 20
8.5220281737
 30
0.0
  0
SPLINE
  5
4A7
100
AcDbEntity
  8
0
100
AcDbSpline
 62
7
  6
CONTINUOUS
 70
0
 71
3
 72
9
 73
5
 74
0
 42
0.0000001
 43
0.0000001
 44
0.0000000001
 40
0.0
 40
0.0
 40
0.0
 40
0.0
 40
0.2490540178
 40
1.0
 40
1.0
 40
1.0
 40
1.0
 10
12.0989121344
 20
8.5230464861
 30
0.0
 10
12.1004180226
 20
8.5233763398
 30
0.0
 10
12.1064521629
 20
8.5247558486
 30
0.0
 10
12.1124344901
 20
8.5263653325
 30
0.0
 10
12.1168815627
 20
8.5277178338
 30
0.0
  0
SPLINE
  5
4A8
100
AcDbEntity
  8
0
100
AcDbSpline
 62
7
  6
CONTINUOUS
 70
0
 71
3
 72
9
 73
5
 74
0
 42
0.0000001
 43
0.0000001
 44
0.0000000001
 40
0.0
 40
0.0
 40
0.0
 40
0.0
 40
0.4935849767
 40
1.0
 40
1.0
 40
1.0
 40
1.0
 10
9.7537154534
 20
8.575873111
 30
0.0
 10
9.7505370953
 20
8.579922909
 30
0.0
 10
9.7445919045
 20
8.588526313
 30
0.0
 10
9.7396876589
 20
8.597759819
 30
0.0
 10
9.7374697498
 20
8.6025535041
 30
0.0
  0
SPLINE
  5
4A9
100
AcDbEntity
  8
0
100
AcDbSpline
 62
7
  6
CONTINUOUS
 70
0
 71
3
 72
13
 73
9
 74
0
 42
0.0000001
 43
0.0000001
 44
0.0000000001
 40
0.0
 40
0.0
 40
0.0
 40
0.0
 40
0.1100416449
 40
0.2246556203
 40
0.3437051278
 40
0.4670731797
 40
0.726089695
 40
1.0
 40
1.0
 40
1.0
 40
1.0
 10
11.1603535111
 20
8.5277993362
 30
0.0
 10
11.1645885371
 20
8.5296605256
 30
0.0
 10
11.1730983936
 20
8.5337763476
 30
0.0
 10
11.1856751781
 20
8.5409069284
 30
0.0
 10
11.1982682145
 20
8.5490892996
 30
0.0
 10
11.2152752271
 20
8.5615593151
 30
0.0
 10
11.2361745953
 20
8.5796475482
 30
0.0
 10
11.2516452555
 20
8.595902893
 30
0.0
 10
11.2592011136
 20
8.6045918192
 30
0.0
  0
SPLINE
  5
4AA
100
AcDbEntity
  8
0
100
AcDbSpline
 62
7
  6
CONTINUOUS
 70
0
 71
3
 72
12
 73
8
 74
0
 42
0.0000001
 43
0.0000001
 44
0.0000000001
 40
0.0
 40
0.0
 40
0.0
 40
0.0
 40
0.2508824107
 40
0.376401228
 40
0.5017829885
 40
0.7517114879
 40
1.0
 40
1.0
 40
1.0
 40
1.0
 10
12.0155882509
 20
8.5284638199
 30
0.0
 10
12.0273883678
 20
8.5321457369
 30
0.0
 10
12.0447804484
 20
8.5387535504
 30
0.0
 10
12.0670145498
 20
8.5495892989
 30
0.0
 10
12.0885120427
 20
8.5617331574
 30
0.0
 10
12.1138297226
 20
8.5792848891
 30
0.0
 10
12.1321123001
 20
8.595791048
 30
0.0
 10
12.1406095008
 20
8.6045918192
 30
0.0
  0
SPLINE
  5
4AB
100
AcDbEntity
  8
0
100
AcDbSpline
 62
7
  6
CONTINUOUS
 70
0
 71
3
 72
9
 73
5
 74
0
 42
0.0000001
 43
0.0000001
 44
0.0000000001
 40
0.0
 40
0.0
 40
0.0
 40
0.0
 40
0.496992066
 40
1.0
 40
1.0
 40
1.0
 40
1.0
 10
11.9577541483
 20
8.5175382038
 30
0.0
 10
11.9671061244
 20
8.5183934861
 30
0.0
 10
11.9858726332
 20
8.5207736161
 30
0.0
 10
12.0043365859
 20
8.5250355946
 30
0.0
 10
12.0134305753
 20
8.5277993362
 30
0.0
  0
LINE
  5
4AC
100
AcDbEntity
  8
0
100
AcDbLine
 62
7
  6
CONTINUOUS
 10
11.2592011136
 20
8.6045918192
 11
11.3732637293
 21
8.6044590794
  0
LINE
  5
4AD
100
AcDbEntity
  8
0
100
AcDbLine
 62
7
  6
CONTINUOUS
 10
12.0285858665
 20
8.6045886861
 11
12.1130761063
 21
8.6044362382
  0
SPLINE
  5
4AE
100
AcDbEntity
  8
0
100
AcDbSpline
 62
7
  6
CONTINUOUS
 70
0
 71
3
 72
11
 73
7
 74
0
 42
0.0000001
 43
0.0000001
 44
0.0000000001
 40
0.0
 40
0.0
 40
0.0
 40
0.0
 40
0.2484004152
 40
0.4985330408
 40
0.7494213333
 40
1.0
 40
1.0
 40
1.0
 40
1.0
 10
11.9014109724
 20
8.5277178338
 30
0.0
 10
11.9132797337
 20
8.5313777808
 30
0.0
 10
11.9366678681
 20
8.5402086383
 30
0.0
 10
11.9699565232
 20
8.5576019535
 30
0.0
 10
12.0009977307
 20
8.5789443603
 30
0.0
 10
12.0197932445
 20
8.5956628886
 30
0.0
 10
12.0285858665
 20
8.6045886861
 30
0.0
  0
SPLINE
  5
4AF
100
AcDbEntity
  8
0
100
AcDbSpline
 62
7
  6
CONTINUOUS
 70
0
 71
3
 72
9
 73
5
 74
0
 42
0.0000001
 43
0.0000001
 44
0.0000000001
 40
0.0
 40
0.0
 40
0.0
 40
0.0
 40
0.2493656635
 40
1.0
 40
1.0
 40
1.0
 40
1.0
 10
11.8462880037
 20
8.5175398134
 30
0.0
 10
11.8482510703
 20
8.5177179512
 30
0.0
 10
11.8561177592
 20
8.5184903073
 30
0.0
 10
11.8639610155
 20
8.5195161539
 30
0.0
 10
11.8698178014
 20
8.5204669106
 30
0.0
  0
SPLINE
  5
4B0
100
AcDbEntity
  8
0
100
AcDbSpline
 62
7
  6
CONTINUOUS
 70
0
 71
3
 72
9
 73
5
 74
0
 42
0.0000001
 43
0.0000001
 44
0.0000000001
 40
0.0
 40
0.0
 40
0.0
 40
0.0
 40
0.2512881111
 40
1.0
 40
1.0
 40
1.0
 40
1.0
 10
11.8698178014
 20
8.5204669106
 30
0.0
 10
11.8724989751
 20
8.5209021568
 30
0.0
 10
11.8831425716
 20
8.5227850308
 30
0.0
 10
11.8936772086
 20
8.525332988
 30
0.0
 10
11.9014109724
 20
8.5277178338
 30
0.0
  0
LINE
  5
4B1
100
AcDbEntity
  8
0
100
AcDbLine
 62
7
  6
CONTINUOUS
 10
11.8937029521
 20
8.6045918192
 11
11.9827527344
 21
8.6044590794
  0
SPLINE
  5
4B2
100
AcDbEntity
  8
0
100
AcDbSpline
 62
7
  6
CONTINUOUS
 70
0
 71
3
 72
11
 73
7
 74
0
 42
0.0000001
 43
0.0000001
 44
0.0000000001
 40
0.0
 40
0.0
 40
0.0
 40
0.0
 40
0.2452993874
 40
0.4944719445
 40
0.7464561978
 40
1.0
 40
1.0
 40
1.0
 40
1.0
 10
11.7682896489
 20
8.5277993362
 30
0.0
 10
11.7798494426
 20
8.5314780715
 30
0.0
 10
11.8027099475
 20
8.5403572034
 30
0.0
 10
11.8353666134
 20
8.5577442888
 30
0.0
 10
11.8661009948
 20
8.5790655097
 30
0.0
 10
11.8848571934
 20
8.595705154
 30
0.0
 10
11.8937029521
 20
8.6045918192
 30
0.0
  0
SPLINE
  5
4B3
100
AcDbEntity
  8
0
100
AcDbSpline
 62
7
  6
CONTINUOUS
 70
0
 71
3
 72
9
 73
5
 74
0
 42
0.0000001
 43
0.0000001
 44
0.0000000001
 40
0.0
 40
0.0
 40
0.0
 40
0.0
 40
0.5055866599
 40
1.0
 40
1.0
 40
1.0
 40
1.0
 10
11.7131566401
 20
8.5175382038
 30
0.0
 10
11.7225844558
 20
8.5183772999
 30
0.0
 10
11.741184151
 20
8.5206893035
 30
0.0
 10
11.7594695929
 20
8.5249924824
 30
0.0
 10
11.7682896489
 20
8.5277993362
 30
0.0
  0
LINE
  5
4B4
100
AcDbEntity
  8
0
100
AcDbLine
 62
7
  6
CONTINUOUS
 10
11.753720553
 20
8.6045886861
 11
11.8585924
 21
8.6044362382
  0
SPLINE
  5
4B5
100
AcDbEntity
  8
0
100
AcDbSpline
 62
7
  6
CONTINUOUS
 70
0
 71
3
 72
11
 73
7
 74
0
 42
0.0000001
 43
0.0000001
 44
0.0000000001
 40
0.0
 40
0.0
 40
0.0
 40
0.0
 40
0.2414917709
 40
0.4894492461
 40
0.7427578798
 40
1.0
 40
1.0
 40
1.0
 40
1.0
 10
11.6322746009
 20
8.5277178338
 30
0.0
 10
11.6433422837
 20
8.5314145062
 30
0.0
 10
11.6653116711
 20
8.5403589341
 30
0.0
 10
11.6967776671
 20
8.5577807104
 30
0.0
 10
11.7266559796
 20
8.5791397296
 30
0.0
 10
11.7450023911
 20
8.5957290754
 30
0.0
 10
11.753720553
 20
8.6045886861
 30
0.0
  0
SPLINE
  5
4B6
100
AcDbEntity
  8
0
100
AcDbSpline
 62
7
  6
CONTINUOUS
 70
0
 71
3
 72
11
 73
7
 74
0
 42
0.0000001
 43
0.0000001
 44
0.0000000001
 40
0.0
 40
0.0
 40
0.0
 40
0.0
 40
0.2568427363
 40
0.5096635797
 40
0.7576007223
 40
1.0
 40
1.0
 40
1.0
 40
1.0
 10
11.5794443352
 20
8.5175398134
 30
0.0
 10
11.5840409872
 20
8.517959362
 30
0.0
 10
11.5931485122
 20
8.5189586081
 30
0.0
 10
11.6066049045
 20
8.5210698011
 30
0.0
 10
11.6196672916
 20
8.5238899915
 30
0.0
 10
11.6281427875
 20
8.5263377834
 30
0.0
 10
11.6322746009
 20
8.5277178338
 30
0.0
  0
SPLINE
  5
4B7
100
AcDbEntity
  8
0
100
AcDbSpline
 62
7
  6
CONTINUOUS
 70
0
 71
3
 72
11
 73
7
 74
0
 42
0.0000001
 43
0.0000001
 44
0.0000000001
 40
0.0
 40
0.0
 40
0.0
 40
0.0
 40
0.2637300364
 40
0.5184008303
 40
0.7637854114
 40
1.0
 40
1.0
 40
1.0
 40
1.0
 10
11.2791652333
 20
8.5175398134
 30
0.0
 10
11.2834036119
 20
8.5179551769
 30
0.0
 10
11.2917198944
 20
8.5189413428
 30
0.0
 10
11.3038797701
 20
8.5210480638
 30
0.0
 10
11.3154408808
 20
8.5238646718
 30
0.0
 10
11.3228309235
 20
8.5263285232
 30
0.0
 10
11.326383276
 20
8.5277178338
 30
0.0
  0
LINE
  5
4B8
100
AcDbEntity
  8
0
100
AcDbLine
 62
7
  6
CONTINUOUS
 10
11.5936149453
 20
8.6045918192
 11
11.6984652082
 21
8.6044590794
  0
SPLINE
  5
4B9
100
AcDbEntity
  8
0
100
AcDbSpline
 62
7
  6
CONTINUOUS
 70
0
 71
3
 72
11
 73
7
 74
0
 42
0.0000001
 43
0.0000001
 44
0.0000000001
 40
0.0
 40
0.0
 40
0.0
 40
0.0
 40
0.2369159373
 40
0.4833586263
 40
0.7382282586
 40
1.0
 40
1.0
 40
1.0
 40
1.0
 10
11.4778474436
 20
8.5277993362
 30
0.0
 10
11.4882620542
 20
8.5315231631
 30
0.0
 10
11.5090230235
 20
8.5405406568
 30
0.0
 10
11.5388426147
 20
8.5579624684
 30
0.0
 10
11.5674528816
 20
8.579305891
 30
0.0
 10
11.5851391505
 20
8.5957880206
 30
0.0
 10
11.5936149453
 20
8.6045918192
 30
0.0
  0
SPLINE
  5
4BA
100
AcDbEntity
  8
0
100
AcDbSpline
 62
7
  6
CONTINUOUS
 70
0
 71
3
 72
11
 73
7
 74
0
 42
0.0000001
 43
0.0000001
 44
0.0000000001
 40
0.0
 40
0.0
 40
0.0
 40
0.0
 40
0.2602906242
 40
0.5140851242
 40
0.7607695268
 40
1.0
 40
1.0
 40
1.0
 40
1.0
 10
11.4267220627
 20
8.5175382038
 30
0.0
 10
11.4312381881
 20
8.5179551664
 30
0.0
 10
11.4401436125
 20
8.5189487008
 30
0.0
 10
11.4532356863
 20
8.5210682809
 30
0.0
 10
11.4658163885
 20
8.5239110002
 30
0.0
 10
11.4739224229
 20
8.5263959139
 30
0.0
 10
11.4778474436
 20
8.5277993362
 30
0.0
  0
SPLINE
  5
4BB
100
AcDbEntity
  8
0
100
AcDbSpline
 62
7
  6
CONTINUOUS
 70
0
 71
3
 72
11
 73
7
 74
0
 42
0.0000001
 43
0.0000001
 44
0.0000000001
 40
0.0
 40
0.0
 40
0.0
 40
0.0
 40
0.231298268
 40
0.4758972268
 40
0.7326892719
 40
1.0
 40
1.0
 40
1.0
 40
1.0
 10
11.326383276
 20
8.5277178338
 30
0.0
 10
11.3359814434
 20
8.5314716383
 30
0.0
 10
11.3552037089
 20
8.5405873372
 30
0.0
 10
11.3828681972
 20
8.5580470637
 30
0.0
 10
11.4097065824
 20
8.5794291056
 30
0.0
 10
11.4263996511
 20
8.5958282632
 30
0.0
 10
11.4344693904
 20
8.6045886861
 30
0.0
  0
LINE
  5
4BC
100
AcDbEntity
  8
0
100
AcDbLine
 62
7
  6
CONTINUOUS
 10
11.4344693904
 20
8.6045886861
 11
11.5531333607
 21
8.6044362382
  0
ENDSEC
  0
SECTION
  2
OBJECTS
  0
DICTIONARY
  5
C
100
AcDbDictionary
280
0
281
1
  3
ACAD_GROUP
350
D
  3
ACAD_MLINESTYLE
350
17
  3
ACAD_LAYOUT
350
1A
  3
ACAD_PLOTSETTINGS
350
19
  3
ACAD_PLOTSTYLENAME
350
E
  0
DICTIONARY
  5
D
102
{ACAD_REACTORS
330
C
102
}
100
AcDbDictionary
280
0
281
1
  0
ACDBDICTIONARYWDFLT
  5
E
102
{ACAD_REACTORS
330
C
102
}
100
AcDbDictionary
281
1
  3
Normal
350
F
100
AcDbDictionaryWithDefault
340
F
  0
DICTIONARY
  5
17
102
{ACAD_REACTORS
330
C
102
}
100
AcDbDictionary
280
0
281
1
  3
Standard
350
18
  0
DICTIONARY
  5
19
102
{ACAD_REACTORS
330
C
102
}
100
AcDbDictionary
281
1
  0
DICTIONARY
  5
1A
102
{ACAD_REACTORS
330
C
102
}
100
AcDbDictionary
281
1
  3
Model
350
4BD
  3
Layout1
350
4BE
  0
ACDBPLACEHOLDER
  5
F
102
{ACAD_REACTORS
330
E
102
}
  0
MLINESTYLE
  5
18
102
{ACAD_REACTORS
330
17
102
}
100
AcDbMlineStyle
  2
STANDARD
 70
0
  3

 62
256
 51
90.0
 52
90.0
 71
2
 49
0.5
 62
256
  6
BYLAYER
 49
-0.5
 62
256
  6
BYLAYER
  0
LAYOUT
  5
4BD
102
{ACAD_REACTORS
330
1A
102
}
100
AcDbPlotSettings
  1

  2
none_device
  4
ANSI_C_(22.00_x_17.00_Inches)
  6

 40
0.0
 41
0.0
 42
0.0
 43
0.0
 44
558.8
 45
431.8
 46
0.0
 47
0.0
 48
0.0
 49
0.0
140
0.0
141
0.0
142
1.0
143
1.0
 70
1024
 72
0
 73
0
 74
0
  7

 75
0
147
1.0
148
0.0
149
0.0
100
AcDbLayout
  1
Model
 70
0
 71
0
 10
0.0
 20
0.0
 11
22.0
 21
17.0
 12
0.0
 22
0.0
 32
0.0
 14
0.0
 24
0.0
 34
0.0
 15
0.0
 25
0.0
 35
0.0
146
0.0
 13
0.0
 23
0.0
 33
0.0
 16
1.0
 26
0.0
 36
0.0
 17
0.0
 27
1.0
 37
0.0
 76
0
330
205
345
0
346
0
  0
LAYOUT
  5
4BE
102
{ACAD_REACTORS
330
1A
102
}
100
AcDbPlotSettings
  1

  2
none_device
  4
ANSI_C_(22.00_x_17.00_Inches)
  6

 40
0.0
 41
0.0
 42
0.0
 43
0.0
 44
558.8
 45
431.8
 46
0.0
 47
0.0
 48
0.0
 49
0.0
140
0.0
141
0.0
142
1.0
143
1.0
 70
0
 72
0
 73
0
 74
0
  7

 75
0
147
1.0
148
0.0
149
0.0
100
AcDbLayout
  1
Layout1
 70
0
 71
1
 10
0.0
 20
0.0
 11
22.0
 21
17.0
 12
0.0
 22
0.0
 32
0.0
 14
0.0
 24
0.0
 34
0.0
 15
0.0
 25
0.0
 35
0.0
146
0.0
 13
0.0
 23
0.0
 33
0.0
 16
1.0
 26
0.0
 36
0.0
 17
0.0
 27
1.0
 37
0.0
 76
0
330
206
345
0
346
0
  0
ENDSEC
  0
EOF
