999
DXF file: E:\BT Custom\CADOUTPUT\_FRONT.dxf
999
Pro/ENGINEER 2018400 by Parametric Technology Corporation
  0
SECTION
  2
HEADER
  9
$ACADVER
  1
AC1018
  9
$DWGCODEPAGE
  3
ANSI_1252
  9
$EXTMAX
 10
22.0
 20
17.0
 30
0.0
  9
$EXTMIN
 10
0.0
 20
0.0
 30
0.0
  9
$LIMMIN
 10
0.0
 20
0.0
  9
$LIMMAX
 10
22.0
 20
17.0
  9
$VIEWCTR
 10
11.0
 20
8.5
  9
$VIEWSIZE
 40
17.0
  9
$CLAYER
  8
0
  9
$LTSCALE
 40
1.21
  9
$CELTYPE
  6
BYLAYER
  9
$DIMSCALE
 40
1.0
  9
$DIMASZ
 40
0.1
  9
$DIMEXO
 40
0.0625
  9
$DIMDLI
 40
0.836
  9
$DIMEXE
 40
0.125
  9
$DIMCEN
 40
0.198
  9
$DIMLFAC
 40
1.0
  9
$DIMBLK
  1
_FILLED
  9
$DIMALT
 70
1
  9
$DIMALTD
 70
2
  9
$DIMALTTD
 70
2
  9
$DIMALTF
 40
25.4
  9
$DIMTXT
 40
0.08
  9
$DIMTOL
 70
1
  9
$DIMLIM
 70
0
  9
$DIMTFAC
 40
1.0
  9
$DIMTP
 40
0.001
  9
$DIMTM
 40
0.001
  9
$DIMGAP
 40
0.09
  9
$DIMDSEP
 70
46
  9
$AUNITS
 70
0
  9
$PDMODE
 70
3
  9
$PDSIZE
 40
0.06
  9
$HANDSEED
  5
32F
  9
$TILEMODE
 70
1
  9
$MEASUREMENT
 70
0
  9
$INSUNITS
 70
1
  0
ENDSEC
  0
SECTION
  2
CLASSES
  0
CLASS
  1
ACDBDICTIONARYWDFLT
  2
AcDbDictionaryWithDefault
  3
AutoCAD 2000
 90
0
 91
1
280
0
281
0
  0
CLASS
  1
ACDBPLACEHOLDER
  2
AcDbPlaceHolder
  3
AutoCAD 2000
 90
0
 91
1
280
0
281
0
  0
CLASS
  1
LAYOUT
  2
AcDbLayout
  3
AutoCAD 2000
 90
0
 91
0
280
0
281
0
  0
ENDSEC
  0
SECTION
  2
TABLES
  0
TABLE
  2
VPORT
  5
8
100
AcDbSymbolTable
 70
2
  0
VPORT
  5
1F4
100
AcDbSymbolTableRecord
100
AcDbViewportTableRecord
  2
*ACTIVE
 70
0
 10
0.0
 20
0.0
 11
1.0
 21
1.0
 12
11.0
 22
8.5
 13
0.0
 23
0.0
 14
1.0
 24
1.0
 15
0.0
 25
0.0
 16
0.0
 26
0.0
 36
1.0
 17
0.0
 27
0.0
 37
0.0
 40
17.0
 41
1.2941176471
 42
50.0
 43
0.0
 44
0.0
 50
0.0
 51
0.0
 71
0
 72
100
 73
1
 74
1
 75
0
 76
0
 77
0
 78
0
  0
ENDTAB
  0
TABLE
  2
LTYPE
  5
5
100
AcDbSymbolTable
 70
6
  0
LTYPE
  5
14
100
AcDbSymbolTableRecord
100
AcDbLinetypeTableRecord
  2
BYBLOCK
 70
0
  3

 72
65
 73
0
 40
0.0
  0
LTYPE
  5
15
100
AcDbSymbolTableRecord
100
AcDbLinetypeTableRecord
  2
BYLAYER
 70
0
  3

 72
65
 73
0
 40
0.0
  0
LTYPE
  5
16
100
AcDbSymbolTableRecord
100
AcDbLinetypeTableRecord
  2
CONTINUOUS
 70
64
  3
Solid line
 72
65
 73
0
 40
0.0
  0
LTYPE
  5
1F5
100
AcDbSymbolTableRecord
100
AcDbLinetypeTableRecord
  2
CENTER
 70
64
  3
____ _ ____ _ ____ _ ____ _ ____ _ ____ _ ____
 72
65
 73
4
 40
0.6
 49
0.375
 74
0
 49
-0.075
 74
0
 49
0.075
 74
0
 49
-0.075
 74
0
  0
LTYPE
  5
1F6
100
AcDbSymbolTableRecord
100
AcDbLinetypeTableRecord
  2
HIDDEN
 70
64
  3
- - - - - - - - - - - - - - - - - - - -
 72
65
 73
2
 40
0.2
 49
0.1
 74
0
 49
-0.1
 74
0
  0
LTYPE
  5
1F7
100
AcDbSymbolTableRecord
100
AcDbLinetypeTableRecord
  2
PHANTOM
 70
64
  3
_____ _ _ _____ _ _ _____ _ _ _____
 72
65
 73
6
 40
0.8
 49
0.45
 74
0
 49
-0.05
 74
0
 49
0.1
 74
0
 49
-0.05
 74
0
 49
0.1
 74
0
 49
-0.05
 74
0
  0
LTYPE
  5
1F8
100
AcDbSymbolTableRecord
100
AcDbLinetypeTableRecord
  2
DOT
 70
64
  3
. . . . . . . . . . . . . . . . . . . .
 72
65
 73
2
 40
0.2
 49
0.1
 74
0
 49
-0.1
 74
0
  0
LTYPE
  5
1F9
100
AcDbSymbolTableRecord
100
AcDbLinetypeTableRecord
  2
DASHED
 70
64
  3
- - - - - - - - - - - - - - - - - - - -
 72
65
 73
2
 40
0.2
 49
0.1
 74
0
 49
-0.1
 74
0
  0
ENDTAB
  0
TABLE
  2
LAYER
  5
2
100
AcDbSymbolTable
 70
36
  0
LAYER
  5
10
100
AcDbSymbolTableRecord
100
AcDbLayerTableRecord
  2
0
 70
0
 62
7
  6
CONTINUOUS
370
-3
390
F
  0
LAYER
  5
1FA
100
AcDbSymbolTableRecord
100
AcDbLayerTableRecord
  2
DEFAULT_1
 70
0
 62
7
  6
CENTER
370
-3
390
F
  0
LAYER
  5
1FB
100
AcDbSymbolTableRecord
100
AcDbLayerTableRecord
  2
DEFAULT_2
 70
0
 62
8
  6
HIDDEN
370
-3
390
F
  0
LAYER
  5
1FC
100
AcDbSymbolTableRecord
100
AcDbLayerTableRecord
  2
DEFAULT_3
 70
0
 62
7
  6
PHANTOM
370
-3
390
F
  0
LAYER
  5
1FD
100
AcDbSymbolTableRecord
100
AcDbLayerTableRecord
  2
ALL_FEATURES
 70
0
 62
7
  6
CONTINUOUS
370
-3
390
F
  0
LAYER
  5
1FE
100
AcDbSymbolTableRecord
100
AcDbLayerTableRecord
  2
AXES_FEATURES
 70
0
 62
7
  6
CONTINUOUS
370
-3
390
F
  0
LAYER
  5
1FF
100
AcDbSymbolTableRecord
100
AcDbLayerTableRecord
  2
DEFAULT_COORDINATE_SYSTEM
 70
0
 62
7
  6
CONTINUOUS
370
-3
390
F
  0
LAYER
  5
200
100
AcDbSymbolTableRecord
100
AcDbLayerTableRecord
  2
DEFAULT_DATUM_AXES
 70
0
 62
7
  6
CONTINUOUS
370
-3
390
F
  0
LAYER
  5
201
100
AcDbSymbolTableRecord
100
AcDbLayerTableRecord
  2
DEFAULT_DATUM_PLANES
 70
0
 62
7
  6
CONTINUOUS
370
-3
390
F
  0
LAYER
  5
202
100
AcDbSymbolTableRecord
100
AcDbLayerTableRecord
  2
DIMENSIONS
 70
0
 62
7
  6
CONTINUOUS
370
-3
390
F
  0
ENDTAB
  0
TABLE
  2
STYLE
  5
3
100
AcDbSymbolTable
 70
1
  0
STYLE
  5
11
100
AcDbSymbolTableRecord
100
AcDbTextStyleTableRecord
  2
STANDARD
 70
0
 40
0.0
 41
0.8
 50
0.0
 71
0
 42
0.2
  3
txt
  4

  0
STYLE
  5
203
100
AcDbSymbolTableRecord
100
AcDbTextStyleTableRecord
  2
TEXTSTYLE_1
 70
0
 40
0.0
 41
0.8
 50
0.0
 71
0
 42
0.2
  3
gdt
  4

  0
ENDTAB
  0
TABLE
  2
VIEW
  5
6
100
AcDbSymbolTable
 70
0
  0
ENDTAB
  0
TABLE
  2
UCS
  5
7
100
AcDbSymbolTable
 70
0
  0
ENDTAB
  0
TABLE
  2
APPID
  5
9
100
AcDbSymbolTable
 70
1
  0
APPID
  5
204
100
AcDbSymbolTableRecord
100
AcDbRegAppTableRecord
  2
ACAD
 70
0
  0
ENDTAB
  0
TABLE
  2
BLOCK_RECORD
  5
1
100
AcDbSymbolTable
 70
0
  0
BLOCK_RECORD
  5
205
100
AcDbSymbolTableRecord
100
AcDbBlockTableRecord
  2
*Model_Space
  0
BLOCK_RECORD
  5
206
100
AcDbSymbolTableRecord
100
AcDbBlockTableRecord
  2
*Paper_Space
  0
BLOCK_RECORD
  5
207
100
AcDbSymbolTableRecord
100
AcDbBlockTableRecord
  2
_FILLED
  0
ENDTAB
  0
TABLE
  2
DIMSTYLE
  5
A
100
AcDbSymbolTable
 70
1
100
AcDbDimStyleTable
 71
0
  0
DIMSTYLE
105
208
100
AcDbSymbolTableRecord
100
AcDbDimStyleTableRecord
  2
STANDARD
 70
0
  3

  4

 40
1.0
 41
0.1
 42
0.0625
 43
0.38
 44
0.125
 45
0.0
 46
0.0
 47
0.001
 48
0.001
140
0.08
141
0.09
142
0.0
143
25.4
144
1.0
145
0.0
146
1.0
147
0.09
 71
1.0
 72
0.0
 73
1
 74
1
 75
0
 76
0
 77
0
 78
4
 79
1
170
1
171
2
172
0
173
0
174
0
175
0
176
0
177
0
178
0
270
2
179
3
271
3
272
3
273
2
274
2
275
0
280
0
281
0
282
0
283
1
284
4
285
0
286
0
287
3
288
0
340
11
278
46
341
207
342
207
343
207
344
207
  0
ENDTAB
  0
ENDSEC
  0
SECTION
  2
BLOCKS
  0
BLOCK
  5
20
100
AcDbEntity
  8
0
100
AcDbBlockBegin
  2
*Model_Space
 70
0
 10
0.0
 20
0.0
 30
0.0
  3
*Model_Space
  1

  0
ENDBLK
  5
21
100
AcDbEntity
  8
0
100
AcDbBlockEnd
  0
BLOCK
  5
1C
100
AcDbEntity
  8
0
100
AcDbBlockBegin
  2
*Paper_Space
 70
0
 10
0.0
 20
0.0
 30
0.0
  3
*Paper_Space
  1

  0
ENDBLK
  5
1D
100
AcDbEntity
  8
0
100
AcDbBlockEnd
  0
BLOCK
  5
209
100
AcDbEntity
  8
0
100
AcDbBlockBegin
  2
_FILLED
 70
64
 10
0.0
 20
0.0
  3
_FILLED
  1

  0
SOLID
  5
20A
100
AcDbEntity
  8
0
  6
BYBLOCK
 62
0
100
AcDbTrace
 10
0.0
 20
0.0
 11
-1.0
 21
0.2
 12
-1.0
 22
-0.2
 13
-1.0
 23
-0.2
  0
ENDBLK
  5
20B
100
AcDbEntity
  8
0
  6
BYBLOCK
 62
0
100
AcDbBlockEnd
  0
ENDSEC
  0
SECTION
  2
ENTITIES
  0
LINE
  5
20C
100
AcDbEntity
  8
0
100
AcDbLine
 62
7
  6
CONTINUOUS
 10
8.538282803
 20
10.3271886112
 11
8.538282803
 21
10.2976610521
  0
LINE
  5
20D
100
AcDbEntity
  8
0
100
AcDbLine
 62
7
  6
CONTINUOUS
 10
8.9611754481
 20
10.3510337007
 11
8.9622072194
 21
10.3529319951
  0
LINE
  5
20E
100
AcDbEntity
  8
0
100
AcDbLine
 62
7
  6
CONTINUOUS
 10
10.1639438319
 20
11.3896917543
 11
10.1679661588
 21
11.3911542111
  0
LINE
  5
20F
100
AcDbEntity
  8
0
100
AcDbLine
 62
7
  6
CONTINUOUS
 10
10.1679661588
 20
11.3911542111
 11
10.1739620972
 21
11.3932918038
  0
LWPOLYLINE
  5
210
100
AcDbEntity
  8
0
100
AcDbPolyline
 62
7
  6
CONTINUOUS
 90
14
 70
0
 10
10.1739620972
 20
11.3932918038
 10
10.1805734461
 20
11.3955890782
 10
10.1839532125
 20
11.3967389184
 10
10.1874046449
 20
11.3978957921
 10
10.1909389564
 20
11.3990621034
 10
10.1945675201
 20
11.4002400163
 10
10.1983017654
 20
11.4014313931
 10
10.2021532694
 20
11.4026377953
 10
10.2061337488
 20
11.403860445
 10
10.2102547235
 20
11.4051000857
 10
10.2145277977
 20
11.4063570306
 10
10.2189644176
 20
11.4076310465
 10
10.2235533059
 20
11.4089150818
 10
10.2282420817
 20
11.4101911776
  0
LINE
  5
211
100
AcDbEntity
  8
0
100
AcDbLine
 62
9
  6
CONTINUOUS
 10
8.8920814334
 20
10.347601749
 11
8.8920896903
 21
10.3120629825
  0
LINE
  5
212
100
AcDbEntity
  8
0
100
AcDbLine
 62
9
  6
CONTINUOUS
 10
8.8262923534
 20
10.3271886112
 11
8.8262926117
 21
10.2976610521
  0
LINE
  5
213
100
AcDbEntity
  8
0
100
AcDbLine
 62
7
  6
CONTINUOUS
 10
10.717840083
 20
7.2112770979
 11
10.7178558502
 21
7.2112719178
  0
LINE
  5
214
100
AcDbEntity
  8
0
100
AcDbLine
 62
7
  6
CONTINUOUS
 10
10.7142456002
 20
7.2126939551
 11
10.7144754198
 21
7.2125397354
  0
LINE
  5
215
100
AcDbEntity
  8
0
100
AcDbLine
 62
7
  6
CONTINUOUS
 10
10.7144754198
 20
7.2125397354
 11
10.7177384154
 21
7.2096417097
  0
LINE
  5
216
100
AcDbEntity
  8
0
100
AcDbLine
 62
7
  6
CONTINUOUS
 10
11.3412336873
 20
11.3725478374
 11
11.3417887395
 21
11.3729670485
  0
LINE
  5
217
100
AcDbEntity
  8
0
100
AcDbLine
 62
7
  6
CONTINUOUS
 10
11.3417882672
 20
11.3729666928
 11
11.3586191024
 21
11.3846758225
  0
LINE
  5
218
100
AcDbEntity
  8
0
100
AcDbLine
 62
7
  6
CONTINUOUS
 10
11.3497785937
 20
11.3787621151
 11
11.3652809919
 21
11.3882286978
  0
LINE
  5
219
100
AcDbEntity
  8
0
100
AcDbLine
 62
7
  6
CONTINUOUS
 10
11.3291525469
 20
11.3628487627
 11
11.3417882672
 21
11.3729666928
  0
LINE
  5
21A
100
AcDbEntity
  8
0
100
AcDbLine
 62
7
  6
CONTINUOUS
 10
11.3414866972
 20
11.3722268216
 11
11.3497785937
 21
11.3787621151
  0
LWPOLYLINE
  5
21B
100
AcDbEntity
  8
0
100
AcDbPolyline
 62
7
  6
CONTINUOUS
 90
4
 70
0
 10
10.7177384154
 20
7.2096417097
 10
10.7223459727
 20
7.202884333
 10
10.7249141076
 20
7.1951005201
 10
10.7251933396
 20
7.1920726409
  0
LINE
  5
21C
100
AcDbEntity
  8
0
100
AcDbLine
 62
7
  6
CONTINUOUS
 10
11.1326923423
 20
10.5865945214
 11
11.1526923418
 21
10.6065945209
  0
LINE
  5
21D
100
AcDbEntity
  8
0
100
AcDbLine
 62
7
  6
CONTINUOUS
 10
10.6519039591
 20
9.8015188285
 11
10.5281627209
 21
9.5871927169
  0
LINE
  5
21E
100
AcDbEntity
  8
0
100
AcDbLine
 62
7
  6
CONTINUOUS
 10
10.4904139754
 20
9.5218099719
 11
10.3661155758
 21
9.3065188285
  0
LINE
  5
21F
100
AcDbEntity
  8
0
100
AcDbLine
 62
7
  6
CONTINUOUS
 10
10.6519039591
 20
8.8115188285
 11
10.7251923423
 21
8.8115188285
  0
LINE
  5
220
100
AcDbEntity
  8
0
100
AcDbLine
 62
7
  6
CONTINUOUS
 10
11.1501923423
 20
8.8115188285
 11
11.2234807256
 21
8.8115188285
  0
LINE
  5
221
100
AcDbEntity
  8
0
100
AcDbLine
 62
7
  6
CONTINUOUS
 10
10.3661155758
 20
9.3065188285
 11
10.4904069043
 21
9.0912399326
  0
LINE
  5
222
100
AcDbEntity
  8
0
100
AcDbLine
 62
7
  6
CONTINUOUS
 10
10.5280963682
 20
9.0259598662
 11
10.6519039591
 21
8.8115188285
  0
LINE
  5
223
100
AcDbEntity
  8
0
100
AcDbLine
 62
7
  6
CONTINUOUS
 10
10.6876923423
 20
10.4157278883
 11
10.6876923423
 21
10.446042849
  0
LINE
  5
224
100
AcDbEntity
  8
0
100
AcDbLine
 62
7
  6
CONTINUOUS
 10
10.6876923423
 20
10.546042849
 11
10.6876923423
 21
10.5767520017
  0
LINE
  5
225
100
AcDbEntity
  8
0
100
AcDbLine
 62
7
  6
CONTINUOUS
 10
10.7211923423
 20
9.7532413895
 11
10.7211923423
 21
10.4058853687
  0
LINE
  5
226
100
AcDbEntity
  8
0
100
AcDbLine
 62
7
  6
CONTINUOUS
 10
10.7226923423
 20
10.6065945214
 11
10.7226923423
 21
10.724293127
  0
LINE
  5
227
100
AcDbEntity
  8
0
100
AcDbLine
 62
7
  6
CONTINUOUS
 10
10.7251923423
 20
7.1920254067
 11
10.7251923423
 21
6.7201427284
  0
LINE
  5
228
100
AcDbEntity
  8
0
100
AcDbLine
 62
7
  6
CONTINUOUS
 10
10.7251923423
 20
7.736316649
 11
10.7251923423
 21
8.8578158849
  0
LINE
  5
229
100
AcDbEntity
  8
0
100
AcDbLine
 62
7
  6
CONTINUOUS
 10
10.7194990666
 20
10.8496935353
 11
10.7226738521
 21
10.7242931297
  0
LINE
  5
22A
100
AcDbEntity
  8
0
100
AcDbLine
 62
9
  6
CONTINUOUS
 10
10.9376923423
 20
12.0269917608
 11
10.9376923423
 21
11.5762043592
  0
LINE
  5
22B
100
AcDbEntity
  8
0
100
AcDbLine
 62
9
  6
CONTINUOUS
 10
10.9376889595
 20
10.8184866342
 11
10.9376923423
 21
11.5466768001
  0
LINE
  5
22C
100
AcDbEntity
  8
0
100
AcDbLine
 62
7
  6
CONTINUOUS
 10
11.1867351998
 20
11.0885007441
 11
11.1819932421
 21
11.066580148
  0
LWPOLYLINE
  5
22D
100
AcDbEntity
  8
0
100
AcDbPolyline
 62
7
  6
CONTINUOUS
 90
14
 70
0
 10
11.1819932421
 20
11.066580148
 10
11.1889023067
 20
11.0977685205
 10
11.1961474293
 20
11.1259373212
 10
11.2043945547
 20
11.1538393909
 10
11.2135297382
 20
11.1808694716
 10
11.2235115494
 20
11.2068198063
 10
11.2342994106
 20
11.2315329705
 10
11.2458727884
 20
11.2549219161
 10
11.2582156695
 20
11.2769168491
 10
11.2713119887
 20
11.2974571031
 10
11.2851165826
 20
11.3164570126
 10
11.2994880628
 20
11.3337564694
 10
11.3142574943
 20
11.3492553041
 10
11.3291525469
 20
11.3628487627
  0
LINE
  5
22E
100
AcDbEntity
  8
0
100
AcDbLine
 62
7
  6
CONTINUOUS
 10
11.1821158401
 20
11.0665525321
 11
11.1908804421
 21
11.1054594467
  0
LINE
  5
22F
100
AcDbEntity
  8
0
100
AcDbLine
 62
7
  6
CONTINUOUS
 10
11.1866932218
 20
11.0883168199
 11
11.1867351998
 21
11.0885007441
  0
LINE
  5
230
100
AcDbEntity
  8
0
100
AcDbLine
 62
7
  6
CONTINUOUS
 10
11.1501923384
 20
7.1920426528
 11
11.1501923423
 21
6.7201427284
  0
LINE
  5
231
100
AcDbEntity
  8
0
100
AcDbLine
 62
7
  6
CONTINUOUS
 10
11.1501923423
 20
7.736316649
 11
11.1501923423
 21
8.8578067337
  0
LINE
  5
232
100
AcDbEntity
  8
0
100
AcDbLine
 62
7
  6
CONTINUOUS
 10
11.1526923423
 20
10.724293127
 11
11.1526923423
 21
10.6065945214
  0
LINE
  5
233
100
AcDbEntity
  8
0
100
AcDbLine
 62
7
  6
CONTINUOUS
 10
11.1541923423
 20
9.7532366124
 11
11.1541923423
 21
10.4058853687
  0
LINE
  5
234
100
AcDbEntity
  8
0
100
AcDbLine
 62
7
  6
CONTINUOUS
 10
11.1876923423
 20
10.4157278883
 11
11.1876923423
 21
10.446042849
  0
LINE
  5
235
100
AcDbEntity
  8
0
100
AcDbLine
 62
7
  6
CONTINUOUS
 10
11.1876923423
 20
10.546042849
 11
11.1876923423
 21
10.5767520017
  0
LINE
  5
236
100
AcDbEntity
  8
0
100
AcDbLine
 62
7
  6
CONTINUOUS
 10
11.1558813427
 20
10.8496130617
 11
11.152710934
 21
10.7242931298
  0
LINE
  5
237
100
AcDbEntity
  8
0
100
AcDbLine
 62
9
  6
CONTINUOUS
 10
10.4402190706
 20
9.3065188285
 11
10.5946606269
 21
9.3065188285
  0
LINE
  5
238
100
AcDbEntity
  8
0
100
AcDbLine
 62
9
  6
CONTINUOUS
 10
11.2807240578
 20
9.3065188285
 11
11.4351656141
 21
9.3065188285
  0
LWPOLYLINE
  5
239
100
AcDbEntity
  8
0
100
AcDbPolyline
 62
7
  6
CONTINUOUS
 90
6
 70
0
 10
10.6836230969
 20
11.1093402797
 10
10.6945083781
 20
11.061080451
 10
10.7037621703
 20
11.0083558414
 10
10.7109886221
 20
10.9537865201
 10
10.7163914391
 20
10.8970682965
 10
10.7194997575
 20
10.8496953007
  0
LINE
  5
23A
100
AcDbEntity
  8
0
100
AcDbLine
 62
7
  6
CONTINUOUS
 10
10.6885872799
 20
11.0882653636
 11
10.6933791535
 21
11.0666394855
  0
LWPOLYLINE
  5
23B
100
AcDbEntity
  8
0
100
AcDbPolyline
 62
7
  6
CONTINUOUS
 90
4
 70
0
 10
11.1501913521
 20
7.192054898
 10
11.150391066
 20
7.1945908393
 10
11.1524103086
 20
7.2015321425
 10
11.156485202
 20
7.208293181
  0
LINE
  5
23C
100
AcDbEntity
  8
0
100
AcDbLine
 62
7
  6
CONTINUOUS
 10
11.2234807256
 20
8.8115188285
 11
11.3472219638
 21
9.0258449401
  0
LINE
  5
23D
100
AcDbEntity
  8
0
100
AcDbLine
 62
7
  6
CONTINUOUS
 10
11.3849707092
 20
9.0912276851
 11
11.5092691088
 21
9.3065188285
  0
LINE
  5
23E
100
AcDbEntity
  8
0
100
AcDbLine
 62
7
  6
CONTINUOUS
 10
11.5092691088
 20
9.3065188285
 11
11.3849777803
 21
9.5217977244
  0
LINE
  5
23F
100
AcDbEntity
  8
0
100
AcDbLine
 62
7
  6
CONTINUOUS
 10
11.3472883164
 20
9.5870777908
 11
11.2234807256
 21
9.8015188285
  0
LINE
  5
240
100
AcDbEntity
  8
0
100
AcDbLine
 62
7
  6
CONTINUOUS
 10
11.2234807256
 20
9.8015188285
 11
11.1541923423
 21
9.8015188285
  0
LINE
  5
241
100
AcDbEntity
  8
0
100
AcDbLine
 62
7
  6
CONTINUOUS
 10
10.7211923423
 20
9.8015188285
 11
10.6519039591
 21
9.8015188285
  0
LINE
  5
242
100
AcDbEntity
  8
0
100
AcDbLine
 62
7
  6
CONTINUOUS
 10
10.7426923423
 20
10.5865945214
 11
10.7226923428
 21
10.6065945209
  0
LINE
  5
243
100
AcDbEntity
  8
0
100
AcDbLine
 62
7
  6
CONTINUOUS
 10
13.3174168339
 20
10.2779760128
 11
13.0406653743
 21
10.2779760128
  0
LINE
  5
244
100
AcDbEntity
  8
0
100
AcDbLine
 62
7
  6
CONTINUOUS
 10
8.8347184477
 20
10.2779760128
 11
8.5579678634
 21
10.2779760128
  0
LINE
  5
245
100
AcDbEntity
  8
0
100
AcDbLine
 62
9
  6
CONTINUOUS
 10
13.3371018816
 20
10.2976610521
 11
13.0470426942
 21
10.2976610521
  0
LINE
  5
246
100
AcDbEntity
  8
0
100
AcDbLine
 62
9
  6
CONTINUOUS
 10
8.8283419904
 20
10.2976610521
 11
8.5382828031
 21
10.2976610521
  0
LINE
  5
247
100
AcDbEntity
  8
0
100
AcDbLine
 62
9
  6
CONTINUOUS
 10
8.5382828031
 20
10.3271886112
 11
8.827495957
 21
10.3271886112
  0
LINE
  5
248
100
AcDbEntity
  8
0
100
AcDbLine
 62
9
  6
CONTINUOUS
 10
13.0478887276
 20
10.3271886112
 11
13.3371018816
 21
10.3271886112
  0
LINE
  5
249
100
AcDbEntity
  8
0
100
AcDbLine
 62
7
  6
CONTINUOUS
 10
13.0406664544
 20
10.3468736505
 11
13.0402466541
 21
10.3468736505
  0
LINE
  5
24A
100
AcDbEntity
  8
0
100
AcDbLine
 62
7
  6
CONTINUOUS
 10
8.5579678637
 20
10.3468736505
 11
8.8351379533
 21
10.3468736505
  0
LINE
  5
24B
100
AcDbEntity
  8
0
100
AcDbLine
 62
7
  6
CONTINUOUS
 10
13.0417238458
 20
10.3468736505
 11
13.3174168336
 21
10.3468736505
  0
LINE
  5
24C
100
AcDbEntity
  8
0
100
AcDbLine
 62
7
  6
CONTINUOUS
 10
10.697534862
 20
10.4058853687
 11
11.1778498226
 21
10.4058853687
  0
LINE
  5
24D
100
AcDbEntity
  8
0
100
AcDbLine
 62
9
  6
CONTINUOUS
 10
10.6876923423
 20
10.4157278883
 11
11.1876923423
 21
10.4157278883
  0
LINE
  5
24E
100
AcDbEntity
  8
0
100
AcDbLine
 62
7
  6
CONTINUOUS
 10
11.1876923423
 20
10.446042849
 11
10.6876923423
 21
10.446042849
  0
LINE
  5
24F
100
AcDbEntity
  8
0
100
AcDbLine
 62
7
  6
CONTINUOUS
 10
11.1876923423
 20
10.546042849
 11
10.6876923423
 21
10.546042849
  0
LINE
  5
250
100
AcDbEntity
  8
0
100
AcDbLine
 62
9
  6
CONTINUOUS
 10
10.6876923423
 20
10.5767520017
 11
11.1876923423
 21
10.5767520017
  0
LINE
  5
251
100
AcDbEntity
  8
0
100
AcDbLine
 62
7
  6
CONTINUOUS
 10
10.697534862
 20
10.5865945214
 11
11.1778498226
 21
10.5865945214
  0
LINE
  5
252
100
AcDbEntity
  8
0
100
AcDbLine
 62
7
  6
CONTINUOUS
 10
11.1526923423
 20
10.6065945214
 11
10.7226923423
 21
10.6065945214
  0
LWPOLYLINE
  5
253
100
AcDbEntity
  8
0
100
AcDbPolyline
 62
7
  6
CONTINUOUS
 90
9
 70
0
 10
10.52530802
 20
11.3789703105
 10
10.5501884928
 20
11.3594125397
 10
10.5745445842
 20
11.3352591134
 10
10.5978848949
 20
11.3062843589
 10
10.619422835
 20
11.2731078192
 10
10.6387083523
 20
11.2365851276
 10
10.6557671245
 20
11.1970892706
 10
10.6707557523
 20
11.1545700613
 10
10.6836230969
 20
11.1093402797
  0
LWPOLYLINE
  5
254
100
AcDbEntity
  8
0
100
AcDbPolyline
 62
7
  6
CONTINUOUS
 90
3
 70
0
 10
11.156485202
 20
7.208293181
 10
11.1601777595
 20
7.2120050796
 10
11.1606705139
 20
7.2123540688
  0
LINE
  5
255
100
AcDbEntity
  8
0
100
AcDbLine
 62
7
  6
CONTINUOUS
 10
10.4970921546
 20
11.3961447538
 11
10.52530802
 21
11.3789703105
  0
LINE
  5
256
100
AcDbEntity
  8
0
100
AcDbLine
 62
7
  6
CONTINUOUS
 10
10.5168310781
 20
11.3846336613
 11
10.5226073248
 21
11.3806141707
  0
LINE
  5
257
100
AcDbEntity
  8
0
100
AcDbLine
 62
7
  6
CONTINUOUS
 10
10.431316787
 20
11.4204991715
 11
10.4661646087
 21
11.4100032679
  0
LINE
  5
258
100
AcDbEntity
  8
0
100
AcDbLine
 62
7
  6
CONTINUOUS
 10
10.4661646087
 20
11.4100032679
 11
10.4970921546
 21
11.3961447538
  0
LINE
  5
259
100
AcDbEntity
  8
0
100
AcDbLine
 62
9
  6
CONTINUOUS
 10
13.0490878244
 20
10.3271886112
 11
13.0490882258
 21
10.2976610521
  0
LINE
  5
25A
100
AcDbEntity
  8
0
100
AcDbLine
 62
9
  6
CONTINUOUS
 10
12.9833169501
 20
10.3475935797
 11
12.9832946548
 21
10.3120631234
  0
LINE
  5
25B
100
AcDbEntity
  8
0
100
AcDbLine
 62
7
  6
CONTINUOUS
 10
11.1575446019
 20
7.211277098
 11
11.1575527034
 21
7.2112797605
  0
LINE
  5
25C
100
AcDbEntity
  8
0
100
AcDbLine
 62
7
  6
CONTINUOUS
 10
10.3280129769
 20
11.4276628007
 11
10.3317527994
 21
11.4279103336
  0
LINE
  5
25D
100
AcDbEntity
  8
0
100
AcDbLine
 62
7
  6
CONTINUOUS
 10
10.3317527994
 20
11.4279103336
 11
10.3359315768
 21
11.4281496762
  0
LINE
  5
25E
100
AcDbEntity
  8
0
100
AcDbLine
 62
7
  6
CONTINUOUS
 10
10.3359315768
 20
11.4281496762
 11
10.3398598061
 21
11.4283352045
  0
LINE
  5
25F
100
AcDbEntity
  8
0
100
AcDbLine
 62
7
  6
CONTINUOUS
 10
10.331681497
 20
11.4279069257
 11
10.3515874694
 21
11.4286623069
  0
LWPOLYLINE
  5
260
100
AcDbEntity
  8
0
100
AcDbPolyline
 62
7
  6
CONTINUOUS
 90
3
 70
0
 10
10.3437689046
 20
11.4284822037
 10
10.347660067
 20
11.428590674
 10
10.349740901
 20
11.4286329771
  0
LWPOLYLINE
  5
261
100
AcDbEntity
  8
0
100
AcDbPolyline
 62
7
  6
CONTINUOUS
 90
3
 70
0
 10
11.525522338
 20
11.428635093
 10
11.5292130093
 20
11.4285536668
 10
11.5334216405
 20
11.4284189806
  0
LINE
  5
262
100
AcDbEntity
  8
0
100
AcDbLine
 62
7
  6
CONTINUOUS
 10
11.5436746537
 20
11.4279086785
 11
11.525522338
 21
11.428635093
  0
LINE
  5
263
100
AcDbEntity
  8
0
100
AcDbLine
 62
7
  6
CONTINUOUS
 10
10.3515874694
 20
11.4286623069
 11
10.3928685823
 21
11.4268738165
  0
LINE
  5
264
100
AcDbEntity
  8
0
100
AcDbLine
 62
7
  6
CONTINUOUS
 10
11.5376745318
 20
11.4282383176
 11
11.541971922
 21
11.4280110172
  0
LINE
  5
265
100
AcDbEntity
  8
0
100
AcDbLine
 62
7
  6
CONTINUOUS
 10
11.541971922
 20
11.4280110172
 11
11.546314024
 21
11.427736422
  0
LWPOLYLINE
  5
266
100
AcDbEntity
  8
0
100
AcDbPolyline
 62
7
  6
CONTINUOUS
 90
8
 70
0
 10
11.546314024
 20
11.427736422
 10
11.5507010229
 20
11.4274138789
 10
11.5551330756
 20
11.4270427413
 10
11.5596103094
 20
11.4266223696
 10
11.5641328208
 20
11.4261521338
 10
11.5687006743
 20
11.4256314144
 10
11.5733139183
 20
11.4250596022
 10
11.5779866142
 20
11.4244341523
  0
LWPOLYLINE
  5
267
100
AcDbEntity
  8
0
100
AcDbPolyline
 62
7
  6
CONTINUOUS
 90
13
 70
0
 10
11.5779866142
 20
11.4244341523
 10
11.5827721135
 20
11.4237461348
 10
11.5877302776
 20
11.4229834741
 10
11.5929198184
 20
11.4221318463
 10
11.5983471602
 20
11.4211838202
 10
11.6039325065
 20
11.4201480588
 10
11.6095884559
 20
11.4190381888
 10
11.6152282815
 20
11.4178714723
 10
11.6207659922
 20
11.4166686312
 10
11.6261235194
 20
11.4154518911
 10
11.6312881007
 20
11.4142304305
 10
11.6362813656
 20
11.4130049148
 10
11.641125106
 20
11.4117748731
  0
LINE
  5
268
100
AcDbEntity
  8
0
100
AcDbLine
 62
7
  6
CONTINUOUS
 10
10.3928685823
 20
11.4268738165
 11
10.431316787
 21
11.4204991715
  0
LINE
  5
269
100
AcDbEntity
  8
0
100
AcDbLine
 62
7
  6
CONTINUOUS
 10
13.3371018816
 20
10.2976610521
 11
13.3371018816
 21
10.3271886112
  0
LINE
  5
26A
100
AcDbEntity
  8
0
100
AcDbLine
 62
7
  6
CONTINUOUS
 10
10.2282420817
 20
11.4101911776
 11
10.2313015986
 21
11.4109997384
  0
LWPOLYLINE
  5
26B
100
AcDbEntity
  8
0
100
AcDbPolyline
 62
7
  6
CONTINUOUS
 90
10
 70
0
 10
10.2930716027
 20
11.4238096624
 10
10.2953393758
 20
11.4241440466
 10
10.2995229685
 20
11.4247243316
 10
10.3036759292
 20
11.4252637816
 10
10.3077993597
 20
11.4257627945
 10
10.3118943746
 20
11.4262217343
 10
10.3159621007
 20
11.4266409306
 10
10.3200036759
 20
11.4270206765
 10
10.3240202486
 20
11.4273612276
 10
10.3280129769
 20
11.4276628007
  0
LINE
  5
26C
100
AcDbEntity
  8
0
100
AcDbLine
 62
7
  6
CONTINUOUS
 10
11.641125106
 20
11.4117748731
 11
11.645840958
 21
11.4105388838
  0
LWPOLYLINE
  5
26D
100
AcDbEntity
  8
0
100
AcDbPolyline
 62
7
  6
CONTINUOUS
 90
3
 70
0
 10
11.645840958
 20
11.4105388838
 10
11.650450403
 20
11.4092946713
 10
11.6549742678
 20
11.4080393295
  0
LWPOLYLINE
  5
26E
100
AcDbEntity
  8
0
100
AcDbPolyline
 62
7
  6
CONTINUOUS
 90
12
 70
0
 10
11.6549742678
 20
11.4080393295
 10
11.65942156
 20
11.406772629
 10
11.6637894847
 20
11.4054974793
 10
11.6680747682
 20
11.4042169303
 10
11.6722741769
 20
11.4029340256
 10
11.6763845123
 20
11.4016517999
 10
11.6804026016
 20
11.4003732772
 10
11.6843252762
 20
11.3991014742
 10
11.6881500145
 20
11.3978391829
 10
11.691875745
 20
11.3965886784
 10
11.6954996734
 20
11.3953527684
 10
11.6990193027
 20
11.3941341345
  0
LINE
  5
26F
100
AcDbEntity
  8
0
100
AcDbLine
 62
7
  6
CONTINUOUS
 10
11.6990193027
 20
11.3941341345
 11
11.7057325059
 21
11.3917603963
  0
LINE
  5
270
100
AcDbEntity
  8
0
100
AcDbLine
 62
7
  6
CONTINUOUS
 10
11.7057325059
 20
11.3917603963
 11
11.7114404202
 21
11.3896918626
  0
LINE
  5
271
100
AcDbEntity
  8
0
100
AcDbLine
 62
7
  6
CONTINUOUS
 10
12.9147251942
 20
10.3500827879
 11
12.9155574131
 21
10.3485481338
  0
LWPOLYLINE
  5
272
100
AcDbEntity
  8
0
100
AcDbPolyline
 62
7
  6
CONTINUOUS
 90
16
 70
0
 10
13.2928706838
 20
10.3602808383
 10
13.2232995229
 20
10.5419718
 10
13.1361450575
 20
10.7229762218
 10
13.0335009299
 20
10.897088483
 10
12.915995694
 20
11.0629187309
 10
12.7843855609
 20
11.2191395999
 10
12.6395448609
 20
11.3645010188
 10
12.4824607155
 20
11.4978374846
 10
12.3142215681
 20
11.6180803815
 10
12.1360109671
 20
11.7242640058
 10
11.9490973755
 20
11.8155343968
 10
11.7548211226
 20
11.8911577171
 10
11.5545846696
 20
11.950525323
 10
11.3498391326
 20
11.993159254
 10
11.142073912
 20
12.0187154917
 10
10.9376923423
 20
12.0269917608
  0
LWPOLYLINE
  5
273
100
AcDbEntity
  8
0
100
AcDbPolyline
 62
7
  6
CONTINUOUS
 90
16
 70
0
 10
10.9376923423
 20
12.0269917608
 10
10.7337498213
 20
12.0187510715
 10
10.5259796442
 20
11.9932309824
 10
10.3212259943
 20
11.9506325878
 10
10.1209783423
 20
11.891299622
 10
9.9266879009
 20
11.8157097683
 10
9.739757252
 20
11.7244714035
 10
9.5615268703
 20
11.6183181101
 10
9.3932653868
 20
11.4981036072
 10
9.2361565397
 20
11.3647933742
 10
9.0912889826
 20
11.2194558209
 10
8.9596500654
 20
11.0632562637
 10
8.8421143636
 20
10.8974446091
 10
8.7394383482
 20
10.7233480808
 10
8.6522508457
 20
10.5423564142
 10
8.5825140008
 20
10.3602808384
  0
ARC
  5
274
100
AcDbEntity
  8
0
100
AcDbCircle
 62
7
  6
CONTINUOUS
 10
10.9376923423
 20
6.7199046553
 40
0.2125
100
AcDbArc
 50
180.0
 51
360.0
  0
ARC
  5
275
100
AcDbEntity
  8
0
100
AcDbCircle
 62
7
  6
CONTINUOUS
 10
8.5638568481
 20
10.3665586899
 40
0.0196850394
100
AcDbArc
 50
270.0381334479
 51
341.4026870397
  0
ARC
  5
276
100
AcDbEntity
  8
0
100
AcDbCircle
 62
7
  6
CONTINUOUS
 10
8.5579678637
 20
10.3271886112
 40
0.0196850394
100
AcDbArc
 50
90.0000000003
 51
180.0
  0
ARC
  5
277
100
AcDbEntity
  8
0
100
AcDbCircle
 62
7
  6
CONTINUOUS
 10
8.5579678635
 20
10.2976610521
 40
0.0196850394
100
AcDbArc
 50
180.0
 51
269.9999999997
  0
ARC
  5
278
100
AcDbEntity
  8
0
100
AcDbCircle
 62
7
  6
CONTINUOUS
 10
9.697086087
 20
10.8624555212
 40
1.0170026775
100
AcDbArc
 50
11.5820292869
 51
12.8299336146
  0
ARC
  5
279
100
AcDbEntity
  8
0
100
AcDbCircle
 62
7
  6
CONTINUOUS
 10
9.7387202667
 20
10.8717996846
 40
0.9743330223
100
AcDbArc
 50
12.8378327515
 51
13.0116390912
  0
ARC
  5
27A
100
AcDbEntity
  8
0
100
AcDbCircle
 62
7
  6
CONTINUOUS
 10
8.8393074471
 20
10.4162761393
 40
0.1383804952
100
AcDbArc
 50
268.0953809799
 51
298.611551153
  0
ARC
  5
27B
100
AcDbEntity
  8
0
100
AcDbCircle
 62
7
  6
CONTINUOUS
 10
8.8392374079
 20
10.4160057146
 40
0.1381789577
100
AcDbArc
 50
298.6907418732
 51
330.7644387246
  0
ARC
  5
27C
100
AcDbEntity
  8
0
100
AcDbCircle
 62
7
  6
CONTINUOUS
 10
8.839529152
 20
10.4157712883
 40
0.1377952756
100
AcDbArc
 50
274.127525022
 51
276.1023761692
  0
ARC
  5
27D
100
AcDbEntity
  8
0
100
AcDbCircle
 62
9
  6
CONTINUOUS
 10
8.8355140498
 20
10.4165982225
 40
0.1188613666
100
AcDbArc
 50
298.4227072044
 51
330.4803561285
  0
ARC
  5
27E
100
AcDbEntity
  8
0
100
AcDbCircle
 62
9
  6
CONTINUOUS
 10
8.835783365
 20
10.4160880426
 40
0.088656144
100
AcDbArc
 50
309.420640041
 51
330.3928303733
  0
ARC
  5
27F
100
AcDbEntity
  8
0
100
AcDbCircle
 62
9
  6
CONTINUOUS
 10
8.8391332606
 20
10.4174437848
 40
0.0707070586
100
AcDbArc
 50
266.4344870815
 51
269.1445584318
  0
ARC
  5
280
100
AcDbEntity
  8
0
100
AcDbCircle
 62
9
  6
CONTINUOUS
 10
8.8392087475
 20
10.416082965
 40
0.0693609569
100
AcDbArc
 50
309.7267761688
 51
319.4260080743
  0
ARC
  5
281
100
AcDbEntity
  8
0
100
AcDbCircle
 62
7
  6
CONTINUOUS
 10
8.839524998
 20
10.4157650131
 40
0.0688997432
100
AcDbArc
 50
330.4867288218
 51
331.1595740814
  0
ARC
  5
282
100
AcDbEntity
  8
0
100
AcDbCircle
 62
9
  6
CONTINUOUS
 10
8.8395762627
 20
10.4157014525
 40
0.0688339423
100
AcDbArc
 50
321.4612270503
 51
330.5072555612
  0
ARC
  5
283
100
AcDbEntity
  8
0
100
AcDbCircle
 62
7
  6
CONTINUOUS
 10
8.8396329336
 20
10.4156827513
 40
0.0687652913
100
AcDbArc
 50
309.7720715274
 51
330.5020730327
  0
ARC
  5
284
100
AcDbEntity
  8
0
100
AcDbCircle
 62
9
  6
CONTINUOUS
 10
8.8397297886
 20
10.4155846213
 40
0.0686410655
100
AcDbArc
 50
319.4590834922
 51
321.4576631692
  0
ARC
  5
285
100
AcDbEntity
  8
0
100
AcDbCircle
 62
7
  6
CONTINUOUS
 10
10.9368543676
 20
9.2774981639
 40
2.3188781545
100
AcDbArc
 50
28.4594707877
 51
31.5188131922
  0
ARC
  5
286
100
AcDbEntity
  8
0
100
AcDbCircle
 62
7
  6
CONTINUOUS
 10
10.9376530618
 20
9.2772426576
 40
2.3186467413
100
AcDbArc
 50
84.8751901406
 51
89.9990293441
  0
ARC
  5
287
100
AcDbEntity
  8
0
100
AcDbCircle
 62
7
  6
CONTINUOUS
 10
10.9376626226
 20
9.2774906569
 40
2.3183987419
100
AcDbArc
 50
85.0366544111
 51
89.9992655226
  0
ARC
  5
288
100
AcDbEntity
  8
0
100
AcDbCircle
 62
7
  6
CONTINUOUS
 10
10.9376777388
 20
9.277794327
 40
2.3180950717
100
AcDbArc
 50
84.8745796454
 51
89.9996390499
  0
ARC
  5
289
100
AcDbEntity
  8
0
100
AcDbCircle
 62
7
  6
CONTINUOUS
 10
10.9376851798
 20
9.2779625543
 40
2.3179268537
100
AcDbArc
 50
31.5196219395
 51
84.8743913458
  0
ARC
  5
28A
100
AcDbEntity
  8
0
100
AcDbCircle
 62
7
  6
CONTINUOUS
 10
10.9374297719
 20
9.2720228531
 40
2.254970398
100
AcDbArc
 50
85.2358738975
 51
89.9933284868
  0
ARC
  5
28B
100
AcDbEntity
  8
0
100
AcDbCircle
 62
7
  6
CONTINUOUS
 10
10.9376923423
 20
9.2779760128
 40
2.249015748
100
AcDbArc
 50
73.3479041576
 51
74.8698683588
  0
ARC
  5
28C
100
AcDbEntity
  8
0
100
AcDbCircle
 62
7
  6
CONTINUOUS
 10
10.9376923423
 20
9.2779760128
 40
2.249015748
100
AcDbArc
 50
28.4701618774
 51
69.8760726838
  0
ARC
  5
28D
100
AcDbEntity
  8
0
100
AcDbCircle
 62
7
  6
CONTINUOUS
 10
10.9376923423
 20
9.2779760128
 40
2.249015748
100
AcDbArc
 50
146.4697556876
 51
151.5298381226
  0
ARC
  5
28E
100
AcDbEntity
  8
0
100
AcDbCircle
 62
7
  6
CONTINUOUS
 10
10.937673973
 20
9.2780048896
 40
2.2489827861
100
AcDbArc
 50
96.6923235286
 51
110.1238832609
  0
ARC
  5
28F
100
AcDbEntity
  8
0
100
AcDbCircle
 62
7
  6
CONTINUOUS
 10
10.9376699827
 20
9.2785753312
 40
2.2484158544
100
AcDbArc
 50
94.7710901477
 51
96.6939165764
  0
ARC
  5
290
100
AcDbEntity
  8
0
100
AcDbCircle
 62
7
  6
CONTINUOUS
 10
10.9376923423
 20
9.3065188285
 40
1.1355877937
100
AcDbArc
 50
280.7948447521
 51
77.3028048207
  0
ARC
  5
291
100
AcDbEntity
  8
0
100
AcDbCircle
 62
7
  6
CONTINUOUS
 10
10.9376923423
 20
9.3065188285
 40
1.1355877937
100
AcDbArc
 50
102.6971951793
 51
259.2051552479
  0
ARC
  5
292
100
AcDbEntity
  8
0
100
AcDbCircle
 62
9
  6
CONTINUOUS
 10
10.9376923423
 20
9.3065188285
 40
1.1018951051
100
AcDbArc
 50
281.1252356344
 51
78.6646556675
  0
ARC
  5
293
100
AcDbEntity
  8
0
100
AcDbCircle
 62
9
  6
CONTINUOUS
 10
10.9376923423
 20
9.3065188285
 40
1.1018951051
100
AcDbArc
 50
101.3353443325
 51
258.8747643656
  0
ARC
  5
294
100
AcDbEntity
  8
0
100
AcDbCircle
 62
9
  6
CONTINUOUS
 10
10.9376923423
 20
9.3065188285
 40
1.0686940646
100
AcDbArc
 50
281.4720054376
 51
78.3113584327
  0
ARC
  5
295
100
AcDbEntity
  8
0
100
AcDbCircle
 62
9
  6
CONTINUOUS
 10
10.9376923423
 20
9.3065188285
 40
1.0686940646
100
AcDbArc
 50
101.6886415673
 51
258.5279945624
  0
ARC
  5
296
100
AcDbEntity
  8
0
100
AcDbCircle
 62
9
  6
CONTINUOUS
 10
10.9376923423
 20
9.3065188285
 40
0.9981262705
100
AcDbArc
 50
282.3240899681
 51
77.4407267981
  0
ARC
  5
297
100
AcDbEntity
  8
0
100
AcDbCircle
 62
9
  6
CONTINUOUS
 10
10.9376923423
 20
9.3065188285
 40
0.9981262705
100
AcDbArc
 50
102.5592732019
 51
257.6759100319
  0
ARC
  5
298
100
AcDbEntity
  8
0
100
AcDbCircle
 62
9
  6
CONTINUOUS
 10
10.9376923423
 20
9.3065188285
 40
0.9302280237
100
AcDbArc
 50
283.2360471387
 51
76.5116033749
  0
ARC
  5
299
100
AcDbEntity
  8
0
100
AcDbCircle
 62
9
  6
CONTINUOUS
 10
10.9376923423
 20
9.3065188285
 40
0.9302280237
100
AcDbArc
 50
103.4883966251
 51
256.7639528613
  0
ARC
  5
29A
100
AcDbEntity
  8
0
100
AcDbCircle
 62
9
  6
CONTINUOUS
 10
10.9376923423
 20
9.3065188285
 40
0.7616485311
100
AcDbArc
 50
286.2467706915
 51
73.4380415881
  0
ARC
  5
29B
100
AcDbEntity
  8
0
100
AcDbCircle
 62
9
  6
CONTINUOUS
 10
10.9376923423
 20
9.3065188285
 40
0.7616485311
100
AcDbArc
 50
106.5619584119
 51
253.7532293085
  0
ARC
  5
29C
100
AcDbEntity
  8
0
100
AcDbCircle
 62
7
  6
CONTINUOUS
 10
10.9376923423
 20
9.3065188285
 40
0.6917203626
100
AcDbArc
 50
287.940931496
 51
71.7114763691
  0
ARC
  5
29D
100
AcDbEntity
  8
0
100
AcDbCircle
 62
7
  6
CONTINUOUS
 10
10.9376923423
 20
9.3065188285
 40
0.6917203626
100
AcDbArc
 50
108.2885236309
 51
252.059068504
  0
CIRCLE
  5
29E
100
AcDbEntity
  8
0
100
AcDbCircle
 62
7
  6
CONTINUOUS
 10
10.9376923423
 20
9.3065188285
 40
0.4974732717
  0
CIRCLE
  5
29F
100
AcDbEntity
  8
0
100
AcDbCircle
 62
9
  6
CONTINUOUS
 10
10.9376923423
 20
9.3065188285
 40
0.4695782932
  0
CIRCLE
  5
2A0
100
AcDbEntity
  8
0
100
AcDbCircle
 62
9
  6
CONTINUOUS
 10
10.9376923423
 20
9.3065188285
 40
0.3430317011
  0
ARC
  5
2A1
100
AcDbEntity
  8
0
100
AcDbCircle
 62
7
  6
CONTINUOUS
 10
10.4009589497
 20
10.7662416213
 40
0.6667100193
100
AcDbArc
 50
104.742246587
 51
105.2776300417
  0
ARC
  5
2A2
100
AcDbEntity
  8
0
100
AcDbCircle
 62
7
  6
CONTINUOUS
 10
10.3924075634
 20
10.7991960724
 40
0.6326642233
100
AcDbArc
 50
103.2355269436
 51
104.6907164449
  0
ARC
  5
2A3
100
AcDbEntity
  8
0
100
AcDbCircle
 62
7
  6
CONTINUOUS
 10
10.3601023292
 20
11.1080322652
 40
0.3205182029
100
AcDbArc
 50
81.4236086664
 51
83.7027746838
  0
ARC
  5
2A4
100
AcDbEntity
  8
0
100
AcDbCircle
 62
7
  6
CONTINUOUS
 10
10.362777451
 20
11.1253238193
 40
0.3030210764
100
AcDbArc
 50
75.9530016555
 51
81.4361930023
  0
ARC
  5
2A5
100
AcDbEntity
  8
0
100
AcDbCircle
 62
7
  6
CONTINUOUS
 10
10.3673313456
 20
11.1446539178
 40
0.2831638283
100
AcDbArc
 50
72.8968106345
 51
75.8975523654
  0
ARC
  5
2A6
100
AcDbEntity
  8
0
100
AcDbCircle
 62
7
  6
CONTINUOUS
 10
10.3658913998
 20
11.1501942344
 40
0.2788381895
100
AcDbArc
 50
52.4548045304
 51
52.976490855
  0
ARC
  5
2A7
100
AcDbEntity
  8
0
100
AcDbCircle
 62
7
  6
CONTINUOUS
 10
10.369646957
 20
11.1521537086
 40
0.2753146972
100
AcDbArc
 50
67.8244158234
 51
72.8983854649
  0
ARC
  5
2A8
100
AcDbEntity
  8
0
100
AcDbCircle
 62
7
  6
CONTINUOUS
 10
10.3685597051
 20
11.1537919779
 40
0.2743590942
100
AcDbArc
 50
52.9689706059
 51
56.3228255933
  0
ARC
  5
2A9
100
AcDbEntity
  8
0
100
AcDbCircle
 62
7
  6
CONTINUOUS
 10
10.3714729085
 20
11.1580984806
 40
0.2691599233
100
AcDbArc
 50
56.3305492804
 51
57.3134047375
  0
ARC
  5
2AA
100
AcDbEntity
  8
0
100
AcDbCircle
 62
7
  6
CONTINUOUS
 10
10.3727088247
 20
11.1600224011
 40
0.266873232
100
AcDbArc
 50
57.3136607353
 51
64.9204816056
  0
ARC
  5
2AB
100
AcDbEntity
  8
0
100
AcDbCircle
 62
7
  6
CONTINUOUS
 10
10.372786116
 20
11.1601584217
 40
0.2667172416
100
AcDbArc
 50
64.9233245581
 51
67.7998430812
  0
ARC
  5
2AC
100
AcDbEntity
  8
0
100
AcDbCircle
 62
7
  6
CONTINUOUS
 10
10.7366821372
 20
10.496042849
 40
0.07
100
AcDbArc
 50
134.4153085972
 51
225.5846914028
  0
ARC
  5
2AD
100
AcDbEntity
  8
0
100
AcDbCircle
 62
9
  6
CONTINUOUS
 10
10.6797840419
 20
11.4762731891
 40
0.0356613061
100
AcDbArc
 50
81.3709934953
 51
96.7959124096
  0
ARC
  5
2AE
100
AcDbEntity
  8
0
100
AcDbCircle
 62
7
  6
CONTINUOUS
 10
10.697534862
 20
10.5767520017
 40
0.0098425197
100
AcDbArc
 50
89.9999999999
 51
180.0
  0
ARC
  5
2AF
100
AcDbEntity
  8
0
100
AcDbCircle
 62
7
  6
CONTINUOUS
 10
10.697534862
 20
10.4157278883
 40
0.0098425197
100
AcDbArc
 50
180.0
 51
270.0
  0
ARC
  5
2B0
100
AcDbEntity
  8
0
100
AcDbCircle
 62
7
  6
CONTINUOUS
 10
10.9386092852
 20
9.2774511404
 40
2.3189696856
100
AcDbArc
 50
148.4461845712
 51
151.5404226293
  0
ARC
  5
2B1
100
AcDbEntity
  8
0
100
AcDbCircle
 62
7
  6
CONTINUOUS
 10
10.9377341221
 20
9.2772018354
 40
2.3186875636
100
AcDbArc
 50
90.0010323958
 51
95.1242441989
  0
ARC
  5
2B2
100
AcDbEntity
  8
0
100
AcDbCircle
 62
7
  6
CONTINUOUS
 10
10.9377252127
 20
9.2774004733
 40
2.3184889255
100
AcDbArc
 50
90.0008123104
 51
95.124463347
  0
ARC
  5
2B3
100
AcDbEntity
  8
0
100
AcDbCircle
 62
7
  6
CONTINUOUS
 10
10.9381525229
 20
9.2777163006
 40
2.3184420662
100
AcDbArc
 50
148.4457211278
 51
151.5408508001
  0
ARC
  5
2B4
100
AcDbEntity
  8
0
100
AcDbCircle
 62
7
  6
CONTINUOUS
 10
10.9377165756
 20
9.2776345452
 40
2.3182548535
100
AcDbArc
 50
90.0005989272
 51
94.9593801915
  0
ARC
  5
2B5
100
AcDbEntity
  8
0
100
AcDbCircle
 62
7
  6
CONTINUOUS
 10
10.9377002485
 20
9.2779632557
 40
2.3179270771
100
AcDbArc
 50
95.1250912696
 51
148.4450726003
  0
ARC
  5
2B6
100
AcDbEntity
  8
0
100
AcDbCircle
 62
7
  6
CONTINUOUS
 10
10.9378599213
 20
9.2742875431
 40
2.2527071293
100
AcDbArc
 50
90.0042621886
 51
94.7670252332
  0
ARC
  5
2B7
100
AcDbEntity
  8
0
100
AcDbCircle
 62
7
  6
CONTINUOUS
 10
10.9377105709
 20
9.2779518254
 40
2.2490447835
100
AcDbArc
 50
107.8881963522
 51
151.5296183248
  0
ARC
  5
2B8
100
AcDbEntity
  8
0
100
AcDbCircle
 62
7
  6
CONTINUOUS
 10
10.9376952589
 20
9.2779590079
 40
2.2490309271
100
AcDbArc
 50
69.8763222978
 51
83.3071441036
  0
ARC
  5
2B9
100
AcDbEntity
  8
0
100
AcDbCircle
 62
7
  6
CONTINUOUS
 10
10.9377897305
 20
9.2791369334
 40
2.2478500189
100
AcDbArc
 50
83.3060364539
 51
85.2299683784
  0
ARC
  5
2BA
100
AcDbEntity
  8
0
100
AcDbCircle
 62
7
  6
CONTINUOUS
 10
11.4744255622
 20
10.7662407694
 40
0.6667108421
100
AcDbArc
 50
74.7216694311
 51
75.2582964968
  0
ARC
  5
2BB
100
AcDbEntity
  8
0
100
AcDbCircle
 62
7
  6
CONTINUOUS
 10
11.5152888951
 20
11.1079633198
 40
0.3205874335
100
AcDbArc
 50
96.3448777456
 51
98.4987690022
  0
ARC
  5
2BC
100
AcDbEntity
  8
0
100
AcDbCircle
 62
7
  6
CONTINUOUS
 10
11.5126387385
 20
11.1251863851
 40
0.3031618417
100
AcDbArc
 50
98.48446401
 51
104.0901588057
  0
ARC
  5
2BD
100
AcDbEntity
  8
0
100
AcDbCircle
 62
7
  6
CONTINUOUS
 10
11.5080310866
 20
11.1447310936
 40
0.2830835804
100
AcDbArc
 50
104.1486729306
 51
107.1104057305
  0
ARC
  5
2BE
100
AcDbEntity
  8
0
100
AcDbCircle
 62
7
  6
CONTINUOUS
 10
11.5057234247
 20
11.1521957164
 40
0.2752703987
100
AcDbArc
 50
107.108464163
 51
112.2145812363
  0
ARC
  5
2BF
100
AcDbEntity
  8
0
100
AcDbCircle
 62
7
  6
CONTINUOUS
 10
11.5068049214
 20
11.1538213264
 40
0.2743236953
100
AcDbArc
 50
123.6991659065
 51
126.9804108033
  0
ARC
  5
2C0
100
AcDbEntity
  8
0
100
AcDbCircle
 62
7
  6
CONTINUOUS
 10
11.5039149827
 20
11.1580929233
 40
0.2691664589
100
AcDbArc
 50
122.6699503858
 51
123.6918647211
  0
ARC
  5
2C1
100
AcDbEntity
  8
0
100
AcDbCircle
 62
7
  6
CONTINUOUS
 10
11.5026692793
 20
11.1600325641
 40
0.2668612517
100
AcDbArc
 50
115.1009738978
 51
122.6696047961
  0
ARC
  5
2C2
100
AcDbEntity
  8
0
100
AcDbCircle
 62
7
  6
CONTINUOUS
 10
11.5025863525
 20
11.1601856026
 40
0.2666875391
100
AcDbArc
 50
112.2396246049
 51
115.0982765802
  0
ARC
  5
2C3
100
AcDbEntity
  8
0
100
AcDbCircle
 62
7
  6
CONTINUOUS
 10
11.1387025475
 20
10.496042849
 40
0.07
100
AcDbArc
 50
314.4153085972
 51
45.5846914028
  0
ARC
  5
2C4
100
AcDbEntity
  8
0
100
AcDbCircle
 62
9
  6
CONTINUOUS
 10
11.1956318809
 20
11.4762117412
 40
0.0357000139
100
AcDbArc
 50
83.2372593183
 51
98.5402948263
  0
ARC
  5
2C5
100
AcDbEntity
  8
0
100
AcDbCircle
 62
7
  6
CONTINUOUS
 10
11.1778498226
 20
10.5767520017
 40
0.0098425197
100
AcDbArc
 50
0.0
 51
90.0000000001
  0
ARC
  5
2C6
100
AcDbEntity
  8
0
100
AcDbCircle
 62
7
  6
CONTINUOUS
 10
11.1778498226
 20
10.4157278883
 40
0.0098425197
100
AcDbArc
 50
270.0
 51
360.0
  0
ARC
  5
2C7
100
AcDbEntity
  8
0
100
AcDbCircle
 62
7
  6
CONTINUOUS
 10
13.3115278367
 20
10.3665586899
 40
0.0196850394
100
AcDbArc
 50
198.597312959
 51
269.9614693778
  0
ARC
  5
2C8
100
AcDbEntity
  8
0
100
AcDbCircle
 62
7
  6
CONTINUOUS
 10
13.3174168336
 20
10.3271886112
 40
0.0196850394
100
AcDbArc
 50
0.0
 51
90.0
  0
ARC
  5
2C9
100
AcDbEntity
  8
0
100
AcDbCircle
 62
7
  6
CONTINUOUS
 10
13.3174168338
 20
10.2976610521
 40
0.0196850394
100
AcDbArc
 50
270.0
 51
360.0
  0
ARC
  5
2CA
100
AcDbEntity
  8
0
100
AcDbCircle
 62
7
  6
CONTINUOUS
 10
12.1780281793
 20
10.8625127238
 40
1.0167263992
100
AcDbArc
 50
167.1576291953
 51
168.4214839112
  0
ARC
  5
2CB
100
AcDbEntity
  8
0
100
AcDbCircle
 62
7
  6
CONTINUOUS
 10
13.0360617326
 20
10.4162209314
 40
0.1383249354
100
AcDbArc
 50
241.3831364002
 51
271.9114353814
  0
ARC
  5
2CC
100
AcDbEntity
  8
0
100
AcDbCircle
 62
7
  6
CONTINUOUS
 10
13.036146118
 20
10.4160045192
 40
0.1381773298
100
AcDbArc
 50
209.2222441958
 51
241.3094416293
  0
ARC
  5
2CD
100
AcDbEntity
  8
0
100
AcDbCircle
 62
9
  6
CONTINUOUS
 10
13.0398892633
 20
10.4166351203
 40
0.1188994514
100
AcDbArc
 50
209.5306937209
 51
241.5776592613
  0
ARC
  5
2CE
100
AcDbEntity
  8
0
100
AcDbCircle
 62
9
  6
CONTINUOUS
 10
13.0396248045
 20
10.4160995424
 40
0.0886818975
100
AcDbArc
 50
209.6061329835
 51
230.584319796
  0
ARC
  5
2CF
100
AcDbEntity
  8
0
100
AcDbCircle
 62
9
  6
CONTINUOUS
 10
13.0362523754
 20
10.4173189349
 40
0.0705823911
100
AcDbArc
 50
271.0148622146
 51
273.5699911615
  0
ARC
  5
2D0
100
AcDbEntity
  8
0
100
AcDbCircle
 62
9
  6
CONTINUOUS
 10
13.0359440829
 20
10.4157928779
 40
0.0689970351
100
AcDbArc
 50
209.5034163349
 51
218.5178941821
  0
ARC
  5
2D1
100
AcDbEntity
  8
0
100
AcDbCircle
 62
9
  6
CONTINUOUS
 10
13.0359166061
 20
10.4158198733
 40
0.0689928744
100
AcDbArc
 50
220.5373161431
 51
230.2992193881
  0
ARC
  5
2D2
100
AcDbEntity
  8
0
100
AcDbCircle
 62
7
  6
CONTINUOUS
 10
13.035854425
 20
10.4157615457
 40
0.0688934617
100
AcDbArc
 50
208.8389506598
 51
209.512970566
  0
ARC
  5
2D3
100
AcDbEntity
  8
0
100
AcDbCircle
 62
7
  6
CONTINUOUS
 10
13.0357556582
 20
10.415685592
 40
0.0687700962
100
AcDbArc
 50
209.4984373776
 51
230.3290240138
  0
ARC
  5
2D4
100
AcDbEntity
  8
0
100
AcDbCircle
 62
9
  6
CONTINUOUS
 10
13.0356480308
 20
10.4155789737
 40
0.0686321913
100
AcDbArc
 50
218.5320924453
 51
220.5302027001
  0
LINE
  5
2D5
100
AcDbEntity
  8
0
100
AcDbLine
 62
7
  6
CONTINUOUS
 10
11.525522337
 20
11.428635037
 11
11.5249026668
 21
11.4286452848
  0
SPLINE
  5
2D6
100
AcDbEntity
  8
0
100
AcDbSpline
 62
7
  6
CONTINUOUS
 70
0
 71
3
 72
9
 73
5
 74
0
 42
0.0000001
 43
0.0000001
 44
0.0000000001
 40
0.0
 40
0.0
 40
0.0
 40
0.0
 40
0.2500774638
 40
1.0
 40
1.0
 40
1.0
 40
1.0
 10
11.5249026668
 20
11.4286452848
 30
0.0
 10
11.5211431161
 20
11.4287044792
 30
0.0
 10
11.5061075239
 20
11.4287244242
 30
0.0
 10
11.4910660626
 20
11.4278343908
 30
0.0
 10
11.4798598765
 20
11.426587059
 30
0.0
  0
LINE
  5
2D7
100
AcDbEntity
  8
0
100
AcDbLine
 62
7
  6
CONTINUOUS
 10
11.3417877142
 20
11.3729624023
 11
11.3412312603
 21
11.3725424015
  0
LINE
  5
2D8
100
AcDbEntity
  8
0
100
AcDbLine
 62
7
  6
CONTINUOUS
 10
11.187248695
 20
11.0907400036
 11
11.1867349364
 21
11.088500063
  0
SPLINE
  5
2D9
100
AcDbEntity
  8
0
100
AcDbSpline
 62
7
  6
CONTINUOUS
 70
0
 71
3
 72
14
 73
10
 74
0
 42
0.0000001
 43
0.0000001
 44
0.0000000001
 40
0.0
 40
0.0
 40
0.0
 40
0.0
 40
0.1250115239
 40
0.2500153059
 40
0.3750157521
 40
0.5000187362
 40
0.6250182805
 40
0.7500124525
 40
1.0
 40
1.0
 40
1.0
 40
1.0
 10
11.1819915747
 20
11.06658049
 30
0.0
 10
11.1801609221
 20
11.0576517415
 30
0.0
 10
11.1767306133
 20
11.0397467825
 30
0.0
 10
11.1722110791
 20
11.0127786887
 30
0.0
 10
11.1682706689
 20
10.985720656
 30
0.0
 10
11.1648667605
 20
10.9585906106
 30
0.0
 10
11.1619534478
 20
10.9314041314
 30
0.0
 10
11.158673483
 20
10.8950975617
 30
0.0
 10
11.1568515492
 20
10.8678136029
 30
0.0
 10
11.155881114
 20
10.8496130739
 30
0.0
  0
LINE
  5
2DA
100
AcDbEntity
  8
0
100
AcDbLine
 62
7
  6
CONTINUOUS
 10
10.3497409019
 20
11.4286329258
 11
10.3502176831
 21
11.4286410454
  0
SPLINE
  5
2DB
100
AcDbEntity
  8
0
100
AcDbSpline
 62
7
  6
CONTINUOUS
 70
0
 71
3
 72
9
 73
5
 74
0
 42
0.0000001
 43
0.0000001
 44
0.0000000001
 40
0.0
 40
0.0
 40
0.0
 40
0.0
 40
0.2500768824
 40
1.0
 40
1.0
 40
1.0
 40
1.0
 10
10.3502176831
 20
11.4286410454
 30
0.0
 10
10.3539769098
 20
11.4287027751
 30
0.0
 10
10.3690113865
 20
11.4287331256
 30
0.0
 10
10.3840523517
 20
11.4278546223
 30
0.0
 10
10.3952587452
 20
11.4266165473
 30
0.0
  0
SPLINE
  5
2DC
100
AcDbEntity
  8
0
100
AcDbSpline
 62
7
  6
CONTINUOUS
 70
0
 71
3
 72
14
 73
10
 74
0
 42
0.0000001
 43
0.0000001
 44
0.0000000001
 40
0.0
 40
0.0
 40
0.0
 40
0.0
 40
0.1250115227
 40
0.250015324
 40
0.375015763
 40
0.5000187409
 40
0.6250183017
 40
0.7500124737
 40
1.0
 40
1.0
 40
1.0
 40
1.0
 10
10.6933808297
 20
11.0666398294
 30
0.0
 10
10.6952118311
 20
11.0577120032
 30
0.0
 10
10.6986428303
 20
11.0398088718
 30
0.0
 10
10.7031633761
 20
11.0128434813
 30
0.0
 10
10.7071048082
 20
10.9857881232
 30
0.0
 10
10.7105097261
 20
10.9586607234
 30
0.0
 10
10.7134240204
 20
10.9314768626
 30
0.0
 10
10.7167053037
 20
10.895173759
 30
0.0
 10
10.7185282207
 20
10.8678923719
 30
0.0
 10
10.7194992984
 20
10.8496935476
 30
0.0
  0
LINE
  5
2DD
100
AcDbEntity
  8
0
100
AcDbLine
 62
7
  6
CONTINUOUS
 10
8.9606594113
 20
10.350082642
 11
8.9598119703
 21
10.3485206244
  0
LINE
  5
2DE
100
AcDbEntity
  8
0
100
AcDbLine
 62
7
  6
CONTINUOUS
 10
8.8994905318
 20
10.381813617
 11
8.8998777325
 21
10.3825282725
  0
LINE
  5
2DF
100
AcDbEntity
  8
0
100
AcDbLine
 62
7
  6
CONTINUOUS
 10
8.9606577533
 20
10.35008099
 11
8.9598122174
 21
10.3485203213
  0
SPLINE
  5
2E0
100
AcDbEntity
  8
0
100
AcDbSpline
 62
7
  6
CONTINUOUS
 70
0
 71
3
 72
11
 73
7
 74
0
 42
0.0000001
 43
0.0000001
 44
0.0000000001
 40
0.0
 40
0.0
 40
0.0
 40
0.0
 40
0.2528000486
 40
0.5038893709
 40
0.7530341408
 40
1.0
 40
1.0
 40
1.0
 40
1.0
 10
8.8836245061
 20
10.3628300613
 30
0.0
 10
8.8802456276
 20
10.3600119808
 30
0.0
 10
8.8729596551
 20
10.3550155457
 30
0.0
 10
8.8608498075
 20
10.3498074279
 30
0.0
 10
8.8480923323
 20
10.3469357311
 30
0.0
 10
8.8394056453
 20
10.346636129
 30
0.0
 10
8.8351139345
 20
10.3468736368
 30
0.0
  0
SPLINE
  5
2E1
100
AcDbEntity
  8
0
100
AcDbSpline
 62
7
  6
CONTINUOUS
 70
0
 71
3
 72
11
 73
7
 74
0
 42
0.0000001
 43
0.0000001
 44
0.0000000001
 40
0.0
 40
0.0
 40
0.0
 40
0.0
 40
0.2469729857
 40
0.496117671
 40
0.7472075637
 40
1.0
 40
1.0
 40
1.0
 40
1.0
 10
13.0402706033
 20
10.3468736287
 30
0.0
 10
13.0359888069
 20
10.3466366964
 30
0.0
 10
13.0273225204
 20
10.346933743
 30
0.0
 10
13.0145932546
 20
10.3497905337
 30
0.0
 10
13.0025065486
 20
10.3549730796
 30
0.0
 10
12.9952301127
 20
10.3599461433
 30
0.0
 10
12.9918543427
 20
10.362751665
 30
0.0
  0
LINE
  5
2E2
100
AcDbEntity
  8
0
100
AcDbLine
 62
7
  6
CONTINUOUS
 10
12.9755063459
 20
10.3825293883
 11
12.9758941814
 21
10.3818135642
  0
LINE
  5
2E3
100
AcDbEntity
  8
0
100
AcDbLine
 62
7
  6
CONTINUOUS
 10
12.9155574131
 20
10.3485481338
 11
12.914726909
 21
10.3500810561
  0
SPLINE
  5
2E4
100
AcDbEntity
  8
0
100
AcDbSpline
 62
7
  6
CONTINUOUS
 70
0
 71
3
 72
9
 73
5
 74
0
 42
0.0000001
 43
0.0000001
 44
0.0000000001
 40
0.0
 40
0.0
 40
0.0
 40
0.0
 40
0.2499821453
 40
1.0
 40
1.0
 40
1.0
 40
1.0
 10
11.7114656054
 20
11.3896829017
 30
0.0
 10
11.7064227467
 20
11.3915306559
 30
0.0
 10
11.686182751
 20
11.3987361154
 30
0.0
 10
11.6656536185
 20
11.4051423284
 30
0.0
 10
11.6501093579
 20
11.4093881482
 30
0.0
  0
LINE
  5
2E5
100
AcDbEntity
  8
0
100
AcDbLine
 62
7
  6
CONTINUOUS
 10
11.6440780806
 20
11.4110053543
 11
11.6433749963
 21
11.4111899242
  0
SPLINE
  5
2E6
100
AcDbEntity
  8
0
100
AcDbSpline
 62
7
  6
CONTINUOUS
 70
0
 71
3
 72
9
 73
5
 74
0
 42
0.0000001
 43
0.0000001
 44
0.0000000001
 40
0.0
 40
0.0
 40
0.0
 40
0.0
 40
0.2500671087
 40
1.0
 40
1.0
 40
1.0
 40
1.0
 10
11.6433749963
 20
11.4111899242
 30
0.0
 10
11.6383420025
 20
11.4125081869
 30
0.0
 10
11.6181544671
 20
11.4175405999
 30
0.0
 10
11.59770241
 20
11.4215418459
 30
0.0
 10
11.5822670378
 20
11.4238210039
 30
0.0
  0
SPLINE
  5
2E7
100
AcDbEntity
  8
0
100
AcDbSpline
 62
7
  6
CONTINUOUS
 70
0
 71
3
 72
9
 73
5
 74
0
 42
0.0000001
 43
0.0000001
 44
0.0000000001
 40
0.0
 40
0.0
 40
0.0
 40
0.0
 40
0.2500262594
 40
1.0
 40
1.0
 40
1.0
 40
1.0
 10
11.5822670378
 20
11.4238210039
 30
0.0
 10
11.5790668461
 20
11.4242935381
 30
0.0
 10
11.5662496884
 20
11.4260597995
 30
0.0
 10
11.5533593424
 20
11.4273077895
 30
0.0
 10
11.5436746948
 20
11.42790934
 30
0.0
  0
SPLINE
  5
2E8
100
AcDbEntity
  8
0
100
AcDbSpline
 62
7
  6
CONTINUOUS
 70
0
 71
3
 72
9
 73
5
 74
0
 42
0.0000001
 43
0.0000001
 44
0.0000000001
 40
0.0
 40
0.0
 40
0.0
 40
0.0
 40
0.2499821632
 40
1.0
 40
1.0
 40
1.0
 40
1.0
 10
10.1639190645
 20
11.3896829417
 30
0.0
 10
10.1689625657
 20
11.391530932
 30
0.0
 10
10.1892051472
 20
11.3987372871
 30
0.0
 10
10.2097369427
 20
11.4051441828
 30
0.0
 10
10.2252832343
 20
11.4093903544
 30
0.0
  0
LINE
  5
2E9
100
AcDbEntity
  8
0
100
AcDbLine
 62
7
  6
CONTINUOUS
 10
10.2313005293
 20
11.4110038025
 11
10.2319631469
 21
11.4111777786
  0
SPLINE
  5
2EA
100
AcDbEntity
  8
0
100
AcDbSpline
 62
7
  6
CONTINUOUS
 70
0
 71
3
 72
9
 73
5
 74
0
 42
0.0000001
 43
0.0000001
 44
0.0000000001
 40
0.0
 40
0.0
 40
0.0
 40
0.0
 40
0.2500421429
 40
1.0
 40
1.0
 40
1.0
 40
1.0
 10
10.2475562389
 20
11.4150549144
 30
0.0
 10
10.25131751
 20
11.4159389399
 30
0.0
 10
10.2663930319
 20
11.4193313743
 30
0.0
 10
10.2816067217
 20
11.4221202564
 30
0.0
 10
10.2930709411
 20
11.42381414
 30
0.0
  0
SPLINE
  5
2EB
100
AcDbEntity
  8
0
100
AcDbSpline
 62
7
  6
CONTINUOUS
 70
0
 71
3
 72
9
 73
5
 74
0
 42
0.0000001
 43
0.0000001
 44
0.0000000001
 40
0.0
 40
0.0
 40
0.0
 40
0.0
 40
0.2500261815
 40
1.0
 40
1.0
 40
1.0
 40
1.0
 10
10.2930709411
 20
11.42381414
 30
0.0
 10
10.2962726223
 20
11.4242872011
 30
0.0
 10
10.3090957659
 20
11.4260554799
 30
0.0
 10
10.3219922028
 20
11.4273050969
 30
0.0
 10
10.3316814558
 20
11.4279075878
 30
0.0
  0
SPLINE
  5
2EC
100
AcDbEntity
  8
0
100
AcDbSpline
 62
9
  6
CONTINUOUS
 70
0
 71
3
 72
11
 73
7
 74
0
 42
0.0000001
 43
0.0000001
 44
0.0000000001
 40
0.0
 40
0.0
 40
0.0
 40
0.0
 40
0.2433339641
 40
0.4911726005
 40
0.7435906921
 40
1.0
 40
1.0
 40
1.0
 40
1.0
 10
8.8380776242
 20
10.3467446068
 30
0.0
 10
8.8420640497
 20
10.3466851321
 30
0.0
 10
8.8501386791
 20
10.3472506058
 30
0.0
 10
8.8620167967
 20
10.3502154687
 30
0.0
 10
8.8734019554
 20
10.35528361
 30
0.0
 10
8.8803087262
 20
10.3600516671
 30
0.0
 10
8.8835392295
 20
10.3627373869
 30
0.0
  0
LINE
  5
2ED
100
AcDbEntity
  8
0
100
AcDbLine
 62
9
  6
CONTINUOUS
 10
13.2928706838
 20
10.3602808383
 11
13.0326410518
 21
10.3650759353
  0
SPLINE
  5
2EE
100
AcDbEntity
  8
0
100
AcDbSpline
 62
9
  6
CONTINUOUS
 70
0
 71
3
 72
26
 73
22
 74
0
 42
0.0000001
 43
0.0000001
 44
0.0000000001
 40
0.0
 40
0.0
 40
0.0
 40
0.0
 40
0.047760704
 40
0.0701824444
 40
0.0918851337
 40
0.1130958946
 40
0.134049525
 40
0.154986818
 40
0.1761445591
 40
0.2199028186
 40
0.2667903793
 40
0.3177879239
 40
0.3734794648
 40
0.434195836
 40
0.5000594793
 40
0.571088351
 40
0.6472152136
 40
0.7283340844
 40
0.8143275803
 40
0.9049966956
 40
1.0
 40
1.0
 40
1.0
 40
1.0
 10
10.7251929614
 20
7.1920252675
 30
0.0
 10
10.7251929607
 20
7.1896845875
 30
0.0
 10
10.7254663244
 20
7.1862300848
 30
0.0
 10
10.7264975835
 20
7.1818400324
 30
0.0
 10
10.7275548314
 20
7.178810805
 30
0.0
 10
10.7289067175
 20
7.1759806616
 30
0.0
 10
10.7305479203
 20
7.1733518376
 30
0.0
 10
10.7324720668
 20
7.1709258801
 30
0.0
 10
10.7354337528
 20
7.1679271707
 30
0.0
 10
10.7398774378
 20
7.1646570019
 30
0.0
 10
10.746130801
 20
7.1615799998
 30
0.0
 10
10.7533032831
 20
7.1592340713
 30
0.0
 10
10.7613486397
 20
7.1575627159
 30
0.0
 10
10.770226612
 20
7.1565012322
 30
0.0
 10
10.7799029523
 20
7.1559903275
 30
0.0
 10
10.7903458859
 20
7.1559629998
 30
0.0
 10
10.8015283716
 20
7.1563518144
 30
0.0
 10
10.813427595
 20
7.1570834783
 30
0.0
 10
10.8260223236
 20
7.1580766366
 30
0.0
 10
10.8392845801
 20
7.1592491974
 30
0.0
 10
10.848346922
 20
7.1600709385
 30
0.0
 10
10.8529846713
 20
7.1604824278
 30
0.0
  0
SPLINE
  5
2EF
100
AcDbEntity
  8
0
100
AcDbSpline
 62
9
  6
CONTINUOUS
 70
0
 71
3
 72
11
 73
7
 74
0
 42
0.0000001
 43
0.0000001
 44
0.0000000001
 40
0.0
 40
0.0
 40
0.0
 40
0.0
 40
0.2564344112
 40
0.5088674971
 40
0.7566884691
 40
1.0
 40
1.0
 40
1.0
 40
1.0
 10
12.9918454551
 20
10.3627373869
 30
0.0
 10
12.9950886618
 20
10.3600402675
 30
0.0
 10
13.002026105
 20
10.3552559942
 30
0.0
 10
13.0134625957
 20
10.3501798384
 30
0.0
 10
13.0253931795
 20
10.3472246897
 30
0.0
 10
13.0335008468
 20
10.3466767391
 30
0.0
 10
13.0375025138
 20
10.3467476157
 30
0.0
  0
SPLINE
  5
2F0
100
AcDbEntity
  8
0
100
AcDbSpline
 62
9
  6
CONTINUOUS
 70
0
 71
3
 72
15
 73
11
 74
0
 42
0.0000001
 43
0.0000001
 44
0.0000000001
 40
0.0
 40
0.0
 40
0.0
 40
0.0
 40
0.101316891
 40
0.209997795
 40
0.3258391897
 40
0.4485395554
 40
0.5777269245
 40
0.7130389221
 40
0.8540089992
 40
1.0
 40
1.0
 40
1.0
 40
1.0
 10
10.717850862
 20
7.2112735579
 30
0.0
 10
10.7215663951
 20
7.2100532731
 30
0.0
 10
10.7293879869
 20
7.2078847502
 30
0.0
 10
10.7417248746
 20
7.2053992415
 30
0.0
 10
10.7549986479
 20
7.2035027622
 30
0.0
 10
10.7691295816
 20
7.2021264812
 30
0.0
 10
10.7840489493
 20
7.2012002063
 30
0.0
 10
10.7996915103
 20
7.2006478949
 30
0.0
 10
10.8159898262
 20
7.2003939491
 30
0.0
 10
10.8270666432
 20
7.2003748075
 30
0.0
 10
10.8327018171
 20
7.2003893558
 30
0.0
  0
SPLINE
  5
2F1
100
AcDbEntity
  8
0
100
AcDbSpline
 62
9
  6
CONTINUOUS
 70
0
 71
3
 72
17
 73
13
 74
0
 42
0.0000001
 43
0.0000001
 44
0.0000000001
 40
0.0
 40
0.0
 40
0.0
 40
0.0
 40
0.117958942
 40
0.2416524544
 40
0.305209815
 40
0.369632018
 40
0.5000000016
 40
0.6303679839
 40
0.6947901879
 40
0.7583475494
 40
0.8820410467
 40
1.0
 40
1.0
 40
1.0
 40
1.0
 10
10.8529846713
 20
7.1604824278
 30
0.0
 10
10.8596247727
 20
7.1611895158
 30
0.0
 10
10.8732334484
 20
7.1625872157
 30
0.0
 10
10.8904534288
 20
7.1640234999
 30
0.0
 10
10.904673713
 20
7.1649077973
 30
0.0
 10
10.9192839856
 20
7.1655768194
 30
0.0
 10
10.9376923425
 20
7.1659295468
 30
0.0
 10
10.9561006995
 20
7.1655768217
 30
0.0
 10
10.9707109722
 20
7.1649077992
 30
0.0
 10
10.9849312555
 20
7.1640235001
 30
0.0
 10
11.0021512353
 20
7.16258721
 30
0.0
 10
11.0157599106
 20
7.1611895094
 30
0.0
 10
11.0224000133
 20
7.1604824278
 30
0.0
  0
SPLINE
  5
2F2
100
AcDbEntity
  8
0
100
AcDbSpline
 62
9
  6
CONTINUOUS
 70
0
 71
3
 72
15
 73
11
 74
0
 42
0.0000001
 43
0.0000001
 44
0.0000000001
 40
0.0
 40
0.0
 40
0.0
 40
0.0
 40
0.1209913201
 40
0.2432931467
 40
0.3667648096
 40
0.4914286166
 40
0.6172073596
 40
0.743991995
 40
0.8717008229
 40
1.0
 40
1.0
 40
1.0
 40
1.0
 10
13.0326410518
 20
10.3650759353
 30
0.0
 10
13.0304150224
 20
10.3649692296
 30
0.0
 10
13.0259176543
 20
10.3650674465
 30
0.0
 10
13.0192293709
 20
10.3661609135
 30
0.0
 10
13.0126968054
 20
10.3682096509
 30
0.0
 10
13.0064582995
 20
10.3711803725
 30
0.0
 10
13.0006430354
 20
10.375024198
 30
0.0
 10
12.9953766868
 20
10.3796773305
 30
0.0
 10
12.9907799124
 20
10.3850521336
 30
0.0
 10
12.9882229497
 20
10.3890343049
 30
0.0
 10
12.9870812855
 20
10.3911034297
 30
0.0
  0
SPLINE
  5
2F3
100
AcDbEntity
  8
0
100
AcDbSpline
 62
9
  6
CONTINUOUS
 70
0
 71
3
 72
26
 73
22
 74
0
 42
0.0000001
 43
0.0000001
 44
0.0000000001
 40
0.0
 40
0.0
 40
0.0
 40
0.0
 40
0.0623039405
 40
0.1246530538
 40
0.1870327682
 40
0.2494468423
 40
0.3118901954
 40
0.3743601825
 40
0.4368543284
 40
0.4993699113
 40
0.5619044208
 40
0.6244554563
 40
0.6557407756
 40
0.6870292512
 40
0.7183206735
 40
0.7496148351
 40
0.8122011256
 40
0.8747925643
 40
0.9060957699
 40
0.9374025064
 40
1.0
 40
1.0
 40
1.0
 40
1.0
 10
12.9870812855
 20
10.3911034297
 30
0.0
 10
12.9623604838
 20
10.4368573937
 30
0.0
 10
12.9097973753
 20
10.5267598374
 30
0.0
 10
12.8220761165
 20
10.656035487
 30
0.0
 10
12.725816488
 20
10.7792118669
 30
0.0
 10
12.621451362
 20
10.8957034779
 30
0.0
 10
12.5094445735
 20
11.0049764465
 30
0.0
 10
12.3903047448
 20
11.1065278842
 30
0.0
 10
12.2645687443
 20
11.1998889922
 30
0.0
 10
12.1328006757
 20
11.2846253169
 30
0.0
 10
11.9955987496
 20
11.3603383304
 30
0.0
 10
11.8772466156
 20
11.4156288119
 30
0.0
 10
11.780499757
 20
11.4550183509
 30
0.0
 10
11.7069676075
 20
11.4821119762
 30
0.0
 10
11.6325593109
 20
11.5067207004
 30
0.0
 10
11.5323002966
 20
11.5361807366
 30
0.0
 10
11.4051911669
 20
11.5666607774
 30
0.0
 10
11.2763148581
 20
11.5885321755
 30
0.0
 10
11.1725138973
 20
11.6008043929
 30
0.0
 10
11.0683580322
 20
11.6095793639
 30
0.0
 10
10.9899425951
 20
11.6122188658
 30
0.0
 10
10.9376923423
 20
11.6122191748
 30
0.0
  0
SPLINE
  5
2F4
100
AcDbEntity
  8
0
100
AcDbSpline
 62
9
  6
CONTINUOUS
 70
0
 71
3
 72
43
 73
39
 74
0
 42
0.0000001
 43
0.0000001
 44
0.0000000001
 40
0.0
 40
0.0
 40
0.0
 40
0.0
 40
0.0974165495
 40
0.1921487764
 40
0.2838476032
 40
0.3722709958
 40
0.4571125638
 40
0.538012485
 40
0.6145594403
 40
0.6863201222
 40
0.7527744401
 40
0.7838125268
 40
0.8132764999
 40
0.8410553586
 40
0.867024997
 40
0.8910594864
 40
0.9130309014
 40
0.9328090396
 40
0.9502627845
 40
0.9652643179
 40
0.9718119506
 40
0.9777078233
 40
0.9829396726
 40
0.9874952247
 40
0.9913621379
 40
0.9945274596
 40
0.99584289
 40
0.9969779964
 40
0.9979312086
 40
0.9987010642
 40
0.9990168486
 40
0.9992863851
 40
0.9995096457
 40
0.9996867536
 40
0.9998181971
 40
0.9999055929
 40
0.9999557102
 40
1.0
 40
1.0
 40
1.0
 40
1.0
 10
10.8648568361
 20
10.8078318138
 30
0.0
 10
10.8596584999
 20
10.8063631109
 30
0.0
 10
10.8494863767
 20
10.8031687558
 30
0.0
 10
10.8347572031
 20
10.7975973564
 30
0.0
 10
10.8208147473
 20
10.791424386
 30
0.0
 10
10.8076760442
 20
10.7848376573
 30
0.0
 10
10.7953491674
 20
10.7779980709
 30
0.0
 10
10.7838416231
 20
10.7710594156
 30
0.0
 10
10.7731690507
 20
10.7641538784
 30
0.0
 10
10.7633742398
 20
10.7573772475
 30
0.0
 10
10.7558151887
 20
10.7518123155
 30
0.0
 10
10.7502329081
 20
10.7475228138
 30
0.0
 10
10.746390153
 20
10.7444899835
 30
0.0
 10
10.7428022573
 20
10.7415884741
 30
0.0
 10
10.7394773608
 20
10.7388409664
 30
0.0
 10
10.7364241749
 20
10.7362704892
 30
0.0
 10
10.7336517403
 20
10.733899804
 30
0.0
 10
10.7311712622
 20
10.7317493069
 30
0.0
 10
10.7289938149
 20
10.7298393709
 30
0.0
 10
10.7273740298
 20
10.728406267
 30
0.0
 10
10.7262370353
 20
10.7273946959
 30
0.0
 10
10.7255058073
 20
10.7267420634
 30
0.0
 10
10.7248577579
 20
10.7261621279
 30
0.0
 10
10.7242940035
 20
10.7256567095
 30
0.0
 10
10.7238158105
 20
10.7252275188
 30
0.0
 10
10.7234708435
 20
10.7249188726
 30
0.0
 10
10.7232375901
 20
10.7247125571
 30
0.0
 10
10.7230954581
 20
10.7245883705
 30
0.0
 10
10.7229750978
 20
10.724485254
 30
0.0
 10
10.7228881212
 20
10.7244130156
 30
0.0
 10
10.7228292551
 20
10.7243662926
 30
0.0
 10
10.7227936084
 20
10.7243391121
 30
0.0
 10
10.7227633813
 20
10.7243174407
 30
0.0
 10
10.7227388428
 20
10.7243012555
 30
0.0
 10
10.7227193105
 20
10.7242905802
 30
0.0
 10
10.7227060563
 20
10.724285006
 30
0.0
 10
10.7226943135
 20
10.7242844965
 30
0.0
 10
10.7226923423
 20
10.7242906711
 30
0.0
 10
10.7226923423
 20
10.724293127
 30
0.0
  0
SPLINE
  5
2F5
100
AcDbEntity
  8
0
100
AcDbSpline
 62
9
  6
CONTINUOUS
 70
0
 71
3
 72
13
 73
9
 74
0
 42
0.0000001
 43
0.0000001
 44
0.0000000001
 40
0.0
 40
0.0
 40
0.0
 40
0.0
 40
0.2525041367
 40
0.3781585033
 40
0.5034052715
 40
0.6282330774
 40
0.7526191506
 40
1.0
 40
1.0
 40
1.0
 40
1.0
 10
10.8857244479
 20
10.8129939683
 30
0.0
 10
10.8839500509
 20
10.812636866
 30
0.0
 10
10.8812951639
 20
10.8120885657
 30
0.0
 10
10.8777769725
 20
10.8112858833
 30
0.0
 10
10.8751604645
 20
10.8106471369
 30
0.0
 10
10.872560469
 20
10.8099800051
 30
0.0
 10
10.8691202754
 20
10.8090656391
 30
0.0
 10
10.8665552936
 20
10.80834138
 30
0.0
 10
10.8648568361
 20
10.8078318138
 30
0.0
  0
SPLINE
  5
2F6
100
AcDbEntity
  8
0
100
AcDbSpline
 62
9
  6
CONTINUOUS
 70
0
 71
3
 72
16
 73
12
 74
0
 42
0.0000001
 43
0.0000001
 44
0.0000000001
 40
0.0
 40
0.0
 40
0.0
 40
0.0
 40
0.1261698372
 40
0.2522512521
 40
0.3781196648
 40
0.5036358963
 40
0.6286517474
 40
0.6909505275
 40
0.7531117513
 40
0.8769487565
 40
1.0
 40
1.0
 40
1.0
 40
1.0
 10
10.9376810793
 20
10.8184860904
 30
0.0
 10
10.9354850193
 20
10.8183573759
 30
0.0
 10
10.931095754
 20
10.8180775183
 30
0.0
 10
10.9245190475
 20
10.8176186978
 30
0.0
 10
10.9179540442
 20
10.8171558959
 30
0.0
 10
10.9114071235
 20
10.8167009767
 30
0.0
 10
10.9059721928
 20
10.8162338329
 30
0.0
 10
10.9016483337
 20
10.8157578127
 30
0.0
 10
10.8973553666
 20
10.8151970385
 30
0.0
 10
10.8920347954
 20
10.8143347084
 30
0.0
 10
10.8878165027
 20
10.8134696599
 30
0.0
 10
10.8857244479
 20
10.8129939683
 30
0.0
  0
SPLINE
  5
2F7
100
AcDbEntity
  8
0
100
AcDbSpline
 62
9
  6
CONTINUOUS
 70
0
 71
3
 72
16
 73
12
 74
0
 42
0.0000001
 43
0.0000001
 44
0.0000000001
 40
0.0
 40
0.0
 40
0.0
 40
0.0
 40
0.1230425838
 40
0.2468738538
 40
0.3090351697
 40
0.3713363966
 40
0.4963562011
 40
0.6218724216
 40
0.7477422326
 40
0.8738268955
 40
1.0
 40
1.0
 40
1.0
 40
1.0
 10
10.9896606308
 20
10.8129929242
 30
0.0
 10
10.9875643914
 20
10.8134521683
 30
0.0
 10
10.9833399496
 20
10.8142910056
 30
0.0
 10
10.9780155002
 20
10.8151365497
 30
0.0
 10
10.9737207497
 20
10.8156931109
 30
0.0
 10
10.9693956444
 20
10.8161706272
 30
0.0
 10
10.9639598466
 20
10.8166474661
 30
0.0
 10
10.9574119855
 20
10.8171187628
 30
0.0
 10
10.9508458197
 20
10.8175944486
 30
0.0
 10
10.9442677874
 20
10.8180649067
 30
0.0
 10
10.9398775989
 20
10.8183528972
 30
0.0
 10
10.9376810793
 20
10.8184860904
 30
0.0
  0
SPLINE
  5
2F8
100
AcDbEntity
  8
0
100
AcDbSpline
 62
9
  6
CONTINUOUS
 70
0
 71
3
 72
13
 73
9
 74
0
 42
0.0000001
 43
0.0000001
 44
0.0000000001
 40
0.0
 40
0.0
 40
0.0
 40
0.0
 40
0.2473806126
 40
0.3717669005
 40
0.4965950153
 40
0.6218417888
 40
0.7474958135
 40
1.0
 40
1.0
 40
1.0
 40
1.0
 10
11.0105307964
 20
10.8078309662
 30
0.0
 10
11.0088321707
 20
10.8083406773
 30
0.0
 10
11.0062669056
 20
10.8090650656
 30
0.0
 10
11.0028263522
 20
10.8099796816
 30
0.0
 10
11.0002260944
 20
10.8106470516
 30
0.0
 10
10.9976092879
 20
10.8112858896
 30
0.0
 10
10.9940905739
 20
10.8120881574
 30
0.0
 10
10.9914352378
 20
10.8126358057
 30
0.0
 10
10.9896606308
 20
10.8129929242
 30
0.0
  0
SPLINE
  5
2F9
100
AcDbEntity
  8
0
100
AcDbSpline
 62
9
  6
CONTINUOUS
 70
0
 71
3
 72
49
 73
45
 74
0
 42
0.0000001
 43
0.0000001
 44
0.0000000001
 40
0.0
 40
0.0
 40
0.0
 40
0.0
 40
0.0002438684
 40
0.0004570493
 40
0.0006079478
 40
0.0008002399
 40
0.0013220338
 40
0.0020363762
 40
0.0029471438
 40
0.004055526
 40
0.0053616422
 40
0.0068651063
 40
0.0085652643
 40
0.0125518964
 40
0.0172987599
 40
0.022762597
 40
0.0288986122
 40
0.0356625028
 40
0.0430109097
 40
0.0509021802
 40
0.0593150133
 40
0.0682538479
 40
0.0877302278
 40
0.1093678383
 40
0.1331750613
 40
0.1867756386
 40
0.247306838
 40
0.3138123308
 40
0.3490781887
 40
0.3855881053
 40
0.4233000884
 40
0.4621729527
 40
0.502164275
 40
0.5432107854
 40
0.5852179424
 40
0.628103477
 40
0.6718071826
 40
0.7163133059
 40
0.7616430166
 40
0.8078001175
 40
0.8547701522
 40
0.902506558
 40
0.9509386884
 40
1.0
 40
1.0
 40
1.0
 40
1.0
 10
11.1526923423
 20
10.724293127
 30
0.0
 10
11.1526923423
 20
10.7242796003
 30
0.0
 10
11.1526884277
 20
10.7242499851
 30
0.0
 10
11.1526509803
 20
10.724239054
 30
0.0
 10
11.1526209105
 20
10.7242451
 30
0.0
 10
11.1525753129
 20
10.7242608101
 30
0.0
 10
11.1525057932
 20
10.7242994997
 30
0.0
 10
11.1524071653
 20
10.7243662556
 30
0.0
 10
11.1522868219
 20
10.7244586259
 30
0.0
 10
11.1521446979
 20
10.7245762049
 30
0.0
 10
11.1519809336
 20
10.7247190966
 30
0.0
 10
11.1517956108
 20
10.7248871171
 30
0.0
 10
11.1515040531
 20
10.7251592611
 30
0.0
 10
11.1510881477
 20
10.7255617334
 30
0.0
 10
11.1505283727
 20
10.7261156088
 30
0.0
 10
11.1498843766
 20
10.7267538726
 30
0.0
 10
11.1491571647
 20
10.7274670976
 30
0.0
 10
11.1483475283
 20
10.7282455107
 30
0.0
 10
11.1474564312
 20
10.7290795455
 30
0.0
 10
11.1464833577
 20
10.7299595916
 30
0.0
 10
11.1454290176
 20
10.7308809647
 30
0.0
 10
11.1438745438
 20
10.7322063111
 30
0.0
 10
11.1417376412
 20
10.7339788366
 30
0.0
 10
11.1389504624
 20
10.7362588879
 30
0.0
 10
11.1347022424
 20
10.7397422474
 30
0.0
 10
11.1287634895
 20
10.7445664542
 30
0.0
 10
11.120867245
 20
10.7507352964
 30
0.0
 10
11.1136308545
 20
10.7560928381
 30
0.0
 10
11.1073626586
 20
10.7605136697
 30
0.0
 10
11.1023438749
 20
10.7639335532
 30
0.0
 10
11.0971093861
 20
10.7673909261
 30
0.0
 10
11.0916662591
 20
10.7708816936
 30
0.0
 10
11.0860247572
 20
10.7744047919
 30
0.0
 10
11.0801895924
 20
10.7779452099
 30
0.0
 10
11.0741450382
 20
10.7814478834
 30
0.0
 10
11.0678818945
 20
10.7848632791
 30
0.0
 10
11.0613864919
 20
10.7881353492
 30
0.0
 10
11.0546552436
 20
10.7912295137
 30
0.0
 10
11.0477164912
 20
10.7941897734
 30
0.0
 10
11.0405887398
 20
10.7970499544
 30
0.0
 10
11.033295412
 20
10.7998530883
 30
0.0
 10
11.0258495457
 20
10.802609572
 30
0.0
 10
11.0182522256
 20
10.8052885191
 30
0.0
 10
11.0131211203
 20
10.8069969414
 30
0.0
 10
11.0105307964
 20
10.8078309662
 30
0.0
  0
SPLINE
  5
2FA
100
AcDbEntity
  8
0
100
AcDbSpline
 62
9
  6
CONTINUOUS
 70
0
 71
3
 72
11
 73
7
 74
0
 42
0.0000001
 43
0.0000001
 44
0.0000000001
 40
0.0
 40
0.0
 40
0.0
 40
0.0
 40
0.2544897748
 40
0.5062629001
 40
0.7548236065
 40
1.0
 40
1.0
 40
1.0
 40
1.0
 10
12.9833169501
 20
10.3475935797
 30
0.0
 10
12.9879015144
 20
10.3439372701
 30
0.0
 10
12.9977479664
 20
10.3375268088
 30
0.0
 10
13.0139234317
 20
10.3308839417
 30
0.0
 10
13.0308092581
 20
10.3272809415
 30
0.0
 10
13.0422470701
 20
10.3268924279
 30
0.0
 10
13.0478887276
 20
10.3271886112
 30
0.0
  0
SPLINE
  5
2FB
100
AcDbEntity
  8
0
100
AcDbSpline
 62
9
  6
CONTINUOUS
 70
0
 71
3
 72
12
 73
8
 74
0
 42
0.0000001
 43
0.0000001
 44
0.0000000001
 40
0.0
 40
0.0
 40
0.0
 40
0.0
 40
0.2455837261
 40
0.3696387314
 40
0.4944171394
 40
0.7460174564
 40
1.0
 40
1.0
 40
1.0
 40
1.0
 10
13.0470426942
 20
10.2976610521
 30
0.0
 10
13.0416392885
 20
10.2974714421
 30
0.0
 10
13.0334762077
 20
10.2976958692
 30
0.0
 10
13.0226676891
 20
10.2990289959
 30
0.0
 10
13.0118359544
 20
10.3010823444
 30
0.0
 10
12.9984761017
 20
10.3049812785
 30
0.0
 10
12.9882498475
 20
10.3094722767
 30
0.0
 10
12.9832946548
 20
10.3120631234
 30
0.0
  0
SPLINE
  5
2FC
100
AcDbEntity
  8
0
100
AcDbSpline
 62
9
  6
CONTINUOUS
 70
0
 71
3
 72
29
 73
25
 74
0
 42
0.0000001
 43
0.0000001
 44
0.0000000001
 40
0.0
 40
0.0
 40
0.0
 40
0.0
 40
0.0623225512
 40
0.0935045462
 40
0.1246916848
 40
0.1870775122
 40
0.2494941107
 40
0.2807169056
 40
0.3119460509
 40
0.3431813662
 40
0.3744226554
 40
0.4369131733
 40
0.4994240833
 40
0.5619531383
 40
0.6244980925
 40
0.6557801979
 40
0.6870653713
 40
0.7183533922
 40
0.7496440635
 40
0.8122232869
 40
0.8748075285
 40
0.9061070044
 40
0.9374099397
 40
1.0
 40
1.0
 40
1.0
 40
1.0
 10
8.9128636511
 20
10.3722875869
 30
0.0
 10
8.9374827567
 20
10.4173547442
 30
0.0
 10
8.9766764443
 20
10.4837738427
 30
0.0
 10
9.0332242934
 20
10.5695733632
 30
0.0
 10
9.0926159156
 20
10.6534982127
 30
0.0
 10
9.172055146
 20
10.7546717902
 30
0.0
 10
9.2580722926
 20
10.8503576932
 30
0.0
 10
9.3306172047
 20
10.9233439011
 30
0.0
 10
9.3868476727
 20
10.9762575997
 30
0.0
 10
9.4448264489
 20
11.0272728489
 30
0.0
 10
9.5243757604
 20
11.0926817428
 30
0.0
 10
9.6278782563
 20
11.1694205288
 30
0.0
 10
9.7579857947
 20
11.2529948568
 30
0.0
 10
9.893442825
 20
11.3276806371
 30
0.0
 10
10.0102794355
 20
11.382224762
 30
0.0
 10
10.1057830764
 20
11.4210853253
 30
0.0
 10
10.178367968
 20
11.4478173182
 30
0.0
 10
10.251816158
 20
11.4720992119
 30
0.0
 10
10.3507800492
 20
11.5011692712
 30
0.0
 10
10.4762458815
 20
11.5312456431
 30
0.0
 10
10.603454703
 20
11.5528275116
 30
0.0
 10
10.705911876
 20
11.5649378254
 30
0.0
 10
10.8087188944
 20
11.573598107
 30
0.0
 10
10.886118738
 20
11.5762039678
 30
0.0
 10
10.9376923423
 20
11.5762043592
 30
0.0
  0
SPLINE
  5
2FD
100
AcDbEntity
  8
0
100
AcDbSpline
 62
9
  6
CONTINUOUS
 70
0
 71
3
 72
26
 73
22
 74
0
 42
0.0000001
 43
0.0000001
 44
0.0000000001
 40
0.0
 40
0.0
 40
0.0
 40
0.0
 40
0.0625917113
 40
0.1251868907
 40
0.1877728205
 40
0.250353693
 40
0.3129252199
 40
0.3754853046
 40
0.4380319547
 40
0.5005626498
 40
0.5318257067
 40
0.563083988
 40
0.6255761692
 40
0.6880456796
 40
0.7192756546
 40
0.750499282
 40
0.8129175286
 40
0.8753050133
 40
0.9064929803
 40
0.9376757966
 40
1.0
 40
1.0
 40
1.0
 40
1.0
 10
10.9376923423
 20
11.5762043592
 30
0.0
 10
10.9892659481
 20
11.576205024
 30
0.0
 10
11.0924496615
 20
11.5727344646
 30
0.0
 10
11.2464926144
 20
11.5571443298
 30
0.0
 10
11.39913849
 20
11.5312421045
 30
0.0
 10
11.549680769
 20
11.4951575148
 30
0.0
 10
11.6974393885
 20
11.4490491077
 30
0.0
 10
11.8417428945
 20
11.3931337065
 30
0.0
 10
11.9819373241
 20
11.3276813544
 30
0.0
 10
12.0948389746
 20
11.265433442
 30
0.0
 10
12.1824680672
 20
11.2111970316
 30
0.0
 10
12.2682052337
 20
11.1540733321
 30
0.0
 10
12.3716890154
 20
11.0773507415
 30
0.0
 10
12.469793795
 20
10.9938964035
 30
0.0
 10
12.5447671484
 20
10.9233443443
 30
0.0
 10
12.6173123957
 20
10.8503574164
 30
0.0
 10
12.7033292831
 20
10.7546717523
 30
0.0
 10
12.782768933
 20
10.6534983493
 30
0.0
 10
12.8421606876
 20
10.5695735861
 30
0.0
 10
12.898708387
 20
10.4837739398
 30
0.0
 10
12.9379018198
 20
10.4173546948
 30
0.0
 10
12.9625210335
 20
10.3722875869
 30
0.0
  0
SPLINE
  5
2FE
100
AcDbEntity
  8
0
100
AcDbSpline
 62
9
  6
CONTINUOUS
 70
0
 71
3
 72
27
 73
23
 74
0
 42
0.0000001
 43
0.0000001
 44
0.0000000001
 40
0.0
 40
0.0
 40
0.0
 40
0.0
 40
0.0623457674
 40
0.0935362442
 40
0.1247301243
 40
0.1871255929
 40
0.2495479191
 40
0.3119940073
 40
0.3744625716
 40
0.4369521581
 40
0.4994608769
 40
0.561986825
 40
0.6245279862
 40
0.655807987
 40
0.6870909434
 40
0.7183766512
 40
0.7496649269
 40
0.8122391601
 40
0.8748182169
 40
0.906115046
 40
0.9374153094
 40
1.0
 40
1.0
 40
1.0
 40
1.0
 10
12.9364414001
 20
10.3580339563
 30
0.0
 10
12.9121468316
 20
10.402549878
 30
0.0
 10
12.8734727534
 20
10.4681578457
 30
0.0
 10
12.8176598594
 20
10.5529020435
 30
0.0
 10
12.7590337714
 20
10.6357787396
 30
0.0
 10
12.6806094895
 20
10.7356791179
 30
0.0
 10
12.5787118266
 20
10.8490535194
 30
0.0
 10
12.4694191408
 20
10.9554079681
 30
0.0
 10
12.353221784
 20
11.054255135
 30
0.0
 10
12.2306338634
 20
11.1451419331
 30
0.0
 10
12.1021960545
 20
11.2276439167
 30
0.0
 10
11.9684813632
 20
11.301366703
 30
0.0
 10
11.8531480136
 20
11.3552069712
 30
0.0
 10
11.7588740383
 20
11.3935654626
 30
0.0
 10
11.6872241592
 20
11.419951823
 30
0.0
 10
11.6147223821
 20
11.4439195896
 30
0.0
 10
11.5170341268
 20
11.4726133914
 30
0.0
 10
11.3931860638
 20
11.5023003289
 30
0.0
 10
11.2676178878
 20
11.5236027973
 30
0.0
 10
11.1664823929
 20
11.5355563088
 30
0.0
 10
11.0650017409
 20
11.5441043694
 30
0.0
 10
10.9886005271
 20
11.5466763934
 30
0.0
 10
10.9376923423
 20
11.5466768002
 30
0.0
  0
SPLINE
  5
2FF
100
AcDbEntity
  8
0
100
AcDbSpline
 62
9
  6
CONTINUOUS
 70
0
 71
3
 72
25
 73
21
 74
0
 42
0.0000001
 43
0.0000001
 44
0.0000000001
 40
0.0
 40
0.0
 40
0.0
 40
0.0
 40
0.0625857967
 40
0.1251751542
 40
0.1877553345
 40
0.2503306873
 40
0.3128969657
 40
0.3754521703
 40
0.4379944851
 40
0.5005215268
 40
0.5317830771
 40
0.5630401268
 40
0.625530839
 40
0.6880004894
 40
0.7504477005
 40
0.8128711387
 40
0.8752677104
 40
0.9064621379
 40
0.9376531516
 40
1.0
 40
1.0
 40
1.0
 40
1.0
 10
10.9376923423
 20
11.5466768002
 30
0.0
 10
10.8867841594
 20
11.5466774206
 30
0.0
 10
10.7849317289
 20
11.5432508383
 30
0.0
 10
10.6328759703
 20
11.5278636267
 30
0.0
 10
10.4821986752
 20
11.5022975434
 30
0.0
 10
10.3335977867
 20
11.4666783606
 30
0.0
 10
10.1877431204
 20
11.4211672761
 30
0.0
 10
10.0452979789
 20
11.365974912
 30
0.0
 10
9.9069078492
 20
11.3013673921
 30
0.0
 10
9.7954584238
 20
11.239921881
 30
0.0
 10
9.7089559078
 20
11.1863832476
 30
0.0
 10
9.6243199387
 20
11.1299935217
 30
0.0
 10
9.5221608985
 20
11.0542542214
 30
0.0
 10
9.4059653625
 20
10.9554089957
 30
0.0
 10
9.2966732011
 20
10.8490529704
 30
0.0
 10
9.1947755871
 20
10.7356787998
 30
0.0
 10
9.1163512366
 20
10.635778406
 30
0.0
 10
9.0577251346
 20
10.552901752
 30
0.0
 10
9.001912061
 20
10.4681577167
 30
0.0
 10
8.9632378103
 20
10.4025498798
 30
0.0
 10
8.9389432845
 20
10.3580339563
 30
0.0
  0
SPLINE
  5
300
100
AcDbEntity
  8
0
100
AcDbSpline
 62
9
  6
CONTINUOUS
 70
0
 71
3
 72
11
 73
7
 74
0
 42
0.0000001
 43
0.0000001
 44
0.0000000001
 40
0.0
 40
0.0
 40
0.0
 40
0.0
 40
0.2451771212
 40
0.4937358891
 40
0.7455057941
 40
1.0
 40
1.0
 40
1.0
 40
1.0
 10
8.827495957
 20
10.3271886112
 30
0.0
 10
8.8331390759
 20
10.3268929335
 30
0.0
 10
8.8445803415
 20
10.3272773458
 30
0.0
 10
8.8614675175
 20
10.3308907265
 30
0.0
 10
8.8776535951
 20
10.3375209121
 30
0.0
 10
8.8874948053
 20
10.3439455059
 30
0.0
 10
8.8920814334
 20
10.347601749
 30
0.0
  0
SPLINE
  5
301
100
AcDbEntity
  8
0
100
AcDbSpline
 62
9
  6
CONTINUOUS
 70
0
 71
3
 72
12
 73
8
 74
0
 42
0.0000001
 43
0.0000001
 44
0.0000000001
 40
0.0
 40
0.0
 40
0.0
 40
0.0
 40
0.253983359
 40
0.5055799382
 40
0.630359446
 40
0.7544161859
 40
1.0
 40
1.0
 40
1.0
 40
1.0
 10
8.8920896903
 20
10.3120629825
 30
0.0
 10
8.8871351583
 20
10.3094708134
 30
0.0
 10
8.8769098686
 20
10.3049773532
 30
0.0
 10
8.8635492923
 20
10.3010803174
 30
0.0
 10
8.8527171479
 20
10.2990292758
 30
0.0
 10
8.8419085073
 20
10.2976968091
 30
0.0
 10
8.8337454102
 20
10.297471526
 30
0.0
 10
8.8283419904
 20
10.2976610521
 30
0.0
  0
SPLINE
  5
302
100
AcDbEntity
  8
0
100
AcDbSpline
 62
9
  6
CONTINUOUS
 70
0
 71
3
 72
15
 73
11
 74
0
 42
0.0000001
 43
0.0000001
 44
0.0000000001
 40
0.0
 40
0.0
 40
0.0
 40
0.0
 40
0.1512518932
 40
0.2964412368
 40
0.4344855815
 40
0.5646759803
 40
0.6864995033
 40
0.799664676
 40
0.9041006691
 40
1.0
 40
1.0
 40
1.0
 40
1.0
 10
11.0223993856
 20
7.1604831041
 30
0.0
 10
11.0229177191
 20
7.162716387
 30
0.0
 10
11.0240420909
 20
7.1670692703
 30
0.0
 10
11.0260304565
 20
7.1733513029
 30
0.0
 10
11.0282739752
 20
7.1792068995
 30
0.0
 10
11.0307497143
 20
7.184581332
 30
0.0
 10
11.0334370292
 20
7.1894271403
 30
0.0
 10
11.0363122386
 20
7.1937028351
 30
0.0
 10
11.0393514903
 20
7.1973668254
 30
0.0
 10
11.0415590988
 20
7.1994667904
 30
0.0
 10
11.042682964
 20
7.200388715
 30
0.0
  0
SPLINE
  5
303
100
AcDbEntity
  8
0
100
AcDbSpline
 62
9
  6
CONTINUOUS
 70
0
 71
3
 72
15
 73
11
 74
0
 42
0.0000001
 43
0.0000001
 44
0.0000000001
 40
0.0
 40
0.0
 40
0.0
 40
0.0
 40
0.1512493435
 40
0.296436925
 40
0.4344803801
 40
0.5646707427
 40
0.6864949977
 40
0.7996614851
 40
0.9040991058
 40
1.0
 40
1.0
 40
1.0
 40
1.0
 10
10.8529849278
 20
7.160482704
 30
0.0
 10
10.8524666068
 20
7.1627160233
 30
0.0
 10
10.8513422637
 20
7.1670689904
 30
0.0
 10
10.8493539582
 20
7.1733511733
 30
0.0
 10
10.8471105116
 20
7.1792069617
 30
0.0
 10
10.8446348533
 20
7.1845816294
 30
0.0
 10
10.8419476255
 20
7.1894277162
 30
0.0
 10
10.8390725078
 20
7.1937037304
 30
0.0
 10
10.8360333514
 20
7.1973680777
 30
0.0
 10
10.8338258083
 20
7.1994683153
 30
0.0
 10
10.8327019719
 20
7.2003903837
 30
0.0
  0
SPLINE
  5
304
100
AcDbEntity
  8
0
100
AcDbSpline
 62
9
  6
CONTINUOUS
 70
0
 71
3
 72
15
 73
11
 74
0
 42
0.0000001
 43
0.0000001
 44
0.0000000001
 40
0.0
 40
0.0
 40
0.0
 40
0.0
 40
0.1200880446
 40
0.2443040147
 40
0.3713913105
 40
0.5000000004
 40
0.6286086898
 40
0.7556959887
 40
0.8799119405
 40
1.0
 40
1.0
 40
1.0
 40
1.0
 10
10.8327018171
 20
7.2003893558
 30
0.0
 10
10.8411075385
 20
7.2004115731
 30
0.0
 10
10.8582075232
 20
7.2005695353
 30
0.0
 10
10.8842012322
 20
7.2009173743
 30
0.0
 10
10.9107922811
 20
7.2012085905
 30
0.0
 10
10.9376923424
 20
7.201321019
 30
0.0
 10
10.9645924039
 20
7.2012085911
 30
0.0
 10
10.9911834517
 20
7.200917377
 30
0.0
 10
11.0171771605
 20
7.2005695316
 30
0.0
 10
11.0342771451
 20
7.2004115657
 30
0.0
 10
11.0426828675
 20
7.2003893558
 30
0.0
  0
SPLINE
  5
305
100
AcDbEntity
  8
0
100
AcDbSpline
 62
9
  6
CONTINUOUS
 70
0
 71
3
 72
15
 73
11
 74
0
 42
0.0000001
 43
0.0000001
 44
0.0000000001
 40
0.0
 40
0.0
 40
0.0
 40
0.0
 40
0.1459964879
 40
0.286970784
 40
0.4222854436
 40
0.5514738578
 40
0.6741736185
 40
0.7900126025
 40
0.8986892278
 40
1.0
 40
1.0
 40
1.0
 40
1.0
 10
11.0426828675
 20
7.2003893558
 30
0.0
 10
11.0483190596
 20
7.2003748092
 30
0.0
 10
11.0593978364
 20
7.2003939676
 30
0.0
 10
11.0756989612
 20
7.200648026
 30
0.0
 10
11.0913440618
 20
7.2012005805
 30
0.0
 10
11.1062656681
 20
7.2021272758
 30
0.0
 10
11.1203985067
 20
7.2035041995
 30
0.0
 10
11.1336738105
 20
7.2054015761
 30
0.0
 10
11.1460117985
 20
7.2078882696
 30
0.0
 10
11.1538338966
 20
7.2100578493
 30
0.0
 10
11.1575495737
 20
7.2112787321
 30
0.0
  0
SPLINE
  5
306
100
AcDbEntity
  8
0
100
AcDbSpline
 62
9
  6
CONTINUOUS
 70
0
 71
3
 72
11
 73
7
 74
0
 42
0.0000001
 43
0.0000001
 44
0.0000000001
 40
0.0
 40
0.0
 40
0.0
 40
0.0
 40
0.255144447
 40
0.5082413524
 40
0.7571964865
 40
1.0
 40
1.0
 40
1.0
 40
1.0
 10
10.9376923423
 20
7.1522362727
 30
0.0
 10
10.9304428236
 20
7.1522362727
 30
0.0
 10
10.9159995856
 20
7.1525820615
 30
0.0
 10
10.8945327192
 20
7.1541324568
 30
0.0
 10
10.873516614
 20
7.1567002167
 30
0.0
 10
10.8597449893
 20
7.1591067383
 30
0.0
 10
10.8529846713
 20
7.1604824278
 30
0.0
  0
SPLINE
  5
307
100
AcDbEntity
  8
0
100
AcDbSpline
 62
9
  6
CONTINUOUS
 70
0
 71
3
 72
26
 73
22
 74
0
 42
0.0000001
 43
0.0000001
 44
0.0000000001
 40
0.0
 40
0.0
 40
0.0
 40
0.0
 40
0.0950033061
 40
0.1856724294
 40
0.271665925
 40
0.352784787
 40
0.4289116428
 40
0.4999405143
 40
0.5658041598
 40
0.6265205322
 40
0.6822120726
 40
0.7332096148
 40
0.780097172
 40
0.8238554287
 40
0.8450131696
 40
0.8659504635
 40
0.8869040964
 40
0.9081148611
 40
0.9298175543
 40
0.9522392973
 40
1.0
 40
1.0
 40
1.0
 40
1.0
 10
11.0224000133
 20
7.1604824278
 30
0.0
 10
11.0270377628
 20
7.1600709383
 30
0.0
 10
11.0361001053
 20
7.1592491994
 30
0.0
 10
11.0493623629
 20
7.1580766437
 30
0.0
 10
11.0619570914
 20
7.157083484
 30
0.0
 10
11.0738563138
 20
7.1563518149
 30
0.0
 10
11.0850387988
 20
7.1559629974
 30
0.0
 10
11.0954817323
 20
7.1559903257
 30
0.0
 10
11.1051580727
 20
7.1565012318
 30
0.0
 10
11.1140360452
 20
7.1575627164
 30
0.0
 10
11.1220814016
 20
7.159234072
 30
0.0
 10
11.1292538837
 20
7.16158
 30
0.0
 10
11.1355072468
 20
7.1646570012
 30
0.0
 10
11.1399509319
 20
7.1679271697
 30
0.0
 10
11.1429126178
 20
7.1709258789
 30
0.0
 10
11.1448367643
 20
7.1733518367
 30
0.0
 10
11.1464779672
 20
7.1759806612
 30
0.0
 10
11.1478298532
 20
7.1788108052
 30
0.0
 10
11.1488871011
 20
7.1818400332
 30
0.0
 10
11.1499183602
 20
7.1862300858
 30
0.0
 10
11.150191724
 20
7.1896845887
 30
0.0
 10
11.1501917232
 20
7.1920252686
 30
0.0
  0
SPLINE
  5
308
100
AcDbEntity
  8
0
100
AcDbSpline
 62
9
  6
CONTINUOUS
 70
0
 71
3
 72
11
 73
7
 74
0
 42
0.0000001
 43
0.0000001
 44
0.0000000001
 40
0.0
 40
0.0
 40
0.0
 40
0.0
 40
0.2428035135
 40
0.4917586476
 40
0.744855553
 40
1.0
 40
1.0
 40
1.0
 40
1.0
 10
11.0224000133
 20
7.1604824278
 30
0.0
 10
11.0156396953
 20
7.1591067383
 30
0.0
 10
11.0018680706
 20
7.1567002167
 30
0.0
 10
10.9808519654
 20
7.1541324568
 30
0.0
 10
10.959385099
 20
7.1525820615
 30
0.0
 10
10.944941861
 20
7.1522362727
 30
0.0
 10
10.9376923423
 20
7.1522362727
 30
0.0
  0
SPLINE
  5
309
100
AcDbEntity
  8
0
100
AcDbSpline
 62
9
  6
CONTINUOUS
 70
0
 71
3
 72
29
 73
25
 74
0
 42
0.0000001
 43
0.0000001
 44
0.0000000001
 40
0.0
 40
0.0
 40
0.0
 40
0.0
 40
0.0625958402
 40
0.0939017517
 40
0.1252041318
 40
0.1877939158
 40
0.2503785554
 40
0.2816718918
 40
0.3129624879
 40
0.3442501367
 40
0.3755346296
 40
0.4380840147
 40
0.5006168719
 40
0.5631308042
 40
0.6256232985
 40
0.6568650766
 40
0.6881004508
 40
0.7193291608
 40
0.7505509603
 40
0.8129633776
 40
0.8753414835
 40
0.9065229496
 40
0.9376976918
 40
1.0
 40
1.0
 40
1.0
 40
1.0
 10
10.9376923423
 20
11.6122191748
 30
0.0
 10
10.8854420231
 20
11.6122189086
 30
0.0
 10
10.8070264842
 20
11.609579329
 30
0.0
 10
10.7028704884
 20
11.600804314
 30
0.0
 10
10.5990693864
 20
11.5885321524
 30
0.0
 10
10.4701929
 20
11.5666607655
 30
0.0
 10
10.3430836498
 20
11.536180501
 30
0.0
 10
10.2428245218
 20
11.5067203738
 30
0.0
 10
10.1684161362
 20
11.4821115936
 30
0.0
 10
10.0948839079
 20
11.4550179065
 30
0.0
 10
9.9981369334
 20
11.415628235
 30
0.0
 10
9.8797848088
 20
11.3603377674
 30
0.0
 10
9.7425821179
 20
11.2846241577
 30
0.0
 10
9.610816116
 20
11.1998894887
 30
0.0
 10
9.5060165787
 20
11.1220727297
 30
0.0
 10
9.42549032
 20
11.0557359693
 30
0.0
 10
9.3668116667
 20
11.0039927861
 30
0.0
 10
9.3099160656
 20
10.9503196118
 30
0.0
 10
9.2365338619
 20
10.876281959
 30
0.0
 10
9.1495661775
 20
10.7792094264
 30
0.0
 10
9.0693347803
 20
10.6765434155
 30
0.0
 10
9.0094252316
 20
10.5913652362
 30
0.0
 10
8.9524462098
 20
10.5042800122
 30
0.0
 10
8.9130251131
 20
10.4368533096
 30
0.0
 10
8.8883018681
 20
10.3911005779
 30
0.0
  0
SPLINE
  5
30A
100
AcDbEntity
  8
0
100
AcDbSpline
 62
9
  6
CONTINUOUS
 70
0
 71
3
 72
15
 73
11
 74
0
 42
0.0000001
 43
0.0000001
 44
0.0000000001
 40
0.0
 40
0.0
 40
0.0
 40
0.0
 40
0.128297806
 40
0.2560226425
 40
0.3828009911
 40
0.5085733188
 40
0.63323952
 40
0.756709762
 40
0.8790090723
 40
1.0
 40
1.0
 40
1.0
 40
1.0
 10
8.8883018681
 20
10.3911005779
 30
0.0
 10
8.8871653082
 20
10.3890288099
 30
0.0
 10
8.8846063847
 20
10.3850468621
 30
0.0
 10
8.8800045191
 20
10.3796772717
 30
0.0
 10
8.8747401769
 20
10.3750225748
 30
0.0
 10
8.8689250729
 20
10.3711791855
 30
0.0
 10
8.8626866803
 20
10.3682093921
 30
0.0
 10
8.8561545316
 20
10.366160627
 30
0.0
 10
8.8494666212
 20
10.3650673662
 30
0.0
 10
8.8449695451
 20
10.3649692896
 30
0.0
 10
8.8427436328
 20
10.3650759353
 30
0.0
  0
LINE
  5
30B
100
AcDbEntity
  8
0
100
AcDbLine
 62
9
  6
CONTINUOUS
 10
8.8427436328
 20
10.3650759353
 11
8.5825140008
 21
10.3602808384
  0
SPLINE
  5
30C
100
AcDbEntity
  8
0
100
AcDbSpline
 62
9
  6
CONTINUOUS
 70
0
 71
3
 72
19
 73
15
 74
0
 42
0.0000001
 43
0.0000001
 44
0.0000000001
 40
0.0
 40
0.0
 40
0.0
 40
0.0
 40
0.0303935583
 40
0.0629035447
 40
0.099119547
 40
0.1401131348
 40
0.1864716329
 40
0.2384598592
 40
0.2960586689
 40
0.3590599624
 40
0.4998126656
 40
0.6569019845
 40
0.8255730856
 40
1.0
 40
1.0
 40
1.0
 40
1.0
 10
13.0423331812
 20
10.2779760128
 30
0.0
 10
13.0425562958
 20
10.2779760128
 30
0.0
 10
13.0430202347
 20
10.2780452495
 30
0.0
 10
13.0436913712
 20
10.2783439604
 30
0.0
 10
13.0443412097
 20
10.2788287205
 30
0.0
 10
13.0449654513
 20
10.2794915937
 30
0.0
 10
13.0455625038
 20
10.2803250566
 30
0.0
 10
13.0461276252
 20
10.2813225705
 30
0.0
 10
13.0466568039
 20
10.2824750869
 30
0.0
 10
13.0473328933
 20
10.2842719257
 30
0.0
 10
13.0480357753
 20
10.2868315671
 30
0.0
 10
13.0486436252
 20
10.2902052995
 30
0.0
 10
13.049017647
 20
10.2938611588
 30
0.0
 10
13.0491017843
 20
10.2963806101
 30
0.0
 10
13.0491017931
 20
10.2976610521
 30
0.0
  0
SPLINE
  5
30D
100
AcDbEntity
  8
0
100
AcDbSpline
 62
7
  6
CONTINUOUS
 70
0
 71
3
 72
18
 73
14
 74
0
 42
0.0000001
 43
0.0000001
 44
0.0000000001
 40
0.0
 40
0.0
 40
0.0
 40
0.0
 40
0.1630015699
 40
0.2433090211
 40
0.3219375394
 40
0.4722394451
 40
0.6106728306
 40
0.7342358209
 40
0.8404216872
 40
0.8865278223
 40
0.9280802173
 40
0.9656257846
 40
1.0
 40
1.0
 40
1.0
 40
1.0
 10
13.0470426941
 20
10.2976610521
 30
0.0
 10
13.0470605679
 20
10.2965500993
 30
0.0
 10
13.047017805
 20
10.2948903723
 30
0.0
 10
13.0468698985
 20
10.2927008559
 30
0.0
 10
13.0466832333
 20
10.2906011338
 30
0.0
 10
13.0463681983
 20
10.2881150475
 30
0.0
 10
13.0457951368
 20
10.285359965
 30
0.0
 10
13.0450603323
 20
10.282956394
 30
0.0
 10
13.0443115732
 20
10.2812248515
 30
0.0
 10
13.0436484769
 20
10.2800801924
 30
0.0
 10
13.0431485962
 20
10.2793861885
 30
0.0
 10
13.0426163175
 20
10.2788210738
 30
0.0
 10
13.0422205666
 20
10.2785260814
 30
0.0
 10
13.0420197578
 20
10.2784053442
 30
0.0
  0
LINE
  5
30E
100
AcDbEntity
  8
0
100
AcDbLine
 62
7
  6
CONTINUOUS
 10
13.0420197578
 20
10.2784053442
 11
13.0406681984
 21
10.2779760128
  0
SPLINE
  5
30F
100
AcDbEntity
  8
0
100
AcDbSpline
 62
9
  6
CONTINUOUS
 70
0
 71
3
 72
21
 73
17
 74
0
 42
0.0000001
 43
0.0000001
 44
0.0000000001
 40
0.0
 40
0.0
 40
0.0
 40
0.0
 40
0.0083404041
 40
0.0172977093
 40
0.0273821927
 40
0.0389457999
 40
0.0672950827
 40
0.1032947652
 40
0.1470888983
 40
0.1985407785
 40
0.2572691175
 40
0.3227472743
 40
0.4714071748
 40
0.6385035584
 40
0.8172987945
 40
1.0
 40
1.0
 40
1.0
 40
1.0
 10
12.9698094289
 20
10.2947906631
 30
0.0
 10
12.9698637694
 20
10.2947598269
 30
0.0
 10
12.9699867545
 20
10.2947126921
 30
0.0
 10
12.9701930319
 20
10.2946940209
 30
0.0
 10
12.9704218042
 20
10.2947237622
 30
0.0
 10
12.9707811061
 20
10.2948340196
 30
0.0
 10
12.9712854143
 20
10.2951062362
 30
0.0
 10
12.9719367936
 20
10.2955897563
 30
0.0
 10
12.9726681392
 20
10.296248709
 30
0.0
 10
12.9734712499
 20
10.2970774362
 30
0.0
 10
12.9743382674
 20
10.2980679401
 30
0.0
 10
12.9756217578
 20
10.2996594086
 30
0.0
 10
12.9772997877
 20
10.3019725751
 30
0.0
 10
12.9793289501
 20
10.3050735334
 30
0.0
 10
12.981359555
 20
10.308474237
 30
0.0
 10
12.9826601317
 20
10.3108503943
 30
0.0
 10
12.9832942906
 20
10.3120632747
 30
0.0
  0
SPLINE
  5
310
100
AcDbEntity
  8
0
100
AcDbSpline
 62
9
  6
CONTINUOUS
 70
0
 71
3
 72
26
 73
22
 74
0
 42
0.0000001
 43
0.0000001
 44
0.0000000001
 40
0.0
 40
0.0
 40
0.0
 40
0.0
 40
0.183546392
 40
0.2751379673
 40
0.3650660909
 40
0.4523536441
 40
0.5360158423
 40
0.6150988238
 40
0.6886673026
 40
0.7558210711
 40
0.8158203381
 40
0.8679744167
 40
0.9117140762
 40
0.9303103148
 40
0.9466719049
 40
0.9607726439
 40
0.9726153333
 40
0.9822489532
 40
0.9897865683
 40
0.995492477
 40
1.0
 40
1.0
 40
1.0
 40
1.0
 10
12.9364414002
 20
10.3580339563
 30
0.0
 10
12.9352473219
 20
10.3572706151
 30
0.0
 10
12.9334328094
 20
10.3561638213
 30
0.0
 10
12.9309727736
 20
10.3547871367
 30
0.0
 10
12.9291354372
 20
10.3538212218
 30
0.0
 10
12.9273327632
 20
10.3529221457
 30
0.0
 10
12.9255899021
 20
10.3520915264
 30
0.0
 10
12.9239307084
 20
10.3513321351
 30
0.0
 10
12.922377728
 20
10.350647408
 30
0.0
 10
12.9209519647
 20
10.3500396916
 30
0.0
 10
12.9196697437
 20
10.3495172308
 30
0.0
 10
12.9185452842
 20
10.3490874526
 30
0.0
 10
12.9177098211
 20
10.3487976199
 30
0.0
 10
12.9171281389
 20
10.3486215824
 30
0.0
 10
12.9167619629
 20
10.3485242601
 30
0.0
 10
12.9164425944
 20
10.3484548818
 30
0.0
 10
12.9161707462
 20
10.3484138589
 30
0.0
 10
12.9159466116
 20
10.3484004694
 30
0.0
 10
12.9157698397
 20
10.3484148685
 30
0.0
 10
12.9156370432
 20
10.3484566685
 30
0.0
 10
12.9155762088
 20
10.3485134516
 30
0.0
 10
12.9155596252
 20
10.3485440507
 30
0.0
  0
SPLINE
  5
311
100
AcDbEntity
  8
0
100
AcDbSpline
 62
9
  6
CONTINUOUS
 70
0
 71
3
 72
24
 73
20
 74
0
 42
0.0000001
 43
0.0000001
 44
0.0000000001
 40
0.0
 40
0.0
 40
0.0
 40
0.0
 40
0.18326967
 40
0.3645514466
 40
0.5351435419
 40
0.6140112723
 40
0.6873550823
 40
0.7542922773
 40
0.8140971353
 40
0.8660976311
 40
0.9097447137
 40
0.9283277183
 40
0.9447065036
 40
0.9588656235
 40
0.9708243644
 40
0.9806582697
 40
0.9885233524
 40
0.9947470002
 40
1.0
 40
1.0
 40
1.0
 40
1.0
 10
8.9389432839
 20
10.3580339563
 30
0.0
 10
8.9401663054
 20
10.3573185881
 30
0.0
 10
8.942616234
 20
10.3559247158
 30
0.0
 10
8.9462588831
 20
10.3539624102
 30
0.0
 10
8.9492265322
 20
10.3524507897
 30
0.0
 10
8.9514713369
 20
10.3513602434
 30
0.0
 10
8.953005236
 20
10.3506406112
 30
0.0
 10
8.9544156767
 20
10.3500052243
 30
0.0
 10
8.9556867352
 20
10.3494626707
 30
0.0
 10
8.9568044871
 20
10.349020694
 30
0.0
 10
8.9576378925
 20
10.3487272563
 30
0.0
 10
8.9582202602
 20
10.3485530829
 30
0.0
 10
8.9585883276
 20
10.3484590455
 30
0.0
 10
8.9589107901
 20
10.3483949744
 30
0.0
 10
8.9591870201
 20
10.348361265
 30
0.0
 10
8.9594169038
 20
10.348357419
 30
0.0
 10
8.9596010465
 20
10.3483835458
 30
0.0
 10
8.959741817
 20
10.3484411574
 30
0.0
 10
8.9598056283
 20
10.3485082117
 30
0.0
 10
8.9598249838
 20
10.348543914
 30
0.0
  0
SPLINE
  5
312
100
AcDbEntity
  8
0
100
AcDbSpline
 62
9
  6
CONTINUOUS
 70
0
 71
3
 72
21
 73
17
 74
0
 42
0.0000001
 43
0.0000001
 44
0.0000000001
 40
0.0
 40
0.0
 40
0.0
 40
0.0
 40
0.0083271249
 40
0.0172737797
 40
0.027350055
 40
0.0389073623
 40
0.0672477724
 40
0.1032410585
 40
0.1470299511
 40
0.1984773109
 40
0.2572019548
 40
0.322677582
 40
0.4713378425
 40
0.6384446292
 40
0.817262692
 40
1.0
 40
1.0
 40
1.0
 40
1.0
 10
8.9055701685
 20
10.2947999719
 30
0.0
 10
8.9055159293
 20
10.294769229
 30
0.0
 10
8.9053931429
 20
10.2947222761
 30
0.0
 10
8.9051872037
 20
10.2947038344
 30
0.0
 10
8.9049587758
 20
10.2947337445
 30
0.0
 10
8.9045999315
 20
10.2948441714
 30
0.0
 10
8.9040962089
 20
10.2951164338
 30
0.0
 10
8.9034454737
 20
10.2955997975
 30
0.0
 10
8.9027147374
 20
10.2962584212
 30
0.0
 10
8.9019121897
 20
10.297086656
 30
0.0
 10
8.9010456816
 20
10.2980765227
 30
0.0
 10
8.8997627898
 20
10.2996669532
 30
0.0
 10
8.8980852735
 20
10.3019785962
 30
0.0
 10
8.8960563891
 20
10.3050775676
 30
0.0
 10
8.8940256937
 20
10.30847625
 30
0.0
 10
8.89272486
 20
10.3108510482
 30
0.0
 10
8.8920905125
 20
10.3120632749
 30
0.0
  0
SPLINE
  5
313
100
AcDbEntity
  8
0
100
AcDbSpline
 62
7
  6
CONTINUOUS
 70
0
 71
3
 72
18
 73
14
 74
0
 42
0.0000001
 43
0.0000001
 44
0.0000000001
 40
0.0
 40
0.0
 40
0.0
 40
0.0
 40
0.1630168318
 40
0.24332989
 40
0.321962568
 40
0.4722685646
 40
0.6107007522
 40
0.7342578543
 40
0.8404280241
 40
0.8865167026
 40
0.9280508678
 40
0.9655933099
 40
1.0
 40
1.0
 40
1.0
 40
1.0
 10
8.8283419905
 20
10.2976610521
 30
0.0
 10
8.8283240529
 20
10.2965498635
 30
0.0
 10
8.8283664717
 20
10.294889797
 30
0.0
 10
8.8285138023
 20
10.2926998063
 30
0.0
 10
8.8286999619
 20
10.2905996917
 30
0.0
 10
8.8290145446
 20
10.2881131921
 30
0.0
 10
8.8295873969
 20
10.2853577356
 30
0.0
 10
8.8303223641
 20
10.2829540414
 30
0.0
 10
8.831071356
 20
10.2812226639
 30
0.0
 10
8.8317341817
 20
10.2800780772
 30
0.0
 10
8.8322339272
 20
10.2793841665
 30
0.0
 10
8.8327666506
 20
10.2788191867
 30
0.0
 10
8.8331631032
 20
10.2785246566
 30
0.0
 10
8.8333643302
 20
10.2784041315
 30
0.0
  0
LINE
  5
314
100
AcDbEntity
  8
0
100
AcDbLine
 62
7
  6
CONTINUOUS
 10
8.8333643302
 20
10.2784041315
 11
8.8347164863
 21
10.2779760128
  0
SPLINE
  5
315
100
AcDbEntity
  8
0
100
AcDbSpline
 62
9
  6
CONTINUOUS
 70
0
 71
3
 72
19
 73
15
 74
0
 42
0.0000001
 43
0.0000001
 44
0.0000000001
 40
0.0
 40
0.0
 40
0.0
 40
0.0
 40
0.0289185554
 40
0.0605278982
 40
0.0964465879
 40
0.1375884845
 40
0.1842708096
 40
0.2365750258
 40
0.2944408215
 40
0.3576766327
 40
0.498835551
 40
0.6562705057
 40
0.8252618337
 40
1.0
 40
1.0
 40
1.0
 40
1.0
 10
8.8330515034
 20
10.2779760128
 30
0.0
 10
8.8328395857
 20
10.2779760128
 30
0.0
 10
8.8323940647
 20
10.2780474086
 30
0.0
 10
8.8317470859
 20
10.2783479355
 30
0.0
 10
8.8311089387
 20
10.2788320593
 30
0.0
 10
8.83048322
 20
10.2794925953
 30
0.0
 10
8.8298770976
 20
10.280324376
 30
0.0
 10
8.8293019638
 20
10.2813216064
 30
0.0
 10
8.8287641591
 20
10.282474356
 30
0.0
 10
8.8280776401
 20
10.2842708156
 30
0.0
 10
8.8273636756
 20
10.286830294
 30
0.0
 10
8.8267478024
 20
10.2902046482
 30
0.0
 10
8.826369277
 20
10.2938608784
 30
0.0
 10
8.8262832978
 20
10.2963805557
 30
0.0
 10
8.8262828927
 20
10.2976610521
 30
0.0
  0
SPLINE
  5
316
100
AcDbEntity
  8
0
100
AcDbSpline
 62
9
  6
CONTINUOUS
 70
0
 71
3
 72
12
 73
8
 74
0
 42
0.0000001
 43
0.0000001
 44
0.0000000001
 40
0.0
 40
0.0
 40
0.0
 40
0.0
 40
0.0951246511
 40
0.1947266769
 40
0.4175577447
 40
0.6843174688
 40
1.0
 40
1.0
 40
1.0
 40
1.0
 10
13.0423331812
 20
10.3468736505
 30
0.0
 10
13.0424731927
 20
10.3468736505
 30
0.0
 10
13.0427605191
 20
10.3468437076
 30
0.0
 10
13.0433512634
 20
10.3466629948
 30
0.0
 10
13.0440982403
 20
10.3461957701
 30
0.0
 10
13.0449320456
 20
10.3453444336
 30
0.0
 10
13.0454229395
 20
10.3446369361
 30
0.0
 10
13.0456638757
 20
10.3442396395
 30
0.0
  0
SPLINE
  5
317
100
AcDbEntity
  8
0
100
AcDbSpline
 62
9
  6
CONTINUOUS
 70
0
 71
3
 72
13
 73
9
 74
0
 42
0.0000001
 43
0.0000001
 44
0.0000000001
 40
0.0
 40
0.0
 40
0.0
 40
0.0
 40
0.091918072
 40
0.1959539061
 40
0.3112484693
 40
0.4364089063
 40
0.7095578086
 40
1.0
 40
1.0
 40
1.0
 40
1.0
 10
13.0456638757
 20
10.3442396395
 30
0.0
 10
13.0459429571
 20
10.3437794427
 30
0.0
 10
13.046468417
 20
10.3427559015
 30
0.0
 10
13.0471354344
 20
10.3410576974
 30
0.0
 10
13.0477201059
 20
10.3391252049
 30
0.0
 10
13.0483969506
 20
10.3361932328
 30
0.0
 10
13.0489531145
 20
10.3321908087
 30
0.0
 10
13.0491012553
 20
10.3288892365
 30
0.0
 10
13.0491017915
 20
10.3271886112
 30
0.0
  0
SPLINE
  5
318
100
AcDbEntity
  8
0
100
AcDbSpline
 62
9
  6
CONTINUOUS
 70
0
 71
3
 72
20
 73
16
 74
0
 42
0.0000001
 43
0.0000001
 44
0.0000000001
 40
0.0
 40
0.0
 40
0.0
 40
0.0
 40
0.0164940448
 40
0.0262216892
 40
0.0373575542
 40
0.0645623232
 40
0.099030334
 40
0.1409767141
 40
0.1903294207
 40
0.2468991265
 40
0.3103334355
 40
0.4558857684
 40
0.6228267421
 40
0.8062653826
 40
1.0
 40
1.0
 40
1.0
 40
1.0
 10
12.9918453387
 20
10.3627372471
 30
0.0
 10
12.9919192325
 20
10.3626733445
 30
0.0
 10
12.9920042743
 20
10.3625331643
 30
0.0
 10
12.9920552557
 20
10.3623176739
 30
0.0
 10
12.9920769915
 20
10.3620325846
 30
0.0
 10
12.9920273797
 20
10.3616012457
 30
0.0
 10
12.9918730416
 20
10.3610063348
 30
0.0
 10
12.9916195997
 20
10.3603049638
 30
0.0
 10
12.9912687647
 20
10.3595020508
 30
0.0
 10
12.9908222242
 20
10.3586034757
 30
0.0
 10
12.9900683839
 20
10.3572227025
 30
0.0
 10
12.9889083861
 20
10.3553207464
 30
0.0
 10
12.9872694935
 20
10.3528823194
 30
0.0
 10
12.9853767405
 20
10.3502732354
 30
0.0
 10
12.984009779
 20
10.3485058447
 30
0.0
 10
12.9832948759
 20
10.3476082907
 30
0.0
  0
SPLINE
  5
319
100
AcDbEntity
  8
0
100
AcDbSpline
 62
7
  6
CONTINUOUS
 70
0
 71
3
 72
18
 73
14
 74
0
 42
0.0000001
 43
0.0000001
 44
0.0000000001
 40
0.0
 40
0.0
 40
0.0
 40
0.0
 40
0.1617267077
 40
0.241527209
 40
0.3197708968
 40
0.4696674115
 40
0.6080657612
 40
0.7319327512
 40
0.838733856
 40
0.8851997554
 40
0.9271382442
 40
0.9651224043
 40
1.0
 40
1.0
 40
1.0
 40
1.0
 10
13.0478887276
 20
10.3271886112
 30
0.0
 10
13.0478614957
 20
10.3283037009
 30
0.0
 10
13.0477612013
 20
10.3299679947
 30
0.0
 10
13.0475343064
 20
10.3321618724
 30
0.0
 10
13.0472613757
 20
10.3342682917
 30
0.0
 10
13.0468312245
 20
10.3367613741
 30
0.0
 10
13.0461361818
 20
10.33952123
 30
0.0
 10
13.0452937239
 20
10.3419271968
 30
0.0
 10
13.0444635164
 20
10.3436555071
 30
0.0
 10
13.043746436
 20
10.3447966748
 30
0.0
 10
13.0432126076
 20
10.3454880552
 30
0.0
 10
13.042650296
 20
10.346049462
 30
0.0
 10
13.0422366018
 20
10.3463404841
 30
0.0
 10
13.0420274898
 20
10.3464593796
 30
0.0
  0
LINE
  5
31A
100
AcDbEntity
  8
0
100
AcDbLine
 62
7
  6
CONTINUOUS
 10
13.0420274898
 20
10.3464593796
 11
13.0406681984
 21
10.3468736505
  0
SPLINE
  5
31B
100
AcDbEntity
  8
0
100
AcDbSpline
 62
9
  6
CONTINUOUS
 70
0
 71
3
 72
24
 73
20
 74
0
 42
0.0000001
 43
0.0000001
 44
0.0000000001
 40
0.0
 40
0.0
 40
0.0
 40
0.0
 40
0.2003509876
 40
0.2964849369
 40
0.3887259837
 40
0.5588802498
 40
0.6356076248
 40
0.7060431478
 40
0.7696968858
 40
0.8260965087
 40
0.8748588212
 40
0.915698712
 40
0.9483647662
 40
0.9615942701
 40
0.9727842901
 40
0.9820008074
 40
0.9893757498
 40
0.9951844987
 40
1.0
 40
1.0
 40
1.0
 40
1.0
 10
12.9625208666
 20
10.3722875869
 30
0.0
 10
12.9634557492
 20
10.3728811683
 30
0.0
 10
12.9648395119
 20
10.373759103
 30
0.0
 10
12.9666590682
 20
10.3749018211
 30
0.0
 10
12.9683426269
 20
10.3759471707
 30
0.0
 10
12.9699374421
 20
10.3769322435
 30
0.0
 10
12.9714115402
 20
10.3778827873
 30
0.0
 10
12.972378965
 20
10.3785324638
 30
0.0
 10
12.9732399147
 20
10.379138756
 30
0.0
 10
12.9739869087
 20
10.3796981976
 30
0.0
 10
12.9746146255
 20
10.3802057679
 30
0.0
 10
12.9751203521
 20
10.3806543852
 30
0.0
 10
12.975459754
 20
10.3809937958
 30
0.0
 10
12.9756652593
 20
10.3812334515
 30
0.0
 10
12.9757765274
 20
10.3813826269
 30
0.0
 10
12.9758563417
 20
10.3815142276
 30
0.0
 10
12.9759047093
 20
10.3816288553
 30
0.0
 10
12.975921809
 20
10.3817283331
 30
0.0
 10
12.9759078878
 20
10.3817878758
 30
0.0
 10
12.9758952094
 20
10.3818112791
 30
0.0
  0
SPLINE
  5
31C
100
AcDbEntity
  8
0
100
AcDbSpline
 62
9
  6
CONTINUOUS
 70
0
 71
3
 72
20
 73
16
 74
0
 42
0.0000001
 43
0.0000001
 44
0.0000000001
 40
0.0
 40
0.0
 40
0.0
 40
0.0
 40
0.0164932953
 40
0.026220962
 40
0.0373571036
 40
0.0645630705
 40
0.0990329365
 40
0.1409815965
 40
0.1903367623
 40
0.2469088781
 40
0.3103453449
 40
0.4559003794
 40
0.6228407406
 40
0.8062745837
 40
1.0
 40
1.0
 40
1.0
 40
1.0
 10
8.8835392087
 20
10.3627374119
 30
0.0
 10
8.8834653196
 20
10.362673507
 30
0.0
 10
8.8833802914
 20
10.3625333176
 30
0.0
 10
8.8833293311
 20
10.36231782
 30
0.0
 10
8.8833076208
 20
10.362032713
 30
0.0
 10
8.8833572706
 20
10.3616013487
 30
0.0
 10
8.8835116588
 20
10.3610064034
 30
0.0
 10
8.8837651581
 20
10.360304993
 30
0.0
 10
8.884116055
 20
10.3595020383
 30
0.0
 10
8.8845626598
 20
10.3586034223
 30
0.0
 10
8.885316586
 20
10.3572226047
 30
0.0
 10
8.8864766783
 20
10.3553206153
 30
0.0
 10
8.8881156599
 20
10.3528821838
 30
0.0
 10
8.890008461
 20
10.3502731476
 30
0.0
 10
8.8913754392
 20
10.3485058078
 30
0.0
 10
8.892090344
 20
10.3476082902
 30
0.0
  0
SPLINE
  5
31D
100
AcDbEntity
  8
0
100
AcDbSpline
 62
9
  6
CONTINUOUS
 70
0
 71
3
 72
21
 73
17
 74
0
 42
0.0000001
 43
0.0000001
 44
0.0000000001
 40
0.0
 40
0.0
 40
0.0
 40
0.0
 40
0.2000590961
 40
0.3882388285
 40
0.5583495917
 40
0.7055492603
 40
0.7692294445
 40
0.8256421707
 40
0.8743948886
 40
0.9152171122
 40
0.9478891863
 40
0.9723629104
 40
0.9816459197
 40
0.9891131816
 40
0.9950429915
 40
1.0
 40
1.0
 40
1.0
 40
1.0
 10
8.912863611
 20
10.3722875869
 30
0.0
 10
8.9119114576
 20
10.372851467
 30
0.0
 10
8.9100700444
 20
10.3739565077
 30
0.0
 10
8.907439251
 20
10.3755744452
 30
0.0
 10
8.9050785024
 20
10.377072944
 30
0.0
 10
8.9033300682
 20
10.3782502961
 30
0.0
 10
8.9021305388
 20
10.3791148239
 30
0.0
 10
8.9013871798
 20
10.3796804653
 30
0.0
 10
8.9007611653
 20
10.380190766
 30
0.0
 10
8.9002557271
 20
10.380640573
 30
0.0
 10
8.8998741055
 20
10.3810255468
 30
0.0
 10
8.899640208
 20
10.3813109268
 30
0.0
 10
8.8995240942
 20
10.3815078108
 30
0.0
 10
8.8994769714
 20
10.3816247689
 30
0.0
 10
8.8994613033
 20
10.3817265459
 30
0.0
 10
8.8994760962
 20
10.3817873448
 30
0.0
 10
8.8994891514
 20
10.3818114561
 30
0.0
  0
SPLINE
  5
31E
100
AcDbEntity
  8
0
100
AcDbSpline
 62
9
  6
CONTINUOUS
 70
0
 71
3
 72
11
 73
7
 74
0
 42
0.0000001
 43
0.0000001
 44
0.0000000001
 40
0.0
 40
0.0
 40
0.0
 40
0.0
 40
0.2010870049
 40
0.4257006324
 40
0.6893938575
 40
1.0
 40
1.0
 40
1.0
 40
1.0
 10
8.8330515034
 20
10.3468736505
 30
0.0
 10
8.832751963
 20
10.3468736505
 30
0.0
 10
8.8321137114
 20
10.3467432976
 30
0.0
 10
8.8312242737
 20
10.3462020032
 30
0.0
 10
8.8303868364
 20
10.3453445086
 30
0.0
 10
8.8299039457
 20
10.3446339617
 30
0.0
 10
8.8296672307
 20
10.3442364198
 30
0.0
  0
SPLINE
  5
31F
100
AcDbEntity
  8
0
100
AcDbSpline
 62
9
  6
CONTINUOUS
 70
0
 71
3
 72
13
 73
9
 74
0
 42
0.0000001
 43
0.0000001
 44
0.0000000001
 40
0.0
 40
0.0
 40
0.0
 40
0.0
 40
0.0916933964
 40
0.1956147604
 40
0.3108672284
 40
0.4360438621
 40
0.7093445705
 40
1.0
 40
1.0
 40
1.0
 40
1.0
 10
8.8296672307
 20
10.3442364198
 30
0.0
 10
8.8293928444
 20
10.3437756123
 30
0.0
 10
8.8288760533
 20
10.3427513972
 30
0.0
 10
8.8282197716
 20
10.3410535788
 30
0.0
 10
8.8276444786
 20
10.3391214561
 30
0.0
 10
8.8269778465
 20
10.3361897987
 30
0.0
 10
8.8264281811
 20
10.3321888571
 30
0.0
 10
8.8262829035
 20
10.3288886487
 30
0.0
 10
8.8262828916
 20
10.3271886112
 30
0.0
  0
SPLINE
  5
320
100
AcDbEntity
  8
0
100
AcDbSpline
 62
7
  6
CONTINUOUS
 70
0
 71
3
 72
17
 73
13
 74
0
 42
0.0000001
 43
0.0000001
 44
0.0000000001
 40
0.0
 40
0.0
 40
0.0
 40
0.0
 40
0.1617376571
 40
0.3197727622
 40
0.4696986813
 40
0.6081069829
 40
0.731962237
 40
0.8387452494
 40
0.8851876435
 40
0.9270997716
 40
0.9650781651
 40
1.0
 40
1.0
 40
1.0
 40
1.0
 10
8.8274959571
 20
10.3271886112
 30
0.0
 10
8.8275227986
 20
10.328303965
 30
0.0
 10
8.8276517857
 20
10.3305077212
 30
0.0
 10
8.8280226052
 20
10.3337278794
 30
0.0
 10
8.8285503411
 20
10.3367636302
 30
0.0
 10
8.8292461999
 20
10.3395238872
 30
0.0
 10
8.8300883695
 20
10.3419302749
 30
0.0
 10
8.8309191701
 20
10.3436582222
 30
0.0
 10
8.8316358896
 20
10.3447993012
 30
0.0
 10
8.8321694602
 20
10.3454905836
 30
0.0
 10
8.832732294
 20
10.3460518375
 30
0.0
 10
8.8331468862
 20
10.3463422473
 30
0.0
 10
8.8333565482
 20
10.3464608699
 30
0.0
  0
LINE
  5
321
100
AcDbEntity
  8
0
100
AcDbLine
 62
7
  6
CONTINUOUS
 10
8.8333565482
 20
10.3464608699
 11
8.8347164863
 21
10.3468736505
  0
SPLINE
  5
322
100
AcDbEntity
  8
0
100
AcDbSpline
 62
9
  6
CONTINUOUS
 70
0
 71
3
 72
38
 73
34
 74
0
 42
0.0000001
 43
0.0000001
 44
0.0000000001
 40
0.0
 40
0.0
 40
0.0
 40
0.0
 40
0.0063226161
 40
0.0129390714
 40
0.0199465735
 40
0.027434852
 40
0.0354851138
 40
0.0441540739
 40
0.0534802921
 40
0.0634893133
 40
0.0741807862
 40
0.0855414823
 40
0.0975484818
 40
0.1101647222
 40
0.1233470598
 40
0.1370500926
 40
0.1512283474
 40
0.1658341653
 40
0.1961458179
 40
0.2276756924
 40
0.2601480717
 40
0.2933635664
 40
0.3613745253
 40
0.3959510057
 40
0.4307962065
 40
0.4658560434
 40
0.5010787082
 40
0.5718843656
 40
0.6430046113
 40
0.7143095964
 40
0.785708719
 40
0.8571491697
 40
1.0
 40
1.0
 40
1.0
 40
1.0
 10
11.190330253
 20
11.5115159016
 30
0.0
 10
11.188781371
 20
11.5112831881
 30
0.0
 10
11.1856394754
 20
11.5105979848
 30
0.0
 10
11.1809726927
 20
11.5089381005
 30
0.0
 10
11.1762779008
 20
11.5066072786
 30
0.0
 10
11.1715674043
 20
11.5035876445
 30
0.0
 10
11.1668567905
 20
11.4998626839
 30
0.0
 10
11.1621563769
 20
11.4954325474
 30
0.0
 10
11.1574793431
 20
11.4903009414
 30
0.0
 10
11.1528445557
 20
11.4844769643
 30
0.0
 10
11.1482611997
 20
11.4779859563
 30
0.0
 10
11.1437435625
 20
11.4708563714
 30
0.0
 10
11.1393063185
 20
11.4631222876
 30
0.0
 10
11.1349559589
 20
11.4548264493
 30
0.0
 10
11.1307017521
 20
11.4460122932
 30
0.0
 10
11.1265513404
 20
11.4367236327
 30
0.0
 10
11.1225070912
 20
11.4270054128
 30
0.0
 10
11.1171937853
 20
11.4133630822
 30
0.0
 10
11.1108687887
 20
11.3955075373
 30
0.0
 10
11.1037908478
 20
11.373238324
 30
0.0
 10
11.0971110919
 20
11.3500974137
 30
0.0
 10
11.0886412997
 20
11.3180760997
 30
0.0
 10
11.0809562458
 20
11.2853166013
 30
0.0
 10
11.0738649192
 20
11.2520175147
 30
0.0
 10
11.0687819125
 20
11.2266382193
 30
0.0
 10
11.0639439361
 20
11.2010484156
 30
0.0
 10
11.0577762738
 20
11.1666454832
 30
0.0
 10
11.0505886191
 20
11.1233520926
 30
0.0
 10
11.0426595865
 20
11.0711267469
 30
0.0
 10
11.0353219936
 20
11.0186668757
 30
0.0
 10
11.0284910867
 20
10.9660589028
 30
0.0
 10
11.0199823244
 20
10.8957991386
 30
0.0
 10
11.0141875128
 20
10.8430290886
 30
0.0
 10
11.0105306031
 20
10.8078309041
 30
0.0
  0
SPLINE
  5
323
100
AcDbEntity
  8
0
100
AcDbSpline
 62
7
  6
CONTINUOUS
 70
0
 71
3
 72
38
 73
34
 74
0
 42
0.0000001
 43
0.0000001
 44
0.0000000001
 40
0.0
 40
0.0
 40
0.0
 40
0.0
 40
0.004470915
 40
0.0091010171
 40
0.0140532145
 40
0.0194850788
 40
0.0224245435
 40
0.0255306111
 40
0.0322888959
 40
0.0398416286
 40
0.0482280072
 40
0.0574686668
 40
0.0675599913
 40
0.0784732188
 40
0.0901713767
 40
0.1026039056
 40
0.1157118257
 40
0.143710951
 40
0.1736998095
 40
0.2052534181
 40
0.2380230794
 40
0.2717314908
 40
0.3061664923
 40
0.3411601932
 40
0.3765943579
 40
0.4123648088
 40
0.4846541857
 40
0.5576120643
 40
0.6309851678
 40
0.7046126061
 40
0.77838559
 40
0.8522387562
 40
1.0
 40
1.0
 40
1.0
 40
1.0
 10
11.1247138132
 20
11.5192024598
 30
0.0
 10
11.1236253338
 20
11.5192927587
 30
0.0
 10
11.1213862264
 20
11.5192669356
 30
0.0
 10
11.1180054847
 20
11.5185643361
 30
0.0
 10
11.1145942869
 20
11.5171657929
 30
0.0
 10
11.1118152839
 20
11.5154461074
 30
0.0
 10
11.1095918915
 20
11.5137355659
 30
0.0
 10
11.1072378615
 20
11.5116728567
 30
0.0
 10
11.1042944179
 20
11.5085880144
 30
0.0
 10
11.1008623877
 20
11.5042248955
 30
0.0
 10
11.0974406213
 20
11.4991070199
 30
0.0
 10
11.0940440266
 20
11.493244671
 30
0.0
 10
11.0906836513
 20
11.4866611039
 30
0.0
 10
11.0873669795
 20
11.4793906324
 30
0.0
 10
11.0841076453
 20
11.4714725021
 30
0.0
 10
11.080911963
 20
11.4629537173
 30
0.0
 10
11.0766499417
 20
11.4505868297
 30
0.0
 10
11.0715768356
 20
11.4339702018
 30
0.0
 10
11.065920577
 20
11.4128364802
 30
0.0
 10
11.06057544
 20
11.3904227426
 30
0.0
 10
11.0555288658
 20
11.3670104006
 30
0.0
 10
11.0507650301
 20
11.3428214787
 30
0.0
 10
11.0462624922
 20
11.318030479
 30
0.0
 10
11.0419986935
 20
11.2927698458
 30
0.0
 10
11.0379553537
 20
11.2671427961
 30
0.0
 10
11.0328095212
 20
11.2324673947
 30
0.0
 10
11.0268501634
 20
11.1886474783
 30
0.0
 10
11.0203182908
 20
11.1356396913
 30
0.0
 10
11.0142919311
 20
11.0822433268
 30
0.0
 10
11.0086993478
 20
11.0285998481
 30
0.0
 10
11.0034782567
 20
10.9748012289
 30
0.0
 10
10.996953072
 20
10.9029351037
 30
0.0
 10
10.9924885378
 20
10.8489792974
 30
0.0
 10
10.9896617047
 20
10.8129929412
 30
0.0
  0
SPLINE
  5
324
100
AcDbEntity
  8
0
100
AcDbSpline
 62
7
  6
CONTINUOUS
 70
0
 71
3
 72
38
 73
34
 74
0
 42
0.0000001
 43
0.0000001
 44
0.0000000001
 40
0.0
 40
0.0
 40
0.0
 40
0.0
 40
0.0044707143
 40
0.0091003567
 40
0.0140518892
 40
0.0194830273
 40
0.0224221564
 40
0.0255278876
 40
0.0322854139
 40
0.0398376091
 40
0.0482237077
 40
0.0574640042
 40
0.0675553391
 40
0.0784687286
 40
0.0901669587
 40
0.1025997746
 40
0.1157081398
 40
0.1437078646
 40
0.1736978798
 40
0.2052517281
 40
0.2380226231
 40
0.2717309458
 40
0.3061669735
 40
0.3411605808
 40
0.3765951183
 40
0.4123659605
 40
0.4846555632
 40
0.5576131255
 40
0.6309864491
 40
0.7046135758
 40
0.7783864092
 40
0.8522391582
 40
1.0
 40
1.0
 40
1.0
 40
1.0
 10
10.7506581669
 20
11.5191994987
 30
0.0
 10
10.7517465597
 20
11.5192902911
 30
0.0
 10
10.7539855316
 20
11.5192654554
 30
0.0
 10
10.757366244
 20
11.5185641949
 30
0.0
 10
10.7607774829
 20
11.5171668743
 30
0.0
 10
10.7635565241
 20
11.5154480046
 30
0.0
 10
10.7657799281
 20
11.5137380218
 30
0.0
 10
10.7681339861
 20
11.511675859
 30
0.0
 10
10.7710775666
 20
11.5085916727
 30
0.0
 10
10.7745096609
 20
11.5042290587
 30
0.0
 10
10.7779314579
 20
11.4991115289
 30
0.0
 10
10.7813283241
 20
11.493249489
 30
0.0
 10
10.7846887567
 20
11.4866659712
 30
0.0
 10
10.7880055625
 20
11.4793954698
 30
0.0
 10
10.791265171
 20
11.4714772832
 30
0.0
 10
10.7944609327
 20
11.4629582852
 30
0.0
 10
10.7987231758
 20
11.4505910866
 30
0.0
 10
10.8037966495
 20
11.4339739477
 30
0.0
 10
10.8094531154
 20
11.4128397037
 30
0.0
 10
10.8147987367
 20
11.3904253438
 30
0.0
 10
10.8198454274
 20
11.3670126015
 30
0.0
 10
10.8246098824
 20
11.3428231795
 30
0.0
 10
10.8291124926
 20
11.3180318996
 30
0.0
 10
10.8333769337
 20
11.292770968
 30
0.0
 10
10.8374205548
 20
11.2671437106
 30
0.0
 10
10.8425670034
 20
11.2324680414
 30
0.0
 10
10.8485270599
 20
11.1886480016
 30
0.0
 10
10.8550602508
 20
11.1356401702
 30
0.0
 10
10.8610875012
 20
11.0822438303
 30
0.0
 10
10.8666814469
 20
11.0286003776
 30
0.0
 10
10.8719037161
 20
10.9748019115
 30
0.0
 10
10.8784307141
 20
10.9029359537
 30
0.0
 10
10.8828966537
 20
10.8489802872
 30
0.0
 10
10.8857243369
 20
10.8129939785
 30
0.0
  0
SPLINE
  5
325
100
AcDbEntity
  8
0
100
AcDbSpline
 62
7
  6
CONTINUOUS
 70
0
 71
3
 72
10
 73
6
 74
0
 42
0.0000001
 43
0.0000001
 44
0.0000000001
 40
0.0
 40
0.0
 40
0.0
 40
0.0
 40
0.2056613828
 40
0.4474981414
 40
1.0
 40
1.0
 40
1.0
 40
1.0
 10
8.8351377352
 20
10.3468736086
 30
0.0
 10
8.8352661362
 20
10.34687361
 30
0.0
 10
8.8355455532
 20
10.3469052499
 30
0.0
 10
8.8361504959
 20
10.3470630468
 30
0.0
 10
8.8366048052
 20
10.347279728
 30
0.0
 10
8.8368950373
 20
10.3474661472
 30
0.0
  0
SPLINE
  5
326
100
AcDbEntity
  8
0
100
AcDbSpline
 62
7
  6
CONTINUOUS
 70
0
 71
3
 72
16
 73
12
 74
0
 42
0.0000001
 43
0.0000001
 44
0.0000000001
 40
0.0
 40
0.0
 40
0.0
 40
0.0
 40
0.0772041052
 40
0.1209035794
 40
0.168806632
 40
0.2769759487
 40
0.400288495
 40
0.5368426137
 40
0.6842965475
 40
0.8398642877
 40
1.0
 40
1.0
 40
1.0
 40
1.0
 10
8.8368950373
 20
10.3474661472
 30
0.0
 10
8.8373065909
 20
10.3477304924
 30
0.0
 10
8.8378731066
 20
10.3482665085
 30
0.0
 10
8.8385223585
 20
10.3491157448
 30
0.0
 10
8.839210745
 20
10.3501796997
 30
0.0
 10
8.8400165488
 20
10.3517610016
 30
0.0
 10
8.8408413255
 20
10.3539458677
 30
0.0
 10
8.8415409871
 20
10.3564325175
 30
0.0
 10
8.8421049006
 20
10.3591618686
 30
0.0
 10
8.842518932
 20
10.3620685735
 30
0.0
 10
8.8426870461
 20
10.3640629553
 30
0.0
 10
8.8427436223
 20
10.3650759375
 30
0.0
  0
SPLINE
  5
327
100
AcDbEntity
  8
0
100
AcDbSpline
 62
9
  6
CONTINUOUS
 70
0
 71
3
 72
38
 73
34
 74
0
 42
0.0000001
 43
0.0000001
 44
0.0000000001
 40
0.0
 40
0.0
 40
0.0
 40
0.0
 40
0.0063242208
 40
0.0129437417
 40
0.0199557582
 40
0.0274499119
 40
0.0355072688
 40
0.0441842851
 40
0.0535191361
 40
0.0635370959
 40
0.0742375585
 40
0.0856068797
 40
0.0976219616
 40
0.1102456541
 40
0.1234346453
 40
0.1371433462
 40
0.1513263748
 40
0.165936256
 40
0.1962533307
 40
0.2277860197
 40
0.2602587277
 40
0.2934728419
 40
0.3614773862
 40
0.3960498955
 40
0.4308900036
 40
0.4659444656
 40
0.5011618815
 40
0.5719556341
 40
0.6430640401
 40
0.714356897
 40
0.7857439379
 40
0.8571723397
 40
1.0
 40
1.0
 40
1.0
 40
1.0
 10
10.6851345177
 20
11.5115308288
 30
0.0
 10
10.6866833315
 20
11.5112956958
 30
0.0
 10
10.6898250721
 20
11.5106053006
 30
0.0
 10
10.6944910007
 20
11.508937216
 30
0.0
 10
10.6991847975
 20
11.5065977057
 30
0.0
 10
10.7038941525
 20
11.5035689863
 30
0.0
 10
10.7086034523
 20
11.4998346405
 30
0.0
 10
10.7133023664
 20
11.4953949791
 30
0.0
 10
10.7179777654
 20
11.4902539441
 30
0.0
 10
10.722610711
 20
11.4844207424
 30
0.0
 10
10.7271919762
 20
11.4779208687
 30
0.0
 10
10.7317074362
 20
11.4707830457
 30
0.0
 10
10.7361422855
 20
11.4630413785
 30
0.0
 10
10.7404900585
 20
11.4547386874
 30
0.0
 10
10.7447416555
 20
11.44591856
 30
0.0
 10
10.7488893589
 20
11.4366247935
 30
0.0
 10
10.7529308129
 20
11.4269022772
 30
0.0
 10
10.7582401756
 20
11.4132556651
 30
0.0
 10
10.7645605846
 20
11.3953966102
 30
0.0
 10
10.7716333022
 20
11.3731251433
 30
0.0
 10
10.7783084527
 20
11.3499841168
 30
0.0
 10
10.7867722298
 20
11.3179653982
 30
0.0
 10
10.794452866
 20
11.2852101663
 30
0.0
 10
10.8015401796
 20
11.2519164479
 30
0.0
 10
10.806620913
 20
11.2265420938
 30
0.0
 10
10.8114568662
 20
11.2009576224
 30
0.0
 10
10.8176220368
 20
11.1665622629
 30
0.0
 10
10.8248080025
 20
11.1232788205
 30
0.0
 10
10.8327355163
 20
11.0710657667
 30
0.0
 10
10.8400726481
 20
11.0186183883
 30
0.0
 10
10.8469037066
 20
10.9660230305
 30
0.0
 10
10.8554130771
 20
10.8957798567
 30
0.0
 10
10.861208471
 20
10.8430221799
 30
0.0
 10
10.8648659488
 20
10.8078321775
 30
0.0
  0
SPLINE
  5
328
100
AcDbEntity
  8
0
100
AcDbSpline
 62
9
  6
CONTINUOUS
 70
0
 71
3
 72
21
 73
17
 74
0
 42
0.0000001
 43
0.0000001
 44
0.0000000001
 40
0.0
 40
0.0
 40
0.0
 40
0.0
 40
0.2036486744
 40
0.3928093711
 40
0.5622025467
 40
0.7077194729
 40
0.7704111312
 40
0.8258512819
 40
0.8737273533
 40
0.9138487146
 40
0.9460958484
 40
0.9705460159
 40
0.9800181522
 40
0.987843321
 40
0.9943249183
 40
1.0
 40
1.0
 40
1.0
 40
1.0
 10
8.8883086636
 20
10.3911115788
 30
0.0
 10
8.889162335
 20
10.3906083403
 30
0.0
 10
8.8908005828
 20
10.3896233743
 30
0.0
 10
8.8931171584
 20
10.3881678007
 30
0.0
 10
8.8951627202
 20
10.3868138479
 30
0.0
 10
8.8966641738
 20
10.3857538772
 30
0.0
 10
8.8976867129
 20
10.3849788917
 30
0.0
 10
8.8983169341
 20
10.3844733258
 30
0.0
 10
8.8988455058
 20
10.384017274
 30
0.0
 10
8.8992698593
 20
10.3836137892
 30
0.0
 10
8.8995874491
 20
10.3832654692
 30
0.0
 10
8.8997779404
 20
10.3830037381
 30
0.0
 10
8.8998680968
 20
10.3828210625
 30
0.0
 10
8.8999023519
 20
10.3827098201
 30
0.0
 10
8.8999087194
 20
10.3826115153
 30
0.0
 10
8.8998915524
 20
10.3825531137
 30
0.0
 10
8.8998783788
 20
10.3825288433
 30
0.0
  0
SPLINE
  5
329
100
AcDbEntity
  8
0
100
AcDbSpline
 62
9
  6
CONTINUOUS
 70
0
 71
3
 72
21
 73
17
 74
0
 42
0.0000001
 43
0.0000001
 44
0.0000000001
 40
0.0
 40
0.0
 40
0.0
 40
0.0
 40
0.2038892537
 40
0.3932421366
 40
0.5627708452
 40
0.7083590225
 40
0.7710595727
 40
0.8264892023
 40
0.8743336449
 40
0.9143999958
 40
0.9465649987
 40
0.9708995738
 40
0.9802982551
 40
0.9880381259
 40
0.9944236762
 40
1.0
 40
1.0
 40
1.0
 40
1.0
 10
12.9871382077
 20
10.390997339
 30
0.0
 10
12.986281226
 20
10.3905003815
 30
0.0
 10
12.9846364707
 20
10.3895278119
 30
0.0
 10
12.9823099638
 20
10.3880907054
 30
0.0
 10
12.9802550299
 20
10.3867542025
 30
0.0
 10
12.9787459571
 20
10.3857081161
 30
0.0
 10
12.9777176559
 20
10.3849434437
 30
0.0
 10
12.9770837049
 20
10.3844447812
 30
0.0
 10
12.976551712
 20
10.3839950786
 30
0.0
 10
12.976124274
 20
10.3835973602
 30
0.0
 10
12.9758039756
 20
10.3832541879
 30
0.0
 10
12.9756112303
 20
10.3829963919
 30
0.0
 10
12.9755193732
 20
10.3828164069
 30
0.0
 10
12.9754840893
 20
10.3827069745
 30
0.0
 10
12.9754767287
 20
10.3826102318
 30
0.0
 10
12.9754933462
 20
10.3825527107
 30
0.0
 10
12.9755062621
 20
10.3825288934
 30
0.0
  0
SPLINE
  5
32A
100
AcDbEntity
  8
0
100
AcDbSpline
 62
7
  6
CONTINUOUS
 70
0
 71
3
 72
10
 73
6
 74
0
 42
0.0000001
 43
0.0000001
 44
0.0000000001
 40
0.0
 40
0.0
 40
0.0
 40
0.0
 40
0.2062190526
 40
0.4479948377
 40
1.0
 40
1.0
 40
1.0
 40
1.0
 10
13.0402709947
 20
10.346873686
 30
0.0
 10
13.0401407803
 20
10.3468736873
 30
0.0
 10
13.0398578279
 20
10.3469043965
 30
0.0
 10
13.0392449634
 20
10.3470599699
 30
0.0
 10
13.0387845392
 20
10.3472769015
 30
0.0
 10
13.0384910331
 20
10.3474649064
 30
0.0
  0
SPLINE
  5
32B
100
AcDbEntity
  8
0
100
AcDbSpline
 62
7
  6
CONTINUOUS
 70
0
 71
3
 72
16
 73
12
 74
0
 42
0.0000001
 43
0.0000001
 44
0.0000000001
 40
0.0
 40
0.0
 40
0.0
 40
0.0
 40
0.0771390052
 40
0.1208749369
 40
0.1687940582
 40
0.2769415102
 40
0.4002427363
 40
0.5368065055
 40
0.6842712885
 40
0.8398500706
 40
1.0
 40
1.0
 40
1.0
 40
1.0
 10
13.0384910331
 20
10.3474649064
 30
0.0
 10
13.038079452
 20
10.347728544
 30
0.0
 10
13.0375130545
 20
10.3482646728
 30
0.0
 10
13.0368634186
 20
10.3491136119
 30
0.0
 10
13.0361745699
 20
10.3501776884
 30
0.0
 10
13.0353686901
 20
10.3517590536
 30
0.0
 10
13.0345438563
 20
10.3539440072
 30
0.0
 10
13.03384386
 20
10.3564309117
 30
0.0
 10
13.0332795359
 20
10.3591606994
 30
0.0
 10
13.0328655413
 20
10.3620679751
 30
0.0
 10
13.0326976095
 20
10.3640627505
 30
0.0
 10
13.0326410515
 20
10.3650759352
 30
0.0
  0
ELLIPSE
  5
32C
100
AcDbEntity
  8
0
100
AcDbEllipse
 62
7
  6
CONTINUOUS
 10
10.9376923423
 20
7.472632811
 30
0.0
 11
0.4724409449
 21
0.0
 31
0.0
 40
0.625
 41
5.1964308066
 42
10.5115324545
  0
ENDSEC
  0
SECTION
  2
OBJECTS
  0
DICTIONARY
  5
C
100
AcDbDictionary
280
0
281
1
  3
ACAD_GROUP
350
D
  3
ACAD_MLINESTYLE
350
17
  3
ACAD_LAYOUT
350
1A
  3
ACAD_PLOTSETTINGS
350
19
  3
ACAD_PLOTSTYLENAME
350
E
  0
DICTIONARY
  5
D
102
{ACAD_REACTORS
330
C
102
}
100
AcDbDictionary
280
0
281
1
  0
ACDBDICTIONARYWDFLT
  5
E
102
{ACAD_REACTORS
330
C
102
}
100
AcDbDictionary
281
1
  3
Normal
350
F
100
AcDbDictionaryWithDefault
340
F
  0
DICTIONARY
  5
17
102
{ACAD_REACTORS
330
C
102
}
100
AcDbDictionary
280
0
281
1
  3
Standard
350
18
  0
DICTIONARY
  5
19
102
{ACAD_REACTORS
330
C
102
}
100
AcDbDictionary
281
1
  0
DICTIONARY
  5
1A
102
{ACAD_REACTORS
330
C
102
}
100
AcDbDictionary
281
1
  3
Model
350
32D
  3
Layout1
350
32E
  0
ACDBPLACEHOLDER
  5
F
102
{ACAD_REACTORS
330
E
102
}
  0
MLINESTYLE
  5
18
102
{ACAD_REACTORS
330
17
102
}
100
AcDbMlineStyle
  2
STANDARD
 70
0
  3

 62
256
 51
90.0
 52
90.0
 71
2
 49
0.5
 62
256
  6
BYLAYER
 49
-0.5
 62
256
  6
BYLAYER
  0
LAYOUT
  5
32D
102
{ACAD_REACTORS
330
1A
102
}
100
AcDbPlotSettings
  1

  2
none_device
  4
ANSI_C_(22.00_x_17.00_Inches)
  6

 40
0.0
 41
0.0
 42
0.0
 43
0.0
 44
558.8
 45
431.8
 46
0.0
 47
0.0
 48
0.0
 49
0.0
140
0.0
141
0.0
142
1.0
143
1.0
 70
1024
 72
0
 73
0
 74
0
  7

 75
0
147
1.0
148
0.0
149
0.0
100
AcDbLayout
  1
Model
 70
0
 71
0
 10
0.0
 20
0.0
 11
22.0
 21
17.0
 12
0.0
 22
0.0
 32
0.0
 14
0.0
 24
0.0
 34
0.0
 15
0.0
 25
0.0
 35
0.0
146
0.0
 13
0.0
 23
0.0
 33
0.0
 16
1.0
 26
0.0
 36
0.0
 17
0.0
 27
1.0
 37
0.0
 76
0
330
205
345
0
346
0
  0
LAYOUT
  5
32E
102
{ACAD_REACTORS
330
1A
102
}
100
AcDbPlotSettings
  1

  2
none_device
  4
ANSI_C_(22.00_x_17.00_Inches)
  6

 40
0.0
 41
0.0
 42
0.0
 43
0.0
 44
558.8
 45
431.8
 46
0.0
 47
0.0
 48
0.0
 49
0.0
140
0.0
141
0.0
142
1.0
143
1.0
 70
0
 72
0
 73
0
 74
0
  7

 75
0
147
1.0
148
0.0
149
0.0
100
AcDbLayout
  1
Layout1
 70
0
 71
1
 10
0.0
 20
0.0
 11
22.0
 21
17.0
 12
0.0
 22
0.0
 32
0.0
 14
0.0
 24
0.0
 34
0.0
 15
0.0
 25
0.0
 35
0.0
146
0.0
 13
0.0
 23
0.0
 33
0.0
 16
1.0
 26
0.0
 36
0.0
 17
0.0
 27
1.0
 37
0.0
 76
0
330
206
345
0
346
0
  0
ENDSEC
  0
EOF
