999
DXF file: E:\BT Custom\CADOUTPUT\_RIGHT.dxf
999
Pro/ENGINEER 2018400 by Parametric Technology Corporation
  0
SECTION
  2
HEADER
  9
$ACADVER
  1
AC1018
  9
$DWGCODEPAGE
  3
ANSI_1252
  9
$EXTMAX
 10
22.0
 20
17.0
 30
0.0
  9
$EXTMIN
 10
0.0
 20
0.0
 30
0.0
  9
$LIMMIN
 10
0.0
 20
0.0
  9
$LIMMAX
 10
22.0
 20
17.0
  9
$VIEWCTR
 10
11.0
 20
8.5
  9
$VIEWSIZE
 40
17.0
  9
$CLAYER
  8
0
  9
$LTSCALE
 40
1.21
  9
$CELTYPE
  6
BYLAYER
  9
$DIMSCALE
 40
1.0
  9
$DIMASZ
 40
0.1
  9
$DIMEXO
 40
0.0625
  9
$DIMDLI
 40
0.836
  9
$DIMEXE
 40
0.125
  9
$DIMCEN
 40
0.198
  9
$DIMLFAC
 40
1.0
  9
$DIMBLK
  1
_FILLED
  9
$DIMALT
 70
1
  9
$DIMALTD
 70
2
  9
$DIMALTTD
 70
2
  9
$DIMALTF
 40
25.4
  9
$DIMTXT
 40
0.08
  9
$DIMTOL
 70
1
  9
$DIMLIM
 70
0
  9
$DIMTFAC
 40
1.0
  9
$DIMTP
 40
0.001
  9
$DIMTM
 40
0.001
  9
$DIMGAP
 40
0.09
  9
$DIMDSEP
 70
46
  9
$AUNITS
 70
0
  9
$PDMODE
 70
3
  9
$PDSIZE
 40
0.06
  9
$HANDSEED
  5
3AA
  9
$TILEMODE
 70
1
  9
$MEASUREMENT
 70
0
  9
$INSUNITS
 70
1
  0
ENDSEC
  0
SECTION
  2
CLASSES
  0
CLASS
  1
ACDBDICTIONARYWDFLT
  2
AcDbDictionaryWithDefault
  3
AutoCAD 2000
 90
0
 91
1
280
0
281
0
  0
CLASS
  1
ACDBPLACEHOLDER
  2
AcDbPlaceHolder
  3
AutoCAD 2000
 90
0
 91
1
280
0
281
0
  0
CLASS
  1
LAYOUT
  2
AcDbLayout
  3
AutoCAD 2000
 90
0
 91
0
280
0
281
0
  0
ENDSEC
  0
SECTION
  2
TABLES
  0
TABLE
  2
VPORT
  5
8
100
AcDbSymbolTable
 70
2
  0
VPORT
  5
1F4
100
AcDbSymbolTableRecord
100
AcDbViewportTableRecord
  2
*ACTIVE
 70
0
 10
0.0
 20
0.0
 11
1.0
 21
1.0
 12
11.0
 22
8.5
 13
0.0
 23
0.0
 14
1.0
 24
1.0
 15
0.0
 25
0.0
 16
0.0
 26
0.0
 36
1.0
 17
0.0
 27
0.0
 37
0.0
 40
17.0
 41
1.2941176471
 42
50.0
 43
0.0
 44
0.0
 50
0.0
 51
0.0
 71
0
 72
100
 73
1
 74
1
 75
0
 76
0
 77
0
 78
0
  0
ENDTAB
  0
TABLE
  2
LTYPE
  5
5
100
AcDbSymbolTable
 70
6
  0
LTYPE
  5
14
100
AcDbSymbolTableRecord
100
AcDbLinetypeTableRecord
  2
BYBLOCK
 70
0
  3

 72
65
 73
0
 40
0.0
  0
LTYPE
  5
15
100
AcDbSymbolTableRecord
100
AcDbLinetypeTableRecord
  2
BYLAYER
 70
0
  3

 72
65
 73
0
 40
0.0
  0
LTYPE
  5
16
100
AcDbSymbolTableRecord
100
AcDbLinetypeTableRecord
  2
CONTINUOUS
 70
64
  3
Solid line
 72
65
 73
0
 40
0.0
  0
LTYPE
  5
1F5
100
AcDbSymbolTableRecord
100
AcDbLinetypeTableRecord
  2
CENTER
 70
64
  3
____ _ ____ _ ____ _ ____ _ ____ _ ____ _ ____
 72
65
 73
4
 40
0.6
 49
0.375
 74
0
 49
-0.075
 74
0
 49
0.075
 74
0
 49
-0.075
 74
0
  0
LTYPE
  5
1F6
100
AcDbSymbolTableRecord
100
AcDbLinetypeTableRecord
  2
HIDDEN
 70
64
  3
- - - - - - - - - - - - - - - - - - - -
 72
65
 73
2
 40
0.2
 49
0.1
 74
0
 49
-0.1
 74
0
  0
LTYPE
  5
1F7
100
AcDbSymbolTableRecord
100
AcDbLinetypeTableRecord
  2
PHANTOM
 70
64
  3
_____ _ _ _____ _ _ _____ _ _ _____
 72
65
 73
6
 40
0.8
 49
0.45
 74
0
 49
-0.05
 74
0
 49
0.1
 74
0
 49
-0.05
 74
0
 49
0.1
 74
0
 49
-0.05
 74
0
  0
LTYPE
  5
1F8
100
AcDbSymbolTableRecord
100
AcDbLinetypeTableRecord
  2
DOT
 70
64
  3
. . . . . . . . . . . . . . . . . . . .
 72
65
 73
2
 40
0.2
 49
0.1
 74
0
 49
-0.1
 74
0
  0
LTYPE
  5
1F9
100
AcDbSymbolTableRecord
100
AcDbLinetypeTableRecord
  2
DASHED
 70
64
  3
- - - - - - - - - - - - - - - - - - - -
 72
65
 73
2
 40
0.2
 49
0.1
 74
0
 49
-0.1
 74
0
  0
ENDTAB
  0
TABLE
  2
LAYER
  5
2
100
AcDbSymbolTable
 70
36
  0
LAYER
  5
10
100
AcDbSymbolTableRecord
100
AcDbLayerTableRecord
  2
0
 70
0
 62
7
  6
CONTINUOUS
370
-3
390
F
  0
LAYER
  5
1FA
100
AcDbSymbolTableRecord
100
AcDbLayerTableRecord
  2
DEFAULT_1
 70
0
 62
7
  6
CENTER
370
-3
390
F
  0
LAYER
  5
1FB
100
AcDbSymbolTableRecord
100
AcDbLayerTableRecord
  2
DEFAULT_2
 70
0
 62
8
  6
HIDDEN
370
-3
390
F
  0
LAYER
  5
1FC
100
AcDbSymbolTableRecord
100
AcDbLayerTableRecord
  2
DEFAULT_3
 70
0
 62
7
  6
PHANTOM
370
-3
390
F
  0
LAYER
  5
1FD
100
AcDbSymbolTableRecord
100
AcDbLayerTableRecord
  2
ALL_FEATURES
 70
0
 62
7
  6
CONTINUOUS
370
-3
390
F
  0
LAYER
  5
1FE
100
AcDbSymbolTableRecord
100
AcDbLayerTableRecord
  2
AXES_FEATURES
 70
0
 62
7
  6
CONTINUOUS
370
-3
390
F
  0
LAYER
  5
1FF
100
AcDbSymbolTableRecord
100
AcDbLayerTableRecord
  2
DEFAULT_COORDINATE_SYSTEM
 70
0
 62
7
  6
CONTINUOUS
370
-3
390
F
  0
LAYER
  5
200
100
AcDbSymbolTableRecord
100
AcDbLayerTableRecord
  2
DEFAULT_DATUM_AXES
 70
0
 62
7
  6
CONTINUOUS
370
-3
390
F
  0
LAYER
  5
201
100
AcDbSymbolTableRecord
100
AcDbLayerTableRecord
  2
DEFAULT_DATUM_PLANES
 70
0
 62
7
  6
CONTINUOUS
370
-3
390
F
  0
LAYER
  5
202
100
AcDbSymbolTableRecord
100
AcDbLayerTableRecord
  2
DIMENSIONS
 70
0
 62
7
  6
CONTINUOUS
370
-3
390
F
  0
ENDTAB
  0
TABLE
  2
STYLE
  5
3
100
AcDbSymbolTable
 70
1
  0
STYLE
  5
11
100
AcDbSymbolTableRecord
100
AcDbTextStyleTableRecord
  2
STANDARD
 70
0
 40
0.0
 41
0.8
 50
0.0
 71
0
 42
0.2
  3
txt
  4

  0
STYLE
  5
203
100
AcDbSymbolTableRecord
100
AcDbTextStyleTableRecord
  2
TEXTSTYLE_1
 70
0
 40
0.0
 41
0.8
 50
0.0
 71
0
 42
0.2
  3
gdt
  4

  0
ENDTAB
  0
TABLE
  2
VIEW
  5
6
100
AcDbSymbolTable
 70
0
  0
ENDTAB
  0
TABLE
  2
UCS
  5
7
100
AcDbSymbolTable
 70
0
  0
ENDTAB
  0
TABLE
  2
APPID
  5
9
100
AcDbSymbolTable
 70
1
  0
APPID
  5
204
100
AcDbSymbolTableRecord
100
AcDbRegAppTableRecord
  2
ACAD
 70
0
  0
ENDTAB
  0
TABLE
  2
BLOCK_RECORD
  5
1
100
AcDbSymbolTable
 70
0
  0
BLOCK_RECORD
  5
205
100
AcDbSymbolTableRecord
100
AcDbBlockTableRecord
  2
*Model_Space
  0
BLOCK_RECORD
  5
206
100
AcDbSymbolTableRecord
100
AcDbBlockTableRecord
  2
*Paper_Space
  0
BLOCK_RECORD
  5
207
100
AcDbSymbolTableRecord
100
AcDbBlockTableRecord
  2
_FILLED
  0
ENDTAB
  0
TABLE
  2
DIMSTYLE
  5
A
100
AcDbSymbolTable
 70
1
100
AcDbDimStyleTable
 71
0
  0
DIMSTYLE
105
208
100
AcDbSymbolTableRecord
100
AcDbDimStyleTableRecord
  2
STANDARD
 70
0
  3

  4

 40
1.0
 41
0.1
 42
0.0625
 43
0.38
 44
0.125
 45
0.0
 46
0.0
 47
0.001
 48
0.001
140
0.08
141
0.09
142
0.0
143
25.4
144
1.0
145
0.0
146
1.0
147
0.09
 71
1.0
 72
0.0
 73
1
 74
1
 75
0
 76
0
 77
0
 78
4
 79
1
170
1
171
2
172
0
173
0
174
0
175
0
176
0
177
0
178
0
270
2
179
3
271
3
272
3
273
2
274
2
275
0
280
0
281
0
282
0
283
1
284
4
285
0
286
0
287
3
288
0
340
11
278
46
341
207
342
207
343
207
344
207
  0
ENDTAB
  0
ENDSEC
  0
SECTION
  2
BLOCKS
  0
BLOCK
  5
20
100
AcDbEntity
  8
0
100
AcDbBlockBegin
  2
*Model_Space
 70
0
 10
0.0
 20
0.0
 30
0.0
  3
*Model_Space
  1

  0
ENDBLK
  5
21
100
AcDbEntity
  8
0
100
AcDbBlockEnd
  0
BLOCK
  5
1C
100
AcDbEntity
  8
0
100
AcDbBlockBegin
  2
*Paper_Space
 70
0
 10
0.0
 20
0.0
 30
0.0
  3
*Paper_Space
  1

  0
ENDBLK
  5
1D
100
AcDbEntity
  8
0
100
AcDbBlockEnd
  0
BLOCK
  5
209
100
AcDbEntity
  8
0
100
AcDbBlockBegin
  2
_FILLED
 70
64
 10
0.0
 20
0.0
  3
_FILLED
  1

  0
SOLID
  5
20A
100
AcDbEntity
  8
0
  6
BYBLOCK
 62
0
100
AcDbTrace
 10
0.0
 20
0.0
 11
-1.0
 21
0.2
 12
-1.0
 22
-0.2
 13
-1.0
 23
-0.2
  0
ENDBLK
  5
20B
100
AcDbEntity
  8
0
  6
BYBLOCK
 62
0
100
AcDbBlockEnd
  0
ENDSEC
  0
SECTION
  2
ENTITIES
  0
LINE
  5
20C
100
AcDbEntity
  8
0
100
AcDbLine
 62
7
  6
CONTINUOUS
 10
8.4808636312
 20
6.9080104277
 11
8.4880438832
 21
6.8944585746
  0
LINE
  5
20D
100
AcDbEntity
  8
0
100
AcDbLine
 62
7
  6
CONTINUOUS
 10
8.8564076818
 20
7.1069869741
 11
8.8635879338
 21
7.0934351211
  0
LINE
  5
20E
100
AcDbEntity
  8
0
100
AcDbLine
 62
9
  6
CONTINUOUS
 10
10.3469489688
 20
7.4621269572
 11
10.7719489688
 21
7.4621269572
  0
LINE
  5
20F
100
AcDbEntity
  8
0
100
AcDbLine
 62
7
  6
CONTINUOUS
 10
9.9423352019
 20
9.0693129542
 11
9.9423352019
 21
9.0281693066
  0
LINE
  5
210
100
AcDbEntity
  8
0
100
AcDbLine
 62
9
  6
CONTINUOUS
 10
9.9705001603
 20
9.3917728438
 11
9.9705001603
 21
8.705709417
  0
LINE
  5
211
100
AcDbEntity
  8
0
100
AcDbLine
 62
9
  6
CONTINUOUS
 10
9.9863252967
 20
9.5183194006
 11
9.9863252967
 21
8.5791628602
  0
LWPOLYLINE
  5
212
100
AcDbEntity
  8
0
100
AcDbPolyline
 62
7
  6
CONTINUOUS
 90
10
 70
0
 10
9.9863252967
 20
8.5791628602
 10
9.9875478824
 20
8.5726064584
 10
9.9907625645
 20
8.5654352185
 10
9.9957408281
 20
8.5593685097
 10
10.0021546048
 20
8.5548108388
 10
10.0095134307
 20
8.55203468
 10
10.0173322807
 20
8.5512926356
 10
10.0250917584
 20
8.5526344518
 10
10.0322513224
 20
8.5559050745
 10
10.0344326594
 20
8.5574113115
  0
LINE
  5
213
100
AcDbEntity
  8
0
100
AcDbLine
 62
7
  6
CONTINUOUS
 10
10.1211710067
 20
10.2689661902
 11
10.1384193578
 21
10.0982048596
  0
LINE
  5
214
100
AcDbEntity
  8
0
100
AcDbLine
 62
7
  6
CONTINUOUS
 10
10.1047299899
 20
10.4338770372
 11
10.1212086961
 21
10.2686010545
  0
LWPOLYLINE
  5
215
100
AcDbEntity
  8
0
100
AcDbPolyline
 62
7
  6
CONTINUOUS
 90
5
 70
0
 10
10.0538014897
 20
10.9667176936
 10
10.0642143639
 20
10.854657058
 10
10.0762037917
 20
10.7277604036
 10
10.0897332537
 20
10.58702709
 10
10.1047617496
 20
10.4335658057
  0
LINE
  5
216
100
AcDbEntity
  8
0
100
AcDbLine
 62
7
  6
CONTINUOUS
 10
10.0377488841
 20
11.1429105545
 11
10.0537941102
 21
10.9667803653
  0
LINE
  5
217
100
AcDbEntity
  8
0
100
AcDbLine
 62
7
  6
CONTINUOUS
 10
10.0248998512
 20
11.2871851126
 11
10.0377488841
 21
11.1429105545
  0
LINE
  5
218
100
AcDbEntity
  8
0
100
AcDbLine
 62
7
  6
CONTINUOUS
 10
10.0248994802
 20
11.2871850799
 11
10.0248245907
 21
11.288899102
  0
LINE
  5
219
100
AcDbEntity
  8
0
100
AcDbLine
 62
7
  6
CONTINUOUS
 10
10.024825146
 20
11.3184268808
 11
10.024825146
 21
11.2889005386
  0
LINE
  5
21A
100
AcDbEntity
  8
0
100
AcDbLine
 62
9
  6
CONTINUOUS
 10
10.0344327861
 20
8.5574114079
 11
10.0344327861
 21
9.5400708531
  0
LINE
  5
21B
100
AcDbEntity
  8
0
100
AcDbLine
 62
9
  6
CONTINUOUS
 10
10.0959543119
 20
8.577797525
 11
10.0959543119
 21
9.519684736
  0
LINE
  5
21C
100
AcDbEntity
  8
0
100
AcDbLine
 62
9
  6
CONTINUOUS
 10
10.1667957511
 20
10.0694109131
 11
10.1667958981
 21
10.039883354
  0
LINE
  5
21D
100
AcDbEntity
  8
0
100
AcDbLine
 62
9
  6
CONTINUOUS
 10
10.2242557543
 20
8.583875592
 11
10.2242557543
 21
9.5136066688
  0
LINE
  5
21E
100
AcDbEntity
  8
0
100
AcDbLine
 62
9
  6
CONTINUOUS
 10
10.1479587994
 20
10.0898158816
 11
10.1479541202
 21
10.0542854253
  0
LINE
  5
21F
100
AcDbEntity
  8
0
100
AcDbLine
 62
9
  6
CONTINUOUS
 10
10.1386507463
 20
10.1002562582
 11
10.1384306101
 21
10.0980991745
  0
LINE
  5
220
100
AcDbEntity
  8
0
100
AcDbLine
 62
7
  6
CONTINUOUS
 10
10.1384306101
 20
10.0980991745
 11
10.1384319189
 21
10.0980865204
  0
LINE
  5
221
100
AcDbEntity
  8
0
100
AcDbLine
 62
7
  6
CONTINUOUS
 10
10.3429489688
 20
10.0201983147
 11
10.3429489688
 21
9.5010808202
  0
LINE
  5
222
100
AcDbEntity
  8
0
100
AcDbLine
 62
7
  6
CONTINUOUS
 10
10.3469489688
 20
8.5964014407
 11
10.3469489688
 21
7.4621269572
  0
LINE
  5
223
100
AcDbEntity
  8
0
100
AcDbLine
 62
7
  6
CONTINUOUS
 10
10.8860597987
 20
8.70388753
 11
10.7884489688
 21
8.6822135879
  0
LINE
  5
224
100
AcDbEntity
  8
0
100
AcDbLine
 62
7
  6
CONTINUOUS
 10
10.2242557543
 20
8.583875592
 11
10.3304489688
 21
8.5964014407
  0
LINE
  5
225
100
AcDbEntity
  8
0
100
AcDbLine
 62
7
  6
CONTINUOUS
 10
12.3518638997
 20
8.5537411304
 11
12.6224489688
 21
8.5537411304
  0
LINE
  5
226
100
AcDbEntity
  8
0
100
AcDbLine
 62
7
  6
CONTINUOUS
 10
10.3304489687
 20
8.5964014407
 11
10.3469489688
 21
8.5964014407
  0
LINE
  5
227
100
AcDbEntity
  8
0
100
AcDbLine
 62
7
  6
CONTINUOUS
 10
10.7884489688
 20
8.6822135879
 11
10.7719489688
 21
8.6822135879
  0
LINE
  5
228
100
AcDbEntity
  8
0
100
AcDbLine
 62
9
  6
CONTINUOUS
 10
10.7661760091
 20
8.6902222453
 11
10.7512808293
 21
8.6902222453
  0
LINE
  5
229
100
AcDbEntity
  8
0
100
AcDbLine
 62
7
  6
CONTINUOUS
 10
11.4719940723
 20
8.7132411304
 11
11.3624489688
 21
8.7132411304
  0
LINE
  5
22A
100
AcDbEntity
  8
0
100
AcDbLine
 62
7
  6
CONTINUOUS
 10
11.5745798543
 20
8.7363298995
 11
11.4920046717
 21
8.7363298995
  0
LINE
  5
22B
100
AcDbEntity
  8
0
100
AcDbLine
 62
7
  6
CONTINUOUS
 10
11.5745798543
 20
8.7612941694
 11
11.4920046717
 21
8.7612941694
  0
LINE
  5
22C
100
AcDbEntity
  8
0
100
AcDbLine
 62
7
  6
CONTINUOUS
 10
11.3224489688
 20
8.7837411304
 11
10.9974489688
 21
8.7837411304
  0
LINE
  5
22D
100
AcDbEntity
  8
0
100
AcDbLine
 62
7
  6
CONTINUOUS
 10
11.5745798543
 20
8.787658852
 11
11.4920046717
 21
8.787658852
  0
LINE
  5
22E
100
AcDbEntity
  8
0
100
AcDbLine
 62
7
  6
CONTINUOUS
 10
10.1422895177
 20
10.0714425796
 11
10.1455932621
 21
10.0571846956
  0
LWPOLYLINE
  5
22F
100
AcDbEntity
  8
0
100
AcDbPolyline
 62
7
  6
CONTINUOUS
 90
3
 70
0
 10
10.1384319189
 20
10.0980865204
 10
10.1398351058
 20
10.0864515095
 10
10.1423160504
 20
10.07128033
  0
LINE
  5
230
100
AcDbEntity
  8
0
100
AcDbLine
 62
7
  6
CONTINUOUS
 10
10.973344474
 20
10.0572360984
 11
10.9767440407
 21
10.0714365403
  0
LINE
  5
231
100
AcDbEntity
  8
0
100
AcDbLine
 62
7
  6
CONTINUOUS
 10
10.9700412643
 20
10.0471927622
 11
10.9733844919
 21
10.0573577721
  0
LINE
  5
232
100
AcDbEntity
  8
0
100
AcDbLine
 62
7
  6
CONTINUOUS
 10
10.9700372734
 20
10.0471943083
 11
10.970047854
 21
10.0472216883
  0
LINE
  5
233
100
AcDbEntity
  8
0
100
AcDbLine
 62
7
  6
CONTINUOUS
 10
11.5745798543
 20
8.8152955012
 11
11.4920046717
 21
8.8152955012
  0
LINE
  5
234
100
AcDbEntity
  8
0
100
AcDbLine
 62
7
  6
CONTINUOUS
 10
11.5745798543
 20
8.844069474
 11
11.4920046717
 21
8.844069474
  0
LINE
  5
235
100
AcDbEntity
  8
0
100
AcDbLine
 62
7
  6
CONTINUOUS
 10
11.5745798543
 20
8.8738405866
 11
11.4920046717
 21
8.8738405866
  0
LINE
  5
236
100
AcDbEntity
  8
0
100
AcDbLine
 62
7
  6
CONTINUOUS
 10
11.5745798543
 20
8.904463797
 11
11.4920046717
 21
8.904463797
  0
LINE
  5
237
100
AcDbEntity
  8
0
100
AcDbLine
 62
7
  6
CONTINUOUS
 10
11.5745798543
 20
8.9357899121
 11
11.4920046717
 21
8.9357899121
  0
LINE
  5
238
100
AcDbEntity
  8
0
100
AcDbLine
 62
7
  6
CONTINUOUS
 10
11.5745798543
 20
8.9676663142
 11
11.4920046717
 21
8.9676663142
  0
LINE
  5
239
100
AcDbEntity
  8
0
100
AcDbLine
 62
7
  6
CONTINUOUS
 10
11.5745798543
 20
8.9999377046
 11
11.4920046717
 21
8.9999377046
  0
LINE
  5
23A
100
AcDbEntity
  8
0
100
AcDbLine
 62
7
  6
CONTINUOUS
 10
11.5745798543
 20
9.0324468605
 11
11.4920046717
 21
9.0324468605
  0
LWPOLYLINE
  5
23B
100
AcDbEntity
  8
0
100
AcDbPolyline
 62
7
  6
CONTINUOUS
 90
10
 70
0
 10
10.9500687016
 20
8.6960794726
 10
10.9529816705
 20
8.6948374047
 10
10.9607507837
 20
8.6929580062
 10
10.968745143
 20
8.6930335512
 10
10.9764962241
 20
8.6950594074
 10
10.9835374664
 20
8.6988430311
 10
10.9894197136
 20
8.7041729904
 10
10.9938019803
 20
8.7107377864
 10
10.9965184435
 20
8.7180730836
 10
10.9974489688
 20
8.7257411304
  0
LINE
  5
23C
100
AcDbEntity
  8
0
100
AcDbLine
 62
7
  6
CONTINUOUS
 10
10.148850885
 20
10.0472146779
 11
10.152865647
 21
10.0387438741
  0
LINE
  5
23D
100
AcDbEntity
  8
0
100
AcDbLine
 62
7
  6
CONTINUOUS
 10
10.1488588337
 20
10.0471872198
 11
10.1488485727
 21
10.0472137859
  0
LINE
  5
23E
100
AcDbEntity
  8
0
100
AcDbLine
 62
7
  6
CONTINUOUS
 10
10.1455932621
 20
10.0571846956
 11
10.1488588337
 21
10.0471872198
  0
LINE
  5
23F
100
AcDbEntity
  8
0
100
AcDbLine
 62
7
  6
CONTINUOUS
 10
10.1455210656
 20
10.0574397059
 11
10.1455661536
 21
10.0573012921
  0
LINE
  5
240
100
AcDbEntity
  8
0
100
AcDbLine
 62
9
  6
CONTINUOUS
 10
10.7661760091
 20
8.690222231
 11
10.7661760091
 21
9.4072600299
  0
LINE
  5
241
100
AcDbEntity
  8
0
100
AcDbLine
 62
7
  6
CONTINUOUS
 10
10.7719489688
 20
8.6822135879
 11
10.7719489688
 21
7.4621269572
  0
LINE
  5
242
100
AcDbEntity
  8
0
100
AcDbLine
 62
7
  6
CONTINUOUS
 10
10.7759489688
 20
10.0201983147
 11
10.7759489688
 21
9.4152686729
  0
LINE
  5
243
100
AcDbEntity
  8
0
100
AcDbLine
 62
9
  6
CONTINUOUS
 10
10.8860595973
 20
9.3935947729
 11
10.8860595973
 21
8.7038874878
  0
LINE
  5
244
100
AcDbEntity
  8
0
100
AcDbLine
 62
9
  6
CONTINUOUS
 10
10.9500688474
 20
9.4014028585
 11
10.9500688474
 21
8.6960794023
  0
LINE
  5
245
100
AcDbEntity
  8
0
100
AcDbLine
 62
9
  6
CONTINUOUS
 10
10.9521005235
 20
10.0694109131
 11
10.9521006176
 21
10.039883354
  0
LINE
  5
246
100
AcDbEntity
  8
0
100
AcDbLine
 62
9
  6
CONTINUOUS
 10
10.9709423464
 20
10.0898252097
 11
10.9709438824
 21
10.0542855543
  0
LINE
  5
247
100
AcDbEntity
  8
0
100
AcDbLine
 62
7
  6
CONTINUOUS
 10
11.0939864846
 20
11.2870583705
 11
11.0940727362
 21
11.2888991021
  0
LINE
  5
248
100
AcDbEntity
  8
0
100
AcDbLine
 62
7
  6
CONTINUOUS
 10
11.0811399873
 20
11.1428290863
 11
11.0939848397
 21
11.2870409396
  0
LINE
  5
249
100
AcDbEntity
  8
0
100
AcDbLine
 62
7
  6
CONTINUOUS
 10
11.0651080764
 20
10.9667326648
 11
11.0811399873
 21
11.1428290863
  0
LINE
  5
24A
100
AcDbEntity
  8
0
100
AcDbLine
 62
7
  6
CONTINUOUS
 10
11.0546780336
 20
10.8547496277
 11
11.0651308935
 21
10.9669819626
  0
LINE
  5
24B
100
AcDbEntity
  8
0
100
AcDbLine
 62
7
  6
CONTINUOUS
 10
11.093984839
 20
11.2870409331
 11
11.0939864846
 21
11.2870583705
  0
LINE
  5
24C
100
AcDbEntity
  8
0
100
AcDbLine
 62
7
  6
CONTINUOUS
 10
11.0293660475
 20
10.5873432691
 11
11.0547037021
 21
10.8550252197
  0
LWPOLYLINE
  5
24D
100
AcDbEntity
  8
0
100
AcDbPolyline
 62
7
  6
CONTINUOUS
 90
4
 70
0
 10
10.9808042991
 20
10.0981239016
 10
10.9977464661
 20
10.2692929326
 10
11.0138859056
 20
10.4339734559
 10
11.0293660475
 20
10.5873432691
  0
LINE
  5
24E
100
AcDbEntity
  8
0
100
AcDbLine
 62
7
  6
CONTINUOUS
 10
10.9808042991
 20
10.0981239016
 11
10.9808023989
 21
10.0981065283
  0
LINE
  5
24F
100
AcDbEntity
  8
0
100
AcDbLine
 62
7
  6
CONTINUOUS
 10
10.9793397214
 20
10.086628959
 11
10.9808021546
 21
10.0981064974
  0
LINE
  5
250
100
AcDbEntity
  8
0
100
AcDbLine
 62
7
  6
CONTINUOUS
 10
10.976713997
 20
10.0713106369
 11
10.9793397214
 21
10.086628959
  0
LINE
  5
251
100
AcDbEntity
  8
0
100
AcDbLine
 62
7
  6
CONTINUOUS
 10
12.6224489688
 20
9.0487411304
 11
12.3650277129
 21
9.0487411304
  0
LINE
  5
252
100
AcDbEntity
  8
0
100
AcDbLine
 62
9
  6
CONTINUOUS
 10
9.9705001829
 20
9.0487411304
 11
10.0959543136
 21
9.0487411304
  0
LINE
  5
253
100
AcDbEntity
  8
0
100
AcDbLine
 62
9
  6
CONTINUOUS
 10
10.88605955
 20
9.0487411304
 11
10.9974489688
 21
9.0487411304
  0
LINE
  5
254
100
AcDbEntity
  8
0
100
AcDbLine
 62
7
  6
CONTINUOUS
 10
11.5745798543
 20
9.0650354003
 11
11.4920046717
 21
9.0650354003
  0
LINE
  5
255
100
AcDbEntity
  8
0
100
AcDbLine
 62
7
  6
CONTINUOUS
 10
11.5745798543
 20
9.0975445562
 11
11.4920046717
 21
9.0975445562
  0
LINE
  5
256
100
AcDbEntity
  8
0
100
AcDbLine
 62
7
  6
CONTINUOUS
 10
11.5745798543
 20
9.1298159466
 11
11.4920046717
 21
9.1298159466
  0
LINE
  5
257
100
AcDbEntity
  8
0
100
AcDbLine
 62
7
  6
CONTINUOUS
 10
11.5745798543
 20
9.1616923487
 11
11.4920046717
 21
9.1616923487
  0
LINE
  5
258
100
AcDbEntity
  8
0
100
AcDbLine
 62
7
  6
CONTINUOUS
 10
11.5745798543
 20
9.1930184638
 11
11.4920046717
 21
9.1930184638
  0
LINE
  5
259
100
AcDbEntity
  8
0
100
AcDbLine
 62
7
  6
CONTINUOUS
 10
11.5745798543
 20
9.2236416742
 11
11.4920046717
 21
9.2236416742
  0
LINE
  5
25A
100
AcDbEntity
  8
0
100
AcDbLine
 62
7
  6
CONTINUOUS
 10
11.5745798543
 20
9.2534127868
 11
11.4920046717
 21
9.2534127868
  0
LINE
  5
25B
100
AcDbEntity
  8
0
100
AcDbLine
 62
7
  6
CONTINUOUS
 10
11.5745798543
 20
9.2821867596
 11
11.4920046717
 21
9.2821867596
  0
LWPOLYLINE
  5
25C
100
AcDbEntity
  8
0
100
AcDbPolyline
 62
7
  6
CONTINUOUS
 90
10
 70
0
 10
10.0344326594
 20
9.5400709493
 10
10.0322513224
 20
9.5415771863
 10
10.0250917584
 20
9.544847809
 10
10.0173322807
 20
9.5461896252
 10
10.0095134307
 20
9.5454475808
 10
10.0021546048
 20
9.542671422
 10
9.9957408281
 20
9.5381137511
 10
9.9907625645
 20
9.5320470423
 10
9.9875478824
 20
9.5248758024
 10
9.9863252967
 20
9.5183194006
  0
LINE
  5
25D
100
AcDbEntity
  8
0
100
AcDbLine
 62
7
  6
CONTINUOUS
 10
10.1527703259
 20
10.038905973
 11
10.1593703864
 21
10.0301445938
  0
LINE
  5
25E
100
AcDbEntity
  8
0
100
AcDbLine
 62
7
  6
CONTINUOUS
 10
10.9974489688
 20
8.7257467905
 11
10.9974489688
 21
9.3717354703
  0
LINE
  5
25F
100
AcDbEntity
  8
0
100
AcDbLine
 62
7
  6
CONTINUOUS
 10
11.0940727915
 20
11.2888991023
 11
11.0940727915
 21
11.3184266632
  0
LINE
  5
260
100
AcDbEntity
  8
0
100
AcDbLine
 62
7
  6
CONTINUOUS
 10
11.5745798543
 20
9.3098234088
 11
11.4920046717
 21
9.3098234088
  0
LINE
  5
261
100
AcDbEntity
  8
0
100
AcDbLine
 62
7
  6
CONTINUOUS
 10
11.3224489688
 20
9.3137411304
 11
10.9974489688
 21
9.3137411304
  0
LINE
  5
262
100
AcDbEntity
  8
0
100
AcDbLine
 62
7
  6
CONTINUOUS
 10
11.5745798543
 20
9.3361880914
 11
11.4920046717
 21
9.3361880914
  0
LINE
  5
263
100
AcDbEntity
  8
0
100
AcDbLine
 62
7
  6
CONTINUOUS
 10
11.5745798543
 20
9.3611523613
 11
11.4920046717
 21
9.3611523613
  0
LINE
  5
264
100
AcDbEntity
  8
0
100
AcDbLine
 62
7
  6
CONTINUOUS
 10
11.4719940723
 20
9.3842411304
 11
11.3624489688
 21
9.3842411304
  0
LINE
  5
265
100
AcDbEntity
  8
0
100
AcDbLine
 62
9
  6
CONTINUOUS
 10
10.7661760091
 20
9.4072600155
 11
10.754891782
 21
9.4072600155
  0
LINE
  5
266
100
AcDbEntity
  8
0
100
AcDbLine
 62
7
  6
CONTINUOUS
 10
10.7884489688
 20
9.4152686729
 11
10.7759489688
 21
9.4152686729
  0
LINE
  5
267
100
AcDbEntity
  8
0
100
AcDbLine
 62
7
  6
CONTINUOUS
 10
10.3304489687
 20
9.5010808202
 11
10.3429489688
 21
9.5010808202
  0
LINE
  5
268
100
AcDbEntity
  8
0
100
AcDbLine
 62
7
  6
CONTINUOUS
 10
10.2242557543
 20
9.5136066688
 11
10.3304489688
 21
9.5010808202
  0
LINE
  5
269
100
AcDbEntity
  8
0
100
AcDbLine
 62
7
  6
CONTINUOUS
 10
10.8860597987
 20
9.3935947308
 11
10.7884489688
 21
9.4152686729
  0
LINE
  5
26A
100
AcDbEntity
  8
0
100
AcDbLine
 62
7
  6
CONTINUOUS
 10
10.1592844842
 20
10.0302279559
 11
10.1673693187
 21
10.0240838431
  0
LINE
  5
26B
100
AcDbEntity
  8
0
100
AcDbLine
 62
9
  6
CONTINUOUS
 10
10.9805346307
 20
10.1002300204
 11
10.9808042991
 21
10.0981239016
  0
LWPOLYLINE
  5
26C
100
AcDbEntity
  8
0
100
AcDbPolyline
 62
7
  6
CONTINUOUS
 90
10
 70
0
 10
10.9974489688
 20
9.3717411304
 10
10.9965184435
 20
9.3794091773
 10
10.9938019803
 20
9.3867444744
 10
10.9894197136
 20
9.3933092704
 10
10.9835374664
 20
9.3986392298
 10
10.9764962241
 20
9.4024228534
 10
10.968745143
 20
9.4044487096
 10
10.9607507837
 20
9.4045242546
 10
10.9529816705
 20
9.4026448561
 10
10.9500687016
 20
9.4014027882
  0
LINE
  5
26D
100
AcDbEntity
  8
0
100
AcDbLine
 62
7
  6
CONTINUOUS
 10
11.3224489688
 20
8.7532411304
 11
11.3224489688
 21
9.3442411304
  0
LINE
  5
26E
100
AcDbEntity
  8
0
100
AcDbLine
 62
9
  6
CONTINUOUS
 10
11.3624489688
 20
8.7132411304
 11
11.3624489688
 21
9.3842411304
  0
LINE
  5
26F
100
AcDbEntity
  8
0
100
AcDbLine
 62
7
  6
CONTINUOUS
 10
11.4719940723
 20
9.4700934291
 11
11.4719940723
 21
8.6273888317
  0
LINE
  5
270
100
AcDbEntity
  8
0
100
AcDbLine
 62
7
  6
CONTINUOUS
 10
12.6224489688
 20
9.5437411304
 11
12.3518638997
 21
9.5437411304
  0
LWPOLYLINE
  5
271
100
AcDbEntity
  8
0
100
AcDbPolyline
 62
7
  6
CONTINUOUS
 90
3
 70
0
 10
10.1673693187
 20
10.0240838431
 10
10.1765904468
 20
10.0207439529
 10
10.1833697431
 20
10.0201212977
  0
LINE
  5
272
100
AcDbEntity
  8
0
100
AcDbLine
 62
9
  6
CONTINUOUS
 10
11.5835599238
 20
8.5921843237
 11
11.5835599238
 21
9.5052979371
  0
LINE
  5
273
100
AcDbEntity
  8
0
100
AcDbLine
 62
9
  6
CONTINUOUS
 10
11.6476212475
 20
8.6266799352
 11
11.6476212475
 21
9.4708023455
  0
LINE
  5
274
100
AcDbEntity
  8
0
100
AcDbLine
 62
9
  6
CONTINUOUS
 10
8.8635879338
 20
7.0934351211
 11
8.8480243182
 21
7.0851889659
  0
LINE
  5
275
100
AcDbEntity
  8
0
100
AcDbLine
 62
9
  6
CONTINUOUS
 10
8.5036074988
 20
6.9027047297
 11
8.4880438832
 21
6.8944585746
  0
LWPOLYLINE
  5
276
100
AcDbEntity
  8
0
100
AcDbPolyline
 62
7
  6
CONTINUOUS
 90
6
 70
0
 10
10.9355151449
 20
10.0201216651
 10
10.9423490963
 20
10.0207536563
 10
10.9515878857
 20
10.0241163348
 10
10.9596134522
 20
10.0302279543
 10
10.9661276111
 20
10.0389059716
 10
10.970047854
 20
10.0472216883
  0
LINE
  5
277
100
AcDbEntity
  8
0
100
AcDbLine
 62
7
  6
CONTINUOUS
 10
10.1833092617
 20
10.0201200577
 11
10.187225062
 21
10.0201505247
  0
LINE
  5
278
100
AcDbEntity
  8
0
100
AcDbLine
 62
7
  6
CONTINUOUS
 10
10.187225062
 20
10.0201505247
 11
10.2007405927
 21
10.0201983147
  0
LINE
  5
279
100
AcDbEntity
  8
0
100
AcDbLine
 62
7
  6
CONTINUOUS
 10
10.9342190157
 20
10.0201983147
 11
10.1846786083
 21
10.0201983147
  0
LINE
  5
27A
100
AcDbEntity
  8
0
100
AcDbLine
 62
7
  6
CONTINUOUS
 10
10.9222964802
 20
10.0201936503
 11
10.9355729317
 21
10.0201201941
  0
LINE
  5
27B
100
AcDbEntity
  8
0
100
AcDbLine
 62
7
  6
CONTINUOUS
 10
10.9355886827
 20
10.0201200577
 11
10.9355364452
 21
10.0201206218
  0
LINE
  5
27C
100
AcDbEntity
  8
0
100
AcDbLine
 62
7
  6
CONTINUOUS
 10
10.1629904779
 20
10.1240358661
 11
10.1714250736
 21
10.1247531958
  0
LINE
  5
27D
100
AcDbEntity
  8
0
100
AcDbLine
 62
7
  6
CONTINUOUS
 10
10.1860055575
 20
10.0890959879
 11
10.1885469927
 21
10.0892743864
  0
LINE
  5
27E
100
AcDbEntity
  8
0
100
AcDbLine
 62
9
  6
CONTINUOUS
 10
10.1846450713
 20
10.0201982179
 11
10.1833536042
 21
10.020120523
  0
LINE
  5
27F
100
AcDbEntity
  8
0
100
AcDbLine
 62
9
  6
CONTINUOUS
 10
10.9528456786
 20
10.039883354
 11
10.166052259
 21
10.039883354
  0
LINE
  5
280
100
AcDbEntity
  8
0
100
AcDbLine
 62
9
  6
CONTINUOUS
 10
10.1663585426
 20
10.0694109131
 11
10.9525393949
 21
10.0694109131
  0
LINE
  5
281
100
AcDbEntity
  8
0
100
AcDbLine
 62
7
  6
CONTINUOUS
 10
10.1846790002
 20
10.0890959525
 11
10.9342185029
 21
10.0890959525
  0
LINE
  5
282
100
AcDbEntity
  8
0
100
AcDbLine
 62
9
  6
CONTINUOUS
 10
10.9355364452
 20
10.0201206218
 11
10.9342525869
 21
10.0201982475
  0
LINE
  5
283
100
AcDbEntity
  8
0
100
AcDbLine
 62
7
  6
CONTINUOUS
 10
10.9328121064
 20
10.0890959101
 11
10.9303502684
 21
10.0892743444
  0
LINE
  5
284
100
AcDbEntity
  8
0
100
AcDbLine
 62
7
  6
CONTINUOUS
 10
10.9559814999
 20
10.1240296079
 11
10.9474732972
 21
10.1247510215
  0
LINE
  5
285
100
AcDbEntity
  8
0
100
AcDbLine
 62
7
  6
CONTINUOUS
 10
12.9285854021
 20
10.0468674009
 11
12.8965600358
 21
9.9789691541
  0
LINE
  5
286
100
AcDbEntity
  8
0
100
AcDbLine
 62
7
  6
CONTINUOUS
 10
12.9285854021
 20
8.0506148599
 11
12.8965600358
 21
8.1185131067
  0
LINE
  5
287
100
AcDbEntity
  8
0
100
AcDbLine
 62
7
  6
CONTINUOUS
 10
12.6224489688
 20
8.3570289894
 11
12.6224489688
 21
9.7404532714
  0
LINE
  5
288
100
AcDbEntity
  8
0
100
AcDbLine
 62
9
  6
CONTINUOUS
 10
12.7620134473
 20
8.2870925993
 11
12.7620134473
 21
9.8103896615
  0
LINE
  5
289
100
AcDbEntity
  8
0
100
AcDbLine
 62
9
  6
CONTINUOUS
 10
12.8965600358
 20
8.1185131067
 11
12.8965600358
 21
9.9789691541
  0
LINE
  5
28A
100
AcDbEntity
  8
0
100
AcDbLine
 62
9
  6
CONTINUOUS
 10
12.9285854021
 20
8.0506148599
 11
12.9285854021
 21
10.0468674009
  0
LINE
  5
28B
100
AcDbEntity
  8
0
100
AcDbLine
 62
9
  6
CONTINUOUS
 10
12.9709408519
 20
7.9800470658
 11
12.9709408519
 21
10.117435195
  0
LINE
  5
28C
100
AcDbEntity
  8
0
100
AcDbLine
 62
9
  6
CONTINUOUS
 10
13.0157995181
 20
7.9468460253
 11
13.0157995181
 21
10.1506362355
  0
LINE
  5
28D
100
AcDbEntity
  8
0
100
AcDbLine
 62
7
  6
CONTINUOUS
 10
13.1564716877
 20
7.9131533367
 11
13.1564716877
 21
10.1843289241
  0
LINE
  5
28E
100
AcDbEntity
  8
0
100
AcDbLine
 62
7
  6
CONTINUOUS
 10
11.0743877522
 20
11.3381117005
 11
11.0715286922
 21
11.3381117005
  0
LINE
  5
28F
100
AcDbEntity
  8
0
100
AcDbLine
 62
7
  6
CONTINUOUS
 10
10.0445101854
 20
11.3381117005
 11
10.0473692453
 21
11.3381117005
  0
ARC
  5
290
100
AcDbEntity
  8
0
100
AcDbCircle
 62
7
  6
CONTINUOUS
 10
8.709882499
 20
8.4838027508
 40
1.2799999166
100
AcDbArc
 50
4.2724992588
 51
9.9835343649
  0
ARC
  5
291
100
AcDbEntity
  8
0
100
AcDbCircle
 62
7
  6
CONTINUOUS
 10
9.5594489688
 20
7.4621269572
 40
1.2125
100
AcDbArc
 50
207.9162282035
 51
360.0
  0
ARC
  5
292
100
AcDbEntity
  8
0
100
AcDbCircle
 62
7
  6
CONTINUOUS
 10
10.1071935389
 20
8.3997411304
 40
1.12
100
AcDbArc
 50
84.0004970731
 51
90.5749741793
  0
ARC
  5
293
100
AcDbEntity
  8
0
100
AcDbCircle
 62
7
  6
CONTINUOUS
 10
9.5594489688
 20
7.4621269572
 40
0.7875
100
AcDbArc
 50
207.9162282035
 51
360.0
  0
ARC
  5
294
100
AcDbEntity
  8
0
100
AcDbCircle
 62
7
  6
CONTINUOUS
 10
10.6320594508
 20
8.2822531926
 40
0.4294484826
100
AcDbArc
 50
68.6438799141
 51
71.8021344013
  0
ARC
  5
295
100
AcDbEntity
  8
0
100
AcDbCircle
 62
7
  6
CONTINUOUS
 10
10.6244524449
 20
8.3322393907
 40
0.3797856808
100
AcDbArc
 50
67.1470236793
 51
70.4914664002
  0
ARC
  5
296
100
AcDbEntity
  8
0
100
AcDbCircle
 62
7
  6
CONTINUOUS
 10
8.5587708811
 20
7.2148551129
 40
0.2952755906
100
AcDbArc
 50
349.0564885343
 51
246.7759678719
  0
ARC
  5
297
100
AcDbEntity
  8
0
100
AcDbCircle
 62
7
  6
CONTINUOUS
 10
10.0949508111
 20
8.4778027274
 40
0.0999999707
100
AcDbArc
 50
89.4250258197
 51
127.2419628863
  0
ARC
  5
298
100
AcDbEntity
  8
0
100
AcDbCircle
 62
7
  6
CONTINUOUS
 10
8.9259850881
 20
7.1438515497
 40
0.0787401575
100
AcDbArc
 50
169.0564885385
 51
207.9162282033
  0
ARC
  5
299
100
AcDbEntity
  8
0
100
AcDbCircle
 62
7
  6
CONTINUOUS
 10
8.4112862248
 20
6.8711458521
 40
0.0787401575
100
AcDbArc
 50
27.9162282036
 51
66.7759678685
  0
ARC
  5
29A
100
AcDbEntity
  8
0
100
AcDbCircle
 62
7
  6
CONTINUOUS
 10
8.709882499
 20
9.61367951
 40
1.2799999166
100
AcDbArc
 50
350.0164656351
 51
355.7275007412
  0
ARC
  5
29B
100
AcDbEntity
  8
0
100
AcDbCircle
 62
7
  6
CONTINUOUS
 10
10.1071935389
 20
9.6977411304
 40
1.12
100
AcDbArc
 50
269.4250258207
 51
275.9995029269
  0
ARC
  5
29C
100
AcDbEntity
  8
0
100
AcDbCircle
 62
7
  6
CONTINUOUS
 10
10.5594489688
 20
11.2692129806
 40
0.4999999927
100
AcDbArc
 50
9.8143870645
 51
170.1856129355
  0
ARC
  5
29D
100
AcDbEntity
  8
0
100
AcDbCircle
 62
7
  6
CONTINUOUS
 10
10.6263677747
 20
9.7768757633
 40
0.3913236786
100
AcDbArc
 50
289.1737541697
 51
292.4727610599
  0
ARC
  5
29E
100
AcDbEntity
  8
0
100
AcDbCircle
 62
9
  6
CONTINUOUS
 10
10.5257475644
 20
10.1413092709
 40
0.3892676412
100
AcDbArc
 50
186.0537951727
 51
186.3797229653
  0
ARC
  5
29F
100
AcDbEntity
  8
0
100
AcDbCircle
 62
9
  6
CONTINUOUS
 10
10.6062117759
 20
10.1424652436
 40
0.3766976862
100
AcDbArc
 50
353.2327905968
 51
353.5624797994
  0
ARC
  5
2A0
100
AcDbEntity
  8
0
100
AcDbCircle
 62
7
  6
CONTINUOUS
 10
10.0949508111
 20
9.6196795334
 40
0.0999999707
100
AcDbArc
 50
232.7580371137
 51
270.5749741803
  0
ARC
  5
2A1
100
AcDbEntity
  8
0
100
AcDbCircle
 62
7
  6
CONTINUOUS
 10
10.0445097843
 20
11.3184279575
 40
0.0196850404
100
AcDbArc
 50
89.9988327477
 51
180.0037732685
  0
ARC
  5
2A2
100
AcDbEntity
  8
0
100
AcDbCircle
 62
7
  6
CONTINUOUS
 10
10.0473692428
 20
11.3577966935
 40
0.0196850384
100
AcDbArc
 50
270.0000073314
 51
350.1863030723
  0
ARC
  5
2A3
100
AcDbEntity
  8
0
100
AcDbCircle
 62
7
  6
CONTINUOUS
 10
10.1846758597
 20
10.0378114441
 40
0.0176131298
100
AcDbArc
 50
265.7402565631
 51
270.0122747669
  0
ARC
  5
2A4
100
AcDbEntity
  8
0
100
AcDbCircle
 62
9
  6
CONTINUOUS
 10
10.1852879671
 20
10.0715124773
 40
0.0175834945
100
AcDbArc
 50
91.2052491476
 51
105.8599416854
  0
ARC
  5
2A5
100
AcDbEntity
  8
0
100
AcDbCircle
 62
9
  6
CONTINUOUS
 10
10.1852857463
 20
10.0716362123
 40
0.0174597401
100
AcDbArc
 50
90.0003675501
 51
91.2065040172
  0
ARC
  5
2A6
100
AcDbEntity
  8
0
100
AcDbCircle
 62
7
  6
CONTINUOUS
 10
10.1846717912
 20
10.0716409085
 40
0.0174550457
100
AcDbArc
 50
89.9742594665
 51
95.686013574
  0
ARC
  5
2A7
100
AcDbEntity
  8
0
100
AcDbCircle
 62
9
  6
CONTINUOUS
 10
10.1852927851
 20
10.0376466833
 40
0.0174483702
100
AcDbArc
 50
254.0621460522
 51
269.9765186152
  0
ARC
  5
2A8
100
AcDbEntity
  8
0
100
AcDbCircle
 62
7
  6
CONTINUOUS
 10
10.1846662118
 20
10.0376264719
 40
0.0174279524
100
AcDbArc
 50
254.0629703419
 51
265.7267178123
  0
ARC
  5
2A9
100
AcDbEntity
  8
0
100
AcDbCircle
 62
7
  6
CONTINUOUS
 10
10.1846471452
 20
10.0719048529
 40
0.0171899582
100
AcDbArc
 50
95.6914333158
 51
105.8674075528
  0
ARC
  5
2AA
100
AcDbEntity
  8
0
100
AcDbCircle
 62
7
  6
CONTINUOUS
 10
10.1861379338
 20
10.1059628848
 40
0.0168606897
100
AcDbArc
 50
278.288054508
 51
285.1372364974
  0
ARC
  5
2AB
100
AcDbEntity
  8
0
100
AcDbCircle
 62
7
  6
CONTINUOUS
 10
11.8023352019
 20
9.0693129542
 40
1.86
100
AcDbArc
 50
170.016465635
 51
180.0
  0
ARC
  5
2AC
100
AcDbEntity
  8
0
100
AcDbCircle
 62
7
  6
CONTINUOUS
 10
11.8023352019
 20
9.0281693066
 40
1.86
100
AcDbArc
 50
180.0
 51
189.983534365
  0
ARC
  5
2AD
100
AcDbEntity
  8
0
100
AcDbCircle
 62
7
  6
CONTINUOUS
 10
13.2267107024
 20
8.5169223956
 40
0.6078409296
100
AcDbArc
 50
249.6970355865
 51
263.3643665393
  0
ARC
  5
2AE
100
AcDbEntity
  8
0
100
AcDbCircle
 62
7
  6
CONTINUOUS
 10
12.4566283715
 20
7.9053769231
 40
0.4888424103
100
AcDbArc
 50
25.8490587855
 51
51.3390445145
  0
ARC
  5
2AF
100
AcDbEntity
  8
0
100
AcDbCircle
 62
7
  6
CONTINUOUS
 10
12.5284130432
 20
7.9951040796
 40
0.3739337434
100
AcDbArc
 50
51.3390445145
 51
75.43503933
  0
ARC
  5
2B0
100
AcDbEntity
  8
0
100
AcDbCircle
 62
7
  6
CONTINUOUS
 10
13.2684316338
 20
8.2065987798
 40
0.3739337434
100
AcDbArc
 50
204.6543569553
 51
217.2907938915
  0
ARC
  5
2B1
100
AcDbEntity
  8
0
100
AcDbCircle
 62
7
  6
CONTINUOUS
 10
13.0504979358
 20
8.0406331236
 40
0.1
100
AcDbArc
 50
217.2907938915
 51
249.6970355865
  0
ARC
  5
2B2
100
AcDbEntity
  8
0
100
AcDbCircle
 62
7
  6
CONTINUOUS
 10
10.9066022415
 20
8.6060213728
 40
0.0999997532
100
AcDbArc
 50
64.2357619608
 51
101.8544800767
  0
ARC
  5
2B3
100
AcDbEntity
  8
0
100
AcDbCircle
 62
7
  6
CONTINUOUS
 10
11.6493708732
 20
8.546699092
 40
0.0799999779
100
AcDbArc
 50
91.2531773073
 51
145.3497139696
  0
ARC
  5
2B4
100
AcDbEntity
  8
0
100
AcDbCircle
 62
7
  6
CONTINUOUS
 10
11.5429963759
 20
8.6649501102
 40
0.0665316887
100
AcDbArc
 50
219.9658590566
 51
227.1631243827
  0
ARC
  5
2B5
100
AcDbEntity
  8
0
100
AcDbCircle
 62
7
  6
CONTINUOUS
 10
11.5416973457
 20
8.6529197023
 40
0.0656572454
100
AcDbArc
 50
220.8127339564
 51
226.7117446725
  0
ARC
  5
2B6
100
AcDbEntity
  8
0
100
AcDbCircle
 62
7
  6
CONTINUOUS
 10
11.5400996676
 20
8.6429830375
 40
0.0645456237
100
AcDbArc
 50
221.8295803743
 51
226.411569865
  0
ARC
  5
2B7
100
AcDbEntity
  8
0
100
AcDbCircle
 62
7
  6
CONTINUOUS
 10
11.5382158753
 20
8.6351907543
 40
0.0632169172
100
AcDbArc
 50
223.0301887426
 51
226.2856550623
  0
ARC
  5
2B8
100
AcDbEntity
  8
0
100
AcDbCircle
 62
7
  6
CONTINUOUS
 10
11.5262055473
 20
8.6620290808
 40
0.0626518567
100
AcDbArc
 50
312.8640540264
 51
320.5440067377
  0
ARC
  5
2B9
100
AcDbEntity
  8
0
100
AcDbCircle
 62
7
  6
CONTINUOUS
 10
11.5322168059
 20
8.6276622427
 40
0.0624083207
100
AcDbArc
 50
319.8407992065
 51
325.3556595184
  0
ARC
  5
2BA
100
AcDbEntity
  8
0
100
AcDbCircle
 62
7
  6
CONTINUOUS
 10
11.5333477088
 20
8.6281931028
 40
0.0621321477
100
AcDbArc
 50
240.9977894264
 51
246.4960047822
  0
ARC
  5
2BB
100
AcDbEntity
  8
0
100
AcDbCircle
 62
7
  6
CONTINUOUS
 10
11.5272811084
 20
8.6501488706
 40
0.0620367018
100
AcDbArc
 50
313.4055239926
 51
319.6790396775
  0
ARC
  5
2BC
100
AcDbEntity
  8
0
100
AcDbCircle
 62
7
  6
CONTINUOUS
 10
11.5360685336
 20
8.6295909804
 40
0.0617060402
100
AcDbArc
 50
224.4310695019
 51
226.3638068519
  0
ARC
  5
2BD
100
AcDbEntity
  8
0
100
AcDbCircle
 62
7
  6
CONTINUOUS
 10
11.533108455
 20
8.6269145867
 40
0.0612446995
100
AcDbArc
 50
315.6138459309
 51
319.8373971495
  0
ARC
  5
2BE
100
AcDbEntity
  8
0
100
AcDbCircle
 62
7
  6
CONTINUOUS
 10
11.5286794825
 20
8.6403304398
 40
0.0611434276
100
AcDbArc
 50
313.7909568879
 51
318.6510513831
  0
ARC
  5
2BF
100
AcDbEntity
  8
0
100
AcDbCircle
 62
7
  6
CONTINUOUS
 10
11.5338037162
 20
8.6262413779
 40
0.0602769338
100
AcDbArc
 50
313.3296229729
 51
315.6088787726
  0
ARC
  5
2C0
100
AcDbEntity
  8
0
100
AcDbCircle
 62
7
  6
CONTINUOUS
 10
11.534402539
 20
8.6265880991
 40
0.0601910885
100
AcDbArc
 50
295.3870014676
 51
299.0051896555
  0
ARC
  5
2C1
100
AcDbEntity
  8
0
100
AcDbCircle
 62
7
  6
CONTINUOUS
 10
11.5336991078
 20
8.6262408212
 40
0.0600774678
100
AcDbArc
 50
226.0515242237
 51
226.6844382261
  0
ARC
  5
2C2
100
AcDbEntity
  8
0
100
AcDbCircle
 62
7
  6
CONTINUOUS
 10
11.5322267427
 20
8.6263802412
 40
0.0600064323
100
AcDbArc
 50
220.5378414551
 51
227.0947237919
  0
ARC
  5
2C3
100
AcDbEntity
  8
0
100
AcDbCircle
 62
7
  6
CONTINUOUS
 10
11.530401341
 20
8.6326124175
 40
0.0599736824
100
AcDbArc
 50
313.9977791995
 51
317.4452697806
  0
ARC
  5
2C4
100
AcDbEntity
  8
0
100
AcDbCircle
 62
7
  6
CONTINUOUS
 10
11.5321145869
 20
8.6262605427
 40
0.0598424012
100
AcDbArc
 50
227.0953580811
 51
227.9129328865
  0
ARC
  5
2C5
100
AcDbEntity
  8
0
100
AcDbCircle
 62
7
  6
CONTINUOUS
 10
11.5341761891
 20
8.6258498917
 40
0.0597365709
100
AcDbArc
 50
312.5601613552
 51
313.3274094491
  0
ARC
  5
2C6
100
AcDbEntity
  8
0
100
AcDbCircle
 62
7
  6
CONTINUOUS
 10
11.532434804
 20
8.6270311094
 40
0.0585457971
100
AcDbArc
 50
313.9972065622
 51
316.0433076293
  0
ARC
  5
2C7
100
AcDbEntity
  8
0
100
AcDbCircle
 62
7
  6
CONTINUOUS
 10
11.5347620292
 20
8.6236148669
 40
0.0568864384
100
AcDbArc
 50
313.7520562684
 51
314.4232218897
  0
ARC
  5
2C8
100
AcDbEntity
  8
0
100
AcDbCircle
 62
7
  6
CONTINUOUS
 10
11.3624489688
 20
8.7532411304
 40
0.04
100
AcDbArc
 50
180.0
 51
270.0
  0
ARC
  5
2C9
100
AcDbEntity
  8
0
100
AcDbCircle
 62
7
  6
CONTINUOUS
 10
10.9066022415
 20
9.491460888
 40
0.0999997532
100
AcDbArc
 50
258.1455199233
 51
295.7642380392
  0
ARC
  5
2CA
100
AcDbEntity
  8
0
100
AcDbCircle
 62
7
  6
CONTINUOUS
 10
11.6493708732
 20
9.5507831688
 40
0.0799999779
100
AcDbArc
 50
214.6502860304
 51
268.7468226927
  0
ARC
  5
2CB
100
AcDbEntity
  8
0
100
AcDbCircle
 62
7
  6
CONTINUOUS
 10
11.5424643829
 20
9.4330381345
 40
0.0657989617
100
AcDbArc
 50
132.7967027112
 51
140.074269784
  0
ARC
  5
2CC
100
AcDbEntity
  8
0
100
AcDbCircle
 62
7
  6
CONTINUOUS
 10
11.5413520103
 20
9.4448932889
 40
0.0651797214
100
AcDbArc
 50
133.2665875532
 51
139.2088956891
  0
ARC
  5
2CD
100
AcDbEntity
  8
0
100
AcDbCircle
 62
7
  6
CONTINUOUS
 10
11.5399131264
 20
9.4546801264
 40
0.0642859794
100
AcDbArc
 50
133.5791392577
 51
138.1796791117
  0
ARC
  5
2CE
100
AcDbEntity
  8
0
100
AcDbCircle
 62
7
  6
CONTINUOUS
 10
11.5256985943
 20
9.4349755173
 40
0.0633468465
100
AcDbArc
 50
39.4981855837
 51
47.0937350541
  0
ARC
  5
2CF
100
AcDbEntity
  8
0
100
AcDbCircle
 62
7
  6
CONTINUOUS
 10
11.5381482029
 20
9.4623583775
 40
0.0631218175
100
AcDbArc
 50
133.711866951
 51
136.972265522
  0
ARC
  5
2D0
100
AcDbEntity
  8
0
100
AcDbCircle
 62
7
  6
CONTINUOUS
 10
11.5269586014
 20
9.4470277927
 40
0.0624803386
100
AcDbArc
 50
40.3432558021
 51
46.5721644472
  0
ARC
  5
2D1
100
AcDbEntity
  8
0
100
AcDbCircle
 62
7
  6
CONTINUOUS
 10
11.5322168059
 20
9.4698200181
 40
0.0624083207
100
AcDbArc
 50
34.6443404817
 51
40.1592007935
  0
ARC
  5
2D2
100
AcDbEntity
  8
0
100
AcDbCircle
 62
7
  6
CONTINUOUS
 10
11.5333644932
 20
9.4692551183
 40
0.0621700567
100
AcDbArc
 50
113.5056691277
 51
119.0005293836
  0
ARC
  5
2D3
100
AcDbEntity
  8
0
100
AcDbCircle
 62
7
  6
CONTINUOUS
 10
11.5360700996
 20
9.4678896939
 40
0.061708269
100
AcDbArc
 50
133.6362121421
 51
135.5688964793
  0
ARC
  5
2D4
100
AcDbEntity
  8
0
100
AcDbCircle
 62
7
  6
CONTINUOUS
 10
11.5285125782
 20
9.4569918813
 40
0.0613743866
100
AcDbArc
 50
41.3580996926
 51
46.1998787826
  0
ARC
  5
2D5
100
AcDbEntity
  8
0
100
AcDbCircle
 62
7
  6
CONTINUOUS
 10
11.533108455
 20
9.4705676741
 40
0.0612446995
100
AcDbArc
 50
40.1626028507
 51
44.3861540691
  0
ARC
  5
2D6
100
AcDbEntity
  8
0
100
AcDbCircle
 62
7
  6
CONTINUOUS
 10
11.5338037162
 20
9.4712408829
 40
0.0602769338
100
AcDbArc
 50
44.3911212273
 51
46.670377027
  0
ARC
  5
2D7
100
AcDbEntity
  8
0
100
AcDbCircle
 62
7
  6
CONTINUOUS
 10
11.5336991515
 20
9.4712413943
 40
0.0600775307
100
AcDbArc
 50
133.3155565001
 51
133.9484757863
  0
ARC
  5
2D8
100
AcDbEntity
  8
0
100
AcDbCircle
 62
7
  6
CONTINUOUS
 10
11.5303490058
 20
9.4648188086
 40
0.0600467487
100
AcDbArc
 50
42.5568292433
 51
46.0001117318
  0
ARC
  5
2D9
100
AcDbEntity
  8
0
100
AcDbCircle
 62
7
  6
CONTINUOUS
 10
11.5322267426
 20
9.4711020196
 40
0.0600064323
100
AcDbArc
 50
132.9052762079
 51
139.4621585449
  0
ARC
  5
2DA
100
AcDbEntity
  8
0
100
AcDbCircle
 62
7
  6
CONTINUOUS
 10
11.5345527988
 20
9.4711865871
 40
0.0598624819
100
AcDbArc
 50
60.9848752389
 51
64.622931624
  0
ARC
  5
2DB
100
AcDbEntity
  8
0
100
AcDbCircle
 62
7
  6
CONTINUOUS
 10
11.5321145869
 20
9.4712217181
 40
0.0598424012
100
AcDbArc
 50
132.0870671134
 51
132.9046419192
  0
ARC
  5
2DC
100
AcDbEntity
  8
0
100
AcDbCircle
 62
7
  6
CONTINUOUS
 10
11.5341761891
 20
9.4716323691
 40
0.0597365708
100
AcDbArc
 50
46.6725905506
 51
47.4398386454
  0
ARC
  5
2DD
100
AcDbEntity
  8
0
100
AcDbCircle
 62
7
  6
CONTINUOUS
 10
11.5324462807
 20
9.4704626191
 40
0.0585295755
100
AcDbArc
 50
43.9564094149
 51
46.0030700029
  0
ARC
  5
2DE
100
AcDbEntity
  8
0
100
AcDbCircle
 62
7
  6
CONTINUOUS
 10
11.5347620554
 20
9.4738674207
 40
0.0568864009
100
AcDbArc
 50
45.5767781154
 51
46.2479414746
  0
ARC
  5
2DF
100
AcDbEntity
  8
0
100
AcDbCircle
 62
7
  6
CONTINUOUS
 10
11.3624489688
 20
9.3442411304
 40
0.04
100
AcDbArc
 50
90.0
 51
180.0
  0
ARC
  5
2E0
100
AcDbEntity
  8
0
100
AcDbCircle
 62
7
  6
CONTINUOUS
 10
10.9342224228
 20
10.0377972846
 40
0.0175989704
100
AcDbArc
 50
269.9865922707
 51
274.4067555484
  0
ARC
  5
2E1
100
AcDbEntity
  8
0
100
AcDbCircle
 62
9
  6
CONTINUOUS
 10
10.933609877
 20
10.0377829692
 40
0.0175846547
100
AcDbArc
 50
270.0079051352
 51
285.8591869711
  0
ARC
  5
2E2
100
AcDbEntity
  8
0
100
AcDbCircle
 62
9
  6
CONTINUOUS
 10
10.9336012577
 20
10.0716241879
 40
0.0174719364
100
AcDbArc
 50
74.0709326974
 51
88.7607169854
  0
ARC
  5
2E3
100
AcDbEntity
  8
0
100
AcDbCircle
 62
7
  6
CONTINUOUS
 10
10.9342264131
 20
10.0716519214
 40
0.017444033
100
AcDbArc
 50
84.3153434606
 51
90.0266331753
  0
ARC
  5
2E4
100
AcDbEntity
  8
0
100
AcDbCircle
 62
7
  6
CONTINUOUS
 10
10.9342313227
 20
10.0376194816
 40
0.0174210099
100
AcDbArc
 50
274.4225034299
 51
285.9407522579
  0
ARC
  5
2E5
100
AcDbEntity
  8
0
100
AcDbCircle
 62
9
  6
CONTINUOUS
 10
10.9336121581
 20
10.0718943719
 40
0.0172015805
100
AcDbArc
 50
88.7775523467
 51
89.9995167692
  0
ARC
  5
2E6
100
AcDbEntity
  8
0
100
AcDbCircle
 62
7
  6
CONTINUOUS
 10
10.9342516421
 20
10.0719224389
 40
0.0171723469
100
AcDbArc
 50
74.1283825324
 51
84.3097021958
  0
ARC
  5
2E7
100
AcDbEntity
  8
0
100
AcDbCircle
 62
7
  6
CONTINUOUS
 10
10.9327904063
 20
10.1059828866
 40
0.0168881077
100
AcDbArc
 50
254.7628882616
 51
261.616197347
  0
ARC
  5
2E8
100
AcDbEntity
  8
0
100
AcDbCircle
 62
9
  6
CONTINUOUS
 10
10.9339414095
 20
10.0947947706
 40
0.005827604
100
AcDbArc
 50
289.0789677291
 51
297.0402276228
  0
ARC
  5
2E9
100
AcDbEntity
  8
0
100
AcDbCircle
 62
7
  6
CONTINUOUS
 10
11.0641700278
 20
10.6550547505
 40
1.36749553
100
AcDbArc
 50
237.9563488114
 51
238.9757815229
  0
ARC
  5
2EA
100
AcDbEntity
  8
0
100
AcDbCircle
 62
7
  6
CONTINUOUS
 10
11.0715286943
 20
11.3577967101
 40
0.0196850388
100
AcDbArc
 50
189.8137446808
 51
269.9999938153
  0
ARC
  5
2EB
100
AcDbEntity
  8
0
100
AcDbCircle
 62
7
  6
CONTINUOUS
 10
11.0743861696
 20
11.3184266708
 40
0.0196850358
100
AcDbArc
 50
359.9999716968
 51
89.9953936796
  0
ARC
  5
2EC
100
AcDbEntity
  8
0
100
AcDbCircle
 62
7
  6
CONTINUOUS
 10
13.2267107024
 20
9.5805598652
 40
0.6078409296
100
AcDbArc
 50
96.6356334607
 51
110.3029644135
  0
ARC
  5
2ED
100
AcDbEntity
  8
0
100
AcDbCircle
 62
7
  6
CONTINUOUS
 10
12.4566283715
 20
10.1921053377
 40
0.4888424103
100
AcDbArc
 50
308.6609554855
 51
334.1509412145
  0
ARC
  5
2EE
100
AcDbEntity
  8
0
100
AcDbCircle
 62
7
  6
CONTINUOUS
 10
12.5284130432
 20
10.1023781812
 40
0.3739337434
100
AcDbArc
 50
284.56496067
 51
308.6609554855
  0
ARC
  5
2EF
100
AcDbEntity
  8
0
100
AcDbCircle
 62
7
  6
CONTINUOUS
 10
13.2684316338
 20
9.890883481
 40
0.3739337434
100
AcDbArc
 50
142.7092061085
 51
155.3456430447
  0
ARC
  5
2F0
100
AcDbEntity
  8
0
100
AcDbCircle
 62
7
  6
CONTINUOUS
 10
13.0504979358
 20
10.0568491372
 40
0.1
100
AcDbArc
 50
110.3029644135
 51
142.7092061085
  0
ARC
  5
2F1
100
AcDbEntity
  8
0
100
AcDbCircle
 62
9
  6
CONTINUOUS
 10
74.4508441278
 20
17.0079294576
 40
64.6553644853
100
AcDbArc
 50
185.0899322419
 51
186.111899107
  0
SPLINE
  5
2F2
100
AcDbEntity
  8
0
100
AcDbSpline
 62
7
  6
CONTINUOUS
 70
0
 71
3
 72
18
 73
14
 74
0
 42
0.0000001
 43
0.0000001
 44
0.0000000001
 40
0.0
 40
0.0
 40
0.0
 40
0.0
 40
0.111318623
 40
0.2329413818
 40
0.3635983071
 40
0.4314074334
 40
0.5000491799
 40
0.5686895521
 40
0.6365089444
 40
0.7028446011
 40
0.7670994301
 40
0.8884884129
 40
1.0
 40
1.0
 40
1.0
 40
1.0
 10
11.5745798543
 20
8.5863936256
 30
0.0
 10
11.5719984766
 20
8.5843762222
 30
0.0
 10
11.5661983131
 20
8.5806455309
 30
0.0
 10
11.5563106382
 20
8.5764376628
 30
0.0
 10
11.5471228545
 20
8.5741684366
 30
0.0
 10
11.5393170206
 20
8.5731831339
 30
0.0
 10
11.5332800549
 20
8.5729139096
 30
0.0
 10
11.5272407629
 20
8.573139047
 30
0.0
 10
11.521311013
 20
8.5738785089
 30
0.0
 10
11.5155896948
 20
8.5750805617
 30
0.0
 10
11.5084754946
 20
8.5771987093
 30
0.0
 10
11.5004125992
 20
8.580684264
 30
0.0
 10
11.4946066643
 20
8.5843935492
 30
0.0
 10
11.4920046717
 20
8.5863936256
 30
0.0
  0
SPLINE
  5
2F3
100
AcDbEntity
  8
0
100
AcDbSpline
 62
7
  6
CONTINUOUS
 70
0
 71
3
 72
17
 73
13
 74
0
 42
0.0000001
 43
0.0000001
 44
0.0000000001
 40
0.0
 40
0.0
 40
0.0
 40
0.0
 40
0.107736635
 40
0.228628249
 40
0.3608314715
 40
0.500046999
 40
0.5702058329
 40
0.6393578053
 40
0.706671965
 40
0.77141791
 40
0.8920113601
 40
1.0
 40
1.0
 40
1.0
 40
1.0
 10
11.5745798543
 20
8.5999364475
 30
0.0
 10
11.5719553275
 20
8.5982841037
 30
0.0
 10
11.5660765816
 20
8.5952556996
 30
0.0
 10
11.5562156479
 20
8.5918925278
 30
0.0
 10
11.5451072336
 20
8.5896910095
 30
0.0
 10
11.5352676621
 20
8.5890177692
 30
0.0
 10
11.5272482079
 20
8.5892585037
 30
0.0
 10
11.5213250518
 20
8.5898527402
 30
0.0
 10
11.5156094182
 20
8.5908189036
 30
0.0
 10
11.5085321822
 20
8.5925145695
 30
0.0
 10
11.5005292128
 20
8.5952887347
 30
0.0
 10
11.4946476006
 20
8.5982998789
 30
0.0
 10
11.4920046717
 20
8.5999364475
 30
0.0
  0
SPLINE
  5
2F4
100
AcDbEntity
  8
0
100
AcDbSpline
 62
7
  6
CONTINUOUS
 70
0
 71
3
 72
18
 73
14
 74
0
 42
0.0000001
 43
0.0000001
 44
0.0000000001
 40
0.0
 40
0.0
 40
0.0
 40
0.0
 40
0.0501776852
 40
0.1044391626
 40
0.2246843592
 40
0.3583070173
 40
0.5001202042
 40
0.5716484499
 40
0.6420063409
 40
0.7102131547
 40
0.7754161164
 40
0.8953036907
 40
1.0
 40
1.0
 40
1.0
 40
1.0
 10
11.5745798543
 20
8.622214742
 30
0.0
 10
11.5732956332
 20
8.6216170918
 30
0.0
 10
11.5705771254
 20
8.6204693759
 30
0.0
 10
11.5645868471
 20
8.6183745196
 30
0.0
 10
11.5561308515
 20
8.6162533188
 30
0.0
 10
11.5450624497
 20
8.614637971
 30
0.0
 10
11.5352637644
 20
8.6141440358
 30
0.0
 10
11.5272542899
 20
8.6143214347
 30
0.0
 10
11.5213370471
 20
8.6147598248
 30
0.0
 10
11.5156266125
 20
8.6154725511
 30
0.0
 10
11.5085831035
 20
8.6167188731
 30
0.0
 10
11.5006422545
 20
8.6187451229
 30
0.0
 10
11.4946920269
 20
8.6209846666
 30
0.0
 10
11.4920046717
 20
8.622214742
 30
0.0
  0
SPLINE
  5
2F5
100
AcDbEntity
  8
0
100
AcDbSpline
 62
7
  6
CONTINUOUS
 70
0
 71
3
 72
17
 73
13
 74
0
 42
0.0000001
 43
0.0000001
 44
0.0000000001
 40
0.0
 40
0.0
 40
0.0
 40
0.0
 40
0.0485274529
 40
0.1017479633
 40
0.2215247748
 40
0.3562911342
 40
0.5001499189
 40
0.5727547138
 40
0.644064691
 40
0.7785459799
 40
0.8979180723
 40
1.0
 40
1.0
 40
1.0
 40
1.0
 10
11.5745798543
 20
8.6527948876
 30
0.0
 10
11.5732846186
 20
8.652416519
 30
0.0
 10
11.5705483712
 20
8.6516924206
 30
0.0
 10
11.5645300419
 20
8.6503730366
 30
0.0
 10
11.5560674126
 20
8.649045787
 30
0.0
 10
11.5450290691
 20
8.6480372299
 30
0.0
 10
11.5352610107
 20
8.6477289858
 30
0.0
 10
11.5272586723
 20
8.647840052
 30
0.0
 10
11.5195247901
 20
8.6481995763
 30
0.0
 10
11.51051524
 20
8.6490383321
 30
0.0
 10
11.500735183
 20
8.6505996856
 30
0.0
 10
11.4947328186
 20
8.652011037
 30
0.0
 10
11.4920046717
 20
8.6527948876
 30
0.0
  0
SPLINE
  5
2F6
100
AcDbEntity
  8
0
100
AcDbSpline
 62
7
  6
CONTINUOUS
 70
0
 71
3
 72
15
 73
11
 74
0
 42
0.0000001
 43
0.0000001
 44
0.0000000001
 40
0.0
 40
0.0
 40
0.0
 40
0.0
 40
0.1001578014
 40
0.2196725663
 40
0.3551086376
 40
0.5001516965
 40
0.6452382868
 40
0.7803727619
 40
0.8994553037
 40
1.0
 40
1.0
 40
1.0
 40
1.0
 10
11.5745798543
 20
8.6910816763
 30
0.0
 10
11.5718362736
 20
8.6907711547
 30
0.0
 10
11.5658040014
 20
8.690220749
 30
0.0
 10
11.5560314955
 20
8.6896273194
 30
0.0
 10
11.5450104458
 20
8.6892382175
 30
0.0
 10
11.533278517
 20
8.6890941548
 30
0.0
 10
11.5215546604
 20
8.6892278061
 30
0.0
 10
11.5105528204
 20
8.6896246301
 30
0.0
 10
11.5007904985
 20
8.6902272033
 30
0.0
 10
11.4947594187
 20
8.6907750177
 30
0.0
 10
11.4920046717
 20
8.6910816763
 30
0.0
  0
SPLINE
  5
2F7
100
AcDbEntity
  8
0
100
AcDbSpline
 62
7
  6
CONTINUOUS
 70
0
 71
3
 72
15
 73
11
 74
0
 42
0.0000001
 43
0.0000001
 44
0.0000000001
 40
0.0
 40
0.0
 40
0.0
 40
0.0
 40
0.1005447209
 40
0.2196272864
 40
0.3547617789
 40
0.4998483743
 40
0.6448914217
 40
0.7803274692
 40
0.8998422092
 40
1.0
 40
1.0
 40
1.0
 40
1.0
 10
11.4920046717
 20
9.4064005845
 30
0.0
 10
11.4947594194
 20
9.4067072432
 30
0.0
 10
11.5007905005
 20
9.4072550576
 30
0.0
 10
11.5105528242
 20
9.4078576311
 30
0.0
 10
11.5215546655
 20
9.4082544545
 30
0.0
 10
11.5332785224
 20
9.4083881063
 30
0.0
 10
11.5450104504
 20
9.4082440431
 30
0.0
 10
11.5560314984
 20
9.4078549412
 30
0.0
 10
11.5658040027
 20
9.4072615118
 30
0.0
 10
11.5718362739
 20
9.4067111061
 30
0.0
 10
11.5745798543
 20
9.4064005845
 30
0.0
  0
SPLINE
  5
2F8
100
AcDbEntity
  8
0
100
AcDbSpline
 62
7
  6
CONTINUOUS
 70
0
 71
3
 72
17
 73
13
 74
0
 42
0.0000001
 43
0.0000001
 44
0.0000000001
 40
0.0
 40
0.0
 40
0.0
 40
0.0
 40
0.1020819523
 40
0.2214540685
 40
0.3559353739
 40
0.4272453662
 40
0.4998501511
 40
0.6437089247
 40
0.7784752605
 40
0.8982520473
 40
0.9514725503
 40
1.0
 40
1.0
 40
1.0
 40
1.0
 10
11.4920046717
 20
9.4446873732
 30
0.0
 10
11.4947328192
 20
9.445471224
 30
0.0
 10
11.500735185
 20
9.4468825754
 30
0.0
 10
11.5105152437
 20
9.4484439296
 30
0.0
 10
11.5195247955
 20
9.4492826842
 30
0.0
 10
11.5272586783
 20
9.4496422089
 30
0.0
 10
11.5352610165
 20
9.4497532753
 30
0.0
 10
11.5450290736
 20
9.4494450305
 30
0.0
 10
11.5560674155
 20
9.4484364735
 30
0.0
 10
11.5645300433
 20
9.447109224
 30
0.0
 10
11.5705483715
 20
9.4457898402
 30
0.0
 10
11.5732846187
 20
9.4450657417
 30
0.0
 10
11.5745798543
 20
9.4446873732
 30
0.0
  0
SPLINE
  5
2F9
100
AcDbEntity
  8
0
100
AcDbSpline
 62
7
  6
CONTINUOUS
 70
0
 71
3
 72
18
 73
14
 74
0
 42
0.0000001
 43
0.0000001
 44
0.0000000001
 40
0.0
 40
0.0
 40
0.0
 40
0.0
 40
0.104696334
 40
0.2245839321
 40
0.2897868942
 40
0.3579937228
 40
0.4283516288
 40
0.4998798646
 40
0.6416930407
 40
0.7753156759
 40
0.8955608478
 40
0.9498223179
 40
1.0
 40
1.0
 40
1.0
 40
1.0
 10
11.4920046717
 20
9.4752675188
 30
0.0
 10
11.4946920276
 20
9.4764975945
 30
0.0
 10
11.5006422566
 20
9.4787371383
 30
0.0
 10
11.5085831068
 20
9.4807633886
 30
0.0
 10
11.5156266169
 20
9.4820097108
 30
0.0
 10
11.5213370526
 20
9.4827224356
 30
0.0
 10
11.5272542958
 20
9.4831608263
 30
0.0
 10
11.5352637702
 20
9.4833382255
 30
0.0
 10
11.5450624543
 20
9.4828442891
 30
0.0
 10
11.5561308544
 20
9.4812289414
 30
0.0
 10
11.5645868484
 20
9.4791077409
 30
0.0
 10
11.5705771258
 20
9.4770128848
 30
0.0
 10
11.5732956333
 20
9.475865169
 30
0.0
 10
11.5745798543
 20
9.4752675188
 30
0.0
  0
SPLINE
  5
2FA
100
AcDbEntity
  8
0
100
AcDbSpline
 62
7
  6
CONTINUOUS
 70
0
 71
3
 72
17
 73
13
 74
0
 42
0.0000001
 43
0.0000001
 44
0.0000000001
 40
0.0
 40
0.0
 40
0.0
 40
0.0
 40
0.1079886646
 40
0.2285821386
 40
0.2933280837
 40
0.3606422567
 40
0.4297942439
 40
0.4999530681
 40
0.6391685856
 40
0.7713717859
 40
0.8922633752
 40
1.0
 40
1.0
 40
1.0
 40
1.0
 10
11.4920046717
 20
9.4975458133
 30
0.0
 10
11.4946476012
 20
9.4991823823
 30
0.0
 10
11.5005292149
 20
9.5021935268
 30
0.0
 10
11.5085321855
 20
9.5049676926
 30
0.0
 10
11.5156094226
 20
9.5066633587
 30
0.0
 10
11.5213250574
 20
9.5076295201
 30
0.0
 10
11.5272482139
 20
9.5082237573
 30
0.0
 10
11.535267668
 20
9.5084644923
 30
0.0
 10
11.5451072382
 20
9.5077912504
 30
0.0
 10
11.5562156508
 20
9.5055897322
 30
0.0
 10
11.5660765829
 20
9.5022265609
 30
0.0
 10
11.5719553277
 20
9.4991981569
 30
0.0
 10
11.5745798543
 20
9.4975458133
 30
0.0
  0
SPLINE
  5
2FB
100
AcDbEntity
  8
0
100
AcDbSpline
 62
7
  6
CONTINUOUS
 70
0
 71
3
 72
18
 73
14
 74
0
 42
0.0000001
 43
0.0000001
 44
0.0000000001
 40
0.0
 40
0.0
 40
0.0
 40
0.0
 40
0.1115116119
 40
0.2329006189
 40
0.2971554473
 40
0.3634911159
 40
0.4313105228
 40
0.4999508857
 40
0.5685926294
 40
0.6364017488
 40
0.7670586527
 40
0.8886813871
 40
1.0
 40
1.0
 40
1.0
 40
1.0
 10
11.4920046717
 20
9.5110886352
 30
0.0
 10
11.4946066649
 20
9.513088712
 30
0.0
 10
11.5004126013
 20
9.5167979976
 30
0.0
 10
11.5084754979
 20
9.5202835531
 30
0.0
 10
11.5155896991
 20
9.522401701
 30
0.0
 10
11.5213110186
 20
9.5236037512
 30
0.0
 10
11.5272407689
 20
9.5243432141
 30
0.0
 10
11.533280061
 20
9.5245683521
 30
0.0
 10
11.539317026
 20
9.5242991262
 30
0.0
 10
11.547122859
 20
9.5233138234
 30
0.0
 10
11.556310641
 20
9.5210445969
 30
0.0
 10
11.5661983144
 20
9.5168367294
 30
0.0
 10
11.5719984768
 20
9.5131060384
 30
0.0
 10
11.5745798543
 20
9.5110886352
 30
0.0
  0
SPLINE
  5
2FC
100
AcDbEntity
  8
0
100
AcDbSpline
 62
7
  6
CONTINUOUS
 70
0
 71
3
 72
18
 73
14
 74
0
 42
0.0000001
 43
0.0000001
 44
0.0000000001
 40
0.0
 40
0.0
 40
0.0
 40
0.0
 40
0.1130940109
 40
0.2351044484
 40
0.3650024861
 40
0.4321482408
 40
0.5000311079
 40
0.567909275
 40
0.635062432
 40
0.7009137614
 40
0.7649325368
 40
0.8867411617
 40
1.0
 40
1.0
 40
1.0
 40
1.0
 10
11.5745798543
 20
8.5829871956
 30
0.0
 10
11.5720174387
 20
8.5808041106
 30
0.0
 10
11.5662565113
 20
8.5767538654
 30
0.0
 10
11.5563587847
 20
8.5721503438
 30
0.0
 10
11.547140729
 20
8.5696628368
 30
0.0
 10
11.5393209345
 20
8.5685863133
 30
0.0
 10
11.5332802244
 20
8.5682924088
 30
0.0
 10
11.5272368507
 20
8.5685381946
 30
0.0
 10
11.521303554
 20
8.5693453252
 30
0.0
 10
11.5155794532
 20
8.570657236
 30
0.0
 10
11.5084467355
 20
8.5729736134
 30
0.0
 10
11.5003569669
 20
8.5767948233
 30
0.0
 10
11.4945886057
 20
8.5808219766
 30
0.0
 10
11.4920046717
 20
8.5829871956
 30
0.0
  0
SPLINE
  5
2FD
100
AcDbEntity
  8
0
100
AcDbSpline
 62
7
  6
CONTINUOUS
 70
0
 71
3
 72
18
 73
14
 74
0
 42
0.0000001
 43
0.0000001
 44
0.0000000001
 40
0.0
 40
0.0
 40
0.0
 40
0.0
 40
0.1095166364
 40
0.2307605585
 40
0.362188463
 40
0.4306643531
 40
0.5000670284
 40
0.5694715982
 40
0.6379605779
 40
0.7047858836
 40
0.7692833519
 40
0.89026114
 40
1.0
 40
1.0
 40
1.0
 40
1.0
 10
11.5745798543
 20
8.5920525661
 30
0.0
 10
11.5719776812
 20
8.5902121201
 30
0.0
 10
11.566137803
 20
8.5868224514
 30
0.0
 10
11.556262805
 20
8.5830289749
 30
0.0
 10
11.547105536
 20
8.5809866529
 30
0.0
 10
11.5393132491
 20
8.5800968886
 30
0.0
 10
11.5332798937
 20
8.5798535753
 30
0.0
 10
11.527244526
 20
8.5800570383
 30
0.0
 10
11.5213182411
 20
8.5807254302
 30
0.0
 10
11.5155997539
 20
8.58181203
 30
0.0
 10
11.508504201
 20
8.5837228767
 30
0.0
 10
11.5004704633
 20
8.5868585515
 30
0.0
 10
11.4946264204
 20
8.5902287657
 30
0.0
 10
11.4920046717
 20
8.5920525661
 30
0.0
  0
SPLINE
  5
2FE
100
AcDbEntity
  8
0
100
AcDbSpline
 62
7
  6
CONTINUOUS
 70
0
 71
3
 72
19
 73
15
 74
0
 42
0.0000001
 43
0.0000001
 44
0.0000000001
 40
0.0
 40
0.0
 40
0.0
 40
0.0
 40
0.0511674769
 40
0.1060615786
 40
0.2266009192
 40
0.3595249918
 40
0.4292780353
 40
0.5001338297
 40
0.5709976003
 40
0.6407690113
 40
0.7085389865
 40
0.773513719
 40
0.8937241324
 40
1.0
 40
1.0
 40
1.0
 40
1.0
 10
11.5745798543
 20
8.6100068601
 30
0.0
 10
11.5733015961
 20
8.6093053321
 30
0.0
 10
11.5705934303
 20
8.6079559299
 30
0.0
 10
11.5646203461
 20
8.6054907311
 30
0.0
 10
11.5561710778
 20
8.6029850489
 30
0.0
 10
11.5470741927
 20
8.6014171155
 30
0.0
 10
11.5393063883
 20
8.6007293526
 30
0.0
 10
11.5332796184
 20
8.6005410322
 30
0.0
 10
11.5272513105
 20
8.6006985084
 30
0.0
 10
11.5213314108
 20
8.6012160045
 30
0.0
 10
11.5156184344
 20
8.6020573251
 30
0.0
 10
11.5085587358
 20
8.603531111
 30
0.0
 10
11.5005871446
 20
8.6059346766
 30
0.0
 10
11.494669719
 20
8.6085682912
 30
0.0
 10
11.4920046717
 20
8.6100068601
 30
0.0
  0
SPLINE
  5
2FF
100
AcDbEntity
  8
0
100
AcDbSpline
 62
7
  6
CONTINUOUS
 70
0
 71
3
 72
17
 73
13
 74
0
 42
0.0000001
 43
0.0000001
 44
0.0000000001
 40
0.0
 40
0.0
 40
0.0
 40
0.0
 40
0.0492858327
 40
0.102982731
 40
0.2229722392
 40
0.3572176299
 40
0.5001468576
 40
0.5722625557
 40
0.6431397495
 40
0.7771131562
 40
0.8967194564
 40
1.0
 40
1.0
 40
1.0
 40
1.0
 10
11.5745798543
 20
8.6365006176
 30
0.0
 10
11.5732898557
 20
8.6360108357
 30
0.0
 10
11.5705618299
 20
8.6350719098
 30
0.0
 10
11.56455626
 20
8.6333596823
 30
0.0
 10
11.5560961303
 20
8.6316319947
 30
0.0
 10
11.5450440552
 20
8.6303179935
 30
0.0
 10
11.5352622761
 20
8.6299163071
 30
0.0
 10
11.5272566501
 20
8.6300608335
 30
0.0
 10
11.5195147657
 20
8.6305286853
 30
0.0
 10
11.5104854595
 20
8.6316227595
 30
0.0
 10
11.5006925241
 20
8.633657756
 30
0.0
 10
11.4947134897
 20
8.6354890552
 30
0.0
 10
11.4920046717
 20
8.6365006176
 30
0.0
  0
SPLINE
  5
300
100
AcDbEntity
  8
0
100
AcDbSpline
 62
7
  6
CONTINUOUS
 70
0
 71
3
 72
17
 73
13
 74
0
 42
0.0000001
 43
0.0000001
 44
0.0000000001
 40
0.0
 40
0.0
 40
0.0
 40
0.0
 40
0.0479388466
 40
0.1007925356
 40
0.2204096666
 40
0.3555787585
 40
0.5001514656
 40
0.5731317116
 40
0.6447743529
 40
0.7796484432
 40
0.8988443028
 40
1.0
 40
1.0
 40
1.0
 40
1.0
 10
11.5745798543
 20
8.6710181678
 30
0.0
 10
11.5732803232
 20
8.6707541718
 30
0.0
 10
11.5705376128
 20
8.67024971
 30
0.0
 10
11.564509532
 20
8.6693311438
 30
0.0
 10
11.5560455982
 20
8.6684093198
 30
0.0
 10
11.5450178041
 20
8.6677092293
 30
0.0
 10
11.535260069
 20
8.6674952993
 30
0.0
 10
11.527260195
 20
8.6675724663
 30
0.0
 10
11.5195323289
 20
8.6678222571
 30
0.0
 10
11.5105379503
 20
8.6684039295
 30
0.0
 10
11.5007684304
 20
8.6694873424
 30
0.0
 10
11.4947485847
 20
8.6704699157
 30
0.0
 10
11.4920046717
 20
8.6710181678
 30
0.0
  0
SPLINE
  5
301
100
AcDbEntity
  8
0
100
AcDbSpline
 62
7
  6
CONTINUOUS
 70
0
 71
3
 72
14
 73
10
 74
0
 42
0.0000001
 43
0.0000001
 44
0.0000000001
 40
0.0
 40
0.0
 40
0.0
 40
0.0
 40
0.0998844335
 40
0.219353946
 40
0.3549057051
 40
0.5001528407
 40
0.780691007
 40
0.8997235244
 40
1.0
 40
1.0
 40
1.0
 40
1.0
 10
11.5745798543
 20
8.7128876658
 30
0.0
 10
11.5718310673
 20
8.7128253677
 30
0.0
 10
11.5657939129
 20
8.7127151287
 30
0.0
 10
11.5560251961
 20
8.7125963919
 30
0.0
 10
11.5450073384
 20
8.712518475
 30
0.0
 10
11.5295555748
 20
8.7124807424
 30
0.0
 10
11.514558353
 20
8.7125466184
 30
0.0
 10
11.5008001905
 20
8.7127163977
 30
0.0
 10
11.4947642706
 20
8.7128261511
 30
0.0
 10
11.4920046717
 20
8.7128876658
 30
0.0
  0
SPLINE
  5
302
100
AcDbEntity
  8
0
100
AcDbSpline
 62
7
  6
CONTINUOUS
 70
0
 71
3
 72
14
 73
10
 74
0
 42
0.0000001
 43
0.0000001
 44
0.0000000001
 40
0.0
 40
0.0
 40
0.0
 40
0.0
 40
0.1002765002
 40
0.2193090413
 40
0.4998472301
 40
0.6450943543
 40
0.7806460895
 40
0.9001155771
 40
1.0
 40
1.0
 40
1.0
 40
1.0
 10
11.4920046717
 20
9.384594595
 30
0.0
 10
11.4947642713
 20
9.3846561097
 30
0.0
 10
11.5008001925
 20
9.3847658632
 30
0.0
 10
11.5145583569
 20
9.3849356424
 30
0.0
 10
11.5295555797
 20
9.3850015184
 30
0.0
 10
11.545007343
 20
9.3849637857
 30
0.0
 10
11.556025199
 20
9.3848858688
 30
0.0
 10
11.5657939142
 20
9.3847671321
 30
0.0
 10
11.5718310676
 20
9.3846568931
 30
0.0
 10
11.5745798543
 20
9.384594595
 30
0.0
  0
SPLINE
  5
303
100
AcDbEntity
  8
0
100
AcDbSpline
 62
7
  6
CONTINUOUS
 70
0
 71
3
 72
17
 73
13
 74
0
 42
0.0000001
 43
0.0000001
 44
0.0000000001
 40
0.0
 40
0.0
 40
0.0
 40
0.0
 40
0.1011557057
 40
0.2203515719
 40
0.3552256664
 40
0.4268683108
 40
0.4998485493
 40
0.644421244
 40
0.7795903255
 40
0.8992074527
 40
0.9520611488
 40
1.0
 40
1.0
 40
1.0
 40
1.0
 10
11.4920046717
 20
9.426464093
 30
0.0
 10
11.4947485849
 20
9.4270123451
 30
0.0
 10
11.500768431
 20
9.4279949184
 30
0.0
 10
11.5105379515
 20
9.4290783315
 30
0.0
 10
11.5195323305
 20
9.4296600037
 30
0.0
 10
11.5272601966
 20
9.4299097945
 30
0.0
 10
11.5352600701
 20
9.4299869616
 30
0.0
 10
11.5450178044
 20
9.4297730314
 30
0.0
 10
11.5560455977
 20
9.4290729411
 30
0.0
 10
11.5645095314
 20
9.428151117
 30
0.0
 10
11.5705376123
 20
9.4272325508
 30
0.0
 10
11.573280323
 20
9.426728089
 30
0.0
 10
11.5745798543
 20
9.426464093
 30
0.0
  0
SPLINE
  5
304
100
AcDbEntity
  8
0
100
AcDbSpline
 62
7
  6
CONTINUOUS
 70
0
 71
3
 72
17
 73
13
 74
0
 42
0.0000001
 43
0.0000001
 44
0.0000000001
 40
0.0
 40
0.0
 40
0.0
 40
0.0
 40
0.1032805683
 40
0.2228868923
 40
0.3568603148
 40
0.4277375236
 40
0.4998532117
 40
0.6427824285
 40
0.777027796
 40
0.8970172795
 40
0.9507141704
 40
1.0
 40
1.0
 40
1.0
 40
1.0
 10
11.4920046717
 20
9.4609816432
 30
0.0
 10
11.4947134904
 20
9.4619932058
 30
0.0
 10
11.5006925262
 20
9.4638245051
 30
0.0
 10
11.5104854632
 20
9.4658595026
 30
0.0
 10
11.5195147712
 20
9.4669535752
 30
0.0
 10
11.5272566561
 20
9.4674214274
 30
0.0
 10
11.5352622819
 20
9.4675659541
 30
0.0
 10
11.5450440598
 20
9.4671642667
 30
0.0
 10
11.5560961332
 20
9.4658502656
 30
0.0
 10
11.5645562613
 20
9.4641225782
 30
0.0
 10
11.5705618303
 20
9.462410351
 30
0.0
 10
11.5732898558
 20
9.461471425
 30
0.0
 10
11.5745798543
 20
9.4609816432
 30
0.0
  0
SPLINE
  5
305
100
AcDbEntity
  8
0
100
AcDbSpline
 62
7
  6
CONTINUOUS
 70
0
 71
3
 72
19
 73
15
 74
0
 42
0.0000001
 43
0.0000001
 44
0.0000000001
 40
0.0
 40
0.0
 40
0.0
 40
0.0
 40
0.1062758923
 40
0.2264863296
 40
0.2914610623
 40
0.3592310517
 40
0.4290024775
 40
0.4998662383
 40
0.5707220296
 40
0.6404750657
 40
0.7733991158
 40
0.8939384318
 40
0.9488325261
 40
1.0
 40
1.0
 40
1.0
 40
1.0
 10
11.4920046717
 20
9.4874754007
 30
0.0
 10
11.4946697196
 20
9.4889139699
 30
0.0
 10
11.5005871466
 20
9.4915475848
 30
0.0
 10
11.5085587392
 20
9.4939511509
 30
0.0
 10
11.5156184388
 20
9.495424937
 30
0.0
 10
11.5213314163
 20
9.4962662558
 30
0.0
 10
11.5272513165
 20
9.4967837526
 30
0.0
 10
11.5332796244
 20
9.4969412293
 30
0.0
 10
11.5393063938
 20
9.4967529077
 30
0.0
 10
11.5470741972
 20
9.4960651448
 30
0.0
 10
11.5561710806
 20
9.4944972111
 30
0.0
 10
11.5646203474
 20
9.4919915294
 30
0.0
 10
11.5705934307
 20
9.4895263309
 30
0.0
 10
11.5733015962
 20
9.4881769286
 30
0.0
 10
11.5745798543
 20
9.4874754007
 30
0.0
  0
SPLINE
  5
306
100
AcDbEntity
  8
0
100
AcDbSpline
 62
7
  6
CONTINUOUS
 70
0
 71
3
 72
18
 73
14
 74
0
 42
0.0000001
 43
0.0000001
 44
0.0000000001
 40
0.0
 40
0.0
 40
0.0
 40
0.0
 40
0.1097388848
 40
0.2307166969
 40
0.295214165
 40
0.3620394833
 40
0.4305284777
 40
0.4999330379
 40
0.5693357104
 40
0.6378115934
 40
0.7692394762
 40
0.8904833738
 40
1.0
 40
1.0
 40
1.0
 40
1.0
 10
11.4920046717
 20
9.5054296947
 30
0.0
 10
11.494626421
 20
9.5072534955
 30
0.0
 10
11.5004704653
 20
9.51062371
 30
0.0
 10
11.5085042043
 20
9.5137593855
 30
0.0
 10
11.5155997583
 20
9.5156702325
 30
0.0
 10
11.5213182467
 20
9.51675683
 30
0.0
 10
11.5272445319
 20
9.5174252227
 30
0.0
 10
11.5332798998
 20
9.5176286864
 30
0.0
 10
11.5393132545
 20
9.5173853716
 30
0.0
 10
11.5471055404
 20
9.5164956072
 30
0.0
 10
11.5562628078
 20
9.5144532848
 30
0.0
 10
11.5661378043
 20
9.510659809
 30
0.0
 10
11.5719776815
 20
9.5072701406
 30
0.0
 10
11.5745798543
 20
9.5054296947
 30
0.0
  0
SPLINE
  5
307
100
AcDbEntity
  8
0
100
AcDbSpline
 62
7
  6
CONTINUOUS
 70
0
 71
3
 72
18
 73
14
 74
0
 42
0.0000001
 43
0.0000001
 44
0.0000000001
 40
0.0
 40
0.0
 40
0.0
 40
0.0
 40
0.1132588633
 40
0.2350675123
 40
0.2990862869
 40
0.3649376274
 40
0.4320907989
 40
0.4999689567
 40
0.5678518212
 40
0.6349975692
 40
0.764895586
 40
0.8869059992
 40
1.0
 40
1.0
 40
1.0
 40
1.0
 10
11.4920046717
 20
9.5144950652
 30
0.0
 10
11.4945886063
 20
9.5166602847
 30
0.0
 10
11.500356969
 20
9.5206874383
 30
0.0
 10
11.5084467388
 20
9.524508649
 30
0.0
 10
11.5155794575
 20
9.5268250268
 30
0.0
 10
11.5213035597
 20
9.5281369349
 30
0.0
 10
11.5272368567
 20
9.5289440665
 30
0.0
 10
11.5332802304
 20
9.529189853
 30
0.0
 10
11.5393209399
 20
9.5288959467
 30
0.0
 10
11.5471407335
 20
9.5278194232
 30
0.0
 10
11.5563587874
 20
9.5253319158
 30
0.0
 10
11.5662565126
 20
9.5207283949
 30
0.0
 10
11.5720174389
 20
9.51667815
 30
0.0
 10
11.5745798543
 20
9.5144950652
 30
0.0
  0
SPLINE
  5
308
100
AcDbEntity
  8
0
100
AcDbSpline
 62
7
  6
CONTINUOUS
 70
0
 71
3
 72
13
 73
9
 74
0
 42
0.0000001
 43
0.0000001
 44
0.0000000001
 40
0.0
 40
0.0
 40
0.0
 40
0.0
 40
0.125127652
 40
0.2501902451
 40
0.3752128015
 40
0.5002326386
 40
0.750016828
 40
1.0
 40
1.0
 40
1.0
 40
1.0
 10
11.4866204067
 20
9.5101001666
 30
0.0
 10
11.4854425519
 20
9.508722839
 30
0.0
 10
11.4832105928
 20
9.5058605172
 30
0.0
 10
11.4802762058
 20
9.5012778101
 30
0.0
 10
11.4777697108
 20
9.4964492267
 30
0.0
 10
11.4750066174
 20
9.4897497909
 30
0.0
 10
11.47264421
 20
9.4809667425
 30
0.0
 10
11.4719949628
 20
9.4737140558
 30
0.0
 10
11.4719948398
 20
9.470093429
 30
0.0
  0
SPLINE
  5
309
100
AcDbEntity
  8
0
100
AcDbSpline
 62
7
  6
CONTINUOUS
 70
0
 71
3
 72
13
 73
9
 74
0
 42
0.0000001
 43
0.0000001
 44
0.0000000001
 40
0.0
 40
0.0
 40
0.0
 40
0.0
 40
0.125127652
 40
0.2501902451
 40
0.3752128015
 40
0.5002326386
 40
0.750016828
 40
1.0
 40
1.0
 40
1.0
 40
1.0
 10
11.4866204067
 20
8.5873820942
 30
0.0
 10
11.4854425519
 20
8.5887594218
 30
0.0
 10
11.4832105928
 20
8.5916217436
 30
0.0
 10
11.4802762058
 20
8.5962044507
 30
0.0
 10
11.4777697108
 20
8.6010330341
 30
0.0
 10
11.4750066174
 20
8.6077324699
 30
0.0
 10
11.47264421
 20
8.6165155183
 30
0.0
 10
11.4719949628
 20
8.623768205
 30
0.0
 10
11.4719948398
 20
8.6273888318
 30
0.0
  0
SPLINE
  5
30A
100
AcDbEntity
  8
0
100
AcDbSpline
 62
7
  6
CONTINUOUS
 70
0
 71
3
 72
14
 73
10
 74
0
 42
0.0000001
 43
0.0000001
 44
0.0000000001
 40
0.0
 40
0.0
 40
0.0
 40
0.0
 40
0.1201854541
 40
0.2423066164
 40
0.3660962623
 40
0.4912627646
 40
0.6175151203
 40
0.7445740867
 40
1.0
 40
1.0
 40
1.0
 40
1.0
 10
10.6425549128
 20
8.7110072167
 30
0.0
 10
10.6391972569
 20
8.7110073203
 30
0.0
 10
10.6324274556
 20
8.7109127318
 30
0.0
 10
10.6222077202
 20
8.7104753622
 30
0.0
 10
10.6118657824
 20
8.7097364843
 30
0.0
 10
10.601433866
 20
8.7086962762
 30
0.0
 10
10.5909444781
 20
8.7073523707
 30
0.0
 10
10.576901065
 20
8.7051570486
 30
0.0
 10
10.5664118814
 20
8.7030842134
 30
0.0
 10
10.5594489762
 20
8.701522441
 30
0.0
  0
SPLINE
  5
30B
100
AcDbEntity
  8
0
100
AcDbSpline
 62
7
  6
CONTINUOUS
 70
0
 71
3
 72
12
 73
8
 74
0
 42
0.0000001
 43
0.0000001
 44
0.0000000001
 40
0.0
 40
0.0
 40
0.0
 40
0.0
 40
0.5086338106
 40
0.633827033
 40
0.7576427966
 40
0.8797892928
 40
1.0
 40
1.0
 40
1.0
 40
1.0
 10
10.5594489857
 20
9.3959597964
 30
0.0
 10
10.5733106965
 20
9.3928506749
 30
0.0
 10
10.5908052743
 20
9.3898455554
 30
0.0
 10
10.6118624842
 20
9.3877460248
 30
0.0
 10
10.6222041207
 20
9.3870068857
 30
0.0
 10
10.6324232382
 20
9.3865694795
 30
0.0
 10
10.6391926854
 20
9.3864748106
 30
0.0
 10
10.6425501637
 20
9.3864748618
 30
0.0
  0
SPLINE
  5
30C
100
AcDbEntity
  8
0
100
AcDbSpline
 62
7
  6
CONTINUOUS
 70
0
 71
3
 72
43
 73
39
 74
0
 42
0.0000001
 43
0.0000001
 44
0.0000000001
 40
0.0
 40
0.0
 40
0.0
 40
0.0
 40
0.0174527904
 40
0.0347227593
 40
0.051725515
 40
0.0683890408
 40
0.084657248
 40
0.1004945366
 40
0.1158915209
 40
0.1308719219
 40
0.1455002567
 40
0.1598892824
 40
0.1742052412
 40
0.18866096
 40
0.2034320619
 40
0.2186051221
 40
0.2341950199
 40
0.2501614753
 40
0.2664233125
 40
0.2828697579
 40
0.2993691065
 40
0.3157754589
 40
0.3319763426
 40
0.3479753845
 40
0.3794638166
 40
0.4104305169
 40
0.44106063
 40
0.4715356849
 40
0.5020334809
 40
0.5326616188
 40
0.5634163564
 40
0.6252499024
 40
0.6874234625
 40
0.7498302961
 40
0.8123712478
 40
0.8749584632
 40
0.9375192311
 40
1.0
 40
1.0
 40
1.0
 40
1.0
 10
12.3518638997
 20
9.5437411304
 30
0.0
 10
12.3508257107
 20
9.5393314794
 30
0.0
 10
12.3486310891
 20
9.5305879419
 30
0.0
 10
12.3449115777
 20
9.5176838783
 30
0.0
 10
12.3407341689
 20
9.50513514
 30
0.0
 10
12.3360569261
 20
9.4930408728
 30
0.0
 10
12.3308372744
 20
9.481499752
 30
0.0
 10
12.325031735
 20
9.4706103665
 30
0.0
 10
12.3185955292
 20
9.460471489
 30
0.0
 10
12.3114823
 20
9.4511829361
 30
0.0
 10
12.3036441452
 20
9.4428464003
 30
0.0
 10
12.2950329408
 20
9.4355682413
 30
0.0
 10
12.2856034234
 20
9.4294563767
 30
0.0
 10
12.2753405998
 20
9.4246454221
 30
0.0
 10
12.2643801365
 20
9.4210125788
 30
0.0
 10
12.2528355971
 20
9.4184077099
 30
0.0
 10
12.2408174976
 20
9.4166924377
 30
0.0
 10
12.2284359339
 20
9.4157308869
 30
0.0
 10
12.2158019392
 20
9.4153903926
 30
0.0
 10
12.2030276914
 20
9.4155393953
 30
0.0
 10
12.1902263689
 20
9.4160480096
 30
0.0
 10
12.1775007284
 20
9.4167841116
 30
0.0
 10
12.164912328
 20
9.4176313199
 30
0.0
 10
12.1484290739
 20
9.4188971234
 30
0.0
 10
12.1281456549
 20
9.4207218096
 30
0.0
 10
12.1041151428
 20
9.4232468418
 30
0.0
 10
12.0803778971
 20
9.4260269343
 30
0.0
 10
12.0567864029
 20
9.428995454
 30
0.0
 10
12.0332102059
 20
9.4320781195
 30
0.0
 10
12.0095680252
 20
9.4352155436
 30
0.0
 10
11.977867094
 20
9.4394557538
 30
0.0
 10
11.9380488711
 20
9.4447717504
 30
0.0
 10
11.8900567597
 20
9.4509470497
 30
0.0
 10
11.8418271499
 20
9.4567046542
 30
0.0
 10
11.7934162669
 20
9.4618198
 30
0.0
 10
11.7448800132
 20
9.4660674611
 30
0.0
 10
11.69627501
 20
9.4692223695
 30
0.0
 10
11.6638354876
 20
9.4704477469
 30
0.0
 10
11.6476212501
 20
9.4708024424
 30
0.0
  0
SPLINE
  5
30D
100
AcDbEntity
  8
0
100
AcDbSpline
 62
7
  6
CONTINUOUS
 70
0
 71
3
 72
43
 73
39
 74
0
 42
0.0000001
 43
0.0000001
 44
0.0000000001
 40
0.0
 40
0.0
 40
0.0
 40
0.0
 40
0.0174527904
 40
0.0347227593
 40
0.051725515
 40
0.0683890408
 40
0.084657248
 40
0.1004945366
 40
0.1158915209
 40
0.1308719219
 40
0.1455002567
 40
0.1598892824
 40
0.1742052412
 40
0.18866096
 40
0.2034320619
 40
0.2186051221
 40
0.2341950199
 40
0.2501614753
 40
0.2664233125
 40
0.2828697579
 40
0.2993691065
 40
0.3157754589
 40
0.3319763426
 40
0.3479753845
 40
0.3794638166
 40
0.4104305169
 40
0.44106063
 40
0.4715356849
 40
0.5020334809
 40
0.5326616188
 40
0.5634163564
 40
0.6252499024
 40
0.6874234625
 40
0.7498302961
 40
0.8123712478
 40
0.8749584632
 40
0.9375192311
 40
1.0
 40
1.0
 40
1.0
 40
1.0
 10
12.3518638997
 20
8.5537411304
 30
0.0
 10
12.3508257107
 20
8.5581507814
 30
0.0
 10
12.3486310891
 20
8.5668943189
 30
0.0
 10
12.3449115777
 20
8.5797983825
 30
0.0
 10
12.3407341689
 20
8.5923471209
 30
0.0
 10
12.3360569261
 20
8.604441388
 30
0.0
 10
12.3308372744
 20
8.6159825088
 30
0.0
 10
12.325031735
 20
8.6268718943
 30
0.0
 10
12.3185955292
 20
8.6370107718
 30
0.0
 10
12.3114823
 20
8.6462993247
 30
0.0
 10
12.3036441452
 20
8.6546358605
 30
0.0
 10
12.2950329408
 20
8.6619140195
 30
0.0
 10
12.2856034234
 20
8.6680258841
 30
0.0
 10
12.2753405998
 20
8.6728368387
 30
0.0
 10
12.2643801365
 20
8.676469682
 30
0.0
 10
12.2528355971
 20
8.6790745509
 30
0.0
 10
12.2408174976
 20
8.6807898231
 30
0.0
 10
12.2284359339
 20
8.6817513739
 30
0.0
 10
12.2158019392
 20
8.6820918682
 30
0.0
 10
12.2030276914
 20
8.6819428655
 30
0.0
 10
12.1902263689
 20
8.6814342512
 30
0.0
 10
12.1775007284
 20
8.6806981492
 30
0.0
 10
12.164912328
 20
8.6798509409
 30
0.0
 10
12.1484290739
 20
8.6785851375
 30
0.0
 10
12.1281456549
 20
8.6767604512
 30
0.0
 10
12.1041151428
 20
8.674235419
 30
0.0
 10
12.0803778971
 20
8.6714553265
 30
0.0
 10
12.0567864029
 20
8.6684868068
 30
0.0
 10
12.0332102059
 20
8.6654041413
 30
0.0
 10
12.0095680252
 20
8.6622667172
 30
0.0
 10
11.977867094
 20
8.658026507
 30
0.0
 10
11.9380488711
 20
8.6527105105
 30
0.0
 10
11.8900567597
 20
8.6465352111
 30
0.0
 10
11.8418271499
 20
8.6407776067
 30
0.0
 10
11.7934162669
 20
8.6356624608
 30
0.0
 10
11.7448800132
 20
8.6314147997
 30
0.0
 10
11.69627501
 20
8.6282598913
 30
0.0
 10
11.6638354876
 20
8.6270345139
 30
0.0
 10
11.6476212501
 20
8.6266798184
 30
0.0
  0
SPLINE
  5
30E
100
AcDbEntity
  8
0
100
AcDbSpline
 62
7
  6
CONTINUOUS
 70
0
 71
3
 72
18
 73
14
 74
0
 42
0.0000001
 43
0.0000001
 44
0.0000000001
 40
0.0
 40
0.0
 40
0.0
 40
0.0
 40
0.1184638338
 40
0.2416360414
 40
0.3049888774
 40
0.3693795544
 40
0.4344748963
 40
0.4999799084
 40
0.5654995195
 40
0.6305982742
 40
0.7582670617
 40
0.8815784309
 40
1.0
 40
1.0
 40
1.0
 40
1.0
 10
11.4934866233
 20
8.5849320921
 30
0.0
 10
11.4960036787
 20
8.582532097
 30
0.0
 10
11.5015622409
 20
8.5780624407
 30
0.0
 10
11.5094598276
 20
8.5737321052
 30
0.0
 10
11.5163646707
 20
8.5711362156
 30
0.0
 10
11.5218456908
 20
8.5696793435
 30
0.0
 10
11.5275113364
 20
8.5687865972
 30
0.0
 10
11.5332736114
 20
8.5685155117
 30
0.0
 10
11.5390327018
 20
8.568841214
 30
0.0
 10
11.5465308909
 20
8.5700394426
 30
0.0
 10
11.555443527
 20
8.57284209
 30
0.0
 10
11.5650438972
 20
8.5780134435
 30
0.0
 10
11.5706010913
 20
8.5824998559
 30
0.0
 10
11.5731020787
 20
8.5849148047
 30
0.0
  0
SPLINE
  5
30F
100
AcDbEntity
  8
0
100
AcDbSpline
 62
7
  6
CONTINUOUS
 70
0
 71
3
 72
20
 73
16
 74
0
 42
0.0000001
 43
0.0000001
 44
0.0000000001
 40
0.0
 40
0.0
 40
0.0
 40
0.0
 40
0.1186265769
 40
0.179771881
 40
0.2420592863
 40
0.3054060327
 40
0.3697125656
 40
0.4347136766
 40
0.5001332198
 40
0.565536898
 40
0.6305358657
 40
0.69483538
 40
0.7581139181
 40
0.8812927685
 40
1.0
 40
1.0
 40
1.0
 40
1.0
 10
11.5745798543
 20
9.1298159466
 30
0.0
 10
11.5720686644
 20
9.132487244
 30
0.0
 10
11.5678738496
 20
9.1361956897
 30
0.0
 10
11.5616079532
 20
9.1402988307
 30
0.0
 10
11.5564787886
 20
9.1429701065
 30
0.0
 10
11.5510161839
 20
9.1451470591
 30
0.0
 10
11.5452766701
 20
9.1467718423
 30
0.0
 10
11.5393342446
 20
9.1477956163
 30
0.0
 10
11.5332809411
 20
9.1481641185
 30
0.0
 10
11.5272230653
 20
9.1478557442
 30
0.0
 10
11.5212777859
 20
9.1468435332
 30
0.0
 10
11.5155450851
 20
9.145199358
 30
0.0
 10
11.508353649
 20
9.1422776472
 30
0.0
 10
11.5001917075
 20
9.1374288634
 30
0.0
 10
11.4945396109
 20
9.1324681668
 30
0.0
 10
11.4920046717
 20
9.1298159466
 30
0.0
  0
SPLINE
  5
310
100
AcDbEntity
  8
0
100
AcDbSpline
 62
7
  6
CONTINUOUS
 70
0
 71
3
 72
18
 73
14
 74
0
 42
0.0000001
 43
0.0000001
 44
0.0000000001
 40
0.0
 40
0.0
 40
0.0
 40
0.0
 40
0.1106260889
 40
0.2318078574
 40
0.296183503
 40
0.3627639883
 40
0.430918669
 40
0.4999419065
 40
0.568964879
 40
0.6371078515
 40
0.7681497647
 40
0.8895814343
 40
1.0
 40
1.0
 40
1.0
 40
1.0
 10
11.4920046717
 20
9.1298159466
 30
0.0
 10
11.4946163435
 20
9.1279026275
 30
0.0
 10
11.5004413302
 20
9.1243602954
 30
0.0
 10
11.508489898
 20
9.1210480637
 30
0.0
 10
11.5155947652
 20
9.1190325073
 30
0.0
 10
11.5213146709
 20
9.1178875212
 30
0.0
 10
11.5272426737
 20
9.1171831907
 30
0.0
 10
11.5332799792
 20
9.1169687684
 30
0.0
 10
11.5393151177
 20
9.1172251844
 30
0.0
 10
11.5471141077
 20
9.1181632266
 30
0.0
 10
11.5562866178
 20
9.1203199885
 30
0.0
 10
11.5661682683
 20
9.124322827
 30
0.0
 10
11.5719882957
 20
9.1278856214
 30
0.0
 10
11.5745798543
 20
9.1298159466
 30
0.0
  0
SPLINE
  5
311
100
AcDbEntity
  8
0
100
AcDbSpline
 62
7
  6
CONTINUOUS
 70
0
 71
3
 72
18
 73
14
 74
0
 42
0.0000001
 43
0.0000001
 44
0.0000000001
 40
0.0
 40
0.0
 40
0.0
 40
0.0
 40
0.1212604569
 40
0.2451910042
 40
0.3082051675
 40
0.3718046641
 40
0.4357776606
 40
0.4999867657
 40
0.5642152738
 40
0.6282003162
 40
0.7546932153
 40
0.8787267084
 40
1.0
 40
1.0
 40
1.0
 40
1.0
 10
11.4955971836
 20
8.5962319256
 30
0.0
 10
11.4980465482
 20
8.5939015329
 30
0.0
 10
11.5033850963
 20
8.5895765327
 30
0.0
 10
11.5109343916
 20
8.585366669
 30
0.0
 10
11.5174683859
 20
8.5828680627
 30
0.0
 10
11.5226064289
 20
8.5814758341
 30
0.0
 10
11.5278966977
 20
8.5806282326
 30
0.0
 10
11.5332657119
 20
8.5803718871
 30
0.0
 10
11.5386317817
 20
8.580682413
 30
0.0
 10
11.545650753
 20
8.5818280347
 30
0.0
 10
11.5540571453
 20
8.5845298387
 30
0.0
 10
11.5632032196
 20
8.5895254391
 30
0.0
 10
11.5685515289
 20
8.5938531904
 30
0.0
 10
11.5709925228
 20
8.5961928666
 30
0.0
  0
SPLINE
  5
312
100
AcDbEntity
  8
0
100
AcDbSpline
 62
7
  6
CONTINUOUS
 70
0
 71
3
 72
20
 73
16
 74
0
 42
0.0000001
 43
0.0000001
 44
0.0000000001
 40
0.0
 40
0.0
 40
0.0
 40
0.0
 40
0.1211218548
 40
0.1828201902
 40
0.2451963952
 40
0.3082045761
 40
0.3718074912
 40
0.4358324814
 40
0.5001229519
 40
0.5643921466
 40
0.6284104554
 40
0.692015826
 40
0.7549803673
 40
0.8788333242
 40
1.0
 40
1.0
 40
1.0
 40
1.0
 10
11.5745798543
 20
9.1930184638
 30
0.0
 10
11.5720882439
 20
9.1959014275
 30
0.0
 10
11.5679158667
 20
9.1999254622
 30
0.0
 10
11.5616267589
 20
9.2044089523
 30
0.0
 10
11.5564968608
 20
9.2073175323
 30
0.0
 10
11.5510321156
 20
9.2096885977
 30
0.0
 10
11.5452888472
 20
9.2114588159
 30
0.0
 10
11.5393411858
 20
9.2125745534
 30
0.0
 10
11.5332812717
 20
9.2129763049
 30
0.0
 10
11.5272160678
 20
9.2126400348
 30
0.0
 10
11.5212649412
 20
9.2115366254
 30
0.0
 10
11.5155285139
 20
9.2097451308
 30
0.0
 10
11.5083106067
 20
9.2065523575
 30
0.0
 10
11.5001222588
 20
9.2012440541
 30
0.0
 10
11.4945208038
 20
9.1958819284
 30
0.0
 10
11.4920046717
 20
9.1930184638
 30
0.0
  0
SPLINE
  5
313
100
AcDbEntity
  8
0
100
AcDbSpline
 62
7
  6
CONTINUOUS
 70
0
 71
3
 72
18
 73
14
 74
0
 42
0.0000001
 43
0.0000001
 44
0.0000000001
 40
0.0
 40
0.0
 40
0.0
 40
0.0
 40
0.1071211368
 40
0.2275186362
 40
0.2923799221
 40
0.3599249372
 40
0.4293911018
 40
0.4999076736
 40
0.5704177139
 40
0.6398667278
 40
0.7724344843
 40
0.8931456999
 40
1.0
 40
1.0
 40
1.0
 40
1.0
 10
11.4920046717
 20
9.1930184638
 30
0.0
 10
11.4946585833
 20
9.1914795627
 30
0.0
 10
11.5005584008
 20
9.1886549863
 30
0.0
 10
11.5085456898
 20
9.1860651386
 30
0.0
 10
11.5156140187
 20
9.1844796443
 30
0.0
 10
11.5213283295
 20
9.1835754006
 30
0.0
 10
11.5272497371
 20
9.1830191998
 30
0.0
 10
11.5332796805
 20
9.1828499299
 30
0.0
 10
11.5393080273
 20
9.1830523601
 30
0.0
 10
11.5470813858
 20
9.1837918083
 30
0.0
 10
11.5561940861
 20
9.185480685
 30
0.0
 10
11.5660459097
 20
9.1886236554
 30
0.0
 10
11.5719437125
 20
9.1914643111
 30
0.0
 10
11.5745798543
 20
9.1930184638
 30
0.0
  0
LINE
  5
314
100
AcDbEntity
  8
0
100
AcDbLine
 62
9
  6
CONTINUOUS
 10
11.0940727915
 20
11.2888991021
 11
11.0936609664
 21
11.284367535
  0
SPLINE
  5
315
100
AcDbEntity
  8
0
100
AcDbSpline
 62
9
  6
CONTINUOUS
 70
0
 71
3
 72
36
 73
32
 74
0
 42
0.0000001
 43
0.0000001
 44
0.0000000001
 40
0.0
 40
0.0
 40
0.0
 40
0.0
 40
0.0049781277
 40
0.0118246029
 40
0.0311003558
 40
0.0435119763
 40
0.0577588999
 40
0.0917091942
 40
0.1328284286
 40
0.1809683082
 40
0.2359584705
 40
0.2659625687
 40
0.2976041676
 40
0.3656865853
 40
0.4399708373
 40
0.4793588609
 40
0.5201975033
 40
0.5624524945
 40
0.6060771235
 40
0.6510289737
 40
0.6972735783
 40
0.7447765527
 40
0.7689907313
 40
0.7935113715
 40
0.84344866
 40
0.8945370936
 40
0.9204991537
 40
0.9467348942
 40
0.9732460437
 40
0.9866010104
 40
1.0
 40
1.0
 40
1.0
 40
1.0
 10
11.0936609664
 20
11.284367535
 30
0.0
 10
11.0935076289
 20
11.2826417936
 30
0.0
 10
11.0931491951
 20
11.2785421079
 30
0.0
 10
11.0922126496
 20
11.2677588322
 30
0.0
 10
11.0910469744
 20
11.2543986232
 30
0.0
 10
11.0896222768
 20
11.2384756929
 30
0.0
 10
11.0877351103
 20
11.2174665586
 30
0.0
 10
11.0849653894
 20
11.1865053487
 30
0.0
 10
11.0811426732
 20
11.1437954509
 30
0.0
 10
11.07662841
 20
11.0937956707
 30
0.0
 10
11.0724212687
 20
11.0476523237
 30
0.0
 10
11.0687184223
 20
11.0072287264
 30
0.0
 10
11.0645898248
 20
10.9622685508
 30
0.0
 10
11.0590081716
 20
10.9019661113
 30
0.0
 10
11.053058064
 20
10.8389903769
 30
0.0
 10
11.047972967
 20
10.7854568415
 30
0.0
 10
11.0439443357
 20
10.7430202857
 30
0.0
 10
11.0397992805
 20
10.6991136898
 30
0.0
 10
11.0355411922
 20
10.6537798868
 30
0.0
 10
11.0311014809
 20
10.6070685276
 30
0.0
 10
11.0264183776
 20
10.5590245409
 30
0.0
 10
11.0223137528
 20
10.5181758869
 30
0.0
 10
11.0188888306
 20
10.4848577633
 30
0.0
 10
11.0153490253
 20
10.4506997873
 30
0.0
 10
11.0108481675
 20
10.4072382546
 30
0.0
 10
11.0063981839
 20
10.3632671453
 30
0.0
 10
11.002889236
 20
10.327492026
 30
0.0
 10
11.0002867958
 20
10.3002227806
 30
0.0
 10
10.9981777244
 20
10.2773141206
 30
0.0
 10
10.9965473514
 20
10.2588480596
 30
0.0
 10
10.995740642
 20
10.2495718793
 30
0.0
 10
10.9953347559
 20
10.24492632
 30
0.0
  0
SPLINE
  5
316
100
AcDbEntity
  8
0
100
AcDbSpline
 62
9
  6
CONTINUOUS
 70
0
 71
3
 72
11
 73
7
 74
0
 42
0.0000001
 43
0.0000001
 44
0.0000000001
 40
0.0
 40
0.0
 40
0.0
 40
0.0
 40
0.2473187486
 40
0.4960552133
 40
0.7468907169
 40
1.0
 40
1.0
 40
1.0
 40
1.0
 10
10.9953347559
 20
10.24492632
 30
0.0
 10
10.9946266446
 20
10.2368216495
 30
0.0
 10
10.9931938007
 20
10.2205668704
 30
0.0
 10
10.990848324
 20
10.1961098305
 30
0.0
 10
10.9882955659
 20
10.1714821906
 30
0.0
 10
10.9865163526
 20
10.1550006766
 30
0.0
 10
10.9856162011
 20
10.1467234533
 30
0.0
  0
LINE
  5
317
100
AcDbEntity
  8
0
100
AcDbLine
 62
9
  6
CONTINUOUS
 10
10.9856162011
 20
10.1467234533
 11
10.9805342742
 21
10.1002300203
  0
LINE
  5
318
100
AcDbEntity
  8
0
100
AcDbLine
 62
9
  6
CONTINUOUS
 10
10.024825146
 20
11.3184266611
 11
10.0272911243
 21
11.2908788532
  0
LINE
  5
319
100
AcDbEntity
  8
0
100
AcDbLine
 62
9
  6
CONTINUOUS
 10
10.0272911243
 20
11.2908788532
 11
10.0274730336
 21
11.2888521592
  0
LINE
  5
31A
100
AcDbEntity
  8
0
100
AcDbLine
 62
9
  6
CONTINUOUS
 10
10.0274730336
 20
11.2888521592
 11
10.0280883099
 21
11.2820024624
  0
SPLINE
  5
31B
100
AcDbEntity
  8
0
100
AcDbSpline
 62
9
  6
CONTINUOUS
 70
0
 71
3
 72
14
 73
10
 74
0
 42
0.0000001
 43
0.0000001
 44
0.0000000001
 40
0.0
 40
0.0
 40
0.0
 40
0.0
 40
0.1262095366
 40
0.2808827831
 40
0.4821460396
 40
0.598476067
 40
0.7241790961
 40
0.8583420255
 40
1.0
 40
1.0
 40
1.0
 40
1.0
 10
10.0280883099
 20
11.2820024624
 30
0.0
 10
10.0325065792
 20
11.2328434165
 30
0.0
 10
10.0424564356
 20
11.123449086
 30
0.0
 10
10.0599752047
 20
10.9357099815
 30
0.0
 10
10.0777265055
 20
10.7518736554
 30
0.0
 10
10.0949006329
 20
10.579364903
 30
0.0
 10
10.1098254427
 20
10.4330034655
 30
0.0
 10
10.1261725957
 20
10.2768311785
 30
0.0
 10
10.1376950548
 20
10.169581947
 30
0.0
 10
10.1437018108
 20
10.1145098888
 30
0.0
  0
SPLINE
  5
31C
100
AcDbEntity
  8
0
100
AcDbSpline
 62
7
  6
CONTINUOUS
 70
0
 71
3
 72
20
 73
16
 74
0
 42
0.0000001
 43
0.0000001
 44
0.0000000001
 40
0.0
 40
0.0
 40
0.0
 40
0.0
 40
0.1231646009
 40
0.2475731255
 40
0.3103404882
 40
0.3733768344
 40
0.4365691121
 40
0.4998838429
 40
0.5632208939
 40
0.6264332393
 40
0.6894616011
 40
0.7522341686
 40
0.8767070832
 40
0.9385264026
 40
1.0
 40
1.0
 40
1.0
 40
1.0
 10
11.4977605897
 20
8.616162927
 30
0.0
 10
11.5001316932
 20
8.6139691722
 30
0.0
 10
11.5052413207
 20
8.6099135455
 30
0.0
 10
11.5124124432
 20
8.6059657972
 30
0.0
 10
11.518560037
 20
8.6036434096
 30
0.0
 10
11.5233562105
 20
8.6023571698
 30
0.0
 10
11.5282761393
 20
8.6015796287
 30
0.0
 10
11.5332593686
 20
8.6013453513
 30
0.0
 10
11.5382396589
 20
8.6016319247
 30
0.0
 10
11.5431561668
 20
8.6024281635
 30
0.0
 10
11.54795517
 20
8.603703173
 30
0.0
 10
11.5541170382
 20
8.6059875347
 30
0.0
 10
11.55990595
 20
8.6091039657
 30
0.0
 10
11.565182982
 20
8.6129049877
 30
0.0
 10
11.5676429731
 20
8.6150108586
 30
0.0
 10
11.5688251717
 20
8.6161071605
 30
0.0
  0
SPLINE
  5
31D
100
AcDbEntity
  8
0
100
AcDbSpline
 62
7
  6
CONTINUOUS
 70
0
 71
3
 72
20
 73
16
 74
0
 42
0.0000001
 43
0.0000001
 44
0.0000000001
 40
0.0
 40
0.0
 40
0.0
 40
0.0
 40
0.1230119879
 40
0.1851381552
 40
0.2475905434
 40
0.3103470445
 40
0.3734151606
 40
0.4366921482
 40
0.5001142672
 40
0.563510844
 40
0.6267775093
 40
0.6898553819
 40
0.7525871642
 40
0.8769696594
 40
1.0
 40
1.0
 40
1.0
 40
1.0
 10
11.5745798543
 20
9.2534127868
 30
0.0
 10
11.5721018936
 20
9.2564553712
 30
0.0
 10
11.5679464902
 20
9.2607172285
 30
0.0
 10
11.561640877
 20
9.2654906271
 30
0.0
 10
11.5565107796
 20
9.2685793432
 30
0.0
 10
11.5510446655
 20
9.2710979498
 30
0.0
 10
11.5452986098
 20
9.2729788649
 30
0.0
 10
11.5393468117
 20
9.2741647014
 30
0.0
 10
11.5332815261
 20
9.2745918264
 30
0.0
 10
11.5272103648
 20
9.2742342534
 30
0.0
 10
11.5212546184
 20
9.2730612877
 30
0.0
 10
11.5155154609
 20
9.2711576501
 30
0.0
 10
11.5082775436
 20
9.2677575412
 30
0.0
 10
11.5000716222
 20
9.2620986605
 30
0.0
 10
11.4945076649
 20
9.2564355716
 30
0.0
 10
11.4920046717
 20
9.2534127868
 30
0.0
  0
SPLINE
  5
31E
100
AcDbEntity
  8
0
100
AcDbSpline
 62
7
  6
CONTINUOUS
 70
0
 71
3
 72
17
 73
13
 74
0
 42
0.0000001
 43
0.0000001
 44
0.0000000001
 40
0.0
 40
0.0
 40
0.0
 40
0.0
 40
0.1039663817
 40
0.2237098226
 40
0.3573928614
 40
0.4280212564
 40
0.4998554363
 40
0.6422498723
 40
0.776197286
 40
0.8963115499
 40
0.9502818662
 40
1.0
 40
1.0
 40
1.0
 40
1.0
 10
11.4920046717
 20
9.2534127868
 30
0.0
 10
11.4947029401
 20
9.2522907566
 30
0.0
 10
11.5006683218
 20
9.2502536732
 30
0.0
 10
11.5104682206
 20
9.2479840428
 30
0.0
 10
11.5195088937
 20
9.2467632177
 30
0.0
 10
11.5272554685
 20
9.2462418673
 30
0.0
 10
11.5352630268
 20
9.2460808193
 30
0.0
 10
11.5450528458
 20
9.2465288027
 30
0.0
 10
11.5561128078
 20
9.2479940604
 30
0.0
 10
11.564571096
 20
9.2499194987
 30
0.0
 10
11.5705693026
 20
9.2518244509
 30
0.0
 10
11.5732927007
 20
9.2528685969
 30
0.0
 10
11.5745798543
 20
9.2534127868
 30
0.0
  0
SPLINE
  5
31F
100
AcDbEntity
  8
0
100
AcDbSpline
 62
9
  6
CONTINUOUS
 70
0
 71
3
 72
9
 73
5
 74
0
 42
0.0000001
 43
0.0000001
 44
0.0000000001
 40
0.0
 40
0.0
 40
0.0
 40
0.0
 40
0.4952787872
 40
1.0
 40
1.0
 40
1.0
 40
1.0
 10
10.1845153432
 20
10.0889971803
 30
0.0
 10
10.1841347939
 20
10.0890200735
 30
0.0
 10
10.1833688602
 20
10.0891458059
 30
0.0
 10
10.1826471109
 20
10.0894305635
 30
0.0
 10
10.1823011847
 20
10.0896074014
 30
0.0
  0
SPLINE
  5
320
100
AcDbEntity
  8
0
100
AcDbSpline
 62
9
  6
CONTINUOUS
 70
0
 71
3
 72
18
 73
14
 74
0
 42
0.0000001
 43
0.0000001
 44
0.0000000001
 40
0.0
 40
0.0
 40
0.0
 40
0.0
 40
0.0317101601
 40
0.066128588
 40
0.1039881939
 40
0.1458147427
 40
0.1919835361
 40
0.2427658283
 40
0.3587530391
 40
0.4937183897
 40
0.6465375905
 40
0.8160074568
 40
1.0
 40
1.0
 40
1.0
 40
1.0
 10
10.1823011847
 20
10.0896074014
 30
0.0
 10
10.181945831
 20
10.0897890588
 30
0.0
 10
10.1812413659
 20
10.0902421415
 30
0.0
 10
10.1802683974
 20
10.0911241385
 30
0.0
 10
10.1793417113
 20
10.0922259565
 30
0.0
 10
10.17845966
 20
10.0935446481
 30
0.0
 10
10.1776214686
 20
10.0950791904
 30
0.0
 10
10.1765139583
 20
10.0975218047
 30
0.0
 10
10.1752803099
 20
10.1011216115
 30
0.0
 10
10.1740311306
 20
10.1060507476
 30
0.0
 10
10.1729533309
 20
10.1117067686
 30
0.0
 10
10.1720653978
 20
10.1180184076
 30
0.0
 10
10.1716195543
 20
10.1224457001
 30
0.0
 10
10.1714244464
 20
10.1247531352
 30
0.0
  0
SPLINE
  5
321
100
AcDbEntity
  8
0
100
AcDbSpline
 62
7
  6
CONTINUOUS
 70
0
 71
3
 72
20
 73
16
 74
0
 42
0.0000001
 43
0.0000001
 44
0.0000000001
 40
0.0
 40
0.0
 40
0.0
 40
0.0
 40
0.1240127798
 40
0.2486809271
 40
0.3112918836
 40
0.374091264
 40
0.436958777
 40
0.4998907694
 40
0.5628506266
 40
0.6257303869
 40
0.6885160473
 40
0.7511416177
 40
0.8136372446
 40
0.8759919175
 40
1.0
 40
1.0
 40
1.0
 40
1.0
 10
11.4920046717
 20
8.6527948876
 30
0.0
 10
11.4945010938
 20
8.6496880436
 30
0.0
 10
11.5000456244
 20
8.6438668138
 30
0.0
 10
11.5082599786
 20
8.6380218359
 30
0.0
 10
11.5155084128
 20
8.6345114228
 30
0.0
 10
11.5212489753
 20
8.6325483111
 30
0.0
 10
11.527207224
 20
8.6313383939
 30
0.0
 10
11.5332816778
 20
8.6309694918
 30
0.0
 10
11.5393499284
 20
8.6314101076
 30
0.0
 10
11.5453039642
 20
8.6326331645
 30
0.0
 10
11.5510514589
 20
8.6345727942
 30
0.0
 10
11.5565181964
 20
8.6371695735
 30
0.0
 10
11.5616482716
 20
8.6403536499
 30
0.0
 10
11.5679622185
 20
8.6452808899
 30
0.0
 10
11.5721087129
 20
8.6496680905
 30
0.0
 10
11.5745798543
 20
8.6527948876
 30
0.0
  0
SPLINE
  5
322
100
AcDbEntity
  8
0
100
AcDbSpline
 62
9
  6
CONTINUOUS
 70
0
 71
3
 72
9
 73
5
 74
0
 42
0.0000001
 43
0.0000001
 44
0.0000000001
 40
0.0
 40
0.0
 40
0.0
 40
0.0
 40
0.503909166
 40
1.0
 40
1.0
 40
1.0
 40
1.0
 10
10.9359138385
 20
10.0889605176
 30
0.0
 10
10.9365998759
 20
10.0889504412
 30
0.0
 10
10.9379654542
 20
10.0890339291
 30
0.0
 10
10.9392987419
 20
10.0893458573
 30
0.0
 10
10.9399404842
 20
10.0895566211
 30
0.0
  0
SPLINE
  5
323
100
AcDbEntity
  8
0
100
AcDbSpline
 62
9
  6
CONTINUOUS
 70
0
 71
3
 72
14
 73
10
 74
0
 42
0.0000001
 43
0.0000001
 44
0.0000000001
 40
0.0
 40
0.0
 40
0.0
 40
0.0
 40
0.0995405478
 40
0.2024740601
 40
0.311117266
 40
0.4275360345
 40
0.6903414269
 40
0.8392627915
 40
1.0
 40
1.0
 40
1.0
 40
1.0
 10
10.9399404842
 20
10.0895566211
 30
0.0
 10
10.9405744018
 20
10.0897648151
 30
0.0
 10
10.9418295221
 20
10.0903010855
 30
0.0
 10
10.9435925952
 20
10.0914305673
 30
0.0
 10
10.945248076
 20
10.0928892258
 30
0.0
 10
10.9473910293
 20
10.0953704884
 30
0.0
 10
10.9491923327
 20
10.0984527219
 30
0.0
 10
10.9507166384
 20
10.1019746865
 30
0.0
 10
10.951408327
 20
10.1039340517
 30
0.0
 10
10.9517383882
 20
10.1049596888
 30
0.0
  0
SPLINE
  5
324
100
AcDbEntity
  8
0
100
AcDbSpline
 62
7
  6
CONTINUOUS
 70
0
 71
3
 72
20
 73
16
 74
0
 42
0.0000001
 43
0.0000001
 44
0.0000000001
 40
0.0
 40
0.0
 40
0.0
 40
0.0
 40
0.1242579957
 40
0.1866703373
 40
0.2491771686
 40
0.3117700929
 40
0.3744848426
 40
0.437264625
 40
0.5001080036
 40
0.5629229359
 40
0.6256899585
 40
0.688419411
 40
0.7510002615
 40
0.8757407513
 40
1.0
 40
1.0
 40
1.0
 40
1.0
 10
11.5745798543
 20
9.3098234088
 30
0.0
 10
11.5721103849
 20
9.3129713628
 30
0.0
 10
11.567966119
 20
9.3173900364
 30
0.0
 10
11.5616501191
 20
9.3223560134
 30
0.0
 10
11.5565200617
 20
9.3255640776
 30
0.0
 10
11.5510531775
 20
9.328180529
 30
0.0
 10
11.545305324
 20
9.3301349398
 30
0.0
 10
11.5393507196
 20
9.3313673722
 30
0.0
 10
11.533281709
 20
9.3318113845
 30
0.0
 10
11.5272064122
 20
9.3314396281
 30
0.0
 10
11.5212475284
 20
9.3302204031
 30
0.0
 10
11.5155066202
 20
9.3282423133
 30
0.0
 10
11.5082555531
 20
9.3247040956
 30
0.0
 10
11.5000391734
 20
9.3188122582
 30
0.0
 10
11.4944994809
 20
9.3129513704
 30
0.0
 10
11.4920046717
 20
9.3098234088
 30
0.0
  0
SPLINE
  5
325
100
AcDbEntity
  8
0
100
AcDbSpline
 62
7
  6
CONTINUOUS
 70
0
 71
3
 72
17
 73
13
 74
0
 42
0.0000001
 43
0.0000001
 44
0.0000000001
 40
0.0
 40
0.0
 40
0.0
 40
0.0
 40
0.1015818923
 40
0.2208583457
 40
0.3555516702
 40
0.4270414436
 40
0.4998491969
 40
0.6440938794
 40
0.7790776396
 40
0.8987677183
 40
0.9517900415
 40
1.0
 40
1.0
 40
1.0
 40
1.0
 10
11.4920046717
 20
9.3098234088
 30
0.0
 10
11.4947412373
 20
9.3091564758
 30
0.0
 10
11.5007531056
 20
9.307958587
 30
0.0
 10
11.510527536
 20
9.3066357707
 30
0.0
 10
11.519528886
 20
9.305925381
 30
0.0
 10
11.5272595024
 20
9.305620575
 30
0.0
 10
11.5352605019
 20
9.305526412
 30
0.0
 10
11.5450229566
 20
9.3057875898
 30
0.0
 10
11.556055596
 20
9.3066422279
 30
0.0
 10
11.5645189968
 20
9.3077672752
 30
0.0
 10
11.5705426026
 20
9.3088871013
 30
0.0
 10
11.5732823278
 20
9.3095018997
 30
0.0
 10
11.5745798543
 20
9.3098234088
 30
0.0
  0
SPLINE
  5
326
100
AcDbEntity
  8
0
100
AcDbSpline
 62
7
  6
CONTINUOUS
 70
0
 71
3
 72
20
 73
16
 74
0
 42
0.0000001
 43
0.0000001
 44
0.0000000001
 40
0.0
 40
0.0
 40
0.0
 40
0.0
 40
0.1247532123
 40
0.2496395854
 40
0.3121603546
 40
0.3747496469
 40
0.4373149535
 40
0.4998946779
 40
0.5625040428
 40
0.6250830843
 40
0.6876556478
 40
0.7501833675
 40
0.8127130178
 40
0.875241276
 40
1.0
 40
1.0
 40
1.0
 40
1.0
 10
11.4920046717
 20
8.6910816763
 30
0.0
 10
11.4944962933
 20
8.6879113512
 30
0.0
 10
11.5000263431
 20
8.6819709934
 30
0.0
 10
11.5082466778
 20
8.6759850336
 30
0.0
 10
11.5155030175
 20
8.6723909294
 30
0.0
 10
11.5212446179
 20
8.6703827689
 30
0.0
 10
11.527204783
 20
8.6691448375
 30
0.0
 10
11.5332817909
 20
8.6687673412
 30
0.0
 10
11.5393523411
 20
8.6692181875
 30
0.0
 10
11.5453080906
 20
8.6704694556
 30
0.0
 10
11.5510566555
 20
8.6724535557
 30
0.0
 10
11.5565238173
 20
8.6751095039
 30
0.0
 10
11.5616538191
 20
8.67836572
 30
0.0
 10
11.5679738843
 20
8.6834094983
 30
0.0
 10
11.5721136905
 20
8.6878912825
 30
0.0
 10
11.5745798543
 20
8.6910816763
 30
0.0
  0
SPLINE
  5
327
100
AcDbEntity
  8
0
100
AcDbSpline
 62
7
  6
CONTINUOUS
 70
0
 71
3
 72
20
 73
16
 74
0
 42
0.0000001
 43
0.0000001
 44
0.0000000001
 40
0.0
 40
0.0
 40
0.0
 40
0.0
 40
0.1248423032
 40
0.1873899701
 40
0.2499234985
 40
0.3124403764
 40
0.3749892125
 40
0.4375347064
 40
0.5001049377
 40
0.5626453356
 40
0.6251769085
 40
0.6877427951
 40
0.7502535726
 40
0.8751643747
 40
1.0
 40
1.0
 40
1.0
 40
1.0
 10
11.5745798543
 20
9.3611523613
 30
0.0
 10
11.5721142362
 20
9.3643498452
 30
0.0
 10
11.5679751723
 20
9.3688421696
 30
0.0
 10
11.5616544337
 20
9.3738989585
 30
0.0
 10
11.556524442
 20
9.377163223
 30
0.0
 10
11.5510572346
 20
9.3798257747
 30
0.0
 10
11.5453085504
 20
9.3818148382
 30
0.0
 10
11.539352608
 20
9.3830692567
 30
0.0
 10
11.5332817976
 20
9.3835212431
 30
0.0
 10
11.5272045016
 20
9.3831427877
 30
0.0
 10
11.5212441214
 20
9.3819017289
 30
0.0
 10
11.5155024084
 20
9.3798885356
 30
0.0
 10
11.5082451907
 20
9.3762850819
 30
0.0
 10
11.5000242109
 20
9.3702833846
 30
0.0
 10
11.4944957662
 20
9.3643297628
 30
0.0
 10
11.4920046717
 20
9.3611523613
 30
0.0
  0
SPLINE
  5
328
100
AcDbEntity
  8
0
100
AcDbSpline
 62
7
  6
CONTINUOUS
 70
0
 71
3
 72
15
 73
11
 74
0
 42
0.0000001
 43
0.0000001
 44
0.0000000001
 40
0.0
 40
0.0
 40
0.0
 40
0.0
 40
0.1003662252
 40
0.2194154041
 40
0.3546248884
 40
0.4998479019
 40
0.6450266664
 40
0.7805395982
 40
0.9000241265
 40
1.0
 40
1.0
 40
1.0
 40
1.0
 10
11.4920046717
 20
9.3611523613
 30
0.0
 10
11.4947626395
 20
9.3609680012
 30
0.0
 10
11.5007969459
 20
9.360638988
 30
0.0
 10
11.5105571138
 20
9.3602773037
 30
0.0
 10
11.5215568426
 20
9.3600391126
 30
0.0
 10
11.5332784779
 20
9.3599588851
 30
0.0
 10
11.5450083829
 20
9.3600453649
 30
0.0
 10
11.5560273047
 20
9.3602789251
 30
0.0
 10
11.5657972927
 20
9.3606351062
 30
0.0
 10
11.5718328189
 20
9.360965662
 30
0.0
 10
11.5745798543
 20
9.3611523613
 30
0.0
  0
SPLINE
  5
329
100
AcDbEntity
  8
0
100
AcDbSpline
 62
7
  6
CONTINUOUS
 70
0
 71
3
 72
15
 73
11
 74
0
 42
0.0000001
 43
0.0000001
 44
0.0000000001
 40
0.0
 40
0.0
 40
0.0
 40
0.0
 40
0.0999758841
 40
0.2194604373
 40
0.3549733929
 40
0.5001521689
 40
0.6453751774
 40
0.7805846442
 40
0.8996337995
 40
1.0
 40
1.0
 40
1.0
 40
1.0
 10
11.5745798543
 20
8.7363298995
 30
0.0
 10
11.5718328186
 20
8.7365165988
 30
0.0
 10
11.5657972914
 20
8.7368471546
 30
0.0
 10
11.5560273018
 20
8.7372033358
 30
0.0
 10
11.5450083784
 20
8.737436896
 30
0.0
 10
11.5332784725
 20
8.7375233756
 30
0.0
 10
11.5215568375
 20
8.7374431483
 30
0.0
 10
11.51055711
 20
8.7372049568
 30
0.0
 10
11.5007969439
 20
8.7368432728
 30
0.0
 10
11.4947626388
 20
8.7365142596
 30
0.0
 10
11.4920046717
 20
8.7363298995
 30
0.0
  0
SPLINE
  5
32A
100
AcDbEntity
  8
0
100
AcDbSpline
 62
7
  6
CONTINUOUS
 70
0
 71
3
 72
16
 73
12
 74
0
 42
0.0000001
 43
0.0000001
 44
0.0000000001
 40
0.0
 40
0.0
 40
0.0
 40
0.0
 40
0.147201777
 40
0.2919899391
 40
0.4322933653
 40
0.5662678463
 40
0.6921299661
 40
0.7514292617
 40
0.8079585318
 40
0.9114457777
 40
1.0
 40
1.0
 40
1.0
 40
1.0
 10
10.5594489762
 20
8.701522441
 30
0.0
 10
10.5489536429
 20
8.6991683488
 30
0.0
 10
10.5283086201
 20
8.6936964479
 30
0.0
 10
10.4983568366
 20
8.6836066212
 30
0.0
 10
10.4699124988
 20
8.672230656
 30
0.0
 10
10.4432842551
 20
8.6601354889
 30
0.0
 10
10.4224189326
 20
8.6497122677
 30
0.0
 10
10.4068030357
 20
8.6414630048
 30
0.0
 10
10.3927319112
 20
8.6337927398
 30
0.0
 10
10.3769386214
 20
8.6248186794
 30
0.0
 10
10.3648776166
 20
8.6176449183
 30
0.0
 10
10.3593385595
 20
8.6142999527
 30
0.0
  0
SPLINE
  5
32B
100
AcDbEntity
  8
0
100
AcDbSpline
 62
7
  6
CONTINUOUS
 70
0
 71
3
 72
25
 73
21
 74
0
 42
0.0000001
 43
0.0000001
 44
0.0000000001
 40
0.0
 40
0.0
 40
0.0
 40
0.0
 40
0.0922316606
 40
0.1836406051
 40
0.2735079628
 40
0.3612146638
 40
0.4040825156
 40
0.4461998712
 40
0.487496188
 40
0.5278984139
 40
0.5673332735
 40
0.6057249005
 40
0.6790340916
 40
0.7470866725
 40
0.8090591633
 40
0.911044764
 40
0.9490269974
 40
0.9770271551
 40
0.9942104274
 40
1.0
 40
1.0
 40
1.0
 40
1.0
 10
10.5594492553
 20
8.7015212939
 30
0.0
 10
10.5523263004
 20
8.699799985
 30
0.0
 10
10.5382437237
 20
8.6959472092
 30
0.0
 10
10.5176138981
 20
8.6890906686
 30
0.0
 10
10.4976679012
 20
8.6813977827
 30
0.0
 10
10.4815923686
 20
8.674433988
 30
0.0
 10
10.4691549651
 20
8.6686388356
 30
0.0
 10
10.4601325293
 20
8.6642488159
 30
0.0
 10
10.4513524486
 20
8.6598113214
 30
0.0
 10
10.4428226896
 20
8.6553531213
 30
0.0
 10
10.4345550811
 20
8.65089335
 30
0.0
 10
10.4240585645
 20
8.6450605126
 30
0.0
 10
10.4116909022
 20
8.6379162437
 30
0.0
 10
10.3978493647
 20
8.6295838809
 30
0.0
 10
10.3822030712
 20
8.6198362108
 30
0.0
 10
10.3687472374
 20
8.6110947187
 30
0.0
 10
10.357647392
 20
8.6036857025
 30
0.0
 10
10.352175645
 20
8.5999813632
 30
0.0
 10
10.3488346642
 20
8.5976923442
 30
0.0
 10
10.3473286108
 20
8.5966611815
 30
0.0
 10
10.3469489688
 20
8.5964014407
 30
0.0
  0
SPLINE
  5
32C
100
AcDbEntity
  8
0
100
AcDbSpline
 62
7
  6
CONTINUOUS
 70
0
 71
3
 72
20
 73
16
 74
0
 42
0.0000001
 43
0.0000001
 44
0.0000000001
 40
0.0
 40
0.0
 40
0.0
 40
0.0
 40
0.1248356509
 40
0.2497464778
 40
0.3122572529
 40
0.3748231448
 40
0.4373547317
 40
0.4998951213
 40
0.5624653509
 40
0.6250108394
 40
0.6875596658
 40
0.7500765353
 40
0.8126100497
 40
0.8751577064
 40
1.0
 40
1.0
 40
1.0
 40
1.0
 10
11.4920046717
 20
8.7363298995
 30
0.0
 10
11.4944957667
 20
8.7331524974
 30
0.0
 10
11.5000242131
 20
8.7271988748
 30
0.0
 10
11.5082451939
 20
8.7211971765
 30
0.0
 10
11.5155024125
 20
8.7175937222
 30
0.0
 10
11.5212441274
 20
8.7155805329
 30
0.0
 10
11.5272045075
 20
8.7143394727
 30
0.0
 10
11.5332818037
 20
8.7139610162
 30
0.0
 10
11.5393526134
 20
8.7144130053
 30
0.0
 10
11.5453085552
 20
8.7156674238
 30
0.0
 10
11.5510572384
 20
8.7176564881
 30
0.0
 10
11.5565244448
 20
8.7203190393
 30
0.0
 10
11.5616544354
 20
8.7235833036
 30
0.0
 10
11.5679751732
 20
8.7286400916
 30
0.0
 10
11.5721142364
 20
8.7331324158
 30
0.0
 10
11.5745798543
 20
8.7363298995
 30
0.0
  0
SPLINE
  5
32D
100
AcDbEntity
  8
0
100
AcDbSpline
 62
7
  6
CONTINUOUS
 70
0
 71
3
 72
14
 73
10
 74
0
 42
0.0000001
 43
0.0000001
 44
0.0000000001
 40
0.0
 40
0.0
 40
0.0
 40
0.0
 40
0.1580125
 40
0.3087614075
 40
0.4510763385
 40
0.5838777348
 40
0.8169862382
 40
0.9153104862
 40
1.0
 40
1.0
 40
1.0
 40
1.0
 10
10.6425501637
 20
9.3864748618
 30
0.0
 10
10.6491805146
 20
9.3864749629
 30
0.0
 10
10.6621393621
 20
9.3868337406
 30
0.0
 10
10.6810121371
 20
9.3883740975
 30
0.0
 10
10.6987352661
 20
9.3907139384
 30
0.0
 10
10.7197332052
 20
9.3944689279
 30
0.0
 10
10.7386997224
 20
9.3989926966
 30
0.0
 10
10.7554760692
 20
9.4038381604
 30
0.0
 10
10.7627992231
 20
9.4061528949
 30
0.0
 10
10.7661760091
 20
9.4072600299
 30
0.0
  0
SPLINE
  5
32E
100
AcDbEntity
  8
0
100
AcDbSpline
 62
7
  6
CONTINUOUS
 70
0
 71
3
 72
13
 73
9
 74
0
 42
0.0000001
 43
0.0000001
 44
0.0000000001
 40
0.0
 40
0.0
 40
0.0
 40
0.0
 40
0.307779135
 40
0.4496261379
 40
0.5821210863
 40
0.7043513923
 40
0.815384008
 40
1.0
 40
1.0
 40
1.0
 40
1.0
 10
10.6445985874
 20
9.3865423483
 30
0.0
 10
10.6561551653
 20
9.3867777959
 30
0.0
 10
10.6730367845
 20
9.3880400283
 30
0.0
 10
10.6946551278
 20
9.3913276935
 30
0.0
 10
10.7092697385
 20
9.3942231107
 30
0.0
 10
10.7226315296
 20
9.3974224303
 30
0.0
 10
10.7377633111
 20
9.4015932122
 30
0.0
 10
10.7483410681
 20
9.4049882533
 30
0.0
 10
10.754891782
 20
9.4072600155
 30
0.0
  0
SPLINE
  5
32F
100
AcDbEntity
  8
0
100
AcDbSpline
 62
7
  6
CONTINUOUS
 70
0
 71
3
 72
20
 73
16
 74
0
 42
0.0000001
 43
0.0000001
 44
0.0000000001
 40
0.0
 40
0.0
 40
0.0
 40
0.0
 40
0.1247587337
 40
0.187287002
 40
0.2498166663
 40
0.3123443943
 40
0.3749169677
 40
0.4374960145
 40
0.5001053812
 40
0.5626851138
 40
0.6252504064
 40
0.6878396934
 40
0.750360465
 40
0.8752468134
 40
1.0
 40
1.0
 40
1.0
 40
1.0
 10
11.5745798543
 20
9.4064005845
 30
0.0
 10
11.5721136903
 20
9.4095909786
 30
0.0
 10
11.5679738833
 20
9.4140727629
 30
0.0
 10
11.5616538174
 20
9.4191165421
 30
0.0
 10
11.5565238145
 20
9.4223727583
 30
0.0
 10
11.5510566518
 20
9.4250287071
 30
0.0
 10
11.5453080858
 20
9.4270128064
 30
0.0
 10
11.5393523356
 20
9.4282640745
 30
0.0
 10
11.5332817848
 20
9.4287149181
 30
0.0
 10
11.5272047772
 20
9.4283374229
 30
0.0
 10
11.5212446119
 20
9.4270994929
 30
0.0
 10
11.5155030134
 20
9.4250913284
 30
0.0
 10
11.5082466747
 20
9.4214972248
 30
0.0
 10
11.500026341
 20
9.415511266
 30
0.0
 10
11.4944962928
 20
9.409570909
 30
0.0
 10
11.4920046717
 20
9.4064005845
 30
0.0
  0
SPLINE
  5
330
100
AcDbEntity
  8
0
100
AcDbSpline
 62
7
  6
CONTINUOUS
 70
0
 71
3
 72
23
 73
19
 74
0
 42
0.0000001
 43
0.0000001
 44
0.0000000001
 40
0.0
 40
0.0
 40
0.0
 40
0.0
 40
0.0625176406
 40
0.0937759436
 40
0.125033851
 40
0.187547253
 40
0.250055325
 40
0.3750428228
 40
0.4375241015
 40
0.5
 40
0.5624758985
 40
0.6249571772
 40
0.749944675
 40
0.812452747
 40
0.874966149
 40
0.9062240564
 40
0.9374823594
 40
1.0
 40
1.0
 40
1.0
 40
1.0
 10
12.3650277129
 20
8.5537411304
 30
0.0
 10
12.3642486651
 20
8.5640442141
 30
0.0
 10
12.3630907272
 20
8.5794995585
 30
0.0
 10
12.361564737
 20
8.6001078954
 30
0.0
 10
12.3600507611
 20
8.6207163994
 30
0.0
 10
12.3582063018
 20
8.6464794069
 30
0.0
 10
12.3554588219
 20
8.6877075247
 30
0.0
 10
12.3532555085
 20
8.7289686918
 30
0.0
 10
12.3520705268
 20
8.7702630034
 30
0.0
 10
12.3517605906
 20
8.8012411304
 30
0.0
 10
12.3520705268
 20
8.8322192574
 30
0.0
 10
12.3532555085
 20
8.873513569
 30
0.0
 10
12.3554588219
 20
8.9147747361
 30
0.0
 10
12.3582063018
 20
8.9560028539
 30
0.0
 10
12.3600507611
 20
8.9817658614
 30
0.0
 10
12.361564737
 20
9.0023743654
 30
0.0
 10
12.3630907273
 20
9.0229827023
 30
0.0
 10
12.3642486651
 20
9.0384380467
 30
0.0
 10
12.3650277129
 20
9.0487411304
 30
0.0
  0
SPLINE
  5
331
100
AcDbEntity
  8
0
100
AcDbSpline
 62
7
  6
CONTINUOUS
 70
0
 71
3
 72
17
 73
13
 74
0
 42
0.0000001
 43
0.0000001
 44
0.0000000001
 40
0.0
 40
0.0
 40
0.0
 40
0.0
 40
0.0482099617
 40
0.1012322922
 40
0.2209223958
 40
0.3559061796
 40
0.5001508733
 40
0.5729586367
 40
0.644448395
 40
0.7791417027
 40
0.8984181323
 40
1.0
 40
1.0
 40
1.0
 40
1.0
 10
11.5745798543
 20
8.787658852
 30
0.0
 10
11.5732823277
 20
8.7879803611
 30
0.0
 10
11.5705426022
 20
8.7885951595
 30
0.0
 10
11.5645189954
 20
8.7897149858
 30
0.0
 10
11.5560555931
 20
8.7908400332
 30
0.0
 10
11.545022952
 20
8.7916946714
 30
0.0
 10
11.5352604961
 20
8.7919558485
 30
0.0
 10
11.5272594964
 20
8.7918616858
 30
0.0
 10
11.5195288806
 20
8.79155688
 30
0.0
 10
11.5105275322
 20
8.7908464892
 30
0.0
 10
11.5007531036
 20
8.7895236736
 30
0.0
 10
11.4947412366
 20
8.7883257848
 30
0.0
 10
11.4920046717
 20
8.787658852
 30
0.0
  0
SPLINE
  5
332
100
AcDbEntity
  8
0
100
AcDbSpline
 62
7
  6
CONTINUOUS
 70
0
 71
3
 72
20
 73
16
 74
0
 42
0.0000001
 43
0.0000001
 44
0.0000000001
 40
0.0
 40
0.0
 40
0.0
 40
0.0
 40
0.1242592744
 40
0.2489997888
 40
0.311580637
 40
0.3743100951
 40
0.4370771318
 40
0.4998920557
 40
0.5627354326
 40
0.6255152096
 40
0.6882299493
 40
0.7508228652
 40
0.8133296825
 40
0.875742014
 40
1.0
 40
1.0
 40
1.0
 40
1.0
 10
11.4920046717
 20
8.787658852
 30
0.0
 10
11.4944994814
 20
8.7845308898
 30
0.0
 10
11.5000391755
 20
8.7786700012
 30
0.0
 10
11.5082555563
 20
8.7727781628
 30
0.0
 10
11.5155066243
 20
8.7692399446
 30
0.0
 10
11.5212475344
 20
8.7672618587
 30
0.0
 10
11.5272064181
 20
8.7660426323
 30
0.0
 10
11.5332817151
 20
8.7656708749
 30
0.0
 10
11.539350725
 20
8.7661148899
 30
0.0
 10
11.5453053288
 20
8.7673473221
 30
0.0
 10
11.5510531813
 20
8.7693017338
 30
0.0
 10
11.5565200645
 20
8.7719181847
 30
0.0
 10
11.5616501207
 20
8.7751262487
 30
0.0
 10
11.56796612
 20
8.7800922248
 30
0.0
 10
11.5721103851
 20
8.7845108982
 30
0.0
 10
11.5745798543
 20
8.787658852
 30
0.0
  0
SPLINE
  5
333
100
AcDbEntity
  8
0
100
AcDbSpline
 62
7
  6
CONTINUOUS
 70
0
 71
3
 72
20
 73
16
 74
0
 42
0.0000001
 43
0.0000001
 44
0.0000000001
 40
0.0
 40
0.0
 40
0.0
 40
0.0
 40
0.1240080922
 40
0.1863627752
 40
0.2488584162
 40
0.3114839949
 40
0.3742696654
 40
0.437149431
 40
0.50010929
 40
0.5630412908
 40
0.6259087897
 40
0.6887081644
 40
0.7513191232
 40
0.8759872458
 40
1.0
 40
1.0
 40
1.0
 40
1.0
 10
11.5745798543
 20
9.4446873732
 30
0.0
 10
11.5721087127
 20
9.4478141705
 30
0.0
 10
11.5679622175
 20
9.4522013713
 30
0.0
 10
11.5616482699
 20
9.4571286122
 30
0.0
 10
11.5565181936
 20
9.4603126888
 30
0.0
 10
11.5510514551
 20
9.4629094685
 30
0.0
 10
11.5453039594
 20
9.4648490975
 30
0.0
 10
11.5393499229
 20
9.4660721544
 30
0.0
 10
11.5332816717
 20
9.4665127676
 30
0.0
 10
11.5272072181
 20
9.4661438665
 30
0.0
 10
11.5212489693
 20
9.4649339506
 30
0.0
 10
11.5155084087
 20
9.4629708351
 30
0.0
 10
11.5082599755
 20
9.4594604225
 30
0.0
 10
11.5000456222
 20
9.4536154456
 30
0.0
 10
11.4945010933
 20
9.4477942166
 30
0.0
 10
11.4920046717
 20
9.4446873732
 30
0.0
  0
SPLINE
  5
334
100
AcDbEntity
  8
0
100
AcDbSpline
 62
7
  6
CONTINUOUS
 70
0
 71
3
 72
17
 73
13
 74
0
 42
0.0000001
 43
0.0000001
 44
0.0000000001
 40
0.0
 40
0.0
 40
0.0
 40
0.0
 40
0.0497181369
 40
0.1036884605
 40
0.2238027491
 40
0.3577501859
 40
0.5001446327
 40
0.5719788225
 40
0.6426072026
 40
0.7762902259
 40
0.896033643
 40
1.0
 40
1.0
 40
1.0
 40
1.0
 10
11.5745798543
 20
8.844069474
 30
0.0
 10
11.5732927007
 20
8.8446136639
 30
0.0
 10
11.5705693022
 20
8.84565781
 30
0.0
 10
11.5645710947
 20
8.8475627624
 30
0.0
 10
11.556112805
 20
8.849488201
 30
0.0
 10
11.5450528412
 20
8.8509534588
 30
0.0
 10
11.535263021
 20
8.851401441
 30
0.0
 10
11.5272554626
 20
8.8512403934
 30
0.0
 10
11.5195088882
 20
8.8507190434
 30
0.0
 10
11.5104682169
 20
8.8494982166
 30
0.0
 10
11.5006683198
 20
8.8472285873
 30
0.0
 10
11.4947029395
 20
8.845191504
 30
0.0
 10
11.4920046717
 20
8.844069474
 30
0.0
  0
SPLINE
  5
335
100
AcDbEntity
  8
0
100
AcDbSpline
 62
7
  6
CONTINUOUS
 70
0
 71
3
 72
20
 73
16
 74
0
 42
0.0000001
 43
0.0000001
 44
0.0000000001
 40
0.0
 40
0.0
 40
0.0
 40
0.0
 40
0.1230303661
 40
0.2474128859
 40
0.3101446661
 40
0.373222545
 40
0.4364892244
 40
0.4998857928
 40
0.5633079099
 40
0.6265848919
 40
0.6896529979
 40
0.7524094905
 40
0.8148618647
 40
0.8769880218
 40
1.0
 40
1.0
 40
1.0
 40
1.0
 10
11.4920046717
 20
8.844069474
 30
0.0
 10
11.4945076654
 20
8.8410466885
 30
0.0
 10
11.5000716244
 20
8.835383599
 30
0.0
 10
11.5082775468
 20
8.8297247173
 30
0.0
 10
11.515515465
 20
8.8263246079
 30
0.0
 10
11.5212546244
 20
8.8244209741
 30
0.0
 10
11.5272103707
 20
8.8232480071
 30
0.0
 10
11.5332815322
 20
8.822890433
 30
0.0
 10
11.5393468172
 20
8.8233175605
 30
0.0
 10
11.5452986146
 20
8.824503397
 30
0.0
 10
11.5510446692
 20
8.8263843129
 30
0.0
 10
11.5565107824
 20
8.828902919
 30
0.0
 10
11.5616408787
 20
8.8319916349
 30
0.0
 10
11.5679464912
 20
8.8367650327
 30
0.0
 10
11.5721018938
 20
8.8410268899
 30
0.0
 10
11.5745798543
 20
8.844069474
 30
0.0
  0
SPLINE
  5
336
100
AcDbEntity
  8
0
100
AcDbSpline
 62
7
  6
CONTINUOUS
 70
0
 71
3
 72
20
 73
16
 74
0
 42
0.0000001
 43
0.0000001
 44
0.0000000001
 40
0.0
 40
0.0
 40
0.0
 40
0.0
 40
0.0614736026
 40
0.1232929295
 40
0.2477658624
 40
0.3105384336
 40
0.3735668042
 40
0.4367791479
 40
0.5001162007
 40
0.5634309402
 40
0.6266232097
 40
0.6896595401
 40
0.7524269088
 40
0.8768354223
 40
1.0
 40
1.0
 40
1.0
 40
1.0
 10
11.5688251884
 20
9.4813750845
 30
0.0
 10
11.5676429905
 20
9.4824713865
 30
0.0
 10
11.565183001
 20
9.4845772578
 30
0.0
 10
11.5599059722
 20
9.4883782814
 30
0.0
 10
11.5541170636
 20
9.4914947143
 30
0.0
 10
11.5479551984
 20
9.4937790791
 30
0.0
 10
11.5431561974
 20
9.4950540905
 30
0.0
 10
11.5382396918
 20
9.4958503328
 30
0.0
 10
11.5332594033
 20
9.4961369081
 30
0.0
 10
11.5282761758
 20
9.495902635
 30
0.0
 10
11.523356248
 20
9.4951251018
 30
0.0
 10
11.5185600764
 20
9.4938388642
 30
0.0
 10
11.5124124841
 20
9.4915164815
 30
0.0
 10
11.5052413612
 20
9.4875687423
 30
0.0
 10
11.5001317329
 20
9.483513122
 30
0.0
 10
11.497760629
 20
9.4813193704
 30
0.0
  0
SPLINE
  5
337
100
AcDbEntity
  8
0
100
AcDbSpline
 62
7
  6
CONTINUOUS
 70
0
 71
3
 72
18
 73
14
 74
0
 42
0.0000001
 43
0.0000001
 44
0.0000000001
 40
0.0
 40
0.0
 40
0.0
 40
0.0
 40
0.1068542931
 40
0.2275655024
 40
0.3601332515
 40
0.4295822641
 40
0.5000923091
 40
0.5706088849
 40
0.6400750571
 40
0.7076200818
 40
0.7724813705
 40
0.8928788637
 40
1.0
 40
1.0
 40
1.0
 40
1.0
 10
11.5745798543
 20
8.904463797
 30
0.0
 10
11.5719437127
 20
8.9060179496
 30
0.0
 10
11.5660459103
 20
8.9088586054
 30
0.0
 10
11.5561940872
 20
8.9120015753
 30
0.0
 10
11.5470813874
 20
8.9136904523
 30
0.0
 10
11.539308029
 20
8.9144299006
 30
0.0
 10
11.533279682
 20
8.9146323309
 30
0.0
 10
11.5272497381
 20
8.9144630611
 30
0.0
 10
11.52132833
 20
8.91390686
 30
0.0
 10
11.5156140185
 20
8.9130026165
 30
0.0
 10
11.5085456895
 20
8.9114171222
 30
0.0
 10
11.5005584006
 20
8.9088272744
 30
0.0
 10
11.4946585832
 20
8.9060026981
 30
0.0
 10
11.4920046717
 20
8.904463797
 30
0.0
  0
SPLINE
  5
338
100
AcDbEntity
  8
0
100
AcDbSpline
 62
7
  6
CONTINUOUS
 70
0
 71
3
 72
20
 73
16
 74
0
 42
0.0000001
 43
0.0000001
 44
0.0000000001
 40
0.0
 40
0.0
 40
0.0
 40
0.0
 40
0.1211666766
 40
0.2450196385
 40
0.3079841778
 40
0.3715895402
 40
0.4356078416
 40
0.4998770329
 40
0.564167499
 40
0.6281924902
 40
0.6917954093
 40
0.7548035922
 40
0.8171798003
 40
0.8788781389
 40
1.0
 40
1.0
 40
1.0
 40
1.0
 10
11.4920046717
 20
8.904463797
 30
0.0
 10
11.4945208038
 20
8.9016003324
 30
0.0
 10
11.5001222588
 20
8.8962382064
 30
0.0
 10
11.5083106072
 20
8.8909299033
 30
0.0
 10
11.5155285141
 20
8.8877371299
 30
0.0
 10
11.5212649407
 20
8.8859456349
 30
0.0
 10
11.5272160668
 20
8.8848422261
 30
0.0
 10
11.5332812702
 20
8.884505956
 30
0.0
 10
11.5393411841
 20
8.8849077072
 30
0.0
 10
11.5452888455
 20
8.8860234447
 30
0.0
 10
11.5510321143
 20
8.8877936624
 30
0.0
 10
11.5564968598
 20
8.890164728
 30
0.0
 10
11.5616267581
 20
8.893073308
 30
0.0
 10
11.5679158662
 20
8.8975567985
 30
0.0
 10
11.5720882437
 20
8.9015808331
 30
0.0
 10
11.5745798543
 20
8.904463797
 30
0.0
  0
SPLINE
  5
339
100
AcDbEntity
  8
0
100
AcDbSpline
 62
7
  6
CONTINUOUS
 70
0
 71
3
 72
14
 73
10
 74
0
 42
0.0000001
 43
0.0000001
 44
0.0000000001
 40
0.0
 40
0.0
 40
0.0
 40
0.0
 40
0.0846917869
 40
0.1830177952
 40
0.4161234441
 40
0.5489280516
 40
0.6912437754
 40
0.8419908782
 40
1.0
 40
1.0
 40
1.0
 40
1.0
 10
10.7661760091
 20
8.690222231
 30
0.0
 10
10.7627992599
 20
8.6913293539
 30
0.0
 10
10.7554761644
 20
8.6936438767
 30
0.0
 10
10.7387004356
 20
8.6984892407
 30
0.0
 10
10.7197347659
 20
8.7030138577
 30
0.0
 10
10.6987374234
 20
8.7067679429
 30
0.0
 10
10.6810148732
 20
8.7091076353
 30
0.0
 10
10.6621430032
 20
8.7106480001
 30
0.0
 10
10.6491848717
 20
8.7110070122
 30
0.0
 10
10.6425549128
 20
8.7110072167
 30
0.0
  0
SPLINE
  5
33A
100
AcDbEntity
  8
0
100
AcDbSpline
 62
7
  6
CONTINUOUS
 70
0
 71
3
 72
32
 73
28
 74
0
 42
0.0000001
 43
0.0000001
 44
0.0000000001
 40
0.0
 40
0.0
 40
0.0
 40
0.0
 40
0.2240852195
 40
0.4235204827
 40
0.5132440517
 40
0.5959100613
 40
0.6713056388
 40
0.7392808291
 40
0.799687096
 40
0.8523757124
 40
0.8971978758
 40
0.9166167798
 40
0.9340272796
 40
0.9494209703
 40
0.9627894464
 40
0.9741243017
 40
0.9834171292
 40
0.9872951553
 40
0.9906595215
 40
0.9935091768
 40
0.9958430701
 40
0.9976601502
 40
0.9989593661
 40
0.9994144464
 40
0.9997396664
 40
0.9999348948
 40
1.0
 40
1.0
 40
1.0
 40
1.0
 10
10.3593385595
 20
8.6142999527
 30
0.0
 10
10.3571654941
 20
8.6129876663
 30
0.0
 10
10.3530632845
 20
8.6104993575
 30
0.0
 10
10.348104742
 20
8.6074630118
 30
0.0
 10
10.3445201932
 20
8.6052507669
 30
0.0
 10
10.3421350485
 20
8.6037706877
 30
0.0
 10
10.3399625362
 20
8.6024152368
 30
0.0
 10
10.338006691
 20
8.601188918
 30
0.0
 10
10.3362709729
 20
8.6000957697
 30
0.0
 10
10.3347588231
 20
8.5991398237
 30
0.0
 10
10.3336400393
 20
8.598430592
 30
0.0
 10
10.3328590433
 20
8.5979349497
 30
0.0
 10
10.3323596377
 20
8.5976177749
 30
0.0
 10
10.3319181851
 20
8.5973372008
 30
0.0
 10
10.3315349011
 20
8.5970934189
 30
0.0
 10
10.3312100054
 20
8.5968866229
 30
0.0
 10
10.3309758506
 20
8.5967374783
 30
0.0
 10
10.3308178922
 20
8.5966368054
 30
0.0
 10
10.3307214707
 20
8.5965753383
 30
0.0
 10
10.3306398819
 20
8.5965232836
 30
0.0
 10
10.3305728701
 20
8.5964805827
 30
0.0
 10
10.3305212177
 20
8.5964474803
 30
0.0
 10
10.3304862999
 20
8.5964254697
 30
0.0
 10
10.3304675442
 20
8.5964131109
 30
0.0
 10
10.3304564234
 20
8.5964066337
 30
0.0
 10
10.3304540266
 20
8.5964039956
 30
0.0
 10
10.330448233
 20
8.5964014409
 30
0.0
 10
10.3304489706
 20
8.5964014409
 30
0.0
  0
SPLINE
  5
33B
100
AcDbEntity
  8
0
100
AcDbSpline
 62
7
  6
CONTINUOUS
 70
0
 71
3
 72
18
 73
14
 74
0
 42
0.0000001
 43
0.0000001
 44
0.0000000001
 40
0.0
 40
0.0
 40
0.0
 40
0.0
 40
0.1212733002
 40
0.2453068118
 40
0.3717997221
 40
0.4357847645
 40
0.500013274
 40
0.5642223879
 40
0.6281953747
 40
0.6917948586
 40
0.7548090305
 40
0.8787395649
 40
1.0
 40
1.0
 40
1.0
 40
1.0
 10
11.5709925346
 20
9.5012893827
 30
0.0
 10
11.5685515417
 20
9.5036290591
 30
0.0
 10
11.5632032346
 20
9.5079568114
 30
0.0
 10
11.5540571636
 20
9.5129524143
 30
0.0
 10
11.5456507737
 20
9.5156542206
 30
0.0
 10
11.5386318044
 20
9.5167998456
 30
0.0
 10
11.5332657358
 20
9.5171103723
 30
0.0
 10
11.5278967229
 20
9.5168540303
 30
0.0
 10
11.5226064548
 20
9.516006435
 30
0.0
 10
11.5174684135
 20
9.5146142068
 30
0.0
 10
11.5109344203
 20
9.5121156044
 30
0.0
 10
11.5033851247
 20
9.5079057475
 30
0.0
 10
11.4980465762
 20
9.5035807521
 30
0.0
 10
11.4955972114
 20
9.5012503618
 30
0.0
  0
SPLINE
  5
33C
100
AcDbEntity
  8
0
100
AcDbSpline
 62
9
  6
CONTINUOUS
 70
0
 71
3
 72
27
 73
23
 74
0
 42
0.0000001
 43
0.0000001
 44
0.0000000001
 40
0.0
 40
0.0
 40
0.0
 40
0.0
 40
0.0002688881
 40
0.0010744357
 40
0.0024150013
 40
0.004288944
 40
0.0066946236
 40
0.0096304002
 40
0.017085688
 40
0.0266417012
 40
0.0382853428
 40
0.0520035252
 40
0.0677831707
 40
0.1054745756
 40
0.1512284042
 40
0.2048248267
 40
0.2660262898
 40
0.3345961974
 40
0.4102990033
 40
0.5821277291
 40
0.7794095498
 40
1.0
 40
1.0
 40
1.0
 40
1.0
 10
8.4808636312
 20
6.9080104277
 30
0.0
 10
8.4808657239
 20
6.9080104938
 30
0.0
 10
8.4808736026
 20
6.9080067338
 30
0.0
 10
8.4808919026
 20
6.9080031879
 30
0.0
 10
8.4809219749
 20
6.9079940171
 30
0.0
 10
8.480964209
 20
6.9079827599
 30
0.0
 10
8.4810183652
 20
6.9079677225
 30
0.0
 10
8.4811144672
 20
6.9079414313
 30
0.0
 10
8.4812642886
 20
6.9079004426
 30
0.0
 10
8.4814795939
 20
6.9078418989
 30
0.0
 10
8.481742039
 20
6.9077708452
 30
0.0
 10
8.4820513639
 20
6.9076875127
 30
0.0
 10
8.4825566971
 20
6.9075520368
 30
0.0
 10
8.4833033559
 20
6.9073534036
 30
0.0
 10
8.4843352911
 20
6.9070817406
 30
0.0
 10
8.4855454688
 20
6.9067680969
 30
0.0
 10
8.4869292311
 20
6.9064161308
 30
0.0
 10
8.4884818002
 20
6.9060296069
 30
0.0
 10
8.4908735125
 20
6.905448157
 30
0.0
 10
8.4942465522
 20
6.9046608638
 30
0.0
 10
8.4987322296
 20
6.9036787343
 30
0.0
 10
8.5019213454
 20
6.9030321912
 30
0.0
 10
8.5036074988
 20
6.9027047297
 30
0.0
  0
SPLINE
  5
33D
100
AcDbEntity
  8
0
100
AcDbSpline
 62
7
  6
CONTINUOUS
 70
0
 71
3
 72
18
 73
14
 74
0
 42
0.0000001
 43
0.0000001
 44
0.0000000001
 40
0.0
 40
0.0
 40
0.0
 40
0.0
 40
0.1104185758
 40
0.2318502699
 40
0.3628922046
 40
0.4310351841
 40
0.5000581595
 40
0.5690814064
 40
0.6372360724
 40
0.7038165455
 40
0.7681921915
 40
0.8893739359
 40
1.0
 40
1.0
 40
1.0
 40
1.0
 10
11.5745798543
 20
8.9676663142
 30
0.0
 10
11.5719882955
 20
8.9695966396
 30
0.0
 10
11.566168267
 20
8.9731594343
 30
0.0
 10
11.556286615
 20
8.9771622734
 30
0.0
 10
11.5471141032
 20
8.979319035
 30
0.0
 10
11.5393151123
 20
8.9802570771
 30
0.0
 10
11.5332799731
 20
8.9805134915
 30
0.0
 10
11.5272426678
 20
8.9802990699
 30
0.0
 10
11.5213146653
 20
8.9795947402
 30
0.0
 10
11.5155947608
 20
8.9784497517
 30
0.0
 10
11.5084898948
 20
8.9764341957
 30
0.0
 10
11.5004413281
 20
8.9731219647
 30
0.0
 10
11.4946163429
 20
8.9695796328
 30
0.0
 10
11.4920046717
 20
8.9676663142
 30
0.0
  0
SPLINE
  5
33E
100
AcDbEntity
  8
0
100
AcDbSpline
 62
7
  6
CONTINUOUS
 70
0
 71
3
 72
15
 73
11
 74
0
 42
0.0000001
 43
0.0000001
 44
0.0000000001
 40
0.0
 40
0.0
 40
0.0
 40
0.0
 40
0.2306570161
 40
0.4324130694
 40
0.6044966611
 40
0.7462154391
 40
0.8570223074
 40
0.9363979539
 40
0.9840856195
 40
1.0
 40
1.0
 40
1.0
 40
1.0
 10
10.7661760099
 20
9.4072600158
 30
0.0
 10
10.7679054643
 20
9.4078270454
 30
0.0
 10
10.7711389472
 20
9.4089108904
 30
0.0
 10
10.7756486438
 20
9.4104867686
 30
0.0
 10
10.7794556643
 20
9.4118614535
 30
0.0
 10
10.7826507399
 20
9.4130464163
 30
0.0
 10
10.7849621803
 20
9.4139202782
 30
0.0
 10
10.7870265725
 20
9.4147164559
 30
0.0
 10
10.7875296999
 20
9.4149081587
 30
0.0
 10
10.7885658044
 20
9.4153147004
 30
0.0
 10
10.7884489688
 20
9.4152686729
 30
0.0
  0
SPLINE
  5
33F
100
AcDbEntity
  8
0
100
AcDbSpline
 62
7
  6
CONTINUOUS
 70
0
 71
3
 72
20
 73
16
 74
0
 42
0.0000001
 43
0.0000001
 44
0.0000000001
 40
0.0
 40
0.0
 40
0.0
 40
0.0
 40
0.1187072567
 40
0.2418861315
 40
0.3051646682
 40
0.3694641909
 40
0.4344631729
 40
0.4998668423
 40
0.5652863833
 40
0.6302874883
 40
0.6945940102
 40
0.7579407478
 40
0.8202281387
 40
0.8813734329
 40
1.0
 40
1.0
 40
1.0
 40
1.0
 10
11.4920046717
 20
8.9676663142
 30
0.0
 10
11.4945396115
 20
8.9650140935
 30
0.0
 10
11.5001917096
 20
8.9600533963
 30
0.0
 10
11.5083536522
 20
8.9552046116
 30
0.0
 10
11.5155450893
 20
8.9522829003
 30
0.0
 10
11.5212777917
 20
8.9506387285
 30
0.0
 10
11.5272230712
 20
8.9496265163
 30
0.0
 10
11.5332809472
 20
8.9493181411
 30
0.0
 10
11.53933425
 20
8.9496866455
 30
0.0
 10
11.5452766748
 20
8.9507104195
 30
0.0
 10
11.5510161876
 20
8.9523352034
 30
0.0
 10
11.5564787914
 20
8.9545121555
 30
0.0
 10
11.5616079549
 20
8.9571834311
 30
0.0
 10
11.5678738505
 20
8.9612865715
 30
0.0
 10
11.5720686646
 20
8.9649950171
 30
0.0
 10
11.5745798543
 20
8.9676663142
 30
0.0
  0
SPLINE
  5
340
100
AcDbEntity
  8
0
100
AcDbSpline
 62
7
  6
CONTINUOUS
 70
0
 71
3
 72
18
 73
14
 74
0
 42
0.0000001
 43
0.0000001
 44
0.0000000001
 40
0.0
 40
0.0
 40
0.0
 40
0.0
 40
0.1184215765
 40
0.2417329653
 40
0.3694017667
 40
0.4345005242
 40
0.5000201368
 40
0.5655251579
 40
0.630620488
 40
0.6950111546
 40
0.7583639972
 40
0.8815361886
 40
1.0
 40
1.0
 40
1.0
 40
1.0
 10
11.5731020843
 20
9.5125674507
 30
0.0
 10
11.5706010972
 20
9.5149823996
 30
0.0
 10
11.5650439037
 20
9.5194688126
 30
0.0
 10
11.5554435345
 20
9.5246401678
 30
0.0
 10
11.5465308988
 20
9.5274428161
 30
0.0
 10
11.5390327102
 20
9.5286410462
 30
0.0
 10
11.5332736201
 20
9.5289667479
 30
0.0
 10
11.5275113458
 20
9.5286956645
 30
0.0
 10
11.5218457006
 20
9.5278029217
 30
0.0
 10
11.516364682
 20
9.5263460481
 30
0.0
 10
11.5094598398
 20
9.5237501607
 30
0.0
 10
11.5015622533
 20
9.5194198287
 30
0.0
 10
11.4960036916
 20
9.5149501749
 30
0.0
 10
11.4934866363
 20
9.5125501812
 30
0.0
  0
SPLINE
  5
341
100
AcDbEntity
  8
0
100
AcDbSpline
 62
7
  6
CONTINUOUS
 70
0
 71
3
 72
17
 73
13
 74
0
 42
0.0000001
 43
0.0000001
 44
0.0000000001
 40
0.0
 40
0.0
 40
0.0
 40
0.0
 40
0.0885072707
 40
0.1385213108
 40
0.1919759209
 40
0.2485255026
 40
0.3078353011
 40
0.4336954072
 40
0.5676754331
 40
0.7079914048
 40
0.8527906976
 40
1.0
 40
1.0
 40
1.0
 40
1.0
 10
10.3593623574
 20
9.4831801103
 30
0.0
 10
10.3649000279
 20
9.4798407048
 30
0.0
 10
10.3735929781
 20
9.4746566792
 30
0.0
 10
10.3857471854
 20
9.4676550056
 30
0.0
 10
10.3959451252
 20
9.4619367119
 30
0.0
 10
10.406808428
 20
9.4560180781
 30
0.0
 10
10.4224250146
 20
9.447769365
 30
0.0
 10
10.443288013
 20
9.4373442936
 30
0.0
 10
10.4699144362
 20
9.4252490292
 30
0.0
 10
10.4983588847
 20
9.4138755188
 30
0.0
 10
10.5283103028
 20
9.4037873898
 30
0.0
 10
10.5489541295
 20
9.3983137471
 30
0.0
 10
10.5594489857
 20
9.3959597964
 30
0.0
  0
SPLINE
  5
342
100
AcDbEntity
  8
0
100
AcDbSpline
 62
7
  6
CONTINUOUS
 70
0
 71
3
 72
18
 73
14
 74
0
 42
0.0000001
 43
0.0000001
 44
0.0000000001
 40
0.0
 40
0.0
 40
0.0
 40
0.0
 40
0.1139608837
 40
0.2361658167
 40
0.3656936419
 40
0.4325131506
 40
0.5000221199
 40
0.5675247259
 40
0.6343502082
 40
0.6999643925
 40
0.7638690343
 40
0.8858877868
 40
1.0
 40
1.0
 40
1.0
 40
1.0
 10
11.5745798543
 20
9.0324468605
 30
0.0
 10
11.5720261931
 20
9.0347085072
 30
0.0
 10
11.5662843989
 20
9.0389101758
 30
0.0
 10
11.5563826527
 20
9.0437036429
 30
0.0
 10
11.5471497619
 20
9.0462965968
 30
0.0
 10
11.5393229208
 20
9.0474169561
 30
0.0
 10
11.5332803112
 20
9.0477226985
 30
0.0
 10
11.5272348625
 20
9.0474670071
 30
0.0
 10
11.5212997851
 20
9.0466274283
 30
0.0
 10
11.5155743305
 20
9.0452628695
 30
0.0
 10
11.5084325271
 20
9.0428511534
 30
0.0
 10
11.5003303139
 20
9.0388682469
 30
0.0
 10
11.4945802543
 20
9.0346904133
 30
0.0
 10
11.4920046717
 20
9.0324468605
 30
0.0
  0
SPLINE
  5
343
100
AcDbEntity
  8
0
100
AcDbSpline
 62
7
  6
CONTINUOUS
 70
0
 71
3
 72
18
 73
14
 74
0
 42
0.0000001
 43
0.0000001
 44
0.0000000001
 40
0.0
 40
0.0
 40
0.0
 40
0.0
 40
0.1157605622
 40
0.2381947953
 40
0.3018812061
 40
0.3670362867
 40
0.4332246051
 40
0.4999955831
 40
0.5667762191
 40
0.6329613598
 40
0.7617750285
 40
0.8843651686
 40
1.0
 40
1.0
 40
1.0
 40
1.0
 10
11.4920046717
 20
9.0324468605
 30
0.0
 10
11.4945649274
 20
9.0300552618
 30
0.0
 10
11.5002798164
 20
9.0255930674
 30
0.0
 10
11.508404796
 20
9.0213005531
 30
0.0
 10
11.5155642114
 20
9.0187064521
 30
0.0
 10
11.5212922679
 20
9.0172415151
 30
0.0
 10
11.5272308764
 20
9.0163400274
 30
0.0
 10
11.5332804929
 20
9.0160654277
 30
0.0
 10
11.5393269093
 20
9.0163937639
 30
0.0
 10
11.5471677999
 20
9.0175979369
 30
0.0
 10
11.5564293956
 20
9.020393463
 30
0.0
 10
11.5663372453
 20
9.0255494543
 30
0.0
 10
11.572042236
 20
9.0300367779
 30
0.0
 10
11.5745798543
 20
9.0324468605
 30
0.0
  0
LINE
  5
344
100
AcDbEntity
  8
0
100
AcDbLine
 62
7
  6
CONTINUOUS
 10
10.3304489706
 20
9.5010808199
 11
10.3386244861
 21
9.4959051952
  0
SPLINE
  5
345
100
AcDbEntity
  8
0
100
AcDbSpline
 62
7
  6
CONTINUOUS
 70
0
 71
3
 72
18
 73
14
 74
0
 42
0.0000001
 43
0.0000001
 44
0.0000000001
 40
0.0
 40
0.0
 40
0.0
 40
0.0
 40
0.1167196708
 40
0.239415369
 40
0.3029827278
 40
0.3678666991
 40
0.4336668282
 40
0.4999879006
 40
0.5663204075
 40
0.6321195598
 40
0.7605263666
 40
0.88337381
 40
1.0
 40
1.0
 40
1.0
 40
1.0
 10
11.4924850041
 20
8.5825292691
 30
0.0
 10
11.4950315435
 20
8.5801282161
 30
0.0
 10
11.5006952645
 20
8.5756506222
 30
0.0
 10
11.5087484856
 20
8.5713314917
 30
0.0
 10
11.5158260872
 20
8.5687284658
 30
0.0
 10
11.521473482
 20
8.5672616365
 30
0.0
 10
11.527322713
 20
8.5663601868
 30
0.0
 10
11.5332781138
 20
8.5660858854
 30
0.0
 10
11.5392303024
 20
8.5664143487
 30
0.0
 10
11.5469596002
 20
8.5676203358
 30
0.0
 10
11.5561089943
 20
8.5704274102
 30
0.0
 10
11.5659184167
 20
8.575604943
 30
0.0
 10
11.5715750714
 20
8.580105119
 30
0.0
 10
11.5741012188
 20
8.5825235657
 30
0.0
  0
SPLINE
  5
346
100
AcDbEntity
  8
0
100
AcDbSpline
 62
7
  6
CONTINUOUS
 70
0
 71
3
 72
18
 73
14
 74
0
 42
0.0000001
 43
0.0000001
 44
0.0000000001
 40
0.0
 40
0.0
 40
0.0
 40
0.0
 40
0.1172092423
 40
0.2401733285
 40
0.3683164277
 40
0.433899656
 40
0.4999875731
 40
0.5660626517
 40
0.631646316
 40
0.6963682193
 40
0.7598520737
 40
0.8826886686
 40
1.0
 40
1.0
 40
1.0
 40
1.0
 10
11.5745798543
 20
9.0975445562
 30
0.0
 10
11.5720563634
 20
9.1000912838
 30
0.0
 10
11.5663857133
 20
9.1048408105
 30
0.0
 10
11.5564741121
 20
9.1103342081
 30
0.0
 10
11.5471854953
 20
9.1133199683
 30
0.0
 10
11.5393308366
 20
9.1146024058
 30
0.0
 10
11.5332806623
 20
9.1149517841
 30
0.0
 10
11.527226922
 20
9.1146595684
 30
0.0
 10
11.5212848801
 20
9.113700437
 30
0.0
 10
11.5155544023
 20
9.1121421194
 30
0.0
 10
11.5083783645
 20
9.1093776527
 30
0.0
 10
11.5002334991
 20
9.1047958146
 30
0.0
 10
11.4945514042
 20
9.1000724768
 30
0.0
 10
11.4920046717
 20
9.0975445562
 30
0.0
  0
SPLINE
  5
347
100
AcDbEntity
  8
0
100
AcDbSpline
 62
7
  6
CONTINUOUS
 70
0
 71
3
 72
18
 73
14
 74
0
 42
0.0000001
 43
0.0000001
 44
0.0000000001
 40
0.0
 40
0.0
 40
0.0
 40
0.0
 40
0.1123906632
 40
0.2339890149
 40
0.2981246907
 40
0.3642168993
 40
0.431701901
 40
0.4999599202
 40
0.5682209802
 40
0.6356971253
 40
0.765972089
 40
0.887788095
 40
1.0
 40
1.0
 40
1.0
 40
1.0
 10
11.4920046717
 20
9.0975445562
 30
0.0
 10
11.494597413
 20
9.0954605044
 30
0.0
 10
11.5003844357
 20
9.0915895703
 30
0.0
 10
11.5084610856
 20
9.0879342483
 30
0.0
 10
11.5155845876
 20
9.0857157765
 30
0.0
 10
11.5213073086
 20
9.0844580611
 30
0.0
 10
11.5272388267
 20
9.0836843164
 30
0.0
 10
11.5332801449
 20
9.0834487191
 30
0.0
 10
11.5393189699
 20
9.0837304472
 30
0.0
 10
11.5471317493
 20
9.0847619312
 30
0.0
 10
11.5563347412
 20
9.0871414674
 30
0.0
 10
11.5662277768
 20
9.0915496773
 30
0.0
 10
11.572008197
 20
9.0954428933
 30
0.0
 10
11.5745798543
 20
9.0975445562
 30
0.0
  0
SPLINE
  5
348
100
AcDbEntity
  8
0
100
AcDbSpline
 62
7
  6
CONTINUOUS
 70
0
 71
3
 72
18
 73
14
 74
0
 42
0.0000001
 43
0.0000001
 44
0.0000000001
 40
0.0
 40
0.0
 40
0.0
 40
0.0
 40
0.1199753722
 40
0.2435593973
 40
0.3067283702
 40
0.3706913789
 40
0.4351783693
 40
0.4999802243
 40
0.5647993286
 40
0.6292940882
 40
0.7563258295
 40
0.8800321411
 40
1.0
 40
1.0
 40
1.0
 40
1.0
 10
11.4945289778
 20
8.5894979364
 30
0.0
 10
11.4970136332
 20
8.5871226745
 30
0.0
 10
11.5024636305
 20
8.5827063349
 30
0.0
 10
11.5101922009
 20
8.5784148879
 30
0.0
 10
11.5169148508
 20
8.5758554327
 30
0.0
 10
11.5222252429
 20
8.5744243876
 30
0.0
 10
11.5277036388
 20
8.5735502251
 30
0.0
 10
11.5332694738
 20
8.5732853259
 30
0.0
 10
11.5388322164
 20
8.5736048263
 30
0.0
 10
11.5460923766
 20
8.5747821353
 30
0.0
 10
11.5547558787
 20
8.5775479365
 30
0.0
 10
11.5641340082
 20
8.5826554285
 30
0.0
 10
11.5695882773
 20
8.5870818594
 30
0.0
 10
11.5720608893
 20
8.589469346
 30
0.0
  0
SPLINE
  5
349
100
AcDbEntity
  8
0
100
AcDbSpline
 62
7
  6
CONTINUOUS
 70
0
 71
3
 72
20
 73
16
 74
0
 42
0.0000001
 43
0.0000001
 44
0.0000000001
 40
0.0
 40
0.0
 40
0.0
 40
0.0
 40
0.1199461939
 40
0.1813822935
 40
0.2437150151
 40
0.3068818555
 40
0.3708166616
 40
0.4353031727
 40
0.5001280367
 40
0.5649342093
 40
0.6294161795
 40
0.6933489128
 40
0.7564604638
 40
0.8799922568
 40
1.0
 40
1.0
 40
1.0
 40
1.0
 10
11.5745798543
 20
9.1616923487
 30
0.0
 10
11.5720792514
 20
9.1644758311
 30
0.0
 10
11.5678962962
 20
9.1683515481
 30
0.0
 10
11.5616179193
 20
9.1726556409
 30
0.0
 10
11.5564882993
 20
9.1754524398
 30
0.0
 10
11.5510245162
 20
9.1777320348
 30
0.0
 10
11.5452830065
 20
9.1794336923
 30
0.0
 10
11.5393378428
 20
9.1805060601
 30
0.0
 10
11.5332811081
 20
9.1808921236
 30
0.0
 10
11.5272194306
 20
9.1805690168
 30
0.0
 10
11.5212710952
 20
9.1795086261
 30
0.0
 10
11.515536411
 20
9.1777865784
 30
0.0
 10
11.5083309745
 20
9.1747217829
 30
0.0
 10
11.5001546101
 20
9.1696302992
 30
0.0
 10
11.4945294467
 20
9.1644565253
 30
0.0
 10
11.4920046717
 20
9.1616923487
 30
0.0
  0
SPLINE
  5
34A
100
AcDbEntity
  8
0
100
AcDbSpline
 62
7
  6
CONTINUOUS
 70
0
 71
3
 72
26
 73
22
 74
0
 42
0.0000001
 43
0.0000001
 44
0.0000000001
 40
0.0
 40
0.0
 40
0.0
 40
0.0
 40
0.0057546135
 40
0.0228424011
 40
0.0507002926
 40
0.0885201349
 40
0.1353631727
 40
0.1902126316
 40
0.2520888649
 40
0.3200863621
 40
0.3933852609
 40
0.4317884352
 40
0.4712449967
 40
0.5116794592
 40
0.5530196784
 40
0.6381224384
 40
0.7259797787
 40
0.8160102388
 40
0.8616533791
 40
0.907611225
 40
1.0
 40
1.0
 40
1.0
 40
1.0
 10
10.3429489688
 20
9.5010808202
 30
0.0
 10
10.343334263
 20
9.5008221206
 30
0.0
 10
10.3448632445
 20
9.4997946272
 30
0.0
 10
10.3482559178
 20
9.4975125281
 30
0.0
 10
10.3538157384
 20
9.4938191534
 30
0.0
 10
10.3614057024
 20
9.488845449
 30
0.0
 10
10.3708614506
 20
9.4827478773
 30
0.0
 10
10.3820240537
 20
9.4757185011
 30
0.0
 10
10.3947316481
 20
9.4679429484
 30
0.0
 10
10.4088384427
 20
9.459606707
 30
0.0
 10
10.4214459344
 20
9.4524580904
 30
0.0
 10
10.4321474411
 20
9.4466195106
 30
0.0
 10
10.4405783116
 20
9.4421544756
 30
0.0
 10
10.4492772639
 20
9.4376912047
 30
0.0
 10
10.46133333
 20
9.4317097283
 30
0.0
 10
10.4769884963
 20
9.4243803559
 30
0.0
 10
10.4965130696
 20
9.4160842787
 30
0.0
 10
10.5133774477
 20
9.4096981928
 30
0.0
 10
10.5272490884
 20
9.4049885711
 30
0.0
 10
10.5414165724
 20
9.4005748703
 30
0.0
 10
10.5521995821
 20
9.3976804165
 30
0.0
 10
10.5594489688
 20
9.3959597034
 30
0.0
  0
SPLINE
  5
34B
100
AcDbEntity
  8
0
100
AcDbSpline
 62
7
  6
CONTINUOUS
 70
0
 71
3
 72
18
 73
14
 74
0
 42
0.0000001
 43
0.0000001
 44
0.0000000001
 40
0.0
 40
0.0
 40
0.0
 40
0.0
 40
0.1088551991
 40
0.2296335251
 40
0.2942530884
 40
0.3613218129
 40
0.4301422133
 40
0.4999243366
 40
0.5697029812
 40
0.6385088922
 40
0.7703214134
 40
0.8913819234
 40
1.0
 40
1.0
 40
1.0
 40
1.0
 10
11.4920046717
 20
9.1616923487
 30
0.0
 10
11.4946368578
 20
9.1599608051
 30
0.0
 10
11.500499827
 20
9.1567677132
 30
0.0
 10
11.5085183313
 20
9.1538115011
 30
0.0
 10
11.5156046505
 20
9.1520073321
 30
0.0
 10
11.5213217272
 20
9.1509803721
 30
0.0
 10
11.5272463343
 20
9.1503486774
 30
0.0
 10
11.5332798232
 20
9.1501564013
 30
0.0
 10
11.5393114457
 20
9.1503863402
 30
0.0
 10
11.5470972019
 20
9.1512268719
 30
0.0
 10
11.5562393524
 20
9.1531529548
 30
0.0
 10
11.5661071114
 20
9.1567330926
 30
0.0
 10
11.5719666741
 20
9.1599445683
 30
0.0
 10
11.5745798543
 20
9.1616923487
 30
0.0
  0
SPLINE
  5
34C
100
AcDbEntity
  8
0
100
AcDbSpline
 62
7
  6
CONTINUOUS
 70
0
 71
3
 72
13
 73
9
 74
0
 42
0.0000001
 43
0.0000001
 44
0.0000000001
 40
0.0
 40
0.0
 40
0.0
 40
0.0
 40
0.1847010865
 40
0.4179481392
 40
0.5504192265
 40
0.692228644
 40
0.8424243484
 40
1.0
 40
1.0
 40
1.0
 40
1.0
 10
10.7512808293
 20
8.6902222453
 30
0.0
 10
10.7448363896
 20
8.6924992209
 30
0.0
 10
10.7301294622
 20
8.6973068577
 30
0.0
 10
10.7104086844
 20
8.7024750184
 30
0.0
 10
10.6919925013
 20
8.7061849352
 30
0.0
 10
10.6764618948
 20
8.7085794099
 30
0.0
 10
10.6599055738
 20
8.7102848453
 30
0.0
 10
10.6485224291
 20
8.7108321854
 30
0.0
 10
10.6426924784
 20
8.7109474846
 30
0.0
  0
SPLINE
  5
34D
100
AcDbEntity
  8
0
100
AcDbSpline
 62
7
  6
CONTINUOUS
 70
0
 71
3
 72
18
 73
14
 74
0
 42
0.0000001
 43
0.0000001
 44
0.0000000001
 40
0.0
 40
0.0
 40
0.0
 40
0.0
 40
0.1223297126
 40
0.2465438165
 40
0.3094301461
 40
0.3727273276
 40
0.4362760934
 40
0.4999972804
 40
0.5637395526
 40
0.627304493
 40
0.7533518215
 40
0.8776491035
 40
1.0
 40
1.0
 40
1.0
 40
1.0
 10
11.4966781975
 20
8.6051269186
 30
0.0
 10
11.4990895992
 20
8.6028581038
 30
0.0
 10
11.5043144458
 20
8.5986554912
 30
0.0
 10
11.5116770647
 20
8.594562549
 30
0.0
 10
11.5180185859
 20
8.5921444538
 30
0.0
 10
11.5229846476
 20
8.59080132
 30
0.0
 10
11.5280881636
 20
8.5899864695
 30
0.0
 10
11.5332623242
 20
8.589740489
 30
0.0
 10
11.538433731
 20
8.5900398858
 30
0.0
 10
11.5452114933
 20
8.591145316
 30
0.0
 10
11.5533566223
 20
8.5937611907
 30
0.0
 10
11.5622639829
 20
8.5986060117
 30
0.0
 10
11.5675037645
 20
8.6028036589
 30
0.0
 10
11.5699100969
 20
8.6050786842
 30
0.0
  0
SPLINE
  5
34E
100
AcDbEntity
  8
0
100
AcDbSpline
 62
7
  6
CONTINUOUS
 70
0
 71
3
 72
20
 73
16
 74
0
 42
0.0000001
 43
0.0000001
 44
0.0000000001
 40
0.0
 40
0.0
 40
0.0
 40
0.0
 40
0.1221456637
 40
0.1840747971
 40
0.2464913183
 40
0.3093626589
 40
0.3726760952
 40
0.4362968573
 40
0.5001183979
 40
0.5639163739
 40
0.6275284781
 40
0.6908482795
 40
0.7536861843
 40
0.8778239415
 40
1.0
 40
1.0
 40
1.0
 40
1.0
 10
11.5745798543
 20
9.2236416742
 30
0.0
 10
11.5720957564
 20
9.2266111032
 30
0.0
 10
11.5679325815
 20
9.2307639975
 30
0.0
 10
11.5616344197
 20
9.2354042363
 30
0.0
 10
11.5565043744
 20
9.2384102863
 30
0.0
 10
11.5510388581
 20
9.2408611644
 30
0.0
 10
11.5452940713
 20
9.2426912453
 30
0.0
 10
11.5393441868
 20
9.2438448797
 30
0.0
 10
11.5332814035
 20
9.2442603429
 30
0.0
 10
11.5272130189
 20
9.2439125614
 30
0.0
 10
11.5212594111
 20
9.2427715548
 30
0.0
 10
11.5155214956
 20
9.2409194131
 30
0.0
 10
11.508292743
 20
9.2376146205
 30
0.0
 10
11.5000946189
 20
9.2321167905
 30
0.0
 10
11.4945135749
 20
9.2265914396
 30
0.0
 10
11.4920046717
 20
9.2236416742
 30
0.0
  0
SPLINE
  5
34F
100
AcDbEntity
  8
0
100
AcDbSpline
 62
7
  6
CONTINUOUS
 70
0
 71
3
 72
18
 73
14
 74
0
 42
0.0000001
 43
0.0000001
 44
0.0000000001
 40
0.0
 40
0.0
 40
0.0
 40
0.0
 40
0.1054717498
 40
0.2255190827
 40
0.2906119569
 40
0.358607229
 40
0.4286808754
 40
0.4998869832
 40
0.6410886061
 40
0.7743732561
 40
0.8947641513
 40
0.9493361321
 40
1.0
 40
1.0
 40
1.0
 40
1.0
 10
11.4920046717
 20
9.2236416742
 30
0.0
 10
11.4946809079
 20
9.2223060633
 30
0.0
 10
11.5006151907
 20
9.2198675519
 30
0.0
 10
11.5085712397
 20
9.217651941
 30
0.0
 10
11.515622652
 20
9.2162912588
 30
0.0
 10
11.5213343099
 20
9.2155138012
 30
0.0
 10
11.5272529146
 20
9.2150356062
 30
0.0
 10
11.5352646406
 20
9.2148420452
 30
0.0
 10
11.5450727912
 20
9.2153815466
 30
0.0
 10
11.5561501476
 20
9.2171456654
 30
0.0
 10
11.564603342
 20
9.2194603702
 30
0.0
 10
11.5705851971
 20
9.2217420555
 30
0.0
 10
11.5732986109
 20
9.2229915628
 30
0.0
 10
11.5745798543
 20
9.2236416742
 30
0.0
  0
SPLINE
  5
350
100
AcDbEntity
  8
0
100
AcDbSpline
 62
9
  6
CONTINUOUS
 70
0
 71
3
 72
28
 73
24
 74
0
 42
0.0000001
 43
0.0000001
 44
0.0000000001
 40
0.0
 40
0.0
 40
0.0
 40
0.0
 40
0.0002556584
 40
0.001022123
 40
0.0022986182
 40
0.0040843691
 40
0.0063786011
 40
0.0091805402
 40
0.0163044455
 40
0.0254499023
 40
0.0366107354
 40
0.0497807775
 40
0.0649538689
 40
0.1012845946
 40
0.1455478322
 40
0.1976484057
 40
0.2574750581
 40
0.3249172818
 40
0.3998654395
 40
0.4822098931
 40
0.5718215695
 40
0.7722553103
 40
1.0
 40
1.0
 40
1.0
 40
1.0
 10
8.4423356262
 20
6.9435056965
 30
0.0
 10
8.4423338162
 20
6.9435064111
 30
0.0
 10
8.4423507008
 20
6.9435037076
 30
0.0
 10
8.442359332
 20
6.943504403
 30
0.0
 10
8.4423934102
 20
6.9435010329
 30
0.0
 10
8.4424318464
 20
6.9434984716
 30
0.0
 10
8.4424849378
 20
6.9434943546
 30
0.0
 10
8.4425772824
 20
6.943487541
 30
0.0
 10
8.4427223152
 20
6.9434768276
 30
0.0
 10
8.4429304309
 20
6.9434617635
 30
0.0
 10
8.4431846239
 20
6.9434436194
 30
0.0
 10
8.4434845459
 20
6.9434225588
 30
0.0
 10
8.4439756309
 20
6.9433886252
 30
0.0
 10
8.4447028911
 20
6.9433396876
 30
0.0
 10
8.4457107352
 20
6.9432741094
 30
0.0
 10
8.4468972834
 20
6.9432008332
 30
0.0
 10
8.4482602509
 20
6.9431222309
 30
0.0
 10
8.4497972203
 20
6.9430406586
 30
0.0
 10
8.4515057693
 20
6.9429585092
 30
0.0
 10
8.4533833108
 20
6.9428780997
 30
0.0
 10
8.4562157301
 20
6.9427729362
 30
0.0
 10
8.4601554083
 20
6.9426650648
 30
0.0
 10
8.4634142422
 20
6.9426219341
 30
0.0
 10
8.4651476359
 20
6.9426116577
 30
0.0
  0
LINE
  5
351
100
AcDbEntity
  8
0
100
AcDbLine
 62
9
  6
CONTINUOUS
 10
11.0521317083
 20
11.3544414767
 11
11.0445277186
 21
11.2707453969
  0
LINE
  5
352
100
AcDbEntity
  8
0
100
AcDbLine
 62
9
  6
CONTINUOUS
 10
11.0445277186
 20
11.2707453969
 11
11.04425283
 21
11.267742131
  0
SPLINE
  5
353
100
AcDbEntity
  8
0
100
AcDbSpline
 62
9
  6
CONTINUOUS
 70
0
 71
3
 72
11
 73
7
 74
0
 42
0.0000001
 43
0.0000001
 44
0.0000000001
 40
0.0
 40
0.0
 40
0.0
 40
0.0
 40
0.1500830218
 40
0.3732505638
 40
0.6604301461
 40
1.0
 40
1.0
 40
1.0
 40
1.0
 10
11.04425283
 20
11.267742131
 30
0.0
 10
11.039051759
 20
11.2109324587
 30
0.0
 10
11.0259323788
 20
11.069665885
 30
0.0
 10
11.0018586222
 20
10.8197894539
 30
0.0
 10
10.9691936685
 20
10.4983858846
 30
0.0
 10
10.9433252
 20
10.2615599954
 30
0.0
 10
10.9286566972
 20
10.1333241157
 30
0.0
  0
SPLINE
  5
354
100
AcDbEntity
  8
0
100
AcDbSpline
 62
9
  6
CONTINUOUS
 70
0
 71
3
 72
20
 73
16
 74
0
 42
0.0000001
 43
0.0000001
 44
0.0000000001
 40
0.0
 40
0.0
 40
0.0
 40
0.0
 40
0.1876874877
 40
0.358277591
 40
0.5091765777
 40
0.5768340042
 40
0.6392292816
 40
0.6964763119
 40
0.7488065735
 40
0.7966518591
 40
0.8406826236
 40
0.8818111197
 40
0.9212054856
 40
0.9601739221
 40
1.0
 40
1.0
 40
1.0
 40
1.0
 10
10.9286566972
 20
10.1333241157
 30
0.0
 10
10.9284234477
 20
10.1313283928
 30
0.0
 10
10.9278785362
 20
10.1275290027
 30
0.0
 10
10.9267605282
 20
10.1221899302
 30
0.0
 10
10.925578448
 20
10.1181873621
 30
0.0
 10
10.9244805081
 20
10.1153852326
 30
0.0
 10
10.9236251431
 20
10.1135697177
 30
0.0
 10
10.9227096688
 20
10.111969729
 30
0.0
 10
10.9217342227
 20
10.110591565
 30
0.0
 10
10.920698926
 20
10.1094407283
 30
0.0
 10
10.919604077
 20
10.1085217672
 30
0.0
 10
10.9184492728
 20
10.1078412008
 30
0.0
 10
10.9172379912
 20
10.1074056431
 30
0.0
 10
10.9159796273
 20
10.1072142142
 30
0.0
 10
10.9151313134
 20
10.1072463603
 30
0.0
 10
10.9147081191
 20
10.1072982372
 30
0.0
  0
SPLINE
  5
355
100
AcDbEntity
  8
0
100
AcDbSpline
 62
9
  6
CONTINUOUS
 70
0
 71
3
 72
27
 73
23
 74
0
 42
0.0000001
 43
0.0000001
 44
0.0000000001
 40
0.0
 40
0.0
 40
0.0
 40
0.0
 40
0.0160353622
 40
0.0344855676
 40
0.0553225579
 40
0.0785105622
 40
0.1317284145
 40
0.1934907521
 40
0.2627863622
 40
0.3382094311
 40
0.41797621
 40
0.5000000003
 40
0.5820237905
 40
0.6617905694
 40
0.7372136382
 40
0.8065092482
 40
0.8682715858
 40
0.921489438
 40
0.9446774417
 40
0.9655144325
 40
0.9839646399
 40
1.0
 40
1.0
 40
1.0
 40
1.0
 10
10.9147081191
 20
10.1072982372
 30
0.0
 10
10.9109146101
 20
10.1071055069
 30
0.0
 10
10.9027540844
 20
10.1067346204
 30
0.0
 10
10.8896588365
 20
10.1062370372
 30
0.0
 10
10.8748674683
 20
10.1057622959
 30
0.0
 10
10.851841449
 20
10.1051329377
 30
0.0
 10
10.8191197504
 20
10.1044370968
 30
0.0
 10
10.7754742978
 20
10.1037555897
 30
0.0
 10
10.7265667307
 20
10.103206354
 30
0.0
 10
10.673392808
 20
10.1028034905
 30
0.0
 10
10.6172028991
 20
10.1025588489
 30
0.0
 10
10.5594489686
 20
10.1024748974
 30
0.0
 10
10.501695038
 20
10.1025588487
 30
0.0
 10
10.4455051291
 20
10.1028034908
 30
0.0
 10
10.3923312065
 20
10.1032063536
 30
0.0
 10
10.3434236395
 20
10.10375559
 30
0.0
 10
10.2997781869
 20
10.1044370969
 30
0.0
 10
10.2670564885
 20
10.1051329373
 30
0.0
 10
10.2440304692
 20
10.1057622958
 30
0.0
 10
10.2292391006
 20
10.1062370374
 30
0.0
 10
10.2161438526
 20
10.1067346204
 30
0.0
 10
10.2079833269
 20
10.1071055067
 30
0.0
 10
10.2041898184
 20
10.1072982372
 30
0.0
  0
SPLINE
  5
356
100
AcDbEntity
  8
0
100
AcDbSpline
 62
9
  6
CONTINUOUS
 70
0
 71
3
 72
20
 73
16
 74
0
 42
0.0000001
 43
0.0000001
 44
0.0000000001
 40
0.0
 40
0.0
 40
0.0
 40
0.0
 40
0.0398255941
 40
0.0787938018
 40
0.118188791
 40
0.1593172538
 40
0.203346629
 40
0.251190429
 40
0.3035213532
 40
0.360771793
 40
0.4231697271
 40
0.4908244596
 40
0.6417170728
 40
0.8123657354
 40
1.0
 40
1.0
 40
1.0
 40
1.0
 10
10.2041898184
 20
10.1072982372
 30
0.0
 10
10.2037666139
 20
10.1072463245
 30
0.0
 10
10.202918259
 20
10.1072141843
 30
0.0
 10
10.2016598558
 20
10.1074057642
 30
0.0
 10
10.2004485643
 20
10.1078414598
 30
0.0
 10
10.1992937015
 20
10.1085220169
 30
0.0
 10
10.198198776
 20
10.1094409435
 30
0.0
 10
10.1971634281
 20
10.1105918044
 30
0.0
 10
10.1961880163
 20
10.111970128
 30
0.0
 10
10.1952726404
 20
10.1135703534
 30
0.0
 10
10.1944173118
 20
10.1153860231
 30
0.0
 10
10.1933191314
 20
10.1181881198
 30
0.0
 10
10.1921361096
 20
10.1221912147
 30
0.0
 10
10.1910209308
 20
10.1275311922
 30
0.0
 10
10.1904761577
 20
10.1313307061
 30
0.0
 10
10.1902410574
 20
10.1333257316
 30
0.0
  0
SPLINE
  5
357
100
AcDbEntity
  8
0
100
AcDbSpline
 62
9
  6
CONTINUOUS
 70
0
 71
3
 72
11
 73
7
 74
0
 42
0.0000001
 43
0.0000001
 44
0.0000000001
 40
0.0
 40
0.0
 40
0.0
 40
0.0
 40
0.3395415426
 40
0.6267087525
 40
0.8498849202
 40
1.0
 40
1.0
 40
1.0
 40
1.0
 10
10.1902410574
 20
10.1333257316
 30
0.0
 10
10.1755759298
 20
10.2615409997
 30
0.0
 10
10.1497096611
 20
10.4983328101
 30
0.0
 10
10.1170482774
 20
10.819699088
 30
0.0
 10
10.0929749523
 20
11.0695666326
 30
0.0
 10
10.0798549146
 20
11.2108375241
 30
0.0
 10
10.0746530844
 20
11.267654879
 30
0.0
  0
LINE
  5
358
100
AcDbEntity
  8
0
100
AcDbLine
 62
9
  6
CONTINUOUS
 10
10.0746530844
 20
11.267654879
 11
10.0746147457
 21
11.2680736508
  0
LINE
  5
359
100
AcDbEntity
  8
0
100
AcDbLine
 62
9
  6
CONTINUOUS
 10
10.0746147457
 20
11.2680736508
 11
10.0667662292
 21
11.3544414767
  0
SPLINE
  5
35A
100
AcDbEntity
  8
0
100
AcDbSpline
 62
7
  6
CONTINUOUS
 70
0
 71
3
 72
20
 73
16
 74
0
 42
0.0000001
 43
0.0000001
 44
0.0000000001
 40
0.0
 40
0.0
 40
0.0
 40
0.0
 40
0.1233980649
 40
0.2478869662
 40
0.3105733707
 40
0.3735470473
 40
0.4366645667
 40
0.4998876273
 40
0.5631370981
 40
0.6262656442
 40
0.6892280765
 40
0.751935423
 40
0.8144037341
 40
0.8766151793
 40
1.0
 40
1.0
 40
1.0
 40
1.0
 10
11.4920046717
 20
8.6365006176
 30
0.0
 10
11.4945051782
 20
8.6334463872
 30
0.0
 10
11.5000618373
 20
8.627724087
 30
0.0
 10
11.5082709823
 20
8.6219956725
 30
0.0
 10
11.5155128396
 20
8.618554371
 30
0.0
 10
11.5212525275
 20
8.6166285114
 30
0.0
 10
11.527209205
 20
8.6154417415
 30
0.0
 10
11.5332815861
 20
8.6150799368
 30
0.0
 10
11.5393479698
 20
8.6155121022
 30
0.0
 10
11.5453006003
 20
8.6167118438
 30
0.0
 10
11.5510471965
 20
8.6186147
 30
0.0
 10
11.5565135513
 20
8.6211625247
 30
0.0
 10
11.5616436499
 20
8.6242868903
 30
0.0
 10
11.567952411
 20
8.6291177718
 30
0.0
 10
11.5721044754
 20
8.6334265306
 30
0.0
 10
11.5745798543
 20
8.6365006176
 30
0.0
  0
SPLINE
  5
35B
100
AcDbEntity
  8
0
100
AcDbSpline
 62
7
  6
CONTINUOUS
 70
0
 71
3
 72
11
 73
7
 74
0
 42
0.0000001
 43
0.0000001
 44
0.0000000001
 40
0.0
 40
0.0
 40
0.0
 40
0.0
 40
0.2428763847
 40
0.4902237886
 40
0.7429984344
 40
1.0
 40
1.0
 40
1.0
 40
1.0
 10
10.190540798
 20
10.0896872083
 30
0.0
 10
10.1923925525
 20
10.0901879761
 30
0.0
 10
10.1959866374
 20
10.0918401706
 30
0.0
 10
10.2003151687
 20
10.095943896
 30
0.0
 10
10.2032419316
 20
10.1012612634
 30
0.0
 10
10.204069464
 20
10.1052719749
 30
0.0
 10
10.2041898192
 20
10.1072982371
 30
0.0
  0
SPLINE
  5
35C
100
AcDbEntity
  8
0
100
AcDbSpline
 62
7
  6
CONTINUOUS
 70
0
 71
3
 72
20
 73
16
 74
0
 42
0.0000001
 43
0.0000001
 44
0.0000000001
 40
0.0
 40
0.0
 40
0.0
 40
0.0
 40
0.1237169607
 40
0.1860046387
 40
0.2484874149
 40
0.3111511328
 40
0.3740193939
 40
0.4370154717
 40
0.5001107696
 40
0.563178891
 40
0.6261632737
 40
0.68904408
 40
0.7516902179
 40
0.8762743929
 40
1.0
 40
1.0
 40
1.0
 40
1.0
 10
11.5745798543
 20
9.2821867596
 30
0.0
 10
11.5721067453
 20
9.2852889268
 30
0.0
 10
11.5679576501
 20
9.2896394788
 30
0.0
 10
11.5616461128
 20
9.2945216666
 30
0.0
 10
11.5565160213
 20
9.2976778322
 30
0.0
 10
11.5510494582
 20
9.3002517267
 30
0.0
 10
11.5453023811
 20
9.3021741624
 30
0.0
 10
11.5393490031
 20
9.3033863171
 30
0.0
 10
11.5332816286
 20
9.3038229783
 30
0.0
 10
11.5272081486
 20
9.3034573966
 30
0.0
 10
11.5212506359
 20
9.3022583051
 30
0.0
 10
11.5155104824
 20
9.3003126064
 30
0.0
 10
11.50826512
 20
9.2968345172
 30
0.0
 10
11.5000531724
 20
9.2910440413
 30
0.0
 10
11.4945029898
 20
9.2852690178
 30
0.0
 10
11.4920046717
 20
9.2821867596
 30
0.0
  0
SPLINE
  5
35D
100
AcDbEntity
  8
0
100
AcDbSpline
 62
7
  6
CONTINUOUS
 70
0
 71
3
 72
15
 73
11
 74
0
 42
0.0000001
 43
0.0000001
 44
0.0000000001
 40
0.0
 40
0.0
 40
0.0
 40
0.0
 40
0.1208586892
 40
0.2429502792
 40
0.365972329
 40
0.4903355
 40
0.6160785068
 40
0.7430804423
 40
0.8712341344
 40
1.0
 40
1.0
 40
1.0
 40
1.0
 10
10.9283519721
 20
10.0896884556
 30
0.0
 10
10.9274283041
 20
10.0899397941
 30
0.0
 10
10.9256098844
 20
10.0905994285
 30
0.0
 10
10.9230708993
 20
10.0920236281
 30
0.0
 10
10.9207773809
 20
10.0938621461
 30
0.0
 10
10.9187849522
 20
10.0960610938
 30
0.0
 10
10.9171378843
 20
10.0985668266
 30
0.0
 10
10.9158781812
 20
10.1013209888
 30
0.0
 10
10.9150379595
 20
10.1042545056
 30
0.0
 10
10.9147685801
 20
10.10628015
 30
0.0
 10
10.9147081436
 20
10.1072982391
 30
0.0
  0
SPLINE
  5
35E
100
AcDbEntity
  8
0
100
AcDbSpline
 62
7
  6
CONTINUOUS
 70
0
 71
3
 72
19
 73
15
 74
0
 42
0.0000001
 43
0.0000001
 44
0.0000000001
 40
0.0
 40
0.0
 40
0.0
 40
0.0
 40
0.0491704478
 40
0.102672421
 40
0.1604033982
 40
0.2221722174
 40
0.356405821
 40
0.4275073234
 40
0.4998769845
 40
0.6432885263
 40
0.777800965
 40
0.8976716243
 40
0.9511150269
 40
1.0
 40
1.0
 40
1.0
 40
1.0
 10
11.4920046717
 20
9.2821867596
 30
0.0
 10
11.4933070875
 20
9.2817562098
 30
0.0
 10
11.4960510236
 20
9.2809298696
 30
0.0
 10
11.5003917574
 20
9.2798370678
 30
0.0
 10
11.5051189378
 20
9.2788568001
 30
0.0
 10
11.5121028229
 20
9.2776942998
 30
0.0
 10
11.5195202024
 20
9.2768999489
 30
0.0
 10
11.5272577044
 20
9.2764859536
 30
0.0
 10
11.5352616243
 20
9.27635812
 30
0.0
 10
11.5450361168
 20
9.2767132015
 30
0.0
 10
11.5560809643
 20
9.277874927
 30
0.0
 10
11.5645425195
 20
9.2794031344
 30
0.0
 10
11.5705548168
 20
9.2809200804
 30
0.0
 10
11.5732871452
 20
9.2817522742
 30
0.0
 10
11.5745798543
 20
9.2821867596
 30
0.0
  0
SPLINE
  5
35F
100
AcDbEntity
  8
0
100
AcDbSpline
 62
7
  6
CONTINUOUS
 70
0
 71
3
 72
20
 73
16
 74
0
 42
0.0000001
 43
0.0000001
 44
0.0000000001
 40
0.0
 40
0.0
 40
0.0
 40
0.0
 40
0.1244650038
 40
0.2492659949
 40
0.3118218779
 40
0.3744934029
 40
0.4371768727
 40
0.4998938961
 40
0.5626398771
 40
0.6253360262
 40
0.687991434
 40
0.7505571135
 40
0.8130732948
 40
0.8755337363
 40
1.0
 40
1.0
 40
1.0
 40
1.0
 10
11.4920046717
 20
8.6710181678
 30
0.0
 10
11.4944981484
 20
8.6678725732
 30
0.0
 10
11.5000338268
 20
8.6619786082
 30
0.0
 10
11.5082518542
 20
8.6560475928
 30
0.0
 10
11.5155051376
 20
8.6524861376
 30
0.0
 10
11.5212463782
 20
8.6504955807
 30
0.0
 10
11.5272058077
 20
8.6492685394
 30
0.0
 10
11.5332818231
 20
8.6488943804
 30
0.0
 10
11.5393514605
 20
8.6493412739
 30
0.0
 10
11.5453065293
 20
8.6505815378
 30
0.0
 10
11.5510546661
 20
8.6525483078
 30
0.0
 10
11.5565216585
 20
8.6551811886
 30
0.0
 10
11.5616516858
 20
8.6584092875
 30
0.0
 10
11.5679693807
 20
8.6634076136
 30
0.0
 10
11.572111773
 20
8.6678525568
 30
0.0
 10
11.5745798543
 20
8.6710181678
 30
0.0
  0
SPLINE
  5
360
100
AcDbEntity
  8
0
100
AcDbSpline
 62
7
  6
CONTINUOUS
 70
0
 71
3
 72
20
 73
16
 74
0
 42
0.0000001
 43
0.0000001
 44
0.0000000001
 40
0.0
 40
0.0
 40
0.0
 40
0.0
 40
0.1246334382
 40
0.1871326498
 40
0.2496565494
 40
0.3122005614
 40
0.3748087191
 40
0.437438044
 40
0.500106043
 40
0.5627447063
 40
0.6253605265
 40
0.6879848934
 40
0.7505206667
 40
0.8753704111
 40
1.0
 40
1.0
 40
1.0
 40
1.0
 10
11.5745798543
 20
9.3361880914
 30
0.0
 10
11.5721128688
 20
9.3393678595
 30
0.0
 10
11.5679719472
 20
9.3438338455
 30
0.0
 10
11.5616528929
 20
9.3488581329
 30
0.0
 10
11.5565228743
 20
9.352102289
 30
0.0
 10
11.5510557796
 20
9.3547483442
 30
0.0
 10
11.5453073913
 20
9.3567250058
 30
0.0
 10
11.5393519287
 20
9.3579715543
 30
0.0
 10
11.5332817657
 20
9.3584206859
 30
0.0
 10
11.5272051889
 20
9.358044629
 30
0.0
 10
11.5212453453
 20
9.3568113861
 30
0.0
 10
11.5155039188
 20
9.354810756
 30
0.0
 10
11.5082488984
 20
9.3512306584
 30
0.0
 10
11.5000295408
 20
9.3452682799
 30
0.0
 10
11.4944970852
 20
9.3393478093
 30
0.0
 10
11.4920046717
 20
9.3361880914
 30
0.0
  0
SPLINE
  5
361
100
AcDbEntity
  8
0
100
AcDbSpline
 62
7
  6
CONTINUOUS
 70
0
 71
3
 72
15
 73
11
 74
0
 42
0.0000001
 43
0.0000001
 44
0.0000000001
 40
0.0
 40
0.0
 40
0.0
 40
0.0
 40
0.1008096767
 40
0.2199420784
 40
0.3549652612
 40
0.4998490877
 40
0.6446904109
 40
0.780012332
 40
0.8995721925
 40
1.0
 40
1.0
 40
1.0
 40
1.0
 10
11.4920046717
 20
9.3361880914
 30
0.0
 10
11.4947546947
 20
9.3357600278
 30
0.0
 10
11.5007809463
 20
9.3349942297
 30
0.0
 10
11.5105464393
 20
9.3341511238
 30
0.0
 10
11.5215514139
 20
9.3335959143
 30
0.0
 10
11.5332785889
 20
9.3334089297
 30
0.0
 10
11.5450135382
 20
9.3336104712
 30
0.0
 10
11.556037741
 20
9.3341548638
 30
0.0
 10
11.5658139521
 20
9.3349852267
 30
0.0
 10
11.5718413403
 20
9.3357546927
 30
0.0
 10
11.5745798543
 20
9.3361880914
 30
0.0
  0
SPLINE
  5
362
100
AcDbEntity
  8
0
100
AcDbSpline
 62
7
  6
CONTINUOUS
 70
0
 71
3
 72
20
 73
16
 74
0
 42
0.0000001
 43
0.0000001
 44
0.0000000001
 40
0.0
 40
0.0
 40
0.0
 40
0.0
 40
0.1248768821
 40
0.2497999511
 40
0.3123057312
 40
0.374859919
 40
0.4373746357
 40
0.4998953437
 40
0.5624459915
 40
0.6249746934
 40
0.6875116469
 40
0.7500230932
 40
0.812558546
 40
0.8751159101
 40
1.0
 40
1.0
 40
1.0
 40
1.0
 10
11.4920046717
 20
8.7128876658
 30
0.0
 10
11.4944955039
 20
8.7097067233
 30
0.0
 10
11.500023149
 20
8.7037464663
 30
0.0
 10
11.5082444514
 20
8.6977368931
 30
0.0
 10
11.5155021096
 20
8.6941287599
 30
0.0
 10
11.5212438816
 20
8.6921130545
 30
0.0
 10
11.5272043694
 20
8.6908704287
 30
0.0
 10
11.5332818101
 20
8.6904914917
 30
0.0
 10
11.5393527499
 20
8.6909440527
 30
0.0
 10
11.5453087879
 20
8.6922000475
 30
0.0
 10
11.5510575302
 20
8.6941915957
 30
0.0
 10
11.5565247588
 20
8.6968574505
 30
0.0
 10
11.5616547435
 20
8.7001257413
 30
0.0
 10
11.5679758171
 20
8.7051890388
 30
0.0
 10
11.5721145088
 20
8.7096866353
 30
0.0
 10
11.5745798543
 20
8.7128876658
 30
0.0
  0
SPLINE
  5
363
100
AcDbEntity
  8
0
100
AcDbSpline
 62
7
  6
CONTINUOUS
 70
0
 71
3
 72
20
 73
16
 74
0
 42
0.0000001
 43
0.0000001
 44
0.0000000001
 40
0.0
 40
0.0
 40
0.0
 40
0.0
 40
0.1248840996
 40
0.1874414739
 40
0.2499769406
 40
0.3124883952
 40
0.3750253585
 40
0.4375540658
 40
0.5001047153
 40
0.5626254316
 40
0.6251401343
 40
0.6876943167
 40
0.7502000993
 40
0.8751231436
 40
1.0
 40
1.0
 40
1.0
 40
1.0
 10
11.5745798543
 20
9.384594595
 30
0.0
 10
11.5721145086
 20
9.3877956257
 30
0.0
 10
11.5679758162
 20
9.3922932224
 30
0.0
 10
11.5616547418
 20
9.3973565208
 30
0.0
 10
11.556524756
 20
9.4006248118
 30
0.0
 10
11.5510575265
 20
9.4032906671
 30
0.0
 10
11.5453087831
 20
9.4052822145
 30
0.0
 10
11.5393527444
 20
9.4065382093
 30
0.0
 10
11.533281804
 20
9.4069907676
 30
0.0
 10
11.5272043635
 20
9.4066118317
 30
0.0
 10
11.5212438756
 20
9.4053692074
 30
0.0
 10
11.5155021055
 20
9.4033534979
 30
0.0
 10
11.5082444483
 20
9.3997453653
 30
0.0
 10
11.5000231469
 20
9.3937357931
 30
0.0
 10
11.4944955034
 20
9.3877755369
 30
0.0
 10
11.4920046717
 20
9.384594595
 30
0.0
  0
SPLINE
  5
364
100
AcDbEntity
  8
0
100
AcDbSpline
 62
7
  6
CONTINUOUS
 70
0
 71
3
 72
15
 73
11
 74
0
 42
0.0000001
 43
0.0000001
 44
0.0000000001
 40
0.0
 40
0.0
 40
0.0
 40
0.0
 40
0.1004278181
 40
0.2199877035
 40
0.3553096484
 40
0.5001509828
 40
0.6450348044
 40
0.7800579699
 40
0.8991903479
 40
1.0
 40
1.0
 40
1.0
 40
1.0
 10
11.5745798543
 20
8.7612941694
 30
0.0
 10
11.57184134
 20
8.7617275681
 30
0.0
 10
11.5658139509
 20
8.7624970342
 30
0.0
 10
11.5560377381
 20
8.7633273972
 30
0.0
 10
11.5450135336
 20
8.7638717899
 30
0.0
 10
11.5332785835
 20
8.7640733308
 30
0.0
 10
11.5215514087
 20
8.7638863468
 30
0.0
 10
11.5105464355
 20
8.7633311365
 30
0.0
 10
11.5007809443
 20
8.762488031
 30
0.0
 10
11.4947546941
 20
8.7617222329
 30
0.0
 10
11.4920046717
 20
8.7612941694
 30
0.0
  0
SPLINE
  5
365
100
AcDbEntity
  8
0
100
AcDbSpline
 62
7
  6
CONTINUOUS
 70
0
 71
3
 72
20
 73
16
 74
0
 42
0.0000001
 43
0.0000001
 44
0.0000000001
 40
0.0
 40
0.0
 40
0.0
 40
0.0
 40
0.1246296145
 40
0.2494793837
 40
0.3120151545
 40
0.3746395269
 40
0.4372553612
 40
0.4998940161
 40
0.5625620134
 40
0.6251913329
 40
0.6877994807
 40
0.7503434844
 40
0.81286737
 40
0.8753665715
 40
1.0
 40
1.0
 40
1.0
 40
1.0
 10
11.4920046717
 20
8.7612941694
 30
0.0
 10
11.4944970857
 20
8.7581344509
 30
0.0
 10
11.5000295429
 20
8.7522139795
 30
0.0
 10
11.5082489015
 20
8.7462516
 30
0.0
 10
11.5155039229
 20
8.7426715018
 30
0.0
 10
11.5212453514
 20
8.7406708757
 30
0.0
 10
11.5272051947
 20
8.7394376314
 30
0.0
 10
11.5332817718
 20
8.7390615734
 30
0.0
 10
11.5393519342
 20
8.7395107077
 30
0.0
 10
11.5453073961
 20
8.7407572562
 30
0.0
 10
11.5510557833
 20
8.7427339186
 30
0.0
 10
11.5565228771
 20
8.7453799732
 30
0.0
 10
11.5616528945
 20
8.7486241291
 30
0.0
 10
11.5679719481
 20
8.7536484157
 30
0.0
 10
11.572112869
 20
8.7581144015
 30
0.0
 10
11.5745798543
 20
8.7612941694
 30
0.0
  0
SPLINE
  5
366
100
AcDbEntity
  8
0
100
AcDbSpline
 62
7
  6
CONTINUOUS
 70
0
 71
3
 72
20
 73
16
 74
0
 42
0.0000001
 43
0.0000001
 44
0.0000000001
 40
0.0
 40
0.0
 40
0.0
 40
0.0
 40
0.1244664832
 40
0.1869270186
 40
0.2494432723
 40
0.3120089964
 40
0.3746645356
 40
0.4373607887
 40
0.5001068324
 40
0.5628239309
 40
0.6255070531
 40
0.6881781779
 40
0.7507339743
 40
0.8755350689
 40
1.0
 40
1.0
 40
1.0
 40
1.0
 10
11.5745798543
 20
9.426464093
 30
0.0
 10
11.5721117686
 20
9.4296297096
 30
0.0
 10
11.5679693613
 20
9.4340746523
 30
0.0
 10
11.5616516618
 20
9.4390729926
 30
0.0
 10
11.5565216259
 20
9.442301091
 30
0.0
 10
11.5510546252
 20
9.4449339738
 30
0.0
 10
11.5453064764
 20
9.4469007358
 30
0.0
 10
11.5393513973
 20
9.4481410022
 30
0.0
 10
11.5332817492
 20
9.4485878592
 30
0.0
 10
11.5272057425
 20
9.448213715
 30
0.0
 10
11.5212463257
 20
9.4469867076
 30
0.0
 10
11.5155051257
 20
9.4449961118
 30
0.0
 10
11.5082518611
 20
9.4414346529
 30
0.0
 10
11.5000338179
 20
9.4355036611
 30
0.0
 10
11.494498147
 20
9.4296096858
 30
0.0
 10
11.4920046717
 20
9.426464093
 30
0.0
  0
SPLINE
  5
367
100
AcDbEntity
  8
0
100
AcDbSpline
 62
7
  6
CONTINUOUS
 70
0
 71
3
 72
23
 73
19
 74
0
 42
0.0000001
 43
0.0000001
 44
0.0000000001
 40
0.0
 40
0.0
 40
0.0
 40
0.0
 40
0.0625176406
 40
0.0937759436
 40
0.125033851
 40
0.187547253
 40
0.250055325
 40
0.3750428228
 40
0.4375241015
 40
0.5
 40
0.5624758985
 40
0.6249571772
 40
0.749944675
 40
0.812452747
 40
0.874966149
 40
0.9062240564
 40
0.9374823594
 40
1.0
 40
1.0
 40
1.0
 40
1.0
 10
12.3650277129
 20
9.0487411304
 30
0.0
 10
12.3642486651
 20
9.0590442141
 30
0.0
 10
12.3630907272
 20
9.0744995585
 30
0.0
 10
12.361564737
 20
9.0951078954
 30
0.0
 10
12.3600507611
 20
9.1157163994
 30
0.0
 10
12.3582063018
 20
9.1414794069
 30
0.0
 10
12.3554588219
 20
9.1827075247
 30
0.0
 10
12.3532555085
 20
9.2239686918
 30
0.0
 10
12.3520705268
 20
9.2652630034
 30
0.0
 10
12.3517605906
 20
9.2962411304
 30
0.0
 10
12.3520705268
 20
9.3272192574
 30
0.0
 10
12.3532555085
 20
9.368513569
 30
0.0
 10
12.3554588219
 20
9.4097747361
 30
0.0
 10
12.3582063018
 20
9.4510028539
 30
0.0
 10
12.3600507611
 20
9.4767658614
 30
0.0
 10
12.361564737
 20
9.4973743654
 30
0.0
 10
12.3630907272
 20
9.5179827023
 30
0.0
 10
12.3642486651
 20
9.5334380467
 30
0.0
 10
12.3650277129
 20
9.5437411304
 30
0.0
  0
SPLINE
  5
368
100
AcDbEntity
  8
0
100
AcDbSpline
 62
7
  6
CONTINUOUS
 70
0
 71
3
 72
19
 73
15
 74
0
 42
0.0000001
 43
0.0000001
 44
0.0000000001
 40
0.0
 40
0.0
 40
0.0
 40
0.0
 40
0.0488849763
 40
0.1023283862
 40
0.2221990703
 40
0.3567115323
 40
0.5001230851
 40
0.5724927563
 40
0.6435942436
 40
0.777827831
 40
0.8395966383
 40
0.8973276037
 40
0.9508295606
 40
1.0
 40
1.0
 40
1.0
 40
1.0
 10
11.5745798543
 20
8.8152955012
 30
0.0
 10
11.5732871451
 20
8.8157299866
 30
0.0
 10
11.5705548164
 20
8.8165621805
 30
0.0
 10
11.5645425181
 20
8.8180791267
 30
0.0
 10
11.5560809614
 20
8.8196073342
 30
0.0
 10
11.5450361122
 20
8.8207690598
 30
0.0
 10
11.5352616184
 20
8.8211241405
 30
0.0
 10
11.5272576984
 20
8.8209963071
 30
0.0
 10
11.519520197
 20
8.8205823122
 30
0.0
 10
11.5121028188
 20
8.8197879601
 30
0.0
 10
11.5051189348
 20
8.8186254602
 30
0.0
 10
11.5003917555
 20
8.8176451927
 30
0.0
 10
11.4960510227
 20
8.816552391
 30
0.0
 10
11.4933070873
 20
8.8157260509
 30
0.0
 10
11.4920046717
 20
8.8152955012
 30
0.0
  0
SPLINE
  5
369
100
AcDbEntity
  8
0
100
AcDbSpline
 62
7
  6
CONTINUOUS
 70
0
 71
3
 72
20
 73
16
 74
0
 42
0.0000001
 43
0.0000001
 44
0.0000000001
 40
0.0
 40
0.0
 40
0.0
 40
0.0
 40
0.1237256327
 40
0.2483098324
 40
0.310955968
 40
0.3738367802
 40
0.436821177
 40
0.49988929
 40
0.5629845861
 40
0.6259806584
 40
0.6888489095
 40
0.7515126189
 40
0.8139953811
 40
0.876283049
 40
1.0
 40
1.0
 40
1.0
 40
1.0
 10
11.4920046717
 20
8.8152955012
 30
0.0
 10
11.4945029903
 20
8.8122132424
 30
0.0
 10
11.5000531746
 20
8.8064382182
 30
0.0
 10
11.5082651232
 20
8.8006477413
 30
0.0
 10
11.5155104865
 20
8.7971696515
 30
0.0
 10
11.5212506419
 20
8.7952239567
 30
0.0
 10
11.5272081544
 20
8.7940248638
 30
0.0
 10
11.5332816347
 20
8.7936592811
 30
0.0
 10
11.5393490085
 20
8.7940959449
 30
0.0
 10
11.5453023859
 20
8.7953080995
 30
0.0
 10
11.551049462
 20
8.7972305361
 30
0.0
 10
11.5565160241
 20
8.79980443
 30
0.0
 10
11.5616461145
 20
8.8029605955
 30
0.0
 10
11.5679576511
 20
8.8078427824
 30
0.0
 10
11.5721067455
 20
8.8121933343
 30
0.0
 10
11.5745798543
 20
8.8152955012
 30
0.0
  0
SPLINE
  5
36A
100
AcDbEntity
  8
0
100
AcDbSpline
 62
7
  6
CONTINUOUS
 70
0
 71
3
 72
20
 73
16
 74
0
 42
0.0000001
 43
0.0000001
 44
0.0000000001
 40
0.0
 40
0.0
 40
0.0
 40
0.0
 40
0.1233848304
 40
0.1855962858
 40
0.2480646109
 40
0.3107719658
 40
0.3737344083
 40
0.4368629598
 40
0.5001124325
 40
0.5633355014
 40
0.6264530068
 40
0.6894266774
 40
0.752113084
 40
0.8766019607
 40
1.0
 40
1.0
 40
1.0
 40
1.0
 10
11.5745798543
 20
9.4609816432
 30
0.0
 10
11.5721044752
 20
9.4640557305
 30
0.0
 10
11.5679524101
 20
9.4683644893
 30
0.0
 10
11.5616436482
 20
9.4731953717
 30
0.0
 10
11.5565135485
 20
9.4763197375
 30
0.0
 10
11.5510471927
 20
9.4788675628
 30
0.0
 10
11.5453005955
 20
9.4807704181
 30
0.0
 10
11.5393479644
 20
9.4819701598
 30
0.0
 10
11.53328158
 20
9.4824023226
 30
0.0
 10
11.5272091991
 20
9.4820405189
 30
0.0
 10
11.5212525215
 20
9.4808537504
 30
0.0
 10
11.5155128355
 20
9.478927887
 30
0.0
 10
11.5082709791
 20
9.475486586
 30
0.0
 10
11.5000618351
 20
9.4697581725
 30
0.0
 10
11.4945051777
 20
9.464035873
 30
0.0
 10
11.4920046717
 20
9.4609816432
 30
0.0
  0
SPLINE
  5
36B
100
AcDbEntity
  8
0
100
AcDbSpline
 62
7
  6
CONTINUOUS
 70
0
 71
3
 72
18
 73
14
 74
0
 42
0.0000001
 43
0.0000001
 44
0.0000000001
 40
0.0
 40
0.0
 40
0.0
 40
0.0
 40
0.050663871
 40
0.1052358591
 40
0.2256267789
 40
0.3589114518
 40
0.5001130852
 40
0.5713192028
 40
0.6413928343
 40
0.7093880919
 40
0.7744809658
 40
0.8945282749
 40
1.0
 40
1.0
 40
1.0
 40
1.0
 10
11.5745798543
 20
8.8738405866
 30
0.0
 10
11.5732986108
 20
8.874490698
 30
0.0
 10
11.5705851968
 20
8.8757402053
 30
0.0
 10
11.5646033406
 20
8.8780218909
 30
0.0
 10
11.5561501447
 20
8.8803365961
 30
0.0
 10
11.5450727866
 20
8.882100715
 30
0.0
 10
11.5352646348
 20
8.8826402151
 30
0.0
 10
11.5272529087
 20
8.8824466544
 30
0.0
 10
11.5213343044
 20
8.8819684601
 30
0.0
 10
11.5156226475
 20
8.8811910008
 30
0.0
 10
11.5085712364
 20
8.8798303188
 30
0.0
 10
11.5006151886
 20
8.8776147085
 30
0.0
 10
11.4946809073
 20
8.8751761971
 30
0.0
 10
11.4920046717
 20
8.8738405866
 30
0.0
  0
SPLINE
  5
36C
100
AcDbEntity
  8
0
100
AcDbSpline
 62
7
  6
CONTINUOUS
 70
0
 71
3
 72
20
 73
16
 74
0
 42
0.0000001
 43
0.0000001
 44
0.0000000001
 40
0.0
 40
0.0
 40
0.0
 40
0.0
 40
0.1221760839
 40
0.2463138658
 40
0.3091517685
 40
0.3724715767
 40
0.436083695
 40
0.4998816624
 40
0.5637032011
 40
0.6273239576
 40
0.6906373836
 40
0.7535087157
 40
0.8159252227
 40
0.877854346
 40
1.0
 40
1.0
 40
1.0
 40
1.0
 10
11.4920046717
 20
8.8738405866
 30
0.0
 10
11.4945135754
 20
8.8708908205
 30
0.0
 10
11.500094621
 20
8.865365469
 30
0.0
 10
11.5082927462
 20
8.8598676381
 30
0.0
 10
11.5155214998
 20
8.856562845
 30
0.0
 10
11.521259417
 20
8.854710707
 30
0.0
 10
11.5272130248
 20
8.853569699
 30
0.0
 10
11.5332814096
 20
8.8532219165
 30
0.0
 10
11.5393441922
 20
8.8536373823
 30
0.0
 10
11.5452940761
 20
8.8547910166
 30
0.0
 10
11.5510388619
 20
8.8566210983
 30
0.0
 10
11.5565043772
 20
8.8590719758
 30
0.0
 10
11.5616344214
 20
8.8620780257
 30
0.0
 10
11.5679325825
 20
8.8667182637
 30
0.0
 10
11.5720957566
 20
8.8708711578
 30
0.0
 10
11.5745798543
 20
8.8738405866
 30
0.0
  0
SPLINE
  5
36D
100
AcDbEntity
  8
0
100
AcDbSpline
 62
7
  6
CONTINUOUS
 70
0
 71
3
 72
18
 73
14
 74
0
 42
0.0000001
 43
0.0000001
 44
0.0000000001
 40
0.0
 40
0.0
 40
0.0
 40
0.0
 40
0.1223509069
 40
0.2466482076
 40
0.3726955475
 40
0.436260487
 40
0.5000027607
 40
0.5637239564
 40
0.6272727133
 40
0.6905698806
 40
0.7534562181
 40
0.8776703097
 40
1.0
 40
1.0
 40
1.0
 40
1.0
 10
11.5699101114
 20
9.4924035628
 30
0.0
 10
11.5675037802
 20
9.4946785883
 30
0.0
 10
11.5622640014
 20
9.4988762365
 30
0.0
 10
11.5533566448
 20
9.5037210605
 30
0.0
 10
11.545211519
 20
9.5063369379
 30
0.0
 10
11.5384337593
 20
9.5074423722
 30
0.0
 10
11.5332623539
 20
9.5077417704
 30
0.0
 10
11.528088195
 20
9.5074957938
 30
0.0
 10
11.5229846798
 20
9.5066809505
 30
0.0
 10
11.5180186199
 20
9.505337818
 30
0.0
 10
11.5116771
 20
9.5029197274
 30
0.0
 10
11.5043144806
 20
9.4988267932
 30
0.0
 10
11.4990896335
 20
9.4946241863
 30
0.0
 10
11.4966782314
 20
9.4923553744
 30
0.0
  0
SPLINE
  5
36E
100
AcDbEntity
  8
0
100
AcDbSpline
 62
7
  6
CONTINUOUS
 70
0
 71
3
 72
18
 73
14
 74
0
 42
0.0000001
 43
0.0000001
 44
0.0000000001
 40
0.0
 40
0.0
 40
0.0
 40
0.0
 40
0.1086180868
 40
0.2296786213
 40
0.3614911645
 40
0.4302970827
 40
0.5000757302
 40
0.5698578631
 40
0.6386782488
 40
0.7057469603
 40
0.7703665237
 40
0.8911448257
 40
1.0
 40
1.0
 40
1.0
 40
1.0
 10
11.5745798543
 20
8.9357899121
 30
0.0
 10
11.5719666738
 20
8.9375376926
 30
0.0
 10
11.5661071101
 20
8.9407491686
 30
0.0
 10
11.5562393496
 20
8.9443293069
 30
0.0
 10
11.5470971974
 20
8.9462553896
 30
0.0
 10
11.5393114402
 20
8.9470959212
 30
0.0
 10
11.5332798171
 20
8.9473258587
 30
0.0
 10
11.5272463284
 20
8.9471335831
 30
0.0
 10
11.5213217216
 20
8.9465018893
 30
0.0
 10
11.5156046461
 20
8.9454749271
 30
0.0
 10
11.508518328
 20
8.9436707584
 30
0.0
 10
11.5004998249
 20
8.9407145469
 30
0.0
 10
11.4946368572
 20
8.9375214553
 30
0.0
 10
11.4920046717
 20
8.9357899121
 30
0.0
  0
SPLINE
  5
36F
100
AcDbEntity
  8
0
100
AcDbSpline
 62
7
  6
CONTINUOUS
 70
0
 71
3
 72
20
 73
16
 74
0
 42
0.0000001
 43
0.0000001
 44
0.0000000001
 40
0.0
 40
0.0
 40
0.0
 40
0.0
 40
0.1200077686
 40
0.243539586
 40
0.3066511353
 40
0.3705838765
 40
0.4350658608
 40
0.4998720247
 40
0.5646968866
 40
0.6291833919
 40
0.6931181873
 40
0.756285019
 40
0.8186177263
 40
0.8800538159
 40
1.0
 40
1.0
 40
1.0
 40
1.0
 10
11.4920046717
 20
8.9357899121
 30
0.0
 10
11.4945294473
 20
8.933025735
 30
0.0
 10
11.5001546123
 20
8.9278519605
 30
0.0
 10
11.5083309777
 20
8.9227604758
 30
0.0
 10
11.5155364152
 20
8.9196956798
 30
0.0
 10
11.521271101
 20
8.9179736356
 30
0.0
 10
11.5272194365
 20
8.9169132436
 30
0.0
 10
11.5332811142
 20
8.9165901359
 30
0.0
 10
11.5393378482
 20
8.9169762018
 30
0.0
 10
11.5452830113
 20
8.9180485695
 30
0.0
 10
11.55102452
 20
8.9197502277
 30
0.0
 10
11.5564883021
 20
8.9220298222
 30
0.0
 10
11.561617921
 20
8.9248266211
 30
0.0
 10
11.5678962971
 20
8.9291307131
 30
0.0
 10
11.5720792516
 20
8.93300643
 30
0.0
 10
11.5745798543
 20
8.9357899121
 30
0.0
  0
SPLINE
  5
370
100
AcDbEntity
  8
0
100
AcDbSpline
 62
7
  6
CONTINUOUS
 70
0
 71
3
 72
18
 73
14
 74
0
 42
0.0000001
 43
0.0000001
 44
0.0000000001
 40
0.0
 40
0.0
 40
0.0
 40
0.0
 40
0.1199678664
 40
0.2436741966
 40
0.3707059498
 40
0.4352007105
 40
0.5000198162
 40
0.5648216802
 40
0.62930866
 40
0.6932716573
 40
0.7564406385
 40
0.8800246497
 40
1.0
 40
1.0
 40
1.0
 40
1.0
 10
11.5720608981
 20
9.5080129061
 30
0.0
 10
11.5695882869
 20
9.5104003929
 30
0.0
 10
11.5641340193
 20
9.5148268245
 30
0.0
 10
11.554755892
 20
9.5199343187
 30
0.0
 10
11.5460923913
 20
9.5227001216
 30
0.0
 10
11.5388322325
 20
9.523877433
 30
0.0
 10
11.5332694906
 20
9.5241969337
 30
0.0
 10
11.5277036568
 20
9.5239320372
 30
0.0
 10
11.5222252614
 20
9.5230578798
 30
0.0
 10
11.5169148709
 20
9.5216268341
 30
0.0
 10
11.5101922219
 20
9.5190673821
 30
0.0
 10
11.5024636514
 20
9.5147759402
 30
0.0
 10
11.4970136541
 20
9.5103596044
 30
0.0
 10
11.4945289986
 20
9.5079843444
 30
0.0
  0
SPLINE
  5
371
100
AcDbEntity
  8
0
100
AcDbSpline
 62
7
  6
CONTINUOUS
 70
0
 71
3
 72
18
 73
14
 74
0
 42
0.0000001
 43
0.0000001
 44
0.0000000001
 40
0.0
 40
0.0
 40
0.0
 40
0.0
 40
0.1122119151
 40
0.2340279455
 40
0.3643029303
 40
0.4317790822
 40
0.5000401449
 40
0.5682981734
 40
0.6357831606
 40
0.7018753577
 40
0.7660110342
 40
0.8876093617
 40
1.0
 40
1.0
 40
1.0
 40
1.0
 10
11.5745798543
 20
8.9999377046
 30
0.0
 10
11.5720081968
 20
9.0020393677
 30
0.0
 10
11.5662277756
 20
9.005932584
 30
0.0
 10
11.5563347384
 20
9.0103407946
 30
0.0
 10
11.5471317449
 20
9.0127203304
 30
0.0
 10
11.5393189645
 20
9.0137518143
 30
0.0
 10
11.5332801388
 20
9.0140335408
 30
0.0
 10
11.5272388207
 20
9.0137979441
 30
0.0
 10
11.5213073029
 20
9.0130242004
 30
0.0
 10
11.5155845833
 20
9.0117664824
 30
0.0
 10
11.5084610824
 20
9.009548011
 30
0.0
 10
11.5003844336
 20
9.0058926897
 30
0.0
 10
11.4945974125
 20
9.0020217559
 30
0.0
 10
11.4920046717
 20
8.9999377046
 30
0.0
  0
SPLINE
  5
372
100
AcDbEntity
  8
0
100
AcDbSpline
 62
7
  6
CONTINUOUS
 70
0
 71
3
 72
18
 73
14
 74
0
 42
0.0000001
 43
0.0000001
 44
0.0000000001
 40
0.0
 40
0.0
 40
0.0
 40
0.0
 40
0.1173113566
 40
0.2401479758
 40
0.3036318288
 40
0.3683537413
 40
0.4339374199
 40
0.5000124895
 40
0.5661004043
 40
0.6316836264
 40
0.7598267057
 40
0.8827907676
 40
1.0
 40
1.0
 40
1.0
 40
1.0
 10
11.4920046717
 20
8.9999377046
 30
0.0
 10
11.4945514048
 20
8.9974097835
 30
0.0
 10
11.5002335012
 20
8.9926864451
 30
0.0
 10
11.5083783677
 20
8.9881046062
 30
0.0
 10
11.5155544065
 20
8.985340139
 30
0.0
 10
11.5212848858
 20
8.9837818247
 30
0.0
 10
11.5272269279
 20
8.9828226921
 30
0.0
 10
11.5332806683
 20
8.9825304756
 30
0.0
 10
11.539330842
 20
8.9828798559
 30
0.0
 10
11.5471854997
 20
8.9841622935
 30
0.0
 10
11.5564741148
 20
8.9871480541
 30
0.0
 10
11.5663857146
 20
8.9926414509
 30
0.0
 10
11.5720563636
 20
8.9973909772
 30
0.0
 10
11.5745798543
 20
8.9999377046
 30
0.0
  0
SPLINE
  5
373
100
AcDbEntity
  8
0
100
AcDbSpline
 62
9
  6
CONTINUOUS
 70
0
 71
3
 72
46
 73
42
 74
0
 42
0.0000001
 43
0.0000001
 44
0.0000000001
 40
0.0
 40
0.0
 40
0.0
 40
0.0
 40
0.0000168849
 40
0.0000379722
 40
0.0000674883
 40
0.0001518042
 40
0.0002698262
 40
0.0004215483
 40
0.0006069642
 40
0.0008260678
 40
0.0010788529
 40
0.0016854429
 40
0.0024266846
 40
0.0033025287
 40
0.0043129257
 40
0.0054578263
 40
0.0067371808
 40
0.0096990088
 40
0.0131974562
 40
0.0172312482
 40
0.0217991048
 40
0.026899746
 40
0.0325318865
 40
0.0386939577
 40
0.0525999129
 40
0.0686014859
 40
0.0866813755
 40
0.1068178967
 40
0.128988265
 40
0.1531670609
 40
0.1793249728
 40
0.2074321375
 40
0.269362804
 40
0.3386782475
 40
0.4150556491
 40
0.4981429856
 40
0.5875632827
 40
0.6829100638
 40
0.7837366157
 40
0.8895987636
 40
1.0
 40
1.0
 40
1.0
 40
1.0
 10
11.0715286922
 20
11.3381117005
 30
0.0
 10
11.0715293871
 20
11.3381048708
 30
0.0
 10
11.0715259204
 20
11.338089484
 30
0.0
 10
11.0715245084
 20
11.3380621637
 30
0.0
 10
11.071518933
 20
11.338007531
 30
0.0
 10
11.0715108517
 20
11.3379136555
 30
0.0
 10
11.0714975947
 20
11.3377702951
 30
0.0
 10
11.0714809154
 20
11.3375860012
 30
0.0
 10
11.0714603927
 20
11.3373607791
 30
0.0
 10
11.0714361839
 20
11.3370946373
 30
0.0
 10
11.0713964344
 20
11.3366579632
 30
0.0
 10
11.0713374346
 20
11.3360098777
 30
0.0
 10
11.071255438
 20
11.3351095196
 30
0.0
 10
11.0711585236
 20
11.3340456641
 30
0.0
 10
11.0710466864
 20
11.3328183721
 30
0.0
 10
11.0709199239
 20
11.3314277045
 30
0.0
 10
11.0707210812
 20
11.3292469209
 30
0.0
 10
11.0704352246
 20
11.3261132157
 30
0.0
 10
11.0700473484
 20
11.3218642903
 30
0.0
 10
11.0695997068
 20
11.3169651395
 30
0.0
 10
11.0690922869
 20
11.3114173303
 30
0.0
 10
11.0685250714
 20
11.3052224341
 30
0.0
 10
11.0678980626
 20
11.2983821386
 30
0.0
 10
11.0669431266
 20
11.2879769004
 30
0.0
 10
11.0656000353
 20
11.273373648
 30
0.0
 10
11.063807552
 20
11.2539458275
 30
0.0
 10
11.0617753839
 20
11.2319961899
 30
0.0
 10
11.0595029552
 20
11.207550013
 30
0.0
 10
11.0569901281
 20
11.1806358506
 30
0.0
 10
11.0542365937
 20
11.1512853892
 30
0.0
 10
11.0512415197
 20
11.1195332582
 30
0.0
 10
11.0467792182
 20
11.0725025506
 30
0.0
 10
11.0406001278
 20
11.0080093011
 30
0.0
 10
11.0324358628
 20
10.9239911255
 30
0.0
 10
11.0232933581
 20
10.8314258863
 30
0.0
 10
11.0131650457
 20
10.7307443208
 30
0.0
 10
11.0020428235
 20
10.6224116047
 30
0.0
 10
10.9899190048
 20
10.5069318189
 30
0.0
 10
10.9767764304
 20
10.3848378326
 30
0.0
 10
10.962599533
 20
10.2566996424
 30
0.0
 10
10.9526397209
 20
10.1693387192
 30
0.0
 10
10.9474726209
 20
10.1247510784
 30
0.0
  0
SPLINE
  5
374
100
AcDbEntity
  8
0
100
AcDbSpline
 62
9
  6
CONTINUOUS
 70
0
 71
3
 72
33
 73
29
 74
0
 42
0.0000001
 43
0.0000001
 44
0.0000000001
 40
0.0
 40
0.0
 40
0.0
 40
0.0
 40
0.0458414827
 40
0.0910161691
 40
0.135478968
 40
0.1791926054
 40
0.2221358987
 40
0.2642885146
 40
0.3056287009
 40
0.3461256517
 40
0.366047088
 40
0.3857446421
 40
0.4052140225
 40
0.4244517394
 40
0.4622203736
 40
0.4990267153
 40
0.5348466186
 40
0.5696567987
 40
0.636157958
 40
0.6983499806
 40
0.7277735942
 40
0.7560532566
 40
0.8091058974
 40
0.8573633906
 40
0.900695568
 40
0.9389822033
 40
0.9721139285
 40
1.0
 40
1.0
 40
1.0
 40
1.0
 10
10.9559826095
 20
10.1240295365
 30
0.0
 10
10.9579238935
 20
10.141525428
 30
0.0
 10
10.9618425633
 20
10.1762555483
 30
0.0
 10
10.9676417829
 20
10.2279556181
 30
0.0
 10
10.9730772807
 20
10.2788741878
 30
0.0
 10
10.977927126
 20
10.3289909774
 30
0.0
 10
10.9824924975
 20
10.3782429502
 30
0.0
 10
10.9870597311
 20
10.4265797725
 30
0.0
 10
10.9919132436
 20
10.473944564
 30
0.0
 10
10.996059261
 20
10.5127995676
 30
0.0
 10
10.9993311007
 20
10.5433898445
 30
0.0
 10
11.0017255268
 20
10.5659532642
 30
0.0
 10
11.0040471584
 20
10.5882603505
 30
0.0
 10
11.0070213889
 20
10.6174762704
 30
0.0
 10
11.0105724075
 20
10.6533252347
 30
0.0
 10
11.0146491479
 20
10.6955207182
 30
0.0
 10
11.0185829947
 20
10.7365886352
 30
0.0
 10
11.0235964208
 20
10.7890082299
 30
0.0
 10
11.0295681295
 20
10.8515093529
 30
0.0
 10
11.0353639108
 20
10.9119494109
 30
0.0
 10
11.0397115834
 20
10.9577838172
 30
0.0
 10
11.0436842663
 20
11.0001284687
 30
0.0
 10
11.0482751968
 20
11.0496791087
 30
0.0
 10
11.0533757971
 20
11.1049874788
 30
0.0
 10
11.0579210958
 20
11.1546528046
 30
0.0
 10
11.0618967579
 20
11.1985376301
 30
0.0
 10
11.065314766
 20
11.2365173252
 30
0.0
 10
11.0674108288
 20
11.259854393
 30
0.0
 10
11.0683713136
 20
11.2705195622
 30
0.0
  0
LINE
  5
375
100
AcDbEntity
  8
0
100
AcDbLine
 62
9
  6
CONTINUOUS
 10
11.0683713136
 20
11.2705195622
 11
11.0743869987
 21
11.3381036424
  0
SPLINE
  5
376
100
AcDbEntity
  8
0
100
AcDbSpline
 62
7
  6
CONTINUOUS
 70
0
 71
3
 72
18
 73
14
 74
0
 42
0.0000001
 43
0.0000001
 44
0.0000000001
 40
0.0
 40
0.0
 40
0.0
 40
0.0
 40
0.1166261987
 40
0.2394736643
 40
0.3678804887
 40
0.433679646
 40
0.5000121549
 40
0.5663332364
 40
0.6321333521
 40
0.6970173135
 40
0.7605846757
 40
0.8832803529
 40
1.0
 40
1.0
 40
1.0
 40
1.0
 10
11.5741012207
 20
9.5149586933
 30
0.0
 10
11.5715750734
 20
9.5173771401
 30
0.0
 10
11.5659184181
 20
9.5218773166
 30
0.0
 10
11.5561089952
 20
9.5270548504
 30
0.0
 10
11.5469596001
 20
9.5298619249
 30
0.0
 10
11.5392303018
 20
9.5310679125
 30
0.0
 10
11.533278113
 20
9.5313963743
 30
0.0
 10
11.5273227125
 20
9.5311220741
 30
0.0
 10
11.5214734817
 20
9.5302206264
 30
0.0
 10
11.5158260884
 20
9.5287537945
 30
0.0
 10
11.5087484878
 20
9.5261507697
 30
0.0
 10
11.5006952675
 20
9.5218316409
 30
0.0
 10
11.4950315477
 20
9.5173540481
 30
0.0
 10
11.4924850086
 20
9.514952996
 30
0.0
  0
SPLINE
  5
377
100
AcDbEntity
  8
0
100
AcDbSpline
 62
9
  6
CONTINUOUS
 70
0
 71
3
 72
11
 73
7
 74
0
 42
0.0000001
 43
0.0000001
 44
0.0000000001
 40
0.0
 40
0.0
 40
0.0
 40
0.0
 40
0.2578297867
 40
0.5104176512
 40
0.7575959724
 40
1.0
 40
1.0
 40
1.0
 40
1.0
 10
8.5036087752
 20
6.902705406
 30
0.0
 10
8.5017363939
 20
6.9072095292
 30
0.0
 10
8.4972258728
 20
6.9158188738
 30
0.0
 10
8.488286508
 20
6.9271296557
 30
0.0
 10
8.4775509689
 20
6.9363164902
 30
0.0
 10
8.4693738034
 20
6.9408309257
 30
0.0
 10
8.4651474156
 20
6.9426110169
 30
0.0
  0
SPLINE
  5
378
100
AcDbEntity
  8
0
100
AcDbSpline
 62
9
  6
CONTINUOUS
 70
0
 71
3
 72
18
 73
14
 74
0
 42
0.0000001
 43
0.0000001
 44
0.0000000001
 40
0.0
 40
0.0
 40
0.0
 40
0.0
 40
0.1840267012
 40
0.3535212301
 40
0.5063533531
 40
0.6413192986
 40
0.7572960496
 40
0.808069989
 40
0.8542285874
 40
0.8960432116
 40
0.9338898757
 40
0.9682967016
 40
1.0
 40
1.0
 40
1.0
 40
1.0
 10
10.9474732972
 20
10.1247510215
 30
0.0
 10
10.9472781957
 20
10.1224428661
 30
0.0
 10
10.9468319505
 20
10.1180143075
 30
0.0
 10
10.9459431838
 20
10.1117010786
 30
0.0
 10
10.9448649008
 20
10.1060439367
 30
0.0
 10
10.9436153781
 20
10.1011141976
 30
0.0
 10
10.942381216
 20
10.0975142847
 30
0.0
 10
10.9412730084
 20
10.0950720154
 30
0.0
 10
10.9404342999
 20
10.093537941
 30
0.0
 10
10.9395517488
 20
10.0922198734
 30
0.0
 10
10.9386245906
 20
10.0911188099
 30
0.0
 10
10.9376510981
 20
10.0902377185
 30
0.0
 10
10.9369462613
 20
10.0897854272
 30
0.0
 10
10.9365907313
 20
10.0896041962
 30
0.0
  0
SPLINE
  5
379
100
AcDbEntity
  8
0
100
AcDbSpline
 62
9
  6
CONTINUOUS
 70
0
 71
3
 72
10
 73
6
 74
0
 42
0.0000001
 43
0.0000001
 44
0.0000000001
 40
0.0
 40
0.0
 40
0.0
 40
0.0
 40
0.2229695389
 40
0.4649047039
 40
1.0
 40
1.0
 40
1.0
 40
1.0
 10
10.9517383882
 20
10.1049596888
 30
0.0
 10
10.952183588
 20
10.1063431537
 30
0.0
 10
10.9530319777
 20
10.1092538382
 30
0.0
 10
10.9545709965
 20
10.1155891266
 30
0.0
 10
10.955465981
 20
10.1205801226
 30
0.0
 10
10.9559814999
 20
10.1240296079
 30
0.0
  0
SPLINE
  5
37A
100
AcDbEntity
  8
0
100
AcDbSpline
 62
9
  6
CONTINUOUS
 70
0
 71
3
 72
11
 73
7
 74
0
 42
0.0000001
 43
0.0000001
 44
0.0000000001
 40
0.0
 40
0.0
 40
0.0
 40
0.0
 40
0.2578291788
 40
0.5104168987
 40
0.757595473
 40
1.0
 40
1.0
 40
1.0
 40
1.0
 10
8.8480238009
 20
7.0851886919
 30
0.0
 10
8.8453485428
 20
7.0892674406
 30
0.0
 10
8.8407580871
 20
7.0978344925
 30
0.0
 10
8.8364194667
 20
7.1115831323
 30
0.0
 10
8.8348468153
 20
7.1256252009
 30
0.0
 10
8.83570346
 20
7.1349264836
 30
0.0
 10
8.8366039516
 20
7.1394232167
 30
0.0
  0
SPLINE
  5
37B
100
AcDbEntity
  8
0
100
AcDbSpline
 62
9
  6
CONTINUOUS
 70
0
 71
3
 72
28
 73
24
 74
0
 42
0.0000001
 43
0.0000001
 44
0.0000000001
 40
0.0
 40
0.0
 40
0.0
 40
0.0
 40
0.2277451585
 40
0.4281786493
 40
0.5177901017
 40
0.6001343561
 40
0.6750823726
 40
0.742524512
 40
0.8023511343
 40
0.8544517293
 40
0.8987150371
 40
0.9350458712
 40
0.9502190229
 40
0.9633891244
 40
0.9745500127
 40
0.9836955168
 40
0.9908194578
 40
0.9936214093
 40
0.9959156495
 40
0.9977014039
 40
0.9989778975
 40
0.9997443548
 40
1.0
 40
1.0
 40
1.0
 40
1.0
 10
8.8366049991
 20
7.1394229323
 30
0.0
 10
8.8375699953
 20
7.1408629164
 30
0.0
 10
8.839364517
 20
7.1435834974
 30
0.0
 10
8.8414878479
 20
7.1469037634
 30
0.0
 10
8.842991564
 20
7.1493063593
 30
0.0
 10
8.8439794876
 20
7.1509049895
 30
0.0
 10
8.8448710631
 20
7.1523647739
 30
0.0
 10
8.8456667545
 20
7.1536822708
 30
0.0
 10
8.8463671816
 20
7.154854132
 30
0.0
 10
8.846972936
 20
7.155877034
 30
0.0
 10
8.8474846972
 20
7.1567477544
 30
0.0
 10
8.8478526466
 20
7.1573769747
 30
0.0
 10
8.8481003708
 20
7.1578023573
 30
0.0
 10
8.8482513864
 20
7.1580623416
 30
0.0
 10
8.8483791321
 20
7.1582828521
 30
0.0
 10
8.848483551
 20
7.1584635077
 30
0.0
 10
8.848556135
 20
7.1585895262
 30
0.0
 10
8.8486023664
 20
7.1586697576
 30
0.0
 10
8.8486287627
 20
7.1587160008
 30
0.0
 10
8.8486482667
 20
7.1587492337
 30
0.0
 10
8.8486645337
 20
7.1587793399
 30
0.0
 10
8.8486701029
 20
7.1587860605
 30
0.0
 10
8.8486771968
 20
7.1588015799
 30
0.0
 10
8.848676834
 20
7.1587996682
 30
0.0
  0
SPLINE
  5
37C
100
AcDbEntity
  8
0
100
AcDbSpline
 62
9
  6
CONTINUOUS
 70
0
 71
3
 72
21
 73
17
 74
0
 42
0.0000001
 43
0.0000001
 44
0.0000000001
 40
0.0
 40
0.0
 40
0.0
 40
0.0
 40
0.0376772588
 40
0.0840776315
 40
0.1999461285
 40
0.3418863383
 40
0.420110932
 40
0.5008200325
 40
0.581628435
 40
0.6600426529
 40
0.7339446621
 40
0.8018677508
 40
0.8629397435
 40
0.9166316725
 40
0.9625095369
 40
1.0
 40
1.0
 40
1.0
 40
1.0
 10
8.4651476359
 20
6.9426116577
 30
0.0
 10
8.4706228279
 20
6.9425799428
 30
0.0
 10
8.4828440849
 20
6.9427847627
 30
0.0
 10
8.5118501434
 20
6.9446715224
 30
0.0
 10
8.5556444447
 20
6.9515212334
 30
0.0
 10
8.6026584359
 20
6.965318754
 30
0.0
 10
8.6431805463
 20
6.9818168067
 30
0.0
 10
8.6744745087
 20
6.9971983919
 30
0.0
 10
8.7046432793
 20
7.0147334667
 30
0.0
 10
8.7327233648
 20
7.0337328749
 30
0.0
 10
8.7579996053
 20
7.0534032726
 30
0.0
 10
8.7800675473
 20
7.0729878416
 30
0.0
 10
8.7987986083
 20
7.0918248917
 30
0.0
 10
8.814251367
 20
7.1093406368
 30
0.0
 10
8.8265747887
 20
7.1250003419
 30
0.0
 10
8.8335708145
 20
7.1348978978
 30
0.0
 10
8.8366049991
 20
7.1394229323
 30
0.0
  0
SPLINE
  5
37D
100
AcDbEntity
  8
0
100
AcDbSpline
 62
9
  6
CONTINUOUS
 70
0
 71
3
 72
14
 73
10
 74
0
 42
0.0000001
 43
0.0000001
 44
0.0000000001
 40
0.0
 40
0.0
 40
0.0
 40
0.0
 40
0.1607588761
 40
0.3096848852
 40
0.5724679456
 40
0.6888664139
 40
0.797503368
 40
0.9004474177
 40
1.0
 40
1.0
 40
1.0
 40
1.0
 10
10.1671595493
 20
10.1049596888
 30
0.0
 10
10.1674895769
 20
10.1039334453
 30
0.0
 10
10.1681816754
 20
10.1019731484
 30
0.0
 10
10.1697078347
 20
10.0984503174
 30
0.0
 10
10.1715099076
 20
10.0953673078
 30
0.0
 10
10.1736535361
 20
10.0928853263
 30
0.0
 10
10.1753102272
 20
10.0914268343
 30
0.0
 10
10.1770748458
 20
10.0902980197
 30
0.0
 10
10.1783309392
 20
10.0897623032
 30
0.0
 10
10.1789653026
 20
10.0895543718
 30
0.0
  0
SPLINE
  5
37E
100
AcDbEntity
  8
0
100
AcDbSpline
 62
9
  6
CONTINUOUS
 70
0
 71
3
 72
9
 73
5
 74
0
 42
0.0000001
 43
0.0000001
 44
0.0000000001
 40
0.0
 40
0.0
 40
0.0
 40
0.0
 40
0.4961160558
 40
1.0
 40
1.0
 40
1.0
 40
1.0
 10
10.1789653026
 20
10.0895543718
 30
0.0
 10
10.1796057285
 20
10.0893444531
 30
0.0
 10
10.1809360062
 20
10.0890336217
 30
0.0
 10
10.1822984396
 20
10.0889503027
 30
0.0
 10
10.1829828707
 20
10.0889603075
 30
0.0
  0
SPLINE
  5
37F
100
AcDbEntity
  8
0
100
AcDbSpline
 62
9
  6
CONTINUOUS
 70
0
 71
3
 72
10
 73
6
 74
0
 42
0.0000001
 43
0.0000001
 44
0.0000000001
 40
0.0
 40
0.0
 40
0.0
 40
0.0
 40
0.5351106184
 40
0.777021188
 40
1.0
 40
1.0
 40
1.0
 40
1.0
 10
10.1629903633
 20
10.1240358335
 30
0.0
 10
10.163488398
 20
10.120585252
 30
0.0
 10
10.1643566458
 20
10.1155917352
 30
0.0
 10
10.1658714967
 20
10.1092534949
 30
0.0
 10
10.1667145098
 20
10.1063425875
 30
0.0
 10
10.1671595493
 20
10.1049596888
 30
0.0
  0
SPLINE
  5
380
100
AcDbEntity
  8
0
100
AcDbSpline
 62
9
  6
CONTINUOUS
 70
0
 71
3
 72
28
 73
24
 74
0
 42
0.0000001
 43
0.0000001
 44
0.0000000001
 40
0.0
 40
0.0
 40
0.0
 40
0.0
 40
0.0913030216
 40
0.1480635115
 40
0.210602313
 40
0.2780213983
 40
0.3494512266
 40
0.4238657402
 40
0.461806148
 40
0.4999776837
 40
0.5381693978
 40
0.5761634568
 40
0.6137434795
 40
0.6507013623
 40
0.6868552641
 40
0.7220424733
 40
0.7561395074
 40
0.7890388547
 40
0.8206692053
 40
0.850959339
 40
0.9072621209
 40
0.9573272379
 40
1.0
 40
1.0
 40
1.0
 40
1.0
 10
8.5036074988
 20
6.9027047297
 30
0.0
 10
8.5162681578
 20
6.9006199998
 30
0.0
 10
8.5370170533
 20
6.8984129647
 30
0.0
 10
8.5666297152
 20
6.8980011939
 30
0.0
 10
8.59285021
 20
6.89958004
 30
0.0
 10
8.6209043862
 20
6.9035582611
 30
0.0
 10
8.65014069
 20
6.910328121
 30
0.0
 10
8.6747000911
 20
6.9184592643
 30
0.0
 10
8.6942565004
 20
6.9265426309
 30
0.0
 10
8.7087842549
 20
6.933413327
 30
0.0
 10
8.7229538247
 20
6.9410110162
 30
0.0
 10
8.7366410505
 20
6.9492876637
 30
0.0
 10
8.7497380729
 20
6.9581643308
 30
0.0
 10
8.7621439839
 20
6.9675612661
 30
0.0
 10
8.7737858734
 20
6.9773753403
 30
0.0
 10
8.7846041612
 20
6.9875106316
 30
0.0
 10
8.7945691829
 20
6.9978593863
 30
0.0
 10
8.8036640795
 20
7.008326201
 30
0.0
 10
8.8118976537
 20
7.0188106562
 30
0.0
 10
8.8215152225
 20
7.0323646507
 30
0.0
 10
8.8315518158
 20
7.048771376
 30
0.0
 10
8.8409471668
 20
7.0675144803
 30
0.0
 10
8.8459208913
 20
7.0795729954
 30
0.0
 10
8.8480243182
 20
7.0851889659
 30
0.0
  0
SPLINE
  5
381
100
AcDbEntity
  8
0
100
AcDbSpline
 62
9
  6
CONTINUOUS
 70
0
 71
3
 72
44
 73
40
 74
0
 42
0.0000001
 43
0.0000001
 44
0.0000000001
 40
0.0
 40
0.0
 40
0.0
 40
0.0
 40
0.1104012646
 40
0.2162634063
 40
0.3170899717
 40
0.4124367529
 40
0.5018570497
 40
0.5849443851
 40
0.6613217833
 40
0.7306372232
 40
0.7925678874
 40
0.8206750507
 40
0.8468329606
 40
0.8710117539
 40
0.8931821193
 40
0.913318638
 40
0.9313985249
 40
0.9474000951
 40
0.961306048
 40
0.9674681182
 40
0.973100258
 40
0.9782008987
 40
0.9827687549
 40
0.9868025465
 40
0.9903009932
 40
0.99326282
 40
0.9945421739
 40
0.9956870737
 40
0.9966974701
 40
0.9975733136
 40
0.9983145549
 40
0.9989211447
 40
0.9993930334
 40
0.9995784495
 40
0.9997301718
 40
0.9998481942
 40
0.9999325105
 40
0.9999831145
 40
1.0
 40
1.0
 40
1.0
 40
1.0
 10
10.1714250736
 20
10.1247531958
 30
0.0
 10
10.1662579949
 20
10.1693407717
 30
0.0
 10
10.1562981786
 20
10.2567015487
 30
0.0
 10
10.1421212853
 20
10.3848395274
 30
0.0
 10
10.1289787664
 20
10.5069333069
 30
0.0
 10
10.1168550123
 20
10.6224129008
 30
0.0
 10
10.1057327808
 20
10.7307454241
 30
0.0
 10
10.095604456
 20
10.8314268088
 30
0.0
 10
10.0864619778
 20
10.923991884
 30
0.0
 10
10.078297769
 20
11.0080099131
 30
0.0
 10
10.0721186686
 20
11.072503045
 30
0.0
 10
10.0676563612
 20
11.1195336667
 30
0.0
 10
10.0646612912
 20
11.1512857397
 30
0.0
 10
10.0619077646
 20
11.180636147
 30
0.0
 10
10.059394946
 20
11.2075502595
 30
0.0
 10
10.0571225255
 20
11.2319963907
 30
0.0
 10
10.0550903656
 20
11.2539459871
 30
0.0
 10
10.0532978907
 20
11.273373771
 30
0.0
 10
10.0519548054
 20
11.2879769958
 30
0.0
 10
10.0509998726
 20
11.2983822143
 30
0.0
 10
10.0503728651
 20
11.305222497
 30
0.0
 10
10.0498056499
 20
11.3114173816
 30
0.0
 10
10.0492982298
 20
11.3169651805
 30
0.0
 10
10.0488505879
 20
11.321864322
 30
0.0
 10
10.0484627114
 20
11.326113239
 30
0.0
 10
10.0481768552
 20
11.3292469376
 30
0.0
 10
10.0479780129
 20
11.3314277164
 30
0.0
 10
10.0478512515
 20
11.3328183808
 30
0.0
 10
10.0477394134
 20
11.3340456699
 30
0.0
 10
10.0476425037
 20
11.3351095229
 30
0.0
 10
10.0475604957
 20
11.3360098789
 30
0.0
 10
10.0474934527
 20
11.3367466776
 30
0.0
 10
10.0474467953
 20
11.3372584251
 30
0.0
 10
10.0474171166
 20
11.3375859999
 30
0.0
 10
10.0474000881
 20
11.3377702926
 30
0.0
 10
10.0473877306
 20
11.3379136562
 30
0.0
 10
10.0473768784
 20
11.3380160632
 30
0.0
 10
10.047373994
 20
11.3380775468
 30
0.0
 10
10.0473687137
 20
11.3381048559
 30
0.0
 10
10.0473692453
 20
11.3381117005
 30
0.0
  0
LINE
  5
382
100
AcDbEntity
  8
0
100
AcDbLine
 62
9
  6
CONTINUOUS
 10
10.0445107868
 20
11.338104925
 11
10.0504155892
 21
11.2717504424
  0
SPLINE
  5
383
100
AcDbEntity
  8
0
100
AcDbSpline
 62
9
  6
CONTINUOUS
 70
0
 71
3
 72
27
 73
23
 74
0
 42
0.0000001
 43
0.0000001
 44
0.0000000001
 40
0.0
 40
0.0
 40
0.0
 40
0.0
 40
0.2205904861
 40
0.4178720012
 40
0.5897003901
 40
0.6654030999
 40
0.7339729654
 40
0.7951744345
 40
0.8487709053
 40
0.8945248185
 40
0.9322163341
 40
0.9479960403
 40
0.9617142858
 40
0.9733579918
 40
0.9829140697
 40
0.9903694216
 40
0.9933052297
 40
0.9957109401
 40
0.9975849132
 40
0.9989255083
 40
0.9997310844
 40
1.0
 40
1.0
 40
1.0
 40
1.0
 10
8.8480243182
 20
7.0851889659
 30
0.0
 10
8.8487003439
 20
7.0867679956
 30
0.0
 10
8.8499564476
 20
7.0897697729
 30
0.0
 10
8.8516630583
 20
7.0940327903
 30
0.0
 10
8.8529060027
 20
7.0972657884
 30
0.0
 10
8.8537681328
 20
7.0995712352
 30
0.0
 10
8.8543202694
 20
7.1010729055
 30
0.0
 10
8.8548061945
 20
7.1024154982
 30
0.0
 10
8.8552263398
 20
7.1035929459
 30
0.0
 10
8.8555811162
 20
7.1045993399
 30
0.0
 10
8.8558361016
 20
7.1053286821
 30
0.0
 10
8.8560078114
 20
7.1058228815
 30
0.0
 10
8.8561125835
 20
7.1061256189
 30
0.0
 10
8.8562011869
 20
7.1063826719
 30
0.0
 10
8.8562736664
 20
7.106593696
 30
0.0
 10
8.8563238948
 20
7.1067406789
 30
0.0
 10
8.8563561134
 20
7.1068349606
 30
0.0
 10
8.8563740877
 20
7.1068882145
 30
0.0
 10
8.8563884901
 20
7.1069294839
 30
0.0
 10
8.8563977982
 20
7.106959512
 30
0.0
 10
8.8564051303
 20
7.1069766539
 30
0.0
 10
8.8564064566
 20
7.1069852761
 30
0.0
 10
8.8564076818
 20
7.1069869741
 30
0.0
  0
SPLINE
  5
384
100
AcDbEntity
  8
0
100
AcDbSpline
 62
9
  6
CONTINUOUS
 70
0
 71
3
 72
15
 73
11
 74
0
 42
0.0000001
 43
0.0000001
 44
0.0000000001
 40
0.0
 40
0.0
 40
0.0
 40
0.0
 40
0.1787795411
 40
0.3374598114
 40
0.4766775266
 40
0.5985728577
 40
0.7065613204
 40
0.8054585508
 40
0.9012569779
 40
1.0
 40
1.0
 40
1.0
 40
1.0
 10
10.1479587994
 20
10.0898158816
 30
0.0
 10
10.1484161608
 20
10.0880772203
 30
0.0
 10
10.149383224
 20
10.0848206352
 30
0.0
 10
10.1511378583
 20
10.0803518317
 30
0.0
 10
10.1531206176
 20
10.0766118243
 30
0.0
 10
10.1553345872
 20
10.0736109031
 30
0.0
 10
10.1577903403
 20
10.0713590577
 30
0.0
 10
10.1604895243
 20
10.0698787669
 30
0.0
 10
10.1633977362
 20
10.0692005193
 30
0.0
 10
10.1653758022
 20
10.0692688062
 30
0.0
 10
10.1663585426
 20
10.0694109131
 30
0.0
  0
SPLINE
  5
385
100
AcDbEntity
  8
0
100
AcDbSpline
 62
9
  6
CONTINUOUS
 70
0
 71
3
 72
13
 73
9
 74
0
 42
0.0000001
 43
0.0000001
 44
0.0000000001
 40
0.0
 40
0.0
 40
0.0
 40
0.0
 40
0.2467340855
 40
0.3661666986
 40
0.4853506316
 40
0.6063731658
 40
0.7313230794
 40
1.0
 40
1.0
 40
1.0
 40
1.0
 10
10.166052259
 20
10.039883354
 30
0.0
 10
10.1647943732
 20
10.0397610454
 30
0.0
 10
10.1628938688
 20
10.0397835955
 30
0.0
 10
10.1604578719
 20
10.0403095101
 30
0.0
 10
10.1587212073
 20
10.0409419331
 30
0.0
 10
10.1570633426
 20
10.0418204439
 30
0.0
 10
10.1549106
 20
10.043352181
 30
0.0
 10
10.1534976452
 20
10.044820927
 30
0.0
 10
10.1526379307
 20
10.0458955684
 30
0.0
  0
LINE
  5
386
100
AcDbEntity
  8
0
100
AcDbLine
 62
9
  6
CONTINUOUS
 10
10.1526379307
 20
10.0458955684
 11
10.1510641445
 21
10.0481045528
  0
SPLINE
  5
387
100
AcDbEntity
  8
0
100
AcDbSpline
 62
9
  6
CONTINUOUS
 70
0
 71
3
 72
9
 73
5
 74
0
 42
0.0000001
 43
0.0000001
 44
0.0000000001
 40
0.0
 40
0.0
 40
0.0
 40
0.0
 40
0.4773975048
 40
1.0
 40
1.0
 40
1.0
 40
1.0
 10
10.1510641445
 20
10.0481045528
 30
0.0
 10
10.1504716435
 20
10.0490340107
 30
0.0
 10
10.1493423378
 20
10.0510531579
 30
0.0
 10
10.1484035943
 20
10.0531656467
 30
0.0
 10
10.1479541202
 20
10.0542854253
 30
0.0
  0
SPLINE
  5
388
100
AcDbEntity
  8
0
100
AcDbSpline
 62
9
  6
CONTINUOUS
 70
0
 71
3
 72
11
 73
7
 74
0
 42
0.0000001
 43
0.0000001
 44
0.0000000001
 40
0.0
 40
0.0
 40
0.0
 40
0.0
 40
0.2766691561
 40
0.5367352339
 40
0.7783166464
 40
1.0
 40
1.0
 40
1.0
 40
1.0
 10
10.1437018108
 20
10.1145098888
 30
0.0
 10
10.1439623585
 20
10.1122114892
 30
0.0
 10
10.1445220219
 20
10.1077584877
 30
0.0
 10
10.145516262
 20
10.101326678
 30
0.0
 10
10.1466365569
 20
10.0953826911
 30
0.0
 10
10.1475011677
 20
10.0916057921
 30
0.0
 10
10.1479587982
 20
10.089809772
 30
0.0
  0
SPLINE
  5
389
100
AcDbEntity
  8
0
100
AcDbSpline
 62
9
  6
CONTINUOUS
 70
0
 71
3
 72
13
 73
9
 74
0
 42
0.0000001
 43
0.0000001
 44
0.0000000001
 40
0.0
 40
0.0
 40
0.0
 40
0.0
 40
0.0950928235
 40
0.1995030858
 40
0.3128042499
 40
0.4345925125
 40
0.7025364419
 40
1.0
 40
1.0
 40
1.0
 40
1.0
 10
10.1479541202
 20
10.054285362
 30
0.0
 10
10.1474403685
 20
10.0556093494
 30
0.0
 10
10.1464505959
 20
10.0584215242
 30
0.0
 10
10.1451127004
 20
10.0628987852
 30
0.0
 10
10.1438535764
 20
10.067811431
 30
0.0
 10
10.1422323375
 20
10.0751481543
 30
0.0
 10
10.1404658809
 20
10.0852630897
 30
0.0
 10
10.1393842186
 20
10.0936399549
 30
0.0
 10
10.1388905386
 20
10.098054929
 30
0.0
  0
SPLINE
  5
38A
100
AcDbEntity
  8
0
100
AcDbSpline
 62
9
  6
CONTINUOUS
 70
0
 71
3
 72
19
 73
15
 74
0
 42
0.0000001
 43
0.0000001
 44
0.0000000001
 40
0.0
 40
0.0
 40
0.0
 40
0.0
 40
0.1086472265
 40
0.1613656989
 40
0.2129258191
 40
0.3123577366
 40
0.4065162929
 40
0.4949712823
 40
0.5773309276
 40
0.7223317331
 40
0.8389134265
 40
0.9249910136
 40
0.9790087086
 40
1.0
 40
1.0
 40
1.0
 40
1.0
 10
10.1386507462
 20
10.1002562582
 30
0.0
 10
10.1342410121
 20
10.1432637044
 30
0.0
 10
10.1277371473
 20
10.2071441672
 30
0.0
 10
10.1192241512
 20
10.291442903
 30
0.0
 10
10.1111182932
 20
10.372097137
 30
0.0
 10
10.1014518031
 20
10.4691674345
 30
0.0
 10
10.0905014461
 20
10.5808635835
 30
0.0
 10
10.0803559961
 20
10.685812566
 30
0.0
 10
10.0684246582
 20
10.8109142691
 30
0.0
 10
10.0556672368
 20
10.9471800516
 30
0.0
 10
10.043052456
 20
11.0849447572
 30
0.0
 10
10.0338948437
 20
11.1866703828
 30
0.0
 10
10.0282149588
 20
11.2505178515
 30
0.0
 10
10.0255868946
 20
11.2802495208
 30
0.0
 10
10.0248541122
 20
11.2885701753
 30
0.0
  0
LINE
  5
38B
100
AcDbEntity
  8
0
100
AcDbLine
 62
9
  6
CONTINUOUS
 10
10.0248541122
 20
11.2885701753
 11
10.024825146
 21
11.2888991021
  0
SPLINE
  5
38C
100
AcDbEntity
  8
0
100
AcDbSpline
 62
9
  6
CONTINUOUS
 70
0
 71
3
 72
11
 73
7
 74
0
 42
0.0000001
 43
0.0000001
 44
0.0000000001
 40
0.0
 40
0.0
 40
0.0
 40
0.0
 40
0.2219108876
 40
0.4636182767
 40
0.7236242613
 40
1.0
 40
1.0
 40
1.0
 40
1.0
 10
10.9709423466
 20
10.0898239073
 30
0.0
 10
10.9713967164
 20
10.0916216104
 30
0.0
 10
10.9722612123
 20
10.0953990879
 30
0.0
 10
10.9733915914
 20
10.1013400297
 30
0.0
 10
10.9744026502
 20
10.1077634244
 30
0.0
 10
10.9749764283
 20
10.1122090197
 30
0.0
 10
10.975244318
 20
10.1145027597
 30
0.0
  0
SPLINE
  5
38D
100
AcDbEntity
  8
0
100
AcDbSpline
 62
9
  6
CONTINUOUS
 70
0
 71
3
 72
42
 73
38
 74
0
 42
0.0000001
 43
0.0000001
 44
0.0000000001
 40
0.0
 40
0.0
 40
0.0
 40
0.0
 40
0.0241908479
 40
0.0481836942
 40
0.0719653719
 40
0.0955182024
 40
0.1188184769
 40
0.1303854088
 40
0.1419123384
 40
0.1648593706
 40
0.1762767084
 40
0.1876509124
 40
0.2102396848
 40
0.2325851024
 40
0.2546925996
 40
0.2765664064
 40
0.2982002405
 40
0.3195875762
 40
0.361600781
 40
0.3822198091
 40
0.4025779929
 40
0.44250082
 40
0.481344473
 40
0.5190832799
 40
0.5556856153
 40
0.5911143273
 40
0.6253383631
 40
0.6583299074
 40
0.6900621636
 40
0.72050893
 40
0.7774506369
 40
0.8289727328
 40
0.8749037987
 40
0.9150930992
 40
0.9494112569
 40
0.9777455558
 40
1.0
 40
1.0
 40
1.0
 40
1.0
 10
10.975244318
 20
10.1145027597
 30
0.0
 10
10.9763014655
 20
10.1239175708
 30
0.0
 10
10.9784289204
 20
10.1426676867
 30
0.0
 10
10.9816520231
 20
10.1706669297
 30
0.0
 10
10.9848592486
 20
10.1984164682
 30
0.0
 10
10.9880007578
 20
10.2259005757
 30
0.0
 10
10.9904737409
 20
10.2486460803
 30
0.0
 10
10.9923183453
 20
10.2667218317
 30
0.0
 10
10.9940533163
 20
10.2846694682
 30
0.0
 10
10.9956701822
 20
10.302569287
 30
0.0
 10
10.9973096946
 20
10.3204069114
 30
0.0
 10
10.9989703021
 20
10.3381016793
 30
0.0
 10
11.001089222
 20
10.3600520198
 30
0.0
 10
11.0037053384
 20
10.3861772558
 30
0.0
 10
11.0063565834
 20
10.4120174649
 30
0.0
 10
11.0090224036
 20
10.4375759927
 30
0.0
 10
11.0116948488
 20
10.4628502299
 30
0.0
 10
11.0152282944
 20
10.4959646629
 30
0.0
 10
11.0187318751
 20
10.5286825956
 30
0.0
 10
11.0221447187
 20
10.561004859
 30
0.0
 10
11.0254191421
 20
10.5925184812
 30
0.0
 10
11.0293308903
 20
10.6311416366
 30
0.0
 10
11.0337948676
 20
10.6765503003
 30
0.0
 10
11.0380617137
 20
10.7206715657
 30
0.0
 10
11.0421801857
 20
10.7634635218
 30
0.0
 10
11.0461883564
 20
10.804883223
 30
0.0
 10
11.0500739265
 20
10.8448940669
 30
0.0
 10
11.053807457
 20
10.8834652042
 30
0.0
 10
11.0573765926
 20
10.9205660267
 30
0.0
 10
11.0617991351
 20
10.9670077512
 30
0.0
 10
11.0668866538
 20
11.021171566
 30
0.0
 10
11.0724937024
 20
11.0813774301
 30
0.0
 10
11.0774559365
 20
11.1350541238
 30
0.0
 10
11.0817541937
 20
11.182025789
 30
0.0
 10
11.0853943809
 20
11.2221373585
 30
0.0
 10
11.0883997015
 20
11.2552537596
 30
0.0
 10
11.0901983895
 20
11.2749842605
 30
0.0
 10
11.0909771994
 20
11.2836650078
 30
0.0
  0
LINE
  5
38E
100
AcDbEntity
  8
0
100
AcDbLine
 62
9
  6
CONTINUOUS
 10
11.0909771994
 20
11.2836650078
 11
11.0913489026
 21
11.2878209248
  0
LINE
  5
38F
100
AcDbEntity
  8
0
100
AcDbLine
 62
9
  6
CONTINUOUS
 10
11.0913489026
 20
11.2878209248
 11
11.0915294673
 21
11.289848769
  0
LINE
  5
390
100
AcDbEntity
  8
0
100
AcDbLine
 62
9
  6
CONTINUOUS
 10
11.0915294673
 20
11.289848769
 11
11.0940727915
 21
11.3184266611
  0
SPLINE
  5
391
100
AcDbEntity
  8
0
100
AcDbSpline
 62
9
  6
CONTINUOUS
 70
0
 71
3
 72
15
 73
11
 74
0
 42
0.0000001
 43
0.0000001
 44
0.0000000001
 40
0.0
 40
0.0
 40
0.0
 40
0.0
 40
0.0882660829
 40
0.1889030427
 40
0.3020237344
 40
0.4267941542
 40
0.5614425928
 40
0.703677929
 40
0.8509402427
 40
1.0
 40
1.0
 40
1.0
 40
1.0
 10
10.1902530999
 20
10.1332196409
 30
0.0
 10
10.1899437723
 20
10.1326752139
 30
0.0
 10
10.1891272128
 20
10.1315964569
 30
0.0
 10
10.1875315058
 20
10.1301540747
 30
0.0
 10
10.185527997
 20
10.1288169382
 30
0.0
 10
10.183167634
 20
10.1276171717
 30
0.0
 10
10.1805085085
 20
10.1265821684
 30
0.0
 10
10.1776163329
 20
10.1257393863
 30
0.0
 10
10.1745662059
 20
10.1251111371
 30
0.0
 10
10.1724785995
 20
10.1248447286
 30
0.0
 10
10.1714253028
 20
10.1247511953
 30
0.0
  0
SPLINE
  5
392
100
AcDbEntity
  8
0
100
AcDbSpline
 62
9
  6
CONTINUOUS
 70
0
 71
3
 72
13
 73
9
 74
0
 42
0.0000001
 43
0.0000001
 44
0.0000000001
 40
0.0
 40
0.0
 40
0.0
 40
0.0
 40
0.2969212624
 40
0.5647664642
 40
0.6866547158
 40
0.8001276222
 40
0.9047388205
 40
1.0
 40
1.0
 40
1.0
 40
1.0
 10
10.9802850503
 20
10.098076819
 30
0.0
 10
10.9797615715
 20
10.0936662747
 30
0.0
 10
10.9786172347
 20
10.0852935854
 30
0.0
 10
10.9767695825
 20
10.0751847847
 30
0.0
 10
10.9750952651
 20
10.0678450626
 30
0.0
 10
10.9738058585
 20
10.0629246745
 30
0.0
 10
10.9724492232
 20
10.0584369252
 30
0.0
 10
10.9714561884
 20
10.0556152334
 30
0.0
 10
10.9709438824
 20
10.0542855455
 30
0.0
  0
SPLINE
  5
393
100
AcDbEntity
  8
0
100
AcDbSpline
 62
9
  6
CONTINUOUS
 70
0
 71
3
 72
15
 73
11
 74
0
 42
0.0000001
 43
0.0000001
 44
0.0000000001
 40
0.0
 40
0.0
 40
0.0
 40
0.0
 40
0.0987418822
 40
0.1945189899
 40
0.2934251261
 40
0.4014276818
 40
0.5232444876
 40
0.6623884776
 40
0.8211588718
 40
1.0
 40
1.0
 40
1.0
 40
1.0
 10
10.9525393949
 20
10.0694109131
 30
0.0
 10
10.9535225268
 20
10.0692690606
 30
0.0
 10
10.9555009049
 20
10.0692000729
 30
0.0
 10
10.9584105434
 20
10.0698774865
 30
0.0
 10
10.961109589
 20
10.0713607732
 30
0.0
 10
10.9635646569
 20
10.0736138895
 30
0.0
 10
10.9657809017
 20
10.0766129583
 30
0.0
 10
10.9677651353
 20
10.0803534722
 30
0.0
 10
10.9695174155
 20
10.0848259872
 30
0.0
 10
10.9704843635
 20
10.0880853924
 30
0.0
 10
10.9709423464
 20
10.0898252097
 30
0.0
  0
SPLINE
  5
394
100
AcDbEntity
  8
0
100
AcDbSpline
 62
9
  6
CONTINUOUS
 70
0
 71
3
 72
9
 73
5
 74
0
 42
0.0000001
 43
0.0000001
 44
0.0000000001
 40
0.0
 40
0.0
 40
0.0
 40
0.0
 40
0.5225058524
 40
1.0
 40
1.0
 40
1.0
 40
1.0
 10
10.9709438824
 20
10.0542855543
 30
0.0
 10
10.9704969132
 20
10.0531711211
 30
0.0
 10
10.9695635441
 20
10.0510681674
 30
0.0
 10
10.9684415456
 20
10.0490574576
 30
0.0
 10
10.9678529506
 20
10.048131392
 30
0.0
  0
LINE
  5
395
100
AcDbEntity
  8
0
100
AcDbLine
 62
9
  6
CONTINUOUS
 10
10.9678529506
 20
10.048131392
 11
10.9662737256
 21
10.0459094596
  0
SPLINE
  5
396
100
AcDbEntity
  8
0
100
AcDbSpline
 62
9
  6
CONTINUOUS
 70
0
 71
3
 72
13
 73
9
 74
0
 42
0.0000001
 43
0.0000001
 44
0.0000000001
 40
0.0
 40
0.0
 40
0.0
 40
0.0
 40
0.2687270078
 40
0.3936685752
 40
0.5146816319
 40
0.6338605938
 40
0.7532871672
 40
1.0
 40
1.0
 40
1.0
 40
1.0
 10
10.9662737256
 20
10.0459094596
 30
0.0
 10
10.9654136836
 20
10.0448325035
 30
0.0
 10
10.9639996945
 20
10.0433607322
 30
0.0
 10
10.9618446454
 20
10.04182612
 30
0.0
 10
10.9601850724
 20
10.0409459839
 30
0.0
 10
10.9584465975
 20
10.0403119744
 30
0.0
 10
10.9560079258
 20
10.0397841891
 30
0.0
 10
10.9541050656
 20
10.0397609517
 30
0.0
 10
10.9528456786
 20
10.039883354
 30
0.0
  0
SPLINE
  5
397
100
AcDbEntity
  8
0
100
AcDbSpline
 62
9
  6
CONTINUOUS
 70
0
 71
3
 72
9
 73
5
 74
0
 42
0.0000001
 43
0.0000001
 44
0.0000000001
 40
0.0
 40
0.0
 40
0.0
 40
0.0
 40
0.4966598974
 40
1.0
 40
1.0
 40
1.0
 40
1.0
 10
10.1488485978
 20
10.0472137956
 30
0.0
 10
10.1484213943
 20
10.0483229249
 30
0.0
 10
10.1478337759
 20
10.0506703307
 30
0.0
 10
10.1478226748
 20
10.0530882171
 30
0.0
 10
10.1479540456
 20
10.0542855766
 30
0.0
  0
SPLINE
  5
398
100
AcDbEntity
  8
0
100
AcDbSpline
 62
7
  6
CONTINUOUS
 70
0
 71
3
 72
16
 73
12
 74
0
 42
0.0000001
 43
0.0000001
 44
0.0000000001
 40
0.0
 40
0.0
 40
0.0
 40
0.0
 40
0.1276642033
 40
0.1915339749
 40
0.2552786329
 40
0.3821733407
 40
0.5081170937
 40
0.6328490977
 40
0.7563549257
 40
0.878784244
 40
1.0
 40
1.0
 40
1.0
 40
1.0
 10
10.9528456786
 20
10.039883354
 30
0.0
 10
10.9528394266
 20
10.0388115551
 30
0.0
 10
10.952712321
 20
10.037200621
 30
0.0
 10
10.9522987809
 20
10.0350959391
 30
0.0
 10
10.9517183719
 20
10.0330373324
 30
0.0
 10
10.9506926591
 20
10.0305724611
 30
0.0
 10
10.9490298745
 20
10.0278589032
 30
0.0
 10
10.9469784123
 20
10.0254618078
 30
0.0
 10
10.944585678
 20
10.0234494428
 30
0.0
 10
10.9419171778
 20
10.0218790724
 30
0.0
 10
10.9399945125
 20
10.0211475836
 30
0.0
 10
10.9390158846
 20
10.0208683756
 30
0.0
  0
SPLINE
  5
399
100
AcDbEntity
  8
0
100
AcDbSpline
 62
9
  6
CONTINUOUS
 70
0
 71
3
 72
15
 73
11
 74
0
 42
0.0000001
 43
0.0000001
 44
0.0000000001
 40
0.0
 40
0.0
 40
0.0
 40
0.0
 40
0.1212390744
 40
0.2434126052
 40
0.3668037825
 40
0.4914697544
 40
0.6173338856
 40
0.7442363076
 40
0.8720027354
 40
1.0
 40
1.0
 40
1.0
 40
1.0
 10
10.1805015577
 20
10.0208690268
 30
0.0
 10
10.1795256024
 20
10.0211472909
 30
0.0
 10
10.1776109395
 20
10.0218782549
 30
0.0
 10
10.1749581542
 20
10.0234515728
 30
0.0
 10
10.1725815715
 20
10.0254629607
 30
0.0
 10
10.170546563
 20
10.0278591145
 30
0.0
 10
10.1689048535
 20
10.0305739445
 30
0.0
 10
10.1677003783
 20
10.0335370618
 30
0.0
 10
10.1669664034
 20
10.0366674726
 30
0.0
 10
10.1668008631
 20
10.0388119341
 30
0.0
 10
10.1668008658
 20
10.039883354
 30
0.0
  0
SPLINE
  5
39A
100
AcDbEntity
  8
0
100
AcDbSpline
 62
7
  6
CONTINUOUS
 70
0
 71
3
 72
16
 73
12
 74
0
 42
0.0000001
 43
0.0000001
 44
0.0000000001
 40
0.0
 40
0.0
 40
0.0
 40
0.0
 40
0.1276658664
 40
0.1915356297
 40
0.2552799564
 40
0.3821735897
 40
0.5081163434
 40
0.6328487785
 40
0.7563554137
 40
0.8787789188
 40
1.0
 40
1.0
 40
1.0
 40
1.0
 10
10.1660522589
 20
10.039883354
 30
0.0
 10
10.1660584924
 20
10.0388115618
 30
0.0
 10
10.1661854648
 20
10.0372006428
 30
0.0
 10
10.1665987806
 20
10.0350959468
 30
0.0
 10
10.1671789832
 20
10.0330373368
 30
0.0
 10
10.1682044902
 20
10.0305724533
 30
0.0
 10
10.1698671148
 20
10.0278588808
 30
0.0
 10
10.1719185097
 20
10.025461797
 30
0.0
 10
10.1743111695
 20
10.0234495071
 30
0.0
 10
10.1769795234
 20
10.0218790094
 30
0.0
 10
10.1789021649
 20
10.0211475414
 30
0.0
 10
10.179880832
 20
10.0208683793
 30
0.0
  0
SPLINE
  5
39B
100
AcDbEntity
  8
0
100
AcDbSpline
 62
9
  6
CONTINUOUS
 70
0
 71
3
 72
15
 73
11
 74
0
 42
0.0000001
 43
0.0000001
 44
0.0000000001
 40
0.0
 40
0.0
 40
0.0
 40
0.0
 40
0.1212687746
 40
0.243312364
 40
0.366624164
 40
0.4912586025
 40
0.6171359033
 40
0.7440879781
 40
0.8719235874
 40
1.0
 40
1.0
 40
1.0
 40
1.0
 10
10.9384153074
 20
10.020867653
 30
0.0
 10
10.9393912801
 20
10.0211451878
 30
0.0
 10
10.9413046164
 20
10.021875343
 30
0.0
 10
10.9439535198
 20
10.023449786
 30
0.0
 10
10.9463258055
 20
10.0254610333
 30
0.0
 10
10.9483572314
 20
10.0278574058
 30
0.0
 10
10.9499962439
 20
10.030572543
 30
0.0
 10
10.9511991717
 20
10.0335359775
 30
0.0
 10
10.9519321107
 20
10.03666692
 30
0.0
 10
10.9520971963
 20
10.0388117273
 30
0.0
 10
10.9520970721
 20
10.039883354
 30
0.0
  0
SPLINE
  5
39C
100
AcDbEntity
  8
0
100
AcDbSpline
 62
9
  6
CONTINUOUS
 70
0
 71
3
 72
15
 73
11
 74
0
 42
0.0000001
 43
0.0000001
 44
0.0000000001
 40
0.0
 40
0.0
 40
0.0
 40
0.0
 40
0.0887378747
 40
0.1896772933
 40
0.3029397187
 40
0.4277118503
 40
0.5622449948
 40
0.7042718426
 40
0.8512576465
 40
1.0
 40
1.0
 40
1.0
 40
1.0
 10
10.9286580717
 20
10.1333338807
 30
0.0
 10
10.9289661953
 20
10.1327833459
 30
0.0
 10
10.9297799661
 20
10.1316919252
 30
0.0
 10
10.9313736288
 20
10.1302304625
 30
0.0
 10
10.9333754144
 20
10.1288754509
 30
0.0
 10
10.9357342764
 20
10.1276593736
 30
0.0
 10
10.9383921082
 20
10.1266099769
 30
0.0
 10
10.9412832452
 20
10.1257550716
 30
0.0
 10
10.9443326186
 20
10.1251173041
 30
0.0
 10
10.9464201025
 20
10.1248464054
 30
0.0
 10
10.9474733081
 20
10.1247511317
 30
0.0
  0
SPLINE
  5
39D
100
AcDbEntity
  8
0
100
AcDbSpline
 62
7
  6
CONTINUOUS
 70
0
 71
3
 72
18
 73
14
 74
0
 42
0.0000001
 43
0.0000001
 44
0.0000000001
 40
0.0
 40
0.0
 40
0.0
 40
0.0
 40
0.1156348414
 40
0.2382250058
 40
0.3670386947
 40
0.4332238418
 40
0.5000044803
 40
0.5667754674
 40
0.6329637714
 40
0.6981188421
 40
0.761805254
 40
0.8842394628
 40
1.0
 40
1.0
 40
1.0
 40
1.0
 10
11.5745798543
 20
9.0650354003
 30
0.0
 10
11.5720422358
 20
9.0674454831
 30
0.0
 10
11.566337244
 20
9.0719328071
 30
0.0
 10
11.5564293929
 20
9.0770887992
 30
0.0
 10
11.5471677954
 20
9.0798843249
 30
0.0
 10
11.5393269039
 20
9.0810884978
 30
0.0
 10
11.5332804868
 20
9.081416832
 30
0.0
 10
11.5272308704
 20
9.0811422331
 30
0.0
 10
11.5212922621
 20
9.0802407465
 30
0.0
 10
11.5155642071
 20
9.0787758065
 30
0.0
 10
11.5084047928
 20
9.0761817059
 30
0.0
 10
11.5002798143
 20
9.0718891924
 30
0.0
 10
11.4945649268
 20
9.0674269985
 30
0.0
 10
11.4920046717
 20
9.0650354003
 30
0.0
  0
SPLINE
  5
39E
100
AcDbEntity
  8
0
100
AcDbSpline
 62
9
  6
CONTINUOUS
 70
0
 71
3
 72
9
 73
5
 74
0
 42
0.0000001
 43
0.0000001
 44
0.0000000001
 40
0.0
 40
0.0
 40
0.0
 40
0.0
 40
0.496671428
 40
1.0
 40
1.0
 40
1.0
 40
1.0
 10
10.9700478289
 20
10.0472216979
 30
0.0
 10
10.9704747277
 20
10.0483295854
 30
0.0
 10
10.9710621986
 20
10.0506742764
 30
0.0
 10
10.9710740992
 20
10.0530895008
 30
0.0
 10
10.9709433265
 20
10.0542855768
 30
0.0
  0
SPLINE
  5
39F
100
AcDbEntity
  8
0
100
AcDbSpline
 62
9
  6
CONTINUOUS
 70
0
 71
3
 72
15
 73
11
 74
0
 42
0.0000001
 43
0.0000001
 44
0.0000000001
 40
0.0
 40
0.0
 40
0.0
 40
0.0
 40
0.0856022593
 40
0.1829654998
 40
0.2935677833
 40
0.417407996
 40
0.5527901824
 40
0.6971407426
 40
0.8474651887
 40
1.0
 40
1.0
 40
1.0
 40
1.0
 10
10.9752445116
 20
10.1145027598
 30
0.0
 10
10.9750337419
 20
10.1151062639
 30
0.0
 10
10.9743710619
 20
10.1163248499
 30
0.0
 10
10.9728837839
 20
10.1179549644
 30
0.0
 10
10.9708996626
 20
10.1194570135
 30
0.0
 10
10.9684837503
 20
10.1208087825
 30
0.0
 10
10.9657016229
 20
10.1219812219
 30
0.0
 10
10.9626311852
 20
10.1229383861
 30
0.0
 10
10.9593625939
 20
10.1236429499
 30
0.0
 10
10.9571161168
 20
10.1239307519
 30
0.0
 10
10.9559811493
 20
10.1240274744
 30
0.0
  0
SPLINE
  5
3A0
100
AcDbEntity
  8
0
100
AcDbSpline
 62
9
  6
CONTINUOUS
 70
0
 71
3
 72
14
 73
10
 74
0
 42
0.0000001
 43
0.0000001
 44
0.0000000001
 40
0.0
 40
0.0
 40
0.0
 40
0.0
 40
0.1349544518
 40
0.2701856785
 40
0.532798179
 40
0.6580082233
 40
0.7776072764
 40
0.8915057776
 40
1.0
 40
1.0
 40
1.0
 40
1.0
 10
10.9517383883
 20
10.1049597146
 30
0.0
 10
10.9529050523
 20
10.1048365536
 30
0.0
 10
10.9552272139
 20
10.1044262601
 30
0.0
 10
10.9596471017
 20
10.1030139009
 30
0.0
 10
10.9636759298
 20
10.100747179
 30
0.0
 10
10.9669397703
 20
10.0977574351
 30
0.0
 10
10.9688706236
 20
10.0952877515
 30
0.0
 10
10.9702519213
 20
10.0926360059
 30
0.0
 10
10.9707886127
 20
10.0907608164
 30
0.0
 10
10.970944105
 20
10.0898305921
 30
0.0
  0
SPLINE
  5
3A1
100
AcDbEntity
  8
0
100
AcDbSpline
 62
9
  6
CONTINUOUS
 70
0
 71
3
 72
15
 73
11
 74
0
 42
0.0000001
 43
0.0000001
 44
0.0000000001
 40
0.0
 40
0.0
 40
0.0
 40
0.0
 40
0.087912031
 40
0.185339419
 40
0.2949257489
 40
0.4179305157
 40
0.5528917229
 40
0.6971110042
 40
0.8474120481
 40
1.0
 40
1.0
 40
1.0
 40
1.0
 10
10.1437026466
 20
10.1145098888
 30
0.0
 10
10.1439003316
 20
10.1151385125
 30
0.0
 10
10.1445334645
 20
10.1164008068
 30
0.0
 10
10.1460188696
 20
10.1180635807
 30
0.0
 10
10.1480170863
 20
10.1195421795
 30
0.0
 10
10.1504405846
 20
10.1208651603
 30
0.0
 10
10.1532307021
 20
10.1220198776
 30
0.0
 10
10.1563104867
 20
10.1229727279
 30
0.0
 10
10.1595936993
 20
10.1236669992
 30
0.0
 10
10.1618505522
 20
10.1239427444
 30
0.0
 10
10.162990714
 20
10.124033581
 30
0.0
  0
SPLINE
  5
3A2
100
AcDbEntity
  8
0
100
AcDbSpline
 62
9
  6
CONTINUOUS
 70
0
 71
3
 72
15
 73
11
 74
0
 42
0.0000001
 43
0.0000001
 44
0.0000000001
 40
0.0
 40
0.0
 40
0.0
 40
0.0
 40
0.1212687588
 40
0.2433123351
 40
0.3666241282
 40
0.4912585668
 40
0.6171358741
 40
0.7440879593
 40
0.8719235798
 40
1.0
 40
1.0
 40
1.0
 40
1.0
 10
10.180482631
 20
10.0884266141
 30
0.0
 10
10.1795066584
 20
10.0881490793
 30
0.0
 10
10.1775933225
 20
10.0874189241
 30
0.0
 10
10.1749444194
 20
10.0858444811
 30
0.0
 10
10.1725721341
 20
10.0838332338
 30
0.0
 10
10.1705407084
 20
10.0814368613
 30
0.0
 10
10.1689016958
 20
10.0787217241
 30
0.0
 10
10.1676987675
 20
10.0757582897
 30
0.0
 10
10.1669658278
 20
10.0726273472
 30
0.0
 10
10.1668007415
 20
10.0704825398
 30
0.0
 10
10.1668008652
 20
10.0694109131
 30
0.0
  0
SPLINE
  5
3A3
100
AcDbEntity
  8
0
100
AcDbSpline
 62
9
  6
CONTINUOUS
 70
0
 71
3
 72
15
 73
11
 74
0
 42
0.0000001
 43
0.0000001
 44
0.0000000001
 40
0.0
 40
0.0
 40
0.0
 40
0.0
 40
0.1212390755
 40
0.2434126075
 40
0.3668037858
 40
0.4914697582
 40
0.6173338892
 40
0.7442363102
 40
0.8720027365
 40
1.0
 40
1.0
 40
1.0
 40
1.0
 10
10.9383963798
 20
10.0884252404
 30
0.0
 10
10.9393723351
 20
10.0881469762
 30
0.0
 10
10.9412869981
 20
10.0874160122
 30
0.0
 10
10.9439397834
 20
10.0858426944
 30
0.0
 10
10.9463163662
 20
10.0838313064
 30
0.0
 10
10.9483513748
 20
10.0814351527
 30
0.0
 10
10.9499930842
 20
10.0787203227
 30
0.0
 10
10.9511975594
 20
10.0757572054
 30
0.0
 10
10.9519315342
 20
10.0726267945
 30
0.0
 10
10.9520970745
 20
10.0704823331
 30
0.0
 10
10.9520970717
 20
10.0694109131
 30
0.0
  0
SPLINE
  5
3A4
100
AcDbEntity
  8
0
100
AcDbSpline
 62
7
  6
CONTINUOUS
 70
0
 71
3
 72
15
 73
11
 74
0
 42
0.0000001
 43
0.0000001
 44
0.0000000001
 40
0.0
 40
0.0
 40
0.0
 40
0.0
 40
0.1282569184
 40
0.2561091413
 40
0.3830323796
 40
0.5088164452
 40
0.6333055258
 40
0.7565375145
 40
0.8787997199
 40
1.0
 40
1.0
 40
1.0
 40
1.0
 10
10.9525393949
 20
10.0694109131
 30
0.0
 10
10.9525487672
 20
10.0704834547
 30
0.0
 10
10.9524057193
 20
10.0726302749
 30
0.0
 10
10.951699445
 20
10.0757676986
 30
0.0
 10
10.9505123266
 20
10.0787351767
 30
0.0
 10
10.9488863196
 20
10.0814537522
 30
0.0
 10
10.9468644206
 20
10.0838528095
 30
0.0
 10
10.944495387
 20
10.0858661413
 30
0.0
 10
10.9418433151
 20
10.0874339717
 30
0.0
 10
10.9399290958
 20
10.088161419
 30
0.0
 10
10.9389541245
 20
10.0884384643
 30
0.0
  0
SPLINE
  5
3A5
100
AcDbEntity
  8
0
100
AcDbSpline
 62
9
  6
CONTINUOUS
 70
0
 71
3
 72
14
 73
10
 74
0
 42
0.0000001
 43
0.0000001
 44
0.0000000001
 40
0.0
 40
0.0
 40
0.0
 40
0.0
 40
0.1349521325
 40
0.2701813253
 40
0.5327928206
 40
0.6580038025
 40
0.7776044584
 40
0.8915046351
 40
1.0
 40
1.0
 40
1.0
 40
1.0
 10
10.1671595498
 20
10.1049595491
 30
0.0
 10
10.1659928303
 20
10.1048363868
 30
0.0
 10
10.1636705532
 20
10.1044261084
 30
0.0
 10
10.1592503802
 20
10.1030138216
 30
0.0
 10
10.1552211867
 20
10.1007472199
 30
0.0
 10
10.1519568613
 20
10.0977575685
 30
0.0
 10
10.1500255994
 20
10.0952879053
 30
0.0
 10
10.1486438723
 20
10.0926361257
 30
0.0
 10
10.1481068879
 20
10.0907608652
 30
0.0
 10
10.1479512562
 20
10.0898305926
 30
0.0
  0
SPLINE
  5
3A6
100
AcDbEntity
  8
0
100
AcDbSpline
 62
7
  6
CONTINUOUS
 70
0
 71
3
 72
15
 73
11
 74
0
 42
0.0000001
 43
0.0000001
 44
0.0000000001
 40
0.0
 40
0.0
 40
0.0
 40
0.0
 40
0.1282481678
 40
0.2560891236
 40
0.3830302173
 40
0.5088247902
 40
0.6333106932
 40
0.7565433304
 40
0.8787960996
 40
1.0
 40
1.0
 40
1.0
 40
1.0
 10
10.1663585426
 20
10.0694109131
 30
0.0
 10
10.1663490377
 20
10.0704833687
 30
0.0
 10
10.166490371
 20
10.072630046
 30
0.0
 10
10.1671955155
 20
10.0757678504
 30
0.0
 10
10.1683841309
 20
10.0787348806
 30
0.0
 10
10.1700103116
 20
10.0814534615
 30
0.0
 10
10.1720320438
 20
10.0838527259
 30
0.0
 10
10.1744010236
 20
10.0858659101
 30
0.0
 10
10.1770528673
 20
10.0874339492
 30
0.0
 10
10.1789670302
 20
10.0881614049
 30
0.0
 10
10.1799420366
 20
10.0884383975
 30
0.0
  0
SPLINE
  5
3A7
100
AcDbEntity
  8
0
100
AcDbSpline
 62
7
  6
CONTINUOUS
 70
0
 71
3
 72
18
 73
14
 74
0
 42
0.0000001
 43
0.0000001
 44
0.0000000001
 40
0.0
 40
0.0
 40
0.0
 40
0.0
 40
0.1141122382
 40
0.2361310149
 40
0.3000356558
 40
0.3656498508
 40
0.4324753476
 40
0.4999779443
 40
0.567486911
 40
0.6343064132
 40
0.7638342177
 40
0.8860391263
 40
1.0
 40
1.0
 40
1.0
 40
1.0
 10
11.4920046717
 20
9.0650354003
 30
0.0
 10
11.4945802549
 20
9.062791847
 30
0.0
 10
11.500330316
 20
9.058614013
 30
0.0
 10
11.5084325303
 20
9.0546311057
 30
0.0
 10
11.5155743348
 20
9.0522193893
 30
0.0
 10
11.5212997908
 20
9.0508548332
 30
0.0
 10
11.5272348685
 20
9.0500152534
 30
0.0
 10
11.5332803172
 20
9.0497595613
 30
0.0
 10
11.5393229262
 20
9.0500653055
 30
0.0
 10
11.5471497664
 20
9.0511856649
 30
0.0
 10
11.5563826555
 20
9.0537786192
 30
0.0
 10
11.5662844002
 20
9.0585720855
 30
0.0
 10
11.5720261933
 20
9.0627737538
 30
0.0
 10
11.5745798543
 20
9.0650354003
 30
0.0
  0
ENDSEC
  0
SECTION
  2
OBJECTS
  0
DICTIONARY
  5
C
100
AcDbDictionary
280
0
281
1
  3
ACAD_GROUP
350
D
  3
ACAD_MLINESTYLE
350
17
  3
ACAD_LAYOUT
350
1A
  3
ACAD_PLOTSETTINGS
350
19
  3
ACAD_PLOTSTYLENAME
350
E
  0
DICTIONARY
  5
D
102
{ACAD_REACTORS
330
C
102
}
100
AcDbDictionary
280
0
281
1
  0
ACDBDICTIONARYWDFLT
  5
E
102
{ACAD_REACTORS
330
C
102
}
100
AcDbDictionary
281
1
  3
Normal
350
F
100
AcDbDictionaryWithDefault
340
F
  0
DICTIONARY
  5
17
102
{ACAD_REACTORS
330
C
102
}
100
AcDbDictionary
280
0
281
1
  3
Standard
350
18
  0
DICTIONARY
  5
19
102
{ACAD_REACTORS
330
C
102
}
100
AcDbDictionary
281
1
  0
DICTIONARY
  5
1A
102
{ACAD_REACTORS
330
C
102
}
100
AcDbDictionary
281
1
  3
Model
350
3A8
  3
Layout1
350
3A9
  0
ACDBPLACEHOLDER
  5
F
102
{ACAD_REACTORS
330
E
102
}
  0
MLINESTYLE
  5
18
102
{ACAD_REACTORS
330
17
102
}
100
AcDbMlineStyle
  2
STANDARD
 70
0
  3

 62
256
 51
90.0
 52
90.0
 71
2
 49
0.5
 62
256
  6
BYLAYER
 49
-0.5
 62
256
  6
BYLAYER
  0
LAYOUT
  5
3A8
102
{ACAD_REACTORS
330
1A
102
}
100
AcDbPlotSettings
  1

  2
none_device
  4
ANSI_C_(22.00_x_17.00_Inches)
  6

 40
0.0
 41
0.0
 42
0.0
 43
0.0
 44
558.8
 45
431.8
 46
0.0
 47
0.0
 48
0.0
 49
0.0
140
0.0
141
0.0
142
1.0
143
1.0
 70
1024
 72
0
 73
0
 74
0
  7

 75
0
147
1.0
148
0.0
149
0.0
100
AcDbLayout
  1
Model
 70
0
 71
0
 10
0.0
 20
0.0
 11
22.0
 21
17.0
 12
0.0
 22
0.0
 32
0.0
 14
0.0
 24
0.0
 34
0.0
 15
0.0
 25
0.0
 35
0.0
146
0.0
 13
0.0
 23
0.0
 33
0.0
 16
1.0
 26
0.0
 36
0.0
 17
0.0
 27
1.0
 37
0.0
 76
0
330
205
345
0
346
0
  0
LAYOUT
  5
3A9
102
{ACAD_REACTORS
330
1A
102
}
100
AcDbPlotSettings
  1

  2
none_device
  4
ANSI_C_(22.00_x_17.00_Inches)
  6

 40
0.0
 41
0.0
 42
0.0
 43
0.0
 44
558.8
 45
431.8
 46
0.0
 47
0.0
 48
0.0
 49
0.0
140
0.0
141
0.0
142
1.0
143
1.0
 70
0
 72
0
 73
0
 74
0
  7

 75
0
147
1.0
148
0.0
149
0.0
100
AcDbLayout
  1
Layout1
 70
0
 71
1
 10
0.0
 20
0.0
 11
22.0
 21
17.0
 12
0.0
 22
0.0
 32
0.0
 14
0.0
 24
0.0
 34
0.0
 15
0.0
 25
0.0
 35
0.0
146
0.0
 13
0.0
 23
0.0
 33
0.0
 16
1.0
 26
0.0
 36
0.0
 17
0.0
 27
1.0
 37
0.0
 76
0
330
206
345
0
346
0
  0
ENDSEC
  0
EOF
