999
DXF file: E:\BT Custom\CADOUTPUT\_TOP.dxf
999
Pro/ENGINEER 2018400 by Parametric Technology Corporation
  0
SECTION
  2
HEADER
  9
$ACADVER
  1
AC1018
  9
$DWGCODEPAGE
  3
ANSI_1252
  9
$EXTMAX
 10
22.0
 20
17.0
 30
0.0
  9
$EXTMIN
 10
0.0
 20
0.0
 30
0.0
  9
$LIMMIN
 10
0.0
 20
0.0
  9
$LIMMAX
 10
22.0
 20
17.0
  9
$VIEWCTR
 10
11.0
 20
8.5
  9
$VIEWSIZE
 40
17.0
  9
$CLAYER
  8
0
  9
$LTSCALE
 40
1.21
  9
$CELTYPE
  6
BYLAYER
  9
$DIMSCALE
 40
1.0
  9
$DIMASZ
 40
0.1
  9
$DIMEXO
 40
0.0625
  9
$DIMDLI
 40
0.836
  9
$DIMEXE
 40
0.125
  9
$DIMCEN
 40
0.198
  9
$DIMLFAC
 40
1.0
  9
$DIMBLK
  1
_FILLED
  9
$DIMALT
 70
1
  9
$DIMALTD
 70
2
  9
$DIMALTTD
 70
2
  9
$DIMALTF
 40
25.4
  9
$DIMTXT
 40
0.08
  9
$DIMTOL
 70
1
  9
$DIMLIM
 70
0
  9
$DIMTFAC
 40
1.0
  9
$DIMTP
 40
0.001
  9
$DIMTM
 40
0.001
  9
$DIMGAP
 40
0.09
  9
$DIMDSEP
 70
46
  9
$AUNITS
 70
0
  9
$PDMODE
 70
3
  9
$PDSIZE
 40
0.06
  9
$HANDSEED
  5
35F
  9
$TILEMODE
 70
1
  9
$MEASUREMENT
 70
0
  9
$INSUNITS
 70
1
  0
ENDSEC
  0
SECTION
  2
CLASSES
  0
CLASS
  1
ACDBDICTIONARYWDFLT
  2
AcDbDictionaryWithDefault
  3
AutoCAD 2000
 90
0
 91
1
280
0
281
0
  0
CLASS
  1
ACDBPLACEHOLDER
  2
AcDbPlaceHolder
  3
AutoCAD 2000
 90
0
 91
1
280
0
281
0
  0
CLASS
  1
LAYOUT
  2
AcDbLayout
  3
AutoCAD 2000
 90
0
 91
0
280
0
281
0
  0
ENDSEC
  0
SECTION
  2
TABLES
  0
TABLE
  2
VPORT
  5
8
100
AcDbSymbolTable
 70
2
  0
VPORT
  5
1F4
100
AcDbSymbolTableRecord
100
AcDbViewportTableRecord
  2
*ACTIVE
 70
0
 10
0.0
 20
0.0
 11
1.0
 21
1.0
 12
11.0
 22
8.5
 13
0.0
 23
0.0
 14
1.0
 24
1.0
 15
0.0
 25
0.0
 16
0.0
 26
0.0
 36
1.0
 17
0.0
 27
0.0
 37
0.0
 40
17.0
 41
1.2941176471
 42
50.0
 43
0.0
 44
0.0
 50
0.0
 51
0.0
 71
0
 72
100
 73
1
 74
1
 75
0
 76
0
 77
0
 78
0
  0
ENDTAB
  0
TABLE
  2
LTYPE
  5
5
100
AcDbSymbolTable
 70
6
  0
LTYPE
  5
14
100
AcDbSymbolTableRecord
100
AcDbLinetypeTableRecord
  2
BYBLOCK
 70
0
  3

 72
65
 73
0
 40
0.0
  0
LTYPE
  5
15
100
AcDbSymbolTableRecord
100
AcDbLinetypeTableRecord
  2
BYLAYER
 70
0
  3

 72
65
 73
0
 40
0.0
  0
LTYPE
  5
16
100
AcDbSymbolTableRecord
100
AcDbLinetypeTableRecord
  2
CONTINUOUS
 70
64
  3
Solid line
 72
65
 73
0
 40
0.0
  0
LTYPE
  5
1F5
100
AcDbSymbolTableRecord
100
AcDbLinetypeTableRecord
  2
CENTER
 70
64
  3
____ _ ____ _ ____ _ ____ _ ____ _ ____ _ ____
 72
65
 73
4
 40
0.6
 49
0.375
 74
0
 49
-0.075
 74
0
 49
0.075
 74
0
 49
-0.075
 74
0
  0
LTYPE
  5
1F6
100
AcDbSymbolTableRecord
100
AcDbLinetypeTableRecord
  2
HIDDEN
 70
64
  3
- - - - - - - - - - - - - - - - - - - -
 72
65
 73
2
 40
0.2
 49
0.1
 74
0
 49
-0.1
 74
0
  0
LTYPE
  5
1F7
100
AcDbSymbolTableRecord
100
AcDbLinetypeTableRecord
  2
PHANTOM
 70
64
  3
_____ _ _ _____ _ _ _____ _ _ _____
 72
65
 73
6
 40
0.8
 49
0.45
 74
0
 49
-0.05
 74
0
 49
0.1
 74
0
 49
-0.05
 74
0
 49
0.1
 74
0
 49
-0.05
 74
0
  0
LTYPE
  5
1F8
100
AcDbSymbolTableRecord
100
AcDbLinetypeTableRecord
  2
DOT
 70
64
  3
. . . . . . . . . . . . . . . . . . . .
 72
65
 73
2
 40
0.2
 49
0.1
 74
0
 49
-0.1
 74
0
  0
LTYPE
  5
1F9
100
AcDbSymbolTableRecord
100
AcDbLinetypeTableRecord
  2
DASHED
 70
64
  3
- - - - - - - - - - - - - - - - - - - -
 72
65
 73
2
 40
0.2
 49
0.1
 74
0
 49
-0.1
 74
0
  0
ENDTAB
  0
TABLE
  2
LAYER
  5
2
100
AcDbSymbolTable
 70
36
  0
LAYER
  5
10
100
AcDbSymbolTableRecord
100
AcDbLayerTableRecord
  2
0
 70
0
 62
7
  6
CONTINUOUS
370
-3
390
F
  0
LAYER
  5
1FA
100
AcDbSymbolTableRecord
100
AcDbLayerTableRecord
  2
DEFAULT_1
 70
0
 62
7
  6
CENTER
370
-3
390
F
  0
LAYER
  5
1FB
100
AcDbSymbolTableRecord
100
AcDbLayerTableRecord
  2
DEFAULT_2
 70
0
 62
8
  6
HIDDEN
370
-3
390
F
  0
LAYER
  5
1FC
100
AcDbSymbolTableRecord
100
AcDbLayerTableRecord
  2
DEFAULT_3
 70
0
 62
7
  6
PHANTOM
370
-3
390
F
  0
LAYER
  5
1FD
100
AcDbSymbolTableRecord
100
AcDbLayerTableRecord
  2
ALL_FEATURES
 70
0
 62
7
  6
CONTINUOUS
370
-3
390
F
  0
LAYER
  5
1FE
100
AcDbSymbolTableRecord
100
AcDbLayerTableRecord
  2
AXES_FEATURES
 70
0
 62
7
  6
CONTINUOUS
370
-3
390
F
  0
LAYER
  5
1FF
100
AcDbSymbolTableRecord
100
AcDbLayerTableRecord
  2
DEFAULT_COORDINATE_SYSTEM
 70
0
 62
7
  6
CONTINUOUS
370
-3
390
F
  0
LAYER
  5
200
100
AcDbSymbolTableRecord
100
AcDbLayerTableRecord
  2
DEFAULT_DATUM_AXES
 70
0
 62
7
  6
CONTINUOUS
370
-3
390
F
  0
LAYER
  5
201
100
AcDbSymbolTableRecord
100
AcDbLayerTableRecord
  2
DEFAULT_DATUM_PLANES
 70
0
 62
7
  6
CONTINUOUS
370
-3
390
F
  0
LAYER
  5
202
100
AcDbSymbolTableRecord
100
AcDbLayerTableRecord
  2
DIMENSIONS
 70
0
 62
7
  6
CONTINUOUS
370
-3
390
F
  0
ENDTAB
  0
TABLE
  2
STYLE
  5
3
100
AcDbSymbolTable
 70
1
  0
STYLE
  5
11
100
AcDbSymbolTableRecord
100
AcDbTextStyleTableRecord
  2
STANDARD
 70
0
 40
0.0
 41
0.8
 50
0.0
 71
0
 42
0.2
  3
txt
  4

  0
STYLE
  5
203
100
AcDbSymbolTableRecord
100
AcDbTextStyleTableRecord
  2
TEXTSTYLE_1
 70
0
 40
0.0
 41
0.8
 50
0.0
 71
0
 42
0.2
  3
gdt
  4

  0
ENDTAB
  0
TABLE
  2
VIEW
  5
6
100
AcDbSymbolTable
 70
0
  0
ENDTAB
  0
TABLE
  2
UCS
  5
7
100
AcDbSymbolTable
 70
0
  0
ENDTAB
  0
TABLE
  2
APPID
  5
9
100
AcDbSymbolTable
 70
1
  0
APPID
  5
204
100
AcDbSymbolTableRecord
100
AcDbRegAppTableRecord
  2
ACAD
 70
0
  0
ENDTAB
  0
TABLE
  2
BLOCK_RECORD
  5
1
100
AcDbSymbolTable
 70
0
  0
BLOCK_RECORD
  5
205
100
AcDbSymbolTableRecord
100
AcDbBlockTableRecord
  2
*Model_Space
  0
BLOCK_RECORD
  5
206
100
AcDbSymbolTableRecord
100
AcDbBlockTableRecord
  2
*Paper_Space
  0
BLOCK_RECORD
  5
207
100
AcDbSymbolTableRecord
100
AcDbBlockTableRecord
  2
_FILLED
  0
ENDTAB
  0
TABLE
  2
DIMSTYLE
  5
A
100
AcDbSymbolTable
 70
1
100
AcDbDimStyleTable
 71
0
  0
DIMSTYLE
105
208
100
AcDbSymbolTableRecord
100
AcDbDimStyleTableRecord
  2
STANDARD
 70
0
  3

  4

 40
1.0
 41
0.1
 42
0.0625
 43
0.38
 44
0.125
 45
0.0
 46
0.0
 47
0.001
 48
0.001
140
0.08
141
0.09
142
0.0
143
25.4
144
1.0
145
0.0
146
1.0
147
0.09
 71
1.0
 72
0.0
 73
1
 74
1
 75
0
 76
0
 77
0
 78
4
 79
1
170
1
171
2
172
0
173
0
174
0
175
0
176
0
177
0
178
0
270
2
179
3
271
3
272
3
273
2
274
2
275
0
280
0
281
0
282
0
283
1
284
4
285
0
286
0
287
3
288
0
340
11
278
46
341
207
342
207
343
207
344
207
  0
ENDTAB
  0
ENDSEC
  0
SECTION
  2
BLOCKS
  0
BLOCK
  5
20
100
AcDbEntity
  8
0
100
AcDbBlockBegin
  2
*Model_Space
 70
0
 10
0.0
 20
0.0
 30
0.0
  3
*Model_Space
  1

  0
ENDBLK
  5
21
100
AcDbEntity
  8
0
100
AcDbBlockEnd
  0
BLOCK
  5
1C
100
AcDbEntity
  8
0
100
AcDbBlockBegin
  2
*Paper_Space
 70
0
 10
0.0
 20
0.0
 30
0.0
  3
*Paper_Space
  1

  0
ENDBLK
  5
1D
100
AcDbEntity
  8
0
100
AcDbBlockEnd
  0
BLOCK
  5
209
100
AcDbEntity
  8
0
100
AcDbBlockBegin
  2
_FILLED
 70
64
 10
0.0
 20
0.0
  3
_FILLED
  1

  0
SOLID
  5
20A
100
AcDbEntity
  8
0
  6
BYBLOCK
 62
0
100
AcDbTrace
 10
0.0
 20
0.0
 11
-1.0
 21
0.2
 12
-1.0
 22
-0.2
 13
-1.0
 23
-0.2
  0
ENDBLK
  5
20B
100
AcDbEntity
  8
0
  6
BYBLOCK
 62
0
100
AcDbBlockEnd
  0
ENDSEC
  0
SECTION
  2
ENTITIES
  0
LINE
  5
20C
100
AcDbEntity
  8
0
100
AcDbLine
 62
7
  6
CONTINUOUS
 10
9.0091165638
 20
6.9353387276
 11
9.0095048641
 21
6.9437729218
  0
LINE
  5
20D
100
AcDbEntity
  8
0
100
AcDbLine
 62
7
  6
CONTINUOUS
 10
8.9443430287
 20
6.9570278058
 11
8.9447639489
 21
6.9584340963
  0
LINE
  5
20E
100
AcDbEntity
  8
0
100
AcDbLine
 62
7
  6
CONTINUOUS
 10
8.9443442258
 20
7.7065673086
 11
8.9447638649
 21
7.7051605429
  0
LINE
  5
20F
100
AcDbEntity
  8
0
100
AcDbLine
 62
9
  6
CONTINUOUS
 10
8.942677499
 20
6.9576340056
 11
8.9359088871
 21
6.939149237
  0
LINE
  5
210
100
AcDbEntity
  8
0
100
AcDbLine
 62
7
  6
CONTINUOUS
 10
10.5842837807
 20
8.3507648117
 11
10.5799104534
 21
8.3457732025
  0
LINE
  5
211
100
AcDbEntity
  8
0
100
AcDbLine
 62
7
  6
CONTINUOUS
 10
10.5907615447
 20
8.3559083044
 11
10.5842837807
 21
8.3507648117
  0
LINE
  5
212
100
AcDbEntity
  8
0
100
AcDbLine
 62
7
  6
CONTINUOUS
 10
11.0267465141
 20
6.7146835731
 11
11.0678901616
 21
6.7146835731
  0
LINE
  5
213
100
AcDbEntity
  8
0
100
AcDbLine
 62
9
  6
CONTINUOUS
 10
10.7042866186
 20
6.7428485326
 11
11.3903500571
 21
6.7428485326
  0
LINE
  5
214
100
AcDbEntity
  8
0
100
AcDbLine
 62
9
  6
CONTINUOUS
 10
10.5777400272
 20
6.758673671
 11
11.5168966485
 21
6.758673671
  0
LINE
  5
215
100
AcDbEntity
  8
0
100
AcDbLine
 62
7
  6
CONTINUOUS
 10
10.4757415714
 20
9.39479734
 11
10.4757415714
 21
9.1373760842
  0
LINE
  5
216
100
AcDbEntity
  8
0
100
AcDbLine
 62
7
  6
CONTINUOUS
 10
10.7118183379
 20
8.13479734
 11
10.7118183379
 21
8.2443424436
  0
LINE
  5
217
100
AcDbEntity
  8
0
100
AcDbLine
 62
7
  6
CONTINUOUS
 10
10.7229884171
 20
8.3469282256
 11
10.7229884171
 21
8.2643530429
  0
LINE
  5
218
100
AcDbEntity
  8
0
100
AcDbLine
 62
7
  6
CONTINUOUS
 10
10.7472064219
 20
8.3469282256
 11
10.7472064219
 21
8.2643530429
  0
LINE
  5
219
100
AcDbEntity
  8
0
100
AcDbLine
 62
7
  6
CONTINUOUS
 10
10.7615299546
 20
9.39479734
 11
10.7615299546
 21
9.1373760842
  0
LINE
  5
21A
100
AcDbEntity
  8
0
100
AcDbLine
 62
7
  6
CONTINUOUS
 10
10.7728865417
 20
8.3469282256
 11
10.7728865417
 21
8.2643530429
  0
LINE
  5
21B
100
AcDbEntity
  8
0
100
AcDbLine
 62
7
  6
CONTINUOUS
 10
10.7823183379
 20
7.8650456237
 11
10.7823183379
 21
8.09479734
  0
LINE
  5
21C
100
AcDbEntity
  8
0
100
AcDbLine
 62
7
  6
CONTINUOUS
 10
10.7999036657
 20
8.3469282256
 11
10.7999036657
 21
8.2643530429
  0
LINE
  5
21D
100
AcDbEntity
  8
0
100
AcDbLine
 62
7
  6
CONTINUOUS
 10
10.8281261691
 20
8.3469282256
 11
10.8281261691
 21
8.2643530429
  0
LINE
  5
21E
100
AcDbEntity
  8
0
100
AcDbLine
 62
7
  6
CONTINUOUS
 10
10.8348183379
 20
5.5948030905
 11
10.8348183379
 21
6.7260593199
  0
LINE
  5
21F
100
AcDbEntity
  8
0
100
AcDbLine
 62
7
  6
CONTINUOUS
 10
11.5055100543
 20
8.2564370444
 11
11.5139626997
 21
8.2643127735
  0
LINE
  5
220
100
AcDbEntity
  8
0
100
AcDbLine
 62
7
  6
CONTINUOUS
 10
10.8574165547
 20
8.3469282256
 11
10.8574165547
 21
8.2643530429
  0
LINE
  5
221
100
AcDbEntity
  8
0
100
AcDbLine
 62
7
  6
CONTINUOUS
 10
10.8876321227
 20
8.3469282256
 11
10.8876321227
 21
8.2643530429
  0
LINE
  5
222
100
AcDbEntity
  8
0
100
AcDbLine
 62
7
  6
CONTINUOUS
 10
10.9186256659
 20
8.3469282256
 11
10.9186256659
 21
8.2643530429
  0
LINE
  5
223
100
AcDbEntity
  8
0
100
AcDbLine
 62
7
  6
CONTINUOUS
 10
10.9502461869
 20
8.3469282256
 11
10.9502461869
 21
8.2643530429
  0
LINE
  5
224
100
AcDbEntity
  8
0
100
AcDbLine
 62
7
  6
CONTINUOUS
 10
10.9823396336
 20
8.3469282256
 11
10.9823396336
 21
8.2643530429
  0
LINE
  5
225
100
AcDbEntity
  8
0
100
AcDbLine
 62
7
  6
CONTINUOUS
 10
11.01474965
 20
8.3469282256
 11
11.01474965
 21
8.2643530429
  0
LINE
  5
226
100
AcDbEntity
  8
0
100
AcDbLine
 62
9
  6
CONTINUOUS
 10
11.0473183379
 20
8.4199696188
 11
11.0473183379
 21
8.3469282256
  0
LINE
  5
227
100
AcDbEntity
  8
0
100
AcDbLine
 62
7
  6
CONTINUOUS
 10
11.0473183379
 20
8.3469282256
 11
11.0473183379
 21
8.2643530429
  0
LINE
  5
228
100
AcDbEntity
  8
0
100
AcDbLine
 62
9
  6
CONTINUOUS
 10
11.0473183379
 20
8.2643530429
 11
11.0473183379
 21
8.2443424436
  0
LINE
  5
229
100
AcDbEntity
  8
0
100
AcDbLine
 62
9
  6
CONTINUOUS
 10
11.0473183379
 20
6.7971731152
 11
11.0473183379
 21
7.8664195767
  0
LINE
  5
22A
100
AcDbEntity
  8
0
100
AcDbLine
 62
7
  6
CONTINUOUS
 10
11.0798870257
 20
8.3469282256
 11
11.0798870257
 21
8.2643530429
  0
LINE
  5
22B
100
AcDbEntity
  8
0
100
AcDbLine
 62
7
  6
CONTINUOUS
 10
11.1122970421
 20
8.3469282256
 11
11.1122970421
 21
8.2643530429
  0
LINE
  5
22C
100
AcDbEntity
  8
0
100
AcDbLine
 62
7
  6
CONTINUOUS
 10
11.1443904888
 20
8.3469282256
 11
11.1443904888
 21
8.2643530429
  0
LINE
  5
22D
100
AcDbEntity
  8
0
100
AcDbLine
 62
7
  6
CONTINUOUS
 10
11.1760110098
 20
8.3469282256
 11
11.1760110098
 21
8.2643530429
  0
LINE
  5
22E
100
AcDbEntity
  8
0
100
AcDbLine
 62
7
  6
CONTINUOUS
 10
11.207004553
 20
8.3469282256
 11
11.207004553
 21
8.2643530429
  0
LINE
  5
22F
100
AcDbEntity
  8
0
100
AcDbLine
 62
7
  6
CONTINUOUS
 10
11.237220121
 20
8.3469282256
 11
11.237220121
 21
8.2643530429
  0
LINE
  5
230
100
AcDbEntity
  8
0
100
AcDbLine
 62
7
  6
CONTINUOUS
 10
11.2598183379
 20
5.5948030905
 11
11.2598183379
 21
6.7260593199
  0
LINE
  5
231
100
AcDbEntity
  8
0
100
AcDbLine
 62
7
  6
CONTINUOUS
 10
11.2665105066
 20
8.3469282256
 11
11.2665105066
 21
8.2643530429
  0
LINE
  5
232
100
AcDbEntity
  8
0
100
AcDbLine
 62
7
  6
CONTINUOUS
 10
11.29473301
 20
8.3469282256
 11
11.29473301
 21
8.2643530429
  0
LWPOLYLINE
  5
233
100
AcDbEntity
  8
0
100
AcDbPolyline
 62
7
  6
CONTINUOUS
 90
5
 70
0
 10
10.580673976
 20
8.2643127735
 10
10.5891266214
 20
8.2564370444
 10
10.6004554198
 20
8.2498214613
 10
10.6129203908
 20
8.2457412731
 10
10.6259660392
 20
8.2443424436
  0
LINE
  5
234
100
AcDbEntity
  8
0
100
AcDbLine
 62
7
  6
CONTINUOUS
 10
11.3123183379
 20
7.8650180093
 11
11.3123183379
 21
8.09479734
  0
LINE
  5
235
100
AcDbEntity
  8
0
100
AcDbLine
 62
7
  6
CONTINUOUS
 10
11.321750134
 20
8.3469282256
 11
11.321750134
 21
8.2643530429
  0
LINE
  5
236
100
AcDbEntity
  8
0
100
AcDbLine
 62
7
  6
CONTINUOUS
 10
11.3331067211
 20
9.39479734
 11
11.3331067211
 21
9.1373760842
  0
LINE
  5
237
100
AcDbEntity
  8
0
100
AcDbLine
 62
7
  6
CONTINUOUS
 10
11.3474302539
 20
8.3469282256
 11
11.3474302539
 21
8.2643530429
  0
LINE
  5
238
100
AcDbEntity
  8
0
100
AcDbLine
 62
7
  6
CONTINUOUS
 10
11.3716482586
 20
8.3469282256
 11
11.3716482586
 21
8.2643530429
  0
LINE
  5
239
100
AcDbEntity
  8
0
100
AcDbLine
 62
7
  6
CONTINUOUS
 10
11.3828183379
 20
8.13479734
 11
11.3828183379
 21
8.2443424436
  0
LINE
  5
23A
100
AcDbEntity
  8
0
100
AcDbLine
 62
7
  6
CONTINUOUS
 10
11.6188951044
 20
9.39479734
 11
11.6188951044
 21
9.1373760842
  0
LWPOLYLINE
  5
23B
100
AcDbEntity
  8
0
100
AcDbPolyline
 62
7
  6
CONTINUOUS
 90
4
 70
0
 10
11.4686706365
 20
8.2443424436
 10
11.4817162849
 20
8.2457412731
 10
11.4941812559
 20
8.2498214613
 10
11.5055100543
 20
8.2564370444
  0
LINE
  5
23C
100
AcDbEntity
  8
0
100
AcDbLine
 62
7
  6
CONTINUOUS
 10
11.3428183379
 20
8.09479734
 11
10.7518183379
 21
8.09479734
  0
LINE
  5
23D
100
AcDbEntity
  8
0
100
AcDbLine
 62
9
  6
CONTINUOUS
 10
11.3828183379
 20
8.13479734
 11
10.7118183379
 21
8.13479734
  0
LINE
  5
23E
100
AcDbEntity
  8
0
100
AcDbLine
 62
7
  6
CONTINUOUS
 10
10.6259660392
 20
8.2443424436
 11
11.4686706365
 21
8.2443424436
  0
LINE
  5
23F
100
AcDbEntity
  8
0
100
AcDbLine
 62
9
  6
CONTINUOUS
 10
11.5038751305
 20
8.3559083048
 11
10.5907615453
 21
8.3559083048
  0
LINE
  5
240
100
AcDbEntity
  8
0
100
AcDbLine
 62
9
  6
CONTINUOUS
 10
11.4693796175
 20
8.4199696204
 11
10.6252570581
 21
8.4199696204
  0
LWPOLYLINE
  5
241
100
AcDbEntity
  8
0
100
AcDbPolyline
 62
7
  6
CONTINUOUS
 90
3
 70
0
 10
11.5147262035
 20
8.3457732239
 10
11.510352895
 20
8.3507648117
 10
11.503875131
 20
8.3559083044
  0
LINE
  5
242
100
AcDbEntity
  8
0
100
AcDbLine
 62
7
  6
CONTINUOUS
 10
13.085520177
 20
6.9353388492
 11
13.0851311812
 21
6.9437734449
  0
LINE
  5
243
100
AcDbEntity
  8
0
100
AcDbLine
 62
7
  6
CONTINUOUS
 10
13.0855235161
 20
7.7283298711
 11
13.0851323608
 21
7.7198216685
  0
LINE
  5
244
100
AcDbEntity
  8
0
100
AcDbLine
 62
7
  6
CONTINUOUS
 10
13.1502936471
 20
7.7065668742
 11
13.1498729868
 21
7.7051604573
  0
LINE
  5
245
100
AcDbEntity
  8
0
100
AcDbLine
 62
9
  6
CONTINUOUS
 10
13.1519591767
 20
7.7059606745
 11
13.1587277886
 21
7.724445443
  0
LINE
  5
246
100
AcDbEntity
  8
0
100
AcDbLine
 62
7
  6
CONTINUOUS
 10
11.7390387005
 20
9.39479734
 11
10.3555979752
 21
9.39479734
  0
LINE
  5
247
100
AcDbEntity
  8
0
100
AcDbLine
 62
9
  6
CONTINUOUS
 10
11.8089668689
 20
9.5343618186
 11
10.2856698068
 21
9.5343618186
  0
LINE
  5
248
100
AcDbEntity
  8
0
100
AcDbLine
 62
7
  6
CONTINUOUS
 10
13.1502924499
 20
6.9570273714
 11
13.1498726496
 21
6.9584340588
  0
LINE
  5
249
100
AcDbEntity
  8
0
100
AcDbLine
 62
9
  6
CONTINUOUS
 10
11.9775463616
 20
9.6689084071
 11
10.1170903142
 21
9.6689084071
  0
LINE
  5
24A
100
AcDbEntity
  8
0
100
AcDbLine
 62
9
  6
CONTINUOUS
 10
12.0454446084
 20
9.7009337734
 11
10.0491920674
 21
9.7009337734
  0
LINE
  5
24B
100
AcDbEntity
  8
0
100
AcDbLine
 62
9
  6
CONTINUOUS
 10
12.1160124025
 20
9.7432892231
 11
9.9786242732
 21
9.7432892231
  0
LINE
  5
24C
100
AcDbEntity
  8
0
100
AcDbLine
 62
9
  6
CONTINUOUS
 10
12.149213443
 20
9.7881478894
 11
9.9454232327
 21
9.7881478894
  0
LINE
  5
24D
100
AcDbEntity
  8
0
100
AcDbLine
 62
7
  6
CONTINUOUS
 10
12.1829061315
 20
9.9288200589
 11
9.9117305442
 21
9.9288200589
  0
ARC
  5
24E
100
AcDbEntity
  8
0
100
AcDbCircle
 62
7
  6
CONTINUOUS
 10
9.8830384047
 20
3.5885674347
 40
4.2471478237
100
AcDbArc
 50
101.3392132433
 51
101.6919327326
  0
ARC
  5
24F
100
AcDbEntity
  8
0
100
AcDbCircle
 62
7
  6
CONTINUOUS
 10
8.5473171083
 20
6.4287596566
 40
3.6003821801
100
AcDbArc
 50
64.1509412145
 51
65.3456430447
  0
ARC
  5
250
100
AcDbEntity
  8
0
100
AcDbCircle
 62
7
  6
CONTINUOUS
 10
9.1063099459
 20
7.2664875434
 40
0.4886327457
100
AcDbArc
 50
110.4079874078
 51
114.6364404227
  0
ARC
  5
251
100
AcDbEntity
  8
0
100
AcDbCircle
 62
7
  6
CONTINUOUS
 10
9.0993183379
 20
7.2781817275
 40
0.4752409413
100
AcDbArc
 50
101.8533158909
 51
110.1091797148
  0
ARC
  5
252
100
AcDbEntity
  8
0
100
AcDbCircle
 62
9
  6
CONTINUOUS
 10
9.0993183379
 20
7.2781817275
 40
0.455555902
100
AcDbArc
 50
109.8882562678
 51
110.0986667584
  0
ARC
  5
253
100
AcDbEntity
  8
0
100
AcDbCircle
 62
7
  6
CONTINUOUS
 10
6.5841542845
 20
7.6140076943
 40
2.4276507852
100
AcDbArc
 50
2.4980928788
 51
2.699175159
  0
ARC
  5
254
100
AcDbEntity
  8
0
100
AcDbCircle
 62
7
  6
CONTINUOUS
 10
9.4799841935
 20
9.2083314488
 40
2.3374889661
100
AcDbArc
 50
258.7131827951
 51
259.364215702
  0
ARC
  5
255
100
AcDbEntity
  8
0
100
AcDbCircle
 62
7
  6
CONTINUOUS
 10
9.4472511873
 20
9.0439872893
 40
2.1699167493
100
AcDbArc
 50
258.1513239797
 51
258.7114510988
  0
ARC
  5
256
100
AcDbEntity
  8
0
100
AcDbCircle
 62
7
  6
CONTINUOUS
 10
9.4454279903
 20
9.0351638382
 40
2.1609069447
100
AcDbArc
 50
258.1508225661
 51
258.6386502254
  0
ARC
  5
257
100
AcDbEntity
  8
0
100
AcDbCircle
 62
9
  6
CONTINUOUS
 10
9.371587231
 20
8.354751585
 40
1.4649634276
100
AcDbArc
 50
255.0298972184
 51
255.6747264821
  0
ARC
  5
258
100
AcDbEntity
  8
0
100
AcDbCircle
 62
7
  6
CONTINUOUS
 10
9.9039541305
 20
9.2289767427
 40
0.4888424103
100
AcDbArc
 50
38.6609554855
 51
64.1509412145
  0
ARC
  5
259
100
AcDbEntity
  8
0
100
AcDbCircle
 62
7
  6
CONTINUOUS
 10
9.1063707082
 20
7.3972593121
 40
0.4887965573
100
AcDbArc
 50
245.5092262912
 51
249.591082441
  0
ARC
  5
25A
100
AcDbEntity
  8
0
100
AcDbCircle
 62
7
  6
CONTINUOUS
 10
9.0993183379
 20
7.3854129525
 40
0.4752409413
100
AcDbArc
 50
249.8898791426
 51
258.1475253982
  0
ARC
  5
25B
100
AcDbEntity
  8
0
100
AcDbCircle
 62
9
  6
CONTINUOUS
 10
9.0993183379
 20
7.3854129525
 40
0.455555902
100
AcDbArc
 50
249.9013333702
 51
250.1115835606
  0
ARC
  5
25C
100
AcDbEntity
  8
0
100
AcDbCircle
 62
7
  6
CONTINUOUS
 10
9.9936812871
 20
9.3007614145
 40
0.3739337434
100
AcDbArc
 50
14.56496067
 51
38.6609554855
  0
ARC
  5
25D
100
AcDbEntity
  8
0
100
AcDbCircle
 62
7
  6
CONTINUOUS
 10
10.0392103311
 20
9.822846307
 40
0.1
100
AcDbArc
 50
200.3029644135
 51
232.7092061085
  0
ARC
  5
25E
100
AcDbEntity
  8
0
100
AcDbCircle
 62
7
  6
CONTINUOUS
 10
11.0455486132
 20
-17.7158865194
 40
25.5823077434
100
AcDbArc
 50
89.6790036762
 51
89.996036411
  0
ARC
  5
25F
100
AcDbEntity
  8
0
100
AcDbCircle
 62
7
  6
CONTINUOUS
 10
11.0488682587
 20
-17.6004030746
 40
25.4668242846
100
AcDbArc
 50
90.0034870434
 51
90.2973354165
  0
ARC
  5
260
100
AcDbEntity
  8
0
100
AcDbCircle
 62
7
  6
CONTINUOUS
 10
11.6341723508
 20
0.7942429998
 40
7.1005092232
100
AcDbArc
 50
78.1445828183
 51
78.2912675057
  0
ARC
  5
261
100
AcDbEntity
  8
0
100
AcDbCircle
 62
7
  6
CONTINUOUS
 10
10.4603535386
 20
0.7947730259
 40
7.0999677428
100
AcDbArc
 50
101.7086626212
 51
101.8554212789
  0
ARC
  5
262
100
AcDbEntity
  8
0
100
AcDbCircle
 62
7
  6
CONTINUOUS
 10
10.4191104879
 20
0.9921577221
 40
6.8983203512
100
AcDbArc
 50
101.681869433
 51
101.8571156498
  0
ARC
  5
263
100
AcDbEntity
  8
0
100
AcDbCircle
 62
7
  6
CONTINUOUS
 10
11.6756328072
 20
0.9926707972
 40
6.8977963155
100
AcDbArc
 50
78.1429468173
 51
78.3181349237
  0
ARC
  5
264
100
AcDbEntity
  8
0
100
AcDbCircle
 62
9
  6
CONTINUOUS
 10
11.5138074866
 20
1.7888692099
 40
6.1438981293
100
AcDbArc
 50
75.0240761191
 51
75.1779748224
  0
ARC
  5
265
100
AcDbEntity
  8
0
100
AcDbCircle
 62
9
  6
CONTINUOUS
 10
10.5333719154
 20
1.9677944078
 40
5.9587866685
100
AcDbArc
 50
104.8210140412
 51
104.9796859537
  0
ARC
  5
266
100
AcDbEntity
  8
0
100
AcDbCircle
 62
7
  6
CONTINUOUS
 10
12.2094781713
 20
3.5782130784
 40
4.2577169782
100
AcDbArc
 50
78.3083659232
 51
78.6574129009
  0
ARC
  5
267
100
AcDbEntity
  8
0
100
AcDbCircle
 62
7
  6
CONTINUOUS
 10
13.5473195674
 20
6.4287596566
 40
3.6003821801
100
AcDbArc
 50
114.6543569553
 51
115.8490587855
  0
ARC
  5
268
100
AcDbEntity
  8
0
100
AcDbCircle
 62
7
  6
CONTINUOUS
 10
11.6122577338
 20
5.4822308702
 40
1.2799999858
100
AcDbArc
 50
94.2725428121
 51
99.9835471895
  0
ARC
  5
269
100
AcDbEntity
  8
0
100
AcDbCircle
 62
7
  6
CONTINUOUS
 10
10.4823789419
 20
5.4822308702
 40
1.2799999858
100
AcDbArc
 50
80.0164528105
 51
85.7274571879
  0
ARC
  5
26A
100
AcDbEntity
  8
0
100
AcDbCircle
 62
7
  6
CONTINUOUS
 10
12.9889026043
 20
7.2679111746
 40
0.4870976632
100
AcDbArc
 50
64.041078978
 51
69.5966253863
  0
ARC
  5
26B
100
AcDbEntity
  8
0
100
AcDbCircle
 62
7
  6
CONTINUOUS
 10
12.9953183379
 20
7.2781817275
 40
0.4752409413
100
AcDbArc
 50
69.8898746669
 51
78.1477209842
  0
ARC
  5
26C
100
AcDbEntity
  8
0
100
AcDbCircle
 62
9
  6
CONTINUOUS
 10
12.9953183379
 20
7.2781817275
 40
0.455555902
100
AcDbArc
 50
69.9013333686
 51
70.1115835606
  0
ARC
  5
26D
100
AcDbEntity
  8
0
100
AcDbCircle
 62
9
  6
CONTINUOUS
 10
11.0654839036
 20
5.3171679887
 40
0.3104205894
100
AcDbArc
 50
77.6219516773
 51
80.7339033868
  0
ARC
  5
26E
100
AcDbEntity
  8
0
100
AcDbCircle
 62
7
  6
CONTINUOUS
 10
10.545276199
 20
8.4217192444
 40
0.0799999939
100
AcDbArc
 50
304.6503570522
 51
358.74682277
  0
ARC
  5
26F
100
AcDbEntity
  8
0
100
AcDbCircle
 62
7
  6
CONTINUOUS
 10
10.6568378873
 20
8.3142969933
 40
0.0655233582
100
AcDbArc
 50
223.0500973054
 51
229.6612956036
  0
ARC
  5
270
100
AcDbEntity
  8
0
100
AcDbCircle
 62
7
  6
CONTINUOUS
 10
10.646011616
 20
8.313021975
 40
0.064767243
100
AcDbArc
 50
223.4438436613
 51
228.7155845806
  0
ARC
  5
271
100
AcDbEntity
  8
0
100
AcDbCircle
 62
7
  6
CONTINUOUS
 10
10.6372742395
 20
8.3114193058
 40
0.0637368345
100
AcDbArc
 50
223.6696028051
 51
227.5992761656
  0
ARC
  5
272
100
AcDbEntity
  8
0
100
AcDbCircle
 62
7
  6
CONTINUOUS
 10
10.6548000324
 20
8.2986398603
 40
0.062944149
100
AcDbArc
 50
129.9002729488
 51
136.8155186763
  0
ARC
  5
273
100
AcDbEntity
  8
0
100
AcDbCircle
 62
7
  6
CONTINUOUS
 10
10.6270234938
 20
8.3051714339
 40
0.0626052434
100
AcDbArc
 50
166.8194579072
 51
172.2259451292
  0
ARC
  5
274
100
AcDbEntity
  8
0
100
AcDbCircle
 62
7
  6
CONTINUOUS
 10
10.6306646484
 20
8.3094953165
 40
0.0624441167
100
AcDbArc
 50
223.7021598951
 51
226.2963195983
  0
ARC
  5
275
100
AcDbEntity
  8
0
100
AcDbCircle
 62
7
  6
CONTINUOUS
 10
10.6265522335
 20
8.3053022307
 40
0.0621165767
100
AcDbArc
 50
160.3434080287
 51
166.8378082192
  0
ARC
  5
276
100
AcDbEntity
  8
0
100
AcDbCircle
 62
7
  6
CONTINUOUS
 10
10.643785454
 20
8.3000477057
 40
0.0619564967
100
AcDbArc
 50
130.8286394894
 51
136.366060505
  0
ARC
  5
277
100
AcDbEntity
  8
0
100
AcDbCircle
 62
7
  6
CONTINUOUS
 10
10.6258023526
 20
8.3053424541
 40
0.0613721922
100
AcDbArc
 50
172.2299300321
 51
179.6301304543
  0
ARC
  5
278
100
AcDbEntity
  8
0
100
AcDbCircle
 62
7
  6
CONTINUOUS
 10
10.6256478447
 20
8.3060815636
 40
0.0613348406
100
AcDbArc
 50
209.728920768
 51
210.5114809456
  0
ARC
  5
279
100
AcDbEntity
  8
0
100
AcDbCircle
 62
7
  6
CONTINUOUS
 10
10.6255335988
 20
8.3060245577
 40
0.0612073629
100
AcDbArc
 50
202.303280505
 51
209.7356151803
  0
ARC
  5
27A
100
AcDbEntity
  8
0
100
AcDbCircle
 62
7
  6
CONTINUOUS
 10
10.6262215997
 20
8.307269971
 40
0.0609203344
100
AcDbArc
 50
223.5091878791
 51
224.7872457173
  0
ARC
  5
27B
100
AcDbEntity
  8
0
100
AcDbCircle
 62
7
  6
CONTINUOUS
 10
10.6253770577
 20
8.3057412609
 40
0.0608622043
100
AcDbArc
 50
153.6504194779
 51
160.3604833554
  0
ARC
  5
27C
100
AcDbEntity
  8
0
100
AcDbCircle
 62
7
  6
CONTINUOUS
 10
10.6348840666
 20
8.3017449553
 40
0.0607366425
100
AcDbArc
 50
131.9334864607
 51
136.0767287168
  0
ARC
  5
27D
100
AcDbEntity
  8
0
100
AcDbCircle
 62
7
  6
CONTINUOUS
 10
10.6251200718
 20
8.3057544748
 40
0.0607140847
100
AcDbArc
 50
210.4984203192
 51
222.9929366062
  0
ARC
  5
27E
100
AcDbEntity
  8
0
100
AcDbCircle
 62
7
  6
CONTINUOUS
 10
10.6247396576
 20
8.3057053747
 40
0.0603516855
100
AcDbArc
 50
197.0073312559
 51
202.3089801333
  0
ARC
  5
27F
100
AcDbEntity
  8
0
100
AcDbCircle
 62
7
  6
CONTINUOUS
 10
10.6245499322
 20
8.3056451905
 40
0.0601526538
100
AcDbArc
 50
192.7895586222
 51
197.0053704507
  0
ARC
  5
280
100
AcDbEntity
  8
0
100
AcDbCircle
 62
7
  6
CONTINUOUS
 10
10.6241925274
 20
8.3053576647
 40
0.0597623026
100
AcDbArc
 50
179.6347498057
 51
184.3751866862
  0
ARC
  5
281
100
AcDbEntity
  8
0
100
AcDbCircle
 62
7
  6
CONTINUOUS
 10
10.6281430315
 20
8.3037151883
 40
0.0593091939
100
AcDbArc
 50
133.2303391042
 51
135.9740351084
  0
ARC
  5
282
100
AcDbEntity
  8
0
100
AcDbCircle
 62
7
  6
CONTINUOUS
 10
10.6226947575
 20
8.3052820266
 40
0.05826314
100
AcDbArc
 50
184.4133848318
 51
192.8451478388
  0
ARC
  5
283
100
AcDbEntity
  8
0
100
AcDbCircle
 62
7
  6
CONTINUOUS
 10
10.6236079174
 20
8.3059312842
 40
0.0577147315
100
AcDbArc
 50
134.7376135195
 51
136.0924246584
  0
ARC
  5
284
100
AcDbEntity
  8
0
100
AcDbCircle
 62
7
  6
CONTINUOUS
 10
10.7518183379
 20
8.13479734
 40
0.04
100
AcDbArc
 50
180.0
 51
270.0
  0
ARC
  5
285
100
AcDbEntity
  8
0
100
AcDbCircle
 62
7
  6
CONTINUOUS
 10
10.5154996031
 20
9.9990590737
 40
0.6078409296
100
AcDbArc
 50
186.6356334607
 51
200.3029644135
  0
ARC
  5
286
100
AcDbEntity
  8
0
100
AcDbCircle
 62
7
  6
CONTINUOUS
 10
10.2051759873
 20
10.0407800051
 40
0.3739337434
100
AcDbArc
 50
232.7092061085
 51
245.3456430447
  0
ARC
  5
287
100
AcDbEntity
  8
0
100
AcDbCircle
 62
7
  6
CONTINUOUS
 10
11.0267465141
 20
8.5746835731
 40
1.86
100
AcDbArc
 50
260.0164436266
 51
270.0
  0
ARC
  5
288
100
AcDbEntity
  8
0
100
AcDbCircle
 62
7
  6
CONTINUOUS
 10
11.0678901616
 20
8.5746835731
 40
1.86
100
AcDbArc
 50
270.0
 51
279.9835563734
  0
ARC
  5
289
100
AcDbEntity
  8
0
100
AcDbCircle
 62
7
  6
CONTINUOUS
 10
11.5493604768
 20
8.4217192444
 40
0.0799999939
100
AcDbArc
 50
181.25317723
 51
235.3496429478
  0
ARC
  5
28A
100
AcDbEntity
  8
0
100
AcDbCircle
 62
7
  6
CONTINUOUS
 10
11.4373829491
 20
8.3147329899
 40
0.0661248723
100
AcDbArc
 50
310.3688084173
 51
316.9197574854
  0
ARC
  5
28B
100
AcDbEntity
  8
0
100
AcDbCircle
 62
7
  6
CONTINUOUS
 10
11.4483730769
 20
8.3132836389
 40
0.0651301284
100
AcDbArc
 50
311.2991116365
 51
316.5414572262
  0
ARC
  5
28C
100
AcDbEntity
  8
0
100
AcDbCircle
 62
7
  6
CONTINUOUS
 10
11.4572436534
 20
8.3115407467
 40
0.0639066091
100
AcDbArc
 50
312.4059469888
 51
316.3251463603
  0
ARC
  5
28D
100
AcDbEntity
  8
0
100
AcDbCircle
 62
7
  6
CONTINUOUS
 10
11.4639456586
 20
8.3095216828
 40
0.0624813965
100
AcDbArc
 50
313.7044555272
 51
316.2970454733
  0
ARC
  5
28E
100
AcDbEntity
  8
0
100
AcDbCircle
 62
7
  6
CONTINUOUS
 10
11.4677435196
 20
8.3051955354
 40
0.0624728439
100
AcDbArc
 50
7.768719036
 51
13.1863789453
  0
ARC
  5
28F
100
AcDbEntity
  8
0
100
AcDbCircle
 62
7
  6
CONTINUOUS
 10
11.4402256349
 20
8.2990518114
 40
0.0623786052
100
AcDbArc
 50
43.1530762246
 51
50.1311147771
  0
ARC
  5
290
100
AcDbEntity
  8
0
100
AcDbCircle
 62
7
  6
CONTINUOUS
 10
11.4678626752
 20
8.3052369212
 40
0.0623473904
100
AcDbArc
 50
13.1743285606
 51
19.6448938362
  0
ARC
  5
291
100
AcDbEntity
  8
0
100
AcDbCircle
 62
7
  6
CONTINUOUS
 10
11.4510800451
 20
8.3002880177
 40
0.0616250578
100
AcDbArc
 50
43.6190458141
 51
49.1862622333
  0
ARC
  5
292
100
AcDbEntity
  8
0
100
AcDbCircle
 62
7
  6
CONTINUOUS
 10
11.4690226368
 20
8.3060638277
 40
0.061296689
100
AcDbArc
 50
329.4907784163
 51
337.6923519791
  0
ARC
  5
293
100
AcDbEntity
  8
0
100
AcDbCircle
 62
7
  6
CONTINUOUS
 10
11.4689289658
 20
8.3053491844
 40
0.061277509
100
AcDbArc
 50
0.3641519303
 51
7.7762025048
  0
ARC
  5
294
100
AcDbEntity
  8
0
100
AcDbCircle
 62
7
  6
CONTINUOUS
 10
11.4690009356
 20
8.3056314868
 40
0.0611427354
100
AcDbArc
 50
19.6552688678
 51
26.3341889449
  0
ARC
  5
295
100
AcDbEntity
  8
0
100
AcDbCircle
 62
7
  6
CONTINUOUS
 10
11.4684310109
 20
8.3072545021
 40
0.0608981275
100
AcDbArc
 50
315.2125218869
 51
316.4910342406
  0
ARC
  5
296
100
AcDbEntity
  8
0
100
AcDbCircle
 62
7
  6
CONTINUOUS
 10
11.4598528778
 20
8.3018487665
 40
0.0605924092
100
AcDbArc
 50
43.9183251507
 51
48.0714479704
  0
ARC
  5
297
100
AcDbEntity
  8
0
100
AcDbCircle
 62
7
  6
CONTINUOUS
 10
11.4697555135
 20
8.3057559225
 40
0.0605017873
100
AcDbArc
 50
337.6986743103
 51
342.9864449603
  0
ARC
  5
298
100
AcDbEntity
  8
0
100
AcDbCircle
 62
7
  6
CONTINUOUS
 10
11.4697807264
 20
8.3055572869
 40
0.0603864422
100
AcDbArc
 50
316.9730229866
 51
329.5379002348
  0
ARC
  5
299
100
AcDbEntity
  8
0
100
AcDbCircle
 62
7
  6
CONTINUOUS
 10
11.4700562207
 20
8.305653294
 40
0.0601842123
100
AcDbArc
 50
342.9961085653
 51
347.2091736509
  0
ARC
  5
29A
100
AcDbEntity
  8
0
100
AcDbCircle
 62
7
  6
CONTINUOUS
 10
11.4708733131
 20
8.3053426446
 40
0.0593332456
100
AcDbArc
 50
355.6080737757
 51
0.3824001959
  0
ARC
  5
29B
100
AcDbEntity
  8
0
100
AcDbCircle
 62
7
  6
CONTINUOUS
 10
11.4665070634
 20
8.3037287941
 40
0.0592900894
100
AcDbArc
 50
44.0255137208
 51
46.7701037901
  0
ARC
  5
29C
100
AcDbEntity
  8
0
100
AcDbCircle
 62
7
  6
CONTINUOUS
 10
11.4713855816
 20
8.3053664603
 40
0.0588243387
100
AcDbArc
 50
347.1949583984
 51
355.5467356022
  0
ARC
  5
29D
100
AcDbEntity
  8
0
100
AcDbCircle
 62
7
  6
CONTINUOUS
 10
11.4710061566
 20
8.305909007
 40
0.0577464643
100
AcDbArc
 50
43.9079427928
 51
45.2620146461
  0
ARC
  5
29E
100
AcDbEntity
  8
0
100
AcDbCircle
 62
7
  6
CONTINUOUS
 10
11.3428183379
 20
8.13479734
 40
0.04
100
AcDbArc
 50
270.0
 51
360.0
  0
ARC
  5
29F
100
AcDbEntity
  8
0
100
AcDbCircle
 62
7
  6
CONTINUOUS
 10
11.5791370726
 20
9.9990590737
 40
0.6078409296
100
AcDbArc
 50
339.6970355865
 51
353.3643665393
  0
ARC
  5
2A0
100
AcDbEntity
  8
0
100
AcDbCircle
 62
7
  6
CONTINUOUS
 10
11.0476897647
 20
32.4079389782
 40
25.6107654636
100
AcDbArc
 50
269.999169053
 51
270.4535416434
  0
ARC
  5
2A1
100
AcDbEntity
  8
0
100
AcDbCircle
 62
7
  6
CONTINUOUS
 10
11.0469467756
 20
32.4078874834
 40
25.6107139689
100
AcDbArc
 50
269.5463743755
 51
270.0008312516
  0
ARC
  5
2A2
100
AcDbEntity
  8
0
100
AcDbCircle
 62
7
  6
CONTINUOUS
 10
12.5562962329
 20
9.5215555539
 40
2.6561025394
100
AcDbArc
 50
279.6254548852
 51
280.6258426486
  0
ARC
  5
2A3
100
AcDbEntity
  8
0
100
AcDbCircle
 62
7
  6
CONTINUOUS
 10
12.6143795216
 20
9.209755113
 40
2.3389385515
100
AcDbArc
 50
280.6358138947
 51
281.2773151862
  0
ARC
  5
2A4
100
AcDbEntity
  8
0
100
AcDbCircle
 62
7
  6
CONTINUOUS
 10
12.6146524824
 20
9.2083314477
 40
2.337488965
100
AcDbArc
 50
280.6357843051
 51
281.2868172047
  0
ARC
  5
2A5
100
AcDbEntity
  8
0
100
AcDbCircle
 62
7
  6
CONTINUOUS
 10
12.6473944697
 20
9.0439430471
 40
2.1698716049
100
AcDbArc
 50
281.288545015
 51
281.8490532952
  0
ARC
  5
2A6
100
AcDbEntity
  8
0
100
AcDbCircle
 62
7
  6
CONTINUOUS
 10
12.6492282622
 20
9.0350692104
 40
2.1608103135
100
AcDbArc
 50
281.3621438368
 51
281.8491754186
  0
ARC
  5
2A7
100
AcDbEntity
  8
0
100
AcDbCircle
 62
9
  6
CONTINUOUS
 10
12.7263735139
 20
8.3420334572
 40
1.4518182886
100
AcDbArc
 50
284.3223578066
 51
284.9730243722
  0
ARC
  5
2A8
100
AcDbEntity
  8
0
100
AcDbCircle
 62
7
  6
CONTINUOUS
 10
12.1906825452
 20
9.2289767427
 40
0.4888424103
100
AcDbArc
 50
115.8490587855
 51
141.3390445145
  0
ARC
  5
2A9
100
AcDbEntity
  8
0
100
AcDbCircle
 62
7
  6
CONTINUOUS
 10
12.9885722967
 20
7.3964963588
 40
0.4879746748
100
AcDbArc
 50
290.4059655408
 51
295.2119718359
  0
ARC
  5
2AA
100
AcDbEntity
  8
0
100
AcDbCircle
 62
7
  6
CONTINUOUS
 10
12.9953183379
 20
7.3854129525
 40
0.4752409413
100
AcDbArc
 50
281.8541621344
 51
290.1095422272
  0
ARC
  5
2AB
100
AcDbEntity
  8
0
100
AcDbCircle
 62
9
  6
CONTINUOUS
 10
12.9953183379
 20
7.3854129525
 40
0.455555902
100
AcDbArc
 50
289.8882562678
 51
290.0986667584
  0
ARC
  5
2AC
100
AcDbEntity
  8
0
100
AcDbCircle
 62
7
  6
CONTINUOUS
 10
11.8894606884
 20
10.0407800051
 40
0.3739337434
100
AcDbArc
 50
294.6543569553
 51
307.2907938915
  0
ARC
  5
2AD
100
AcDbEntity
  8
0
100
AcDbCircle
 62
7
  6
CONTINUOUS
 10
12.1009553886
 20
9.3007614145
 40
0.3739337434
100
AcDbArc
 50
141.3390445145
 51
165.43503933
  0
ARC
  5
2AE
100
AcDbEntity
  8
0
100
AcDbCircle
 62
7
  6
CONTINUOUS
 10
12.0554263446
 20
9.822846307
 40
0.1
100
AcDbArc
 50
307.2907938915
 51
339.6970355865
  0
SPLINE
  5
2AF
100
AcDbEntity
  8
0
100
AcDbSpline
 62
7
  6
CONTINUOUS
 70
0
 71
3
 72
50
 73
46
 74
0
 42
0.0000001
 43
0.0000001
 44
0.0000000001
 40
0.0
 40
0.0
 40
0.0
 40
0.0
 40
0.0619736342
 40
0.1240292704
 40
0.1861004295
 40
0.2480969178
 40
0.3099104086
 40
0.371419776
 40
0.4020203365
 40
0.4324962713
 40
0.4628311575
 40
0.4930510656
 40
0.5233327188
 40
0.5538886272
 40
0.5693370624
 40
0.5849357261
 40
0.6007125262
 40
0.6166957392
 40
0.6247737127
 40
0.632907933
 40
0.6410785998
 40
0.6492633846
 40
0.6655896916
 40
0.6817290464
 40
0.6975494811
 40
0.7129571796
 40
0.7279125335
 40
0.7352312193
 40
0.7424577239
 40
0.7496120214
 40
0.7567220742
 40
0.7638214973
 40
0.7709410672
 40
0.7853349273
 40
0.8000707831
 40
0.8152423662
 40
0.8308881375
 40
0.847002125
 40
0.8635437902
 40
0.880446153
 40
0.8976221403
 40
0.9149694191
 40
0.932374041
 40
0.9668535814
 40
1.0
 40
1.0
 40
1.0
 40
1.0
 10
10.6252570258
 20
8.4199696193
 30
0.0
 10
10.6256439647
 20
8.4376578024
 30
0.0
 10
10.6270318659
 20
8.4730460922
 30
0.0
 10
10.6306558723
 20
8.5260564216
 30
0.0
 10
10.6355310593
 20
8.5789713169
 30
0.0
 10
10.641365151
 20
8.6317176345
 30
0.0
 10
10.647866253
 20
8.6842231281
 30
0.0
 10
10.6536063286
 20
8.7277892846
 30
0.0
 10
10.6582443343
 20
8.7624767464
 30
0.0
 10
10.6617012276
 20
8.7883431681
 30
0.0
 10
10.6651080139
 20
8.8141066231
 30
0.0
 10
10.6684344433
 20
8.8398247476
 30
0.0
 10
10.671582449
 20
8.865629127
 30
0.0
 10
10.6739739478
 20
8.887276506
 30
0.0
 10
10.675707276
 20
8.9047776597
 30
0.0
 10
10.6769129126
 20
8.918090781
 30
0.0
 10
10.6780084792
 20
8.9315666137
 30
0.0
 10
10.6788174744
 20
8.9429110889
 30
0.0
 10
10.6793994394
 20
8.9520839199
 30
0.0
 10
10.6798013654
 20
8.9590332457
 30
0.0
 10
10.6801452695
 20
8.9660163053
 30
0.0
 10
10.6804981302
 20
8.9753398457
 30
0.0
 10
10.6806889645
 20
8.9869456509
 30
0.0
 10
10.6803512105
 20
9.0007314289
 30
0.0
 10
10.6792759451
 20
9.0142203106
 30
0.0
 10
10.6772908402
 20
9.0272680224
 30
0.0
 10
10.6747108746
 20
9.0377331677
 30
0.0
 10
10.6720050621
 20
9.0457133619
 30
0.0
 10
10.6696526315
 20
9.0514489492
 30
0.0
 10
10.6669409519
 20
9.0569583142
 30
0.0
 10
10.6638474302
 20
9.0622209326
 30
0.0
 10
10.6603894877
 20
9.0672391281
 30
0.0
 10
10.6552994101
 20
9.0736347439
 30
0.0
 10
10.6480683309
 20
9.0810786233
 30
0.0
 10
10.6382490105
 20
9.0890864645
 30
0.0
 10
10.6273871246
 20
9.0962714734
 30
0.0
 10
10.6156134093
 20
9.1026941965
 30
0.0
 10
10.6030555584
 20
9.1084143085
 30
0.0
 10
10.5898411047
 20
9.1134887318
 30
0.0
 10
10.5760977288
 20
9.1179729975
 30
0.0
 10
10.5619536083
 20
9.1219215866
 30
0.0
 10
10.5475373917
 20
9.1253885532
 30
0.0
 10
10.5281875274
 20
9.1294269106
 30
0.0
 10
10.5042494084
 20
9.1335019253
 30
0.0
 10
10.4851241849
 20
9.1361472838
 30
0.0
 10
10.4757415714
 20
9.1373760842
 30
0.0
  0
SPLINE
  5
2B0
100
AcDbEntity
  8
0
100
AcDbSpline
 62
7
  6
CONTINUOUS
 70
0
 71
3
 72
50
 73
46
 74
0
 42
0.0000001
 43
0.0000001
 44
0.0000000001
 40
0.0
 40
0.0
 40
0.0
 40
0.0
 40
0.0619736342
 40
0.1240292704
 40
0.1861004295
 40
0.2480969178
 40
0.3099104086
 40
0.371419776
 40
0.4020203365
 40
0.4324962713
 40
0.4628311575
 40
0.4930510656
 40
0.5233327188
 40
0.5538886272
 40
0.5693370624
 40
0.5849357261
 40
0.6007125262
 40
0.6166957392
 40
0.6247737127
 40
0.632907933
 40
0.6410785998
 40
0.6492633846
 40
0.6655896916
 40
0.6817290464
 40
0.6975494811
 40
0.7129571796
 40
0.7279125335
 40
0.7352312193
 40
0.7424577239
 40
0.7496120214
 40
0.7567220742
 40
0.7638214973
 40
0.7709410672
 40
0.7853349273
 40
0.8000707831
 40
0.8152423662
 40
0.8308881375
 40
0.847002125
 40
0.8635437902
 40
0.880446153
 40
0.8976221403
 40
0.9149694191
 40
0.932374041
 40
0.9668535814
 40
1.0
 40
1.0
 40
1.0
 40
1.0
 10
11.4693796499
 20
8.4199696193
 30
0.0
 10
11.468992711
 20
8.4376578024
 30
0.0
 10
11.4676048098
 20
8.4730460922
 30
0.0
 10
11.4639808034
 20
8.5260564216
 30
0.0
 10
11.4591056165
 20
8.5789713169
 30
0.0
 10
11.4532715247
 20
8.6317176345
 30
0.0
 10
11.4467704227
 20
8.6842231281
 30
0.0
 10
11.4410303471
 20
8.7277892846
 30
0.0
 10
11.4363923415
 20
8.7624767464
 30
0.0
 10
11.4329354481
 20
8.7883431681
 30
0.0
 10
11.4295286618
 20
8.8141066231
 30
0.0
 10
11.4262022325
 20
8.8398247476
 30
0.0
 10
11.4230542267
 20
8.865629127
 30
0.0
 10
11.4206627279
 20
8.887276506
 30
0.0
 10
11.4189293998
 20
8.9047776597
 30
0.0
 10
11.4177237631
 20
8.918090781
 30
0.0
 10
11.4166281965
 20
8.9315666137
 30
0.0
 10
11.4158192013
 20
8.9429110889
 30
0.0
 10
11.4152372363
 20
8.9520839199
 30
0.0
 10
11.4148353103
 20
8.9590332457
 30
0.0
 10
11.4144914062
 20
8.9660163053
 30
0.0
 10
11.4141385455
 20
8.9753398457
 30
0.0
 10
11.4139477112
 20
8.9869456509
 30
0.0
 10
11.4142854653
 20
9.0007314289
 30
0.0
 10
11.4153607306
 20
9.0142203106
 30
0.0
 10
11.4173458355
 20
9.0272680224
 30
0.0
 10
11.4199258011
 20
9.0377331677
 30
0.0
 10
11.4226316136
 20
9.0457133619
 30
0.0
 10
11.4249840442
 20
9.0514489492
 30
0.0
 10
11.4276957238
 20
9.0569583142
 30
0.0
 10
11.4307892455
 20
9.0622209326
 30
0.0
 10
11.434247188
 20
9.0672391281
 30
0.0
 10
11.4393372656
 20
9.0736347439
 30
0.0
 10
11.4465683448
 20
9.0810786233
 30
0.0
 10
11.4563876652
 20
9.0890864645
 30
0.0
 10
11.4672495511
 20
9.0962714734
 30
0.0
 10
11.4790232664
 20
9.1026941965
 30
0.0
 10
11.4915811174
 20
9.1084143085
 30
0.0
 10
11.504795571
 20
9.1134887318
 30
0.0
 10
11.5185389469
 20
9.1179729975
 30
0.0
 10
11.5326830674
 20
9.1219215866
 30
0.0
 10
11.547099284
 20
9.1253885532
 30
0.0
 10
11.5664491483
 20
9.1294269106
 30
0.0
 10
11.5903872673
 20
9.1335019253
 30
0.0
 10
11.6095124908
 20
9.1361472838
 30
0.0
 10
11.6188951044
 20
9.1373760842
 30
0.0
  0
SPLINE
  5
2B1
100
AcDbEntity
  8
0
100
AcDbSpline
 62
7
  6
CONTINUOUS
 70
0
 71
3
 72
18
 73
14
 74
0
 42
0.0000001
 43
0.0000001
 44
0.0000000001
 40
0.0
 40
0.0
 40
0.0
 40
0.0
 40
0.1104185758
 40
0.2318502699
 40
0.3628922046
 40
0.4310351841
 40
0.5000581595
 40
0.5690814064
 40
0.6372360724
 40
0.7038165455
 40
0.7681921915
 40
0.8893739359
 40
1.0
 40
1.0
 40
1.0
 40
1.0
 10
11.507116469
 20
8.3469282256
 30
0.0
 10
11.5090467944
 20
8.3443366667
 30
0.0
 10
11.512609589
 20
8.3385166383
 30
0.0
 10
11.5166124282
 20
8.3286349862
 30
0.0
 10
11.5187691898
 20
8.3194624745
 30
0.0
 10
11.5197072319
 20
8.3116634836
 30
0.0
 10
11.5199636463
 20
8.3056283444
 30
0.0
 10
11.5197492247
 20
8.2995910391
 30
0.0
 10
11.519044895
 20
8.2936630366
 30
0.0
 10
11.5178999065
 20
8.2879431321
 30
0.0
 10
11.5158843505
 20
8.280838266
 30
0.0
 10
11.5125721195
 20
8.2727896994
 30
0.0
 10
11.5090297876
 20
8.2669647142
 30
0.0
 10
11.507116469
 20
8.2643530429
 30
0.0
  0
SPLINE
  5
2B2
100
AcDbEntity
  8
0
100
AcDbSpline
 62
7
  6
CONTINUOUS
 70
0
 71
3
 72
18
 73
14
 74
0
 42
0.0000001
 43
0.0000001
 44
0.0000000001
 40
0.0
 40
0.0
 40
0.0
 40
0.0
 40
0.1068542919
 40
0.2275655006
 40
0.3601332498
 40
0.4295822626
 40
0.5000923083
 40
0.5706088843
 40
0.6400750569
 40
0.7076200816
 40
0.7724813704
 40
0.8928788637
 40
1.0
 40
1.0
 40
1.0
 40
1.0
 10
11.4913583116
 20
8.3469282256
 30
0.0
 10
11.4929124642
 20
8.344292084
 30
0.0
 10
11.49575312
 20
8.3383942817
 30
0.0
 10
11.4988960899
 20
8.3285424586
 30
0.0
 10
11.5005849669
 20
8.3194297589
 30
0.0
 10
11.5013244152
 20
8.3116564004
 30
0.0
 10
11.5015268455
 20
8.3056280534
 30
0.0
 10
11.5013575757
 20
8.2995981095
 30
0.0
 10
11.5008013746
 20
8.2936767013
 30
0.0
 10
11.4998971311
 20
8.2879623898
 30
0.0
 10
11.4983116368
 20
8.2808940608
 30
0.0
 10
11.495721789
 20
8.2729067719
 30
0.0
 10
11.4928972127
 20
8.2670069545
 30
0.0
 10
11.4913583116
 20
8.2643530429
 30
0.0
  0
SPLINE
  5
2B3
100
AcDbEntity
  8
0
100
AcDbSpline
 62
7
  6
CONTINUOUS
 70
0
 71
3
 72
17
 73
13
 74
0
 42
0.0000001
 43
0.0000001
 44
0.0000000001
 40
0.0
 40
0.0
 40
0.0
 40
0.0
 40
0.0497181369
 40
0.1036884605
 40
0.2238027491
 40
0.3577501859
 40
0.5001446327
 40
0.5719788225
 40
0.6426072026
 40
0.7762902259
 40
0.896033643
 40
1.0
 40
1.0
 40
1.0
 40
1.0
 10
11.4669574212
 20
8.3469282256
 30
0.0
 10
11.4675016111
 20
8.3456410719
 30
0.0
 10
11.4685457572
 20
8.3429176734
 30
0.0
 10
11.4704507096
 20
8.3369194659
 30
0.0
 10
11.4723761482
 20
8.3284611762
 30
0.0
 10
11.473841406
 20
8.3174012125
 30
0.0
 10
11.4742893882
 20
8.3076113923
 30
0.0
 10
11.4741283406
 20
8.2996038338
 30
0.0
 10
11.4736069907
 20
8.2918572595
 30
0.0
 10
11.4723861639
 20
8.2828165882
 30
0.0
 10
11.4701165345
 20
8.273016691
 30
0.0
 10
11.4680794512
 20
8.2670513107
 30
0.0
 10
11.4669574212
 20
8.2643530429
 30
0.0
  0
SPLINE
  5
2B4
100
AcDbEntity
  8
0
100
AcDbSpline
 62
7
  6
CONTINUOUS
 70
0
 71
3
 72
17
 73
13
 74
0
 42
0.0000001
 43
0.0000001
 44
0.0000000001
 40
0.0
 40
0.0
 40
0.0
 40
0.0
 40
0.0482099617
 40
0.1012322922
 40
0.2209223958
 40
0.3559061796
 40
0.5001508733
 40
0.5729586367
 40
0.644448395
 40
0.7791417027
 40
0.8984181323
 40
1.0
 40
1.0
 40
1.0
 40
1.0
 10
11.4343887334
 20
8.3469282256
 30
0.0
 10
11.4347102425
 20
8.345630699
 30
0.0
 10
11.435325041
 20
8.3428909735
 30
0.0
 10
11.4364448672
 20
8.3368673667
 30
0.0
 10
11.4375699147
 20
8.3284039644
 30
0.0
 10
11.4384245528
 20
8.3173713233
 30
0.0
 10
11.4386857299
 20
8.3076088674
 30
0.0
 10
11.4385915672
 20
8.2996078676
 30
0.0
 10
11.4382867614
 20
8.2918772519
 30
0.0
 10
11.4375763707
 20
8.2828759035
 30
0.0
 10
11.4362535551
 20
8.2731014748
 30
0.0
 10
11.4350556662
 20
8.2670896079
 30
0.0
 10
11.4343887334
 20
8.2643530429
 30
0.0
  0
SPLINE
  5
2B5
100
AcDbEntity
  8
0
100
AcDbSpline
 62
7
  6
CONTINUOUS
 70
0
 71
3
 72
15
 73
11
 74
0
 42
0.0000001
 43
0.0000001
 44
0.0000000001
 40
0.0
 40
0.0
 40
0.0
 40
0.0
 40
0.0999758841
 40
0.2194604373
 40
0.3549733929
 40
0.5001521689
 40
0.6453751774
 40
0.7805846442
 40
0.8996337995
 40
1.0
 40
1.0
 40
1.0
 40
1.0
 10
11.3942861606
 20
8.3469282256
 30
0.0
 10
11.3944728599
 20
8.3441811899
 30
0.0
 10
11.3948034157
 20
8.3381456627
 30
0.0
 10
11.3951595969
 20
8.3283756731
 30
0.0
 10
11.3953931571
 20
8.3173567497
 30
0.0
 10
11.3954796367
 20
8.3056268437
 30
0.0
 10
11.3953994094
 20
8.2939052087
 30
0.0
 10
11.3951612179
 20
8.2829054812
 30
0.0
 10
11.3947995339
 20
8.2731453151
 30
0.0
 10
11.3944705207
 20
8.2671110101
 30
0.0
 10
11.3942861606
 20
8.2643530429
 30
0.0
  0
SPLINE
  5
2B6
100
AcDbEntity
  8
0
100
AcDbSpline
 62
7
  6
CONTINUOUS
 70
0
 71
3
 72
18
 73
14
 74
0
 42
0.0000001
 43
0.0000001
 44
0.0000000001
 40
0.0
 40
0.0
 40
0.0
 40
0.0
 40
0.1122119151
 40
0.2340279455
 40
0.3643029303
 40
0.4317790822
 40
0.5000401449
 40
0.5682981734
 40
0.6357831606
 40
0.7018753577
 40
0.7660110342
 40
0.8876093617
 40
1.0
 40
1.0
 40
1.0
 40
1.0
 10
11.5116519171
 20
8.3469282256
 30
0.0
 10
11.5137535802
 20
8.3443565681
 30
0.0
 10
11.5176467965
 20
8.3385761468
 30
0.0
 10
11.5220550071
 20
8.3286831097
 30
0.0
 10
11.5244345429
 20
8.3194801161
 30
0.0
 10
11.5254660268
 20
8.3116673358
 30
0.0
 10
11.5257477533
 20
8.3056285101
 30
0.0
 10
11.5255121566
 20
8.299587192
 30
0.0
 10
11.5247384129
 20
8.2936556742
 30
0.0
 10
11.5234806949
 20
8.2879329546
 30
0.0
 10
11.5212622235
 20
8.2808094536
 30
0.0
 10
11.5176069022
 20
8.2727328048
 30
0.0
 10
11.5137359684
 20
8.2669457837
 30
0.0
 10
11.5116519171
 20
8.2643530429
 30
0.0
  0
SPLINE
  5
2B7
100
AcDbEntity
  8
0
100
AcDbSpline
 62
7
  6
CONTINUOUS
 70
0
 71
3
 72
18
 73
14
 74
0
 42
0.0000001
 43
0.0000001
 44
0.0000000001
 40
0.0
 40
0.0
 40
0.0
 40
0.0
 40
0.1086180868
 40
0.2296786213
 40
0.3614911645
 40
0.4302970827
 40
0.5000757302
 40
0.5698578631
 40
0.6386782488
 40
0.7057469603
 40
0.7703665237
 40
0.8911448257
 40
1.0
 40
1.0
 40
1.0
 40
1.0
 10
11.5003409306
 20
8.3469282256
 30
0.0
 10
11.5020887111
 20
8.3443150451
 30
0.0
 10
11.505300187
 20
8.3384554814
 30
0.0
 10
11.5088803254
 20
8.3285877209
 30
0.0
 10
11.5108064081
 20
8.3194455687
 30
0.0
 10
11.5116469397
 20
8.3116598115
 30
0.0
 10
11.5118768772
 20
8.3056281884
 30
0.0
 10
11.5116846016
 20
8.2995946996
 30
0.0
 10
11.5110529077
 20
8.2936700929
 30
0.0
 10
11.5100259456
 20
8.2879530174
 30
0.0
 10
11.5082217769
 20
8.2808666993
 30
0.0
 10
11.5052655654
 20
8.2728481962
 30
0.0
 10
11.5020724737
 20
8.2669852285
 30
0.0
 10
11.5003409306
 20
8.2643530429
 30
0.0
  0
SPLINE
  5
2B8
100
AcDbEntity
  8
0
100
AcDbSpline
 62
7
  6
CONTINUOUS
 70
0
 71
3
 72
18
 73
14
 74
0
 42
0.0000001
 43
0.0000001
 44
0.0000000001
 40
0.0
 40
0.0
 40
0.0
 40
0.0
 40
0.050663871
 40
0.1052358591
 40
0.2256267789
 40
0.3589114518
 40
0.5001130852
 40
0.5713192028
 40
0.6413928343
 40
0.7093880919
 40
0.7744809658
 40
0.8945282749
 40
1.0
 40
1.0
 40
1.0
 40
1.0
 10
11.4802123745
 20
8.3469282256
 30
0.0
 10
11.480862486
 20
8.3456469821
 30
0.0
 10
11.4821119933
 20
8.342933568
 30
0.0
 10
11.4843936789
 20
8.3369517119
 30
0.0
 10
11.4867083841
 20
8.328498516
 30
0.0
 10
11.4884725029
 20
8.3174211579
 30
0.0
 10
11.4890120031
 20
8.3076130061
 30
0.0
 10
11.4888184423
 20
8.2996012799
 30
0.0
 10
11.488340248
 20
8.2936826756
 30
0.0
 10
11.4875627887
 20
8.2879710188
 30
0.0
 10
11.4862021067
 20
8.2809196077
 30
0.0
 10
11.4839864964
 20
8.2729635599
 30
0.0
 10
11.4815479851
 20
8.2670292785
 30
0.0
 10
11.4802123745
 20
8.2643530429
 30
0.0
  0
SPLINE
  5
2B9
100
AcDbEntity
  8
0
100
AcDbSpline
 62
7
  6
CONTINUOUS
 70
0
 71
3
 72
19
 73
15
 74
0
 42
0.0000001
 43
0.0000001
 44
0.0000000001
 40
0.0
 40
0.0
 40
0.0
 40
0.0
 40
0.0488849763
 40
0.1023283862
 40
0.2221990703
 40
0.3567115323
 40
0.5001230851
 40
0.5724927563
 40
0.6435942436
 40
0.777827831
 40
0.8395966383
 40
0.8973276037
 40
0.9508295606
 40
1.0
 40
1.0
 40
1.0
 40
1.0
 10
11.4516580285
 20
8.3469282256
 30
0.0
 10
11.4520925139
 20
8.3456355163
 30
0.0
 10
11.4529247078
 20
8.3429031877
 30
0.0
 10
11.454441654
 20
8.3368908894
 30
0.0
 10
11.4559698615
 20
8.3284293327
 30
0.0
 10
11.4571315871
 20
8.3173844835
 30
0.0
 10
11.4574866678
 20
8.3076099897
 30
0.0
 10
11.4573588344
 20
8.2996060696
 30
0.0
 10
11.4569448395
 20
8.2918685682
 30
0.0
 10
11.4561504874
 20
8.2844511901
 30
0.0
 10
11.4549879875
 20
8.2774673061
 30
0.0
 10
11.45400772
 20
8.2727401267
 30
0.0
 10
11.4529149183
 20
8.268399394
 30
0.0
 10
11.4520885782
 20
8.2656554586
 30
0.0
 10
11.4516580285
 20
8.2643530429
 30
0.0
  0
SPLINE
  5
2BA
100
AcDbEntity
  8
0
100
AcDbSpline
 62
7
  6
CONTINUOUS
 70
0
 71
3
 72
15
 73
11
 74
0
 42
0.0000001
 43
0.0000001
 44
0.0000000001
 40
0.0
 40
0.0
 40
0.0
 40
0.0
 40
0.1004278181
 40
0.2199877035
 40
0.3553096484
 40
0.5001509828
 40
0.6450348044
 40
0.7800579699
 40
0.8991903479
 40
1.0
 40
1.0
 40
1.0
 40
1.0
 10
11.4152336703
 20
8.3469282256
 30
0.0
 10
11.415667069
 20
8.3441897112
 30
0.0
 10
11.4164365351
 20
8.3381623221
 30
0.0
 10
11.4172668981
 20
8.3283861094
 30
0.0
 10
11.4178112907
 20
8.3173619049
 30
0.0
 10
11.4180128317
 20
8.3056269547
 30
0.0
 10
11.4178258477
 20
8.29389978
 30
0.0
 10
11.4172706373
 20
8.2828948067
 30
0.0
 10
11.4164275318
 20
8.2731293156
 30
0.0
 10
11.4156617338
 20
8.2671030653
 30
0.0
 10
11.4152336703
 20
8.2643530429
 30
0.0
  0
SPLINE
  5
2BB
100
AcDbEntity
  8
0
100
AcDbSpline
 62
7
  6
CONTINUOUS
 70
0
 71
3
 72
15
 73
11
 74
0
 42
0.0000001
 43
0.0000001
 44
0.0000000001
 40
0.0
 40
0.0
 40
0.0
 40
0.0
 40
0.1008096767
 40
0.2199420784
 40
0.3549652612
 40
0.4998490877
 40
0.6446904109
 40
0.780012332
 40
0.8995721925
 40
1.0
 40
1.0
 40
1.0
 40
1.0
 10
10.6794030054
 20
8.2643530429
 30
0.0
 10
10.6789749418
 20
8.267103066
 30
0.0
 10
10.6782091438
 20
8.2731293176
 30
0.0
 10
10.6773660378
 20
8.2828948105
 30
0.0
 10
10.6768108283
 20
8.2938997851
 30
0.0
 10
10.6766238438
 20
8.3056269601
 30
0.0
 10
10.6768253852
 20
8.3173619095
 30
0.0
 10
10.6773697778
 20
8.3283861123
 30
0.0
 10
10.6782001407
 20
8.3381623234
 30
0.0
 10
10.6789696067
 20
8.3441897115
 30
0.0
 10
10.6794030054
 20
8.3469282256
 30
0.0
  0
SPLINE
  5
2BC
100
AcDbEntity
  8
0
100
AcDbSpline
 62
7
  6
CONTINUOUS
 70
0
 71
3
 72
19
 73
15
 74
0
 42
0.0000001
 43
0.0000001
 44
0.0000000001
 40
0.0
 40
0.0
 40
0.0
 40
0.0
 40
0.0491704478
 40
0.102672421
 40
0.1604033982
 40
0.2221722174
 40
0.356405821
 40
0.4275073234
 40
0.4998769845
 40
0.6432885263
 40
0.777800965
 40
0.8976716243
 40
0.9511150269
 40
1.0
 40
1.0
 40
1.0
 40
1.0
 10
10.6429786472
 20
8.2643530429
 30
0.0
 10
10.6425480974
 20
8.2656554588
 30
0.0
 10
10.6417217572
 20
8.2683993949
 30
0.0
 10
10.6406289554
 20
8.2727401287
 30
0.0
 10
10.6396486877
 20
8.2774673091
 30
0.0
 10
10.6384861874
 20
8.2844511942
 30
0.0
 10
10.6376918365
 20
8.2918685737
 30
0.0
 10
10.6372778413
 20
8.2996060756
 30
0.0
 10
10.6371500076
 20
8.3076099955
 30
0.0
 10
10.6375050891
 20
8.3173844881
 30
0.0
 10
10.6386668147
 20
8.3284293356
 30
0.0
 10
10.640195022
 20
8.3368908908
 30
0.0
 10
10.641711968
 20
8.3429031881
 30
0.0
 10
10.6425441618
 20
8.3456355164
 30
0.0
 10
10.6429786472
 20
8.3469282256
 30
0.0
  0
SPLINE
  5
2BD
100
AcDbEntity
  8
0
100
AcDbSpline
 62
7
  6
CONTINUOUS
 70
0
 71
3
 72
18
 73
14
 74
0
 42
0.0000001
 43
0.0000001
 44
0.0000000001
 40
0.0
 40
0.0
 40
0.0
 40
0.0
 40
0.1054717498
 40
0.2255190827
 40
0.2906119569
 40
0.358607229
 40
0.4286808754
 40
0.4998869832
 40
0.6410886061
 40
0.7743732561
 40
0.8947641513
 40
0.9493361321
 40
1.0
 40
1.0
 40
1.0
 40
1.0
 10
10.6144243012
 20
8.2643530429
 30
0.0
 10
10.6130886903
 20
8.2670292792
 30
0.0
 10
10.6106501788
 20
8.272963562
 30
0.0
 10
10.608434568
 20
8.280919611
 30
0.0
 10
10.6070738858
 20
8.2879710232
 30
0.0
 10
10.6062964281
 20
8.2936826811
 30
0.0
 10
10.6058182332
 20
8.2996012859
 30
0.0
 10
10.6056246721
 20
8.3076130119
 30
0.0
 10
10.6061641735
 20
8.3174211624
 30
0.0
 10
10.6079282923
 20
8.3284985188
 30
0.0
 10
10.6102429972
 20
8.3369517132
 30
0.0
 10
10.6125246825
 20
8.3429335684
 30
0.0
 10
10.6137741898
 20
8.3456469822
 30
0.0
 10
10.6144243012
 20
8.3469282256
 30
0.0
  0
SPLINE
  5
2BE
100
AcDbEntity
  8
0
100
AcDbSpline
 62
7
  6
CONTINUOUS
 70
0
 71
3
 72
18
 73
14
 74
0
 42
0.0000001
 43
0.0000001
 44
0.0000000001
 40
0.0
 40
0.0
 40
0.0
 40
0.0
 40
0.1088551991
 40
0.2296335251
 40
0.2942530884
 40
0.3613218129
 40
0.4301422133
 40
0.4999243366
 40
0.5697029812
 40
0.6385088922
 40
0.7703214134
 40
0.8913819234
 40
1.0
 40
1.0
 40
1.0
 40
1.0
 10
10.5942957451
 20
8.2643530429
 30
0.0
 10
10.5925642016
 20
8.2669852291
 30
0.0
 10
10.5893711097
 20
8.2728481983
 30
0.0
 10
10.5864148975
 20
8.2808667025
 30
0.0
 10
10.5846107286
 20
8.2879530217
 30
0.0
 10
10.5835837686
 20
8.2936700984
 30
0.0
 10
10.5829520739
 20
8.2995947056
 30
0.0
 10
10.5827597978
 20
8.3056281944
 30
0.0
 10
10.5829897367
 20
8.3116598169
 30
0.0
 10
10.5838302683
 20
8.3194455732
 30
0.0
 10
10.5857563513
 20
8.3285877237
 30
0.0
 10
10.5893364891
 20
8.3384554827
 30
0.0
 10
10.5925479648
 20
8.3443150454
 30
0.0
 10
10.5942957451
 20
8.3469282256
 30
0.0
  0
SPLINE
  5
2BF
100
AcDbEntity
  8
0
100
AcDbSpline
 62
7
  6
CONTINUOUS
 70
0
 71
3
 72
18
 73
14
 74
0
 42
0.0000001
 43
0.0000001
 44
0.0000000001
 40
0.0
 40
0.0
 40
0.0
 40
0.0
 40
0.1123906632
 40
0.2339890149
 40
0.2981246907
 40
0.3642168993
 40
0.431701901
 40
0.4999599202
 40
0.5682209802
 40
0.6356971253
 40
0.765972089
 40
0.887788095
 40
1.0
 40
1.0
 40
1.0
 40
1.0
 10
10.5829847586
 20
8.2643530429
 30
0.0
 10
10.5809007068
 20
8.2669457843
 30
0.0
 10
10.5770297727
 20
8.2727328069
 30
0.0
 10
10.5733744507
 20
8.2808094569
 30
0.0
 10
10.5711559789
 20
8.2879329589
 30
0.0
 10
10.5698982635
 20
8.2936556798
 30
0.0
 10
10.5691245188
 20
8.2995871979
 30
0.0
 10
10.5688889215
 20
8.3056285162
 30
0.0
 10
10.5691706496
 20
8.3116673412
 30
0.0
 10
10.5702021336
 20
8.3194801206
 30
0.0
 10
10.5725816698
 20
8.3286831124
 30
0.0
 10
10.5769898797
 20
8.3385761481
 30
0.0
 10
10.5808830957
 20
8.3443565683
 30
0.0
 10
10.5829847586
 20
8.3469282256
 30
0.0
  0
SPLINE
  5
2C0
100
AcDbEntity
  8
0
100
AcDbSpline
 62
7
  6
CONTINUOUS
 70
0
 71
3
 72
15
 73
11
 74
0
 42
0.0000001
 43
0.0000001
 44
0.0000000001
 40
0.0
 40
0.0
 40
0.0
 40
0.0
 40
0.1003662252
 40
0.2194154041
 40
0.3546248884
 40
0.4998479019
 40
0.6450266664
 40
0.7805395982
 40
0.9000241265
 40
1.0
 40
1.0
 40
1.0
 40
1.0
 10
10.7003505151
 20
8.2643530429
 30
0.0
 10
10.700166155
 20
8.2671110108
 30
0.0
 10
10.6998371418
 20
8.2731453171
 30
0.0
 10
10.6994754575
 20
8.282905485
 30
0.0
 10
10.6992372664
 20
8.2939052138
 30
0.0
 10
10.6991570389
 20
8.3056268491
 30
0.0
 10
10.6992435187
 20
8.3173567542
 30
0.0
 10
10.6994770789
 20
8.328375676
 30
0.0
 10
10.69983326
 20
8.338145664
 30
0.0
 10
10.7001638158
 20
8.3441811902
 30
0.0
 10
10.7003505151
 20
8.3469282256
 30
0.0
  0
SPLINE
  5
2C1
100
AcDbEntity
  8
0
100
AcDbSpline
 62
7
  6
CONTINUOUS
 70
0
 71
3
 72
17
 73
13
 74
0
 42
0.0000001
 43
0.0000001
 44
0.0000000001
 40
0.0
 40
0.0
 40
0.0
 40
0.0
 40
0.1015818923
 40
0.2208583457
 40
0.3555516702
 40
0.4270414436
 40
0.4998491969
 40
0.6440938794
 40
0.7790776396
 40
0.8987677183
 40
0.9517900415
 40
1.0
 40
1.0
 40
1.0
 40
1.0
 10
10.6602479423
 20
8.2643530429
 30
0.0
 10
10.6595810093
 20
8.2670896086
 30
0.0
 10
10.6583831205
 20
8.2731014768
 30
0.0
 10
10.6570603042
 20
8.2828759073
 30
0.0
 10
10.6563499145
 20
8.2918772573
 30
0.0
 10
10.6560451084
 20
8.2996078736
 30
0.0
 10
10.6559509455
 20
8.3076088732
 30
0.0
 10
10.6562121233
 20
8.3173713279
 30
0.0
 10
10.6570667614
 20
8.3284039673
 30
0.0
 10
10.6581918087
 20
8.336867368
 30
0.0
 10
10.6593116348
 20
8.3428909739
 30
0.0
 10
10.6599264332
 20
8.3456306991
 30
0.0
 10
10.6602479423
 20
8.3469282256
 30
0.0
  0
SPLINE
  5
2C2
100
AcDbEntity
  8
0
100
AcDbSpline
 62
7
  6
CONTINUOUS
 70
0
 71
3
 72
17
 73
13
 74
0
 42
0.0000001
 43
0.0000001
 44
0.0000000001
 40
0.0
 40
0.0
 40
0.0
 40
0.0
 40
0.1039663817
 40
0.2237098226
 40
0.3573928614
 40
0.4280212564
 40
0.4998554363
 40
0.6422498723
 40
0.776197286
 40
0.8963115499
 40
0.9502818662
 40
1.0
 40
1.0
 40
1.0
 40
1.0
 10
10.6276792545
 20
8.2643530429
 30
0.0
 10
10.6265572242
 20
8.2670513114
 30
0.0
 10
10.6245201409
 20
8.2730166931
 30
0.0
 10
10.6222505105
 20
8.2828165919
 30
0.0
 10
10.6210296854
 20
8.291857265
 30
0.0
 10
10.620508335
 20
8.2996038398
 30
0.0
 10
10.620347287
 20
8.3076113981
 30
0.0
 10
10.6207952704
 20
8.3174012171
 30
0.0
 10
10.6222605281
 20
8.3284611791
 30
0.0
 10
10.6241859664
 20
8.3369194673
 30
0.0
 10
10.6260909186
 20
8.3429176738
 30
0.0
 10
10.6271350646
 20
8.345641072
 30
0.0
 10
10.6276792545
 20
8.3469282256
 30
0.0
  0
SPLINE
  5
2C3
100
AcDbEntity
  8
0
100
AcDbSpline
 62
7
  6
CONTINUOUS
 70
0
 71
3
 72
18
 73
14
 74
0
 42
0.0000001
 43
0.0000001
 44
0.0000000001
 40
0.0
 40
0.0
 40
0.0
 40
0.0
 40
0.1071211369
 40
0.2275186362
 40
0.2923799223
 40
0.3599249376
 40
0.4293911025
 40
0.4999076747
 40
0.5704177157
 40
0.6398667299
 40
0.7724344866
 40
0.8931457014
 40
1.0
 40
1.0
 40
1.0
 40
1.0
 10
10.6032783641
 20
8.2643530429
 30
0.0
 10
10.601739463
 20
8.2670069545
 30
0.0
 10
10.5989148866
 20
8.2729067721
 30
0.0
 10
10.5963250389
 20
8.2808940611
 30
0.0
 10
10.5947395446
 20
8.2879623899
 30
0.0
 10
10.5938353009
 20
8.2936767008
 30
0.0
 10
10.5932791001
 20
8.2995981084
 30
0.0
 10
10.5931098303
 20
8.3056280519
 30
0.0
 10
10.5933122604
 20
8.3116563987
 30
0.0
 10
10.5940517087
 20
8.3194297573
 30
0.0
 10
10.5957405854
 20
8.3285424575
 30
0.0
 10
10.5988835557
 20
8.3383942811
 30
0.0
 10
10.6017242114
 20
8.3442920838
 30
0.0
 10
10.6032783641
 20
8.3469282256
 30
0.0
  0
SPLINE
  5
2C4
100
AcDbEntity
  8
0
100
AcDbSpline
 62
7
  6
CONTINUOUS
 70
0
 71
3
 72
18
 73
14
 74
0
 42
0.0000001
 43
0.0000001
 44
0.0000000001
 40
0.0
 40
0.0
 40
0.0
 40
0.0
 40
0.1106260889
 40
0.2318078574
 40
0.296183503
 40
0.3627639883
 40
0.430918669
 40
0.4999419065
 40
0.568964879
 40
0.6371078515
 40
0.7681497647
 40
0.8895814343
 40
1.0
 40
1.0
 40
1.0
 40
1.0
 10
10.5875202067
 20
8.2643530429
 30
0.0
 10
10.5856068877
 20
8.2669647148
 30
0.0
 10
10.5820645555
 20
8.2727897015
 30
0.0
 10
10.5787523238
 20
8.2808382693
 30
0.0
 10
10.5767367674
 20
8.2879431365
 30
0.0
 10
10.5755917814
 20
8.2936630422
 30
0.0
 10
10.5748874508
 20
8.299591045
 30
0.0
 10
10.5746730286
 20
8.3056283504
 30
0.0
 10
10.5749294445
 20
8.311663489
 30
0.0
 10
10.5758674867
 20
8.3194624789
 30
0.0
 10
10.5780242486
 20
8.328634989
 30
0.0
 10
10.5820270871
 20
8.3385166396
 30
0.0
 10
10.5855898815
 20
8.344336667
 30
0.0
 10
10.5875202067
 20
8.3469282256
 30
0.0
  0
LINE
  5
2C5
100
AcDbEntity
  8
0
100
AcDbLine
 62
7
  6
CONTINUOUS
 10
13.0704405786
 20
7.7479725484
 11
13.0722803111
 21
7.7475926886
  0
LINE
  5
2C6
100
AcDbEntity
  8
0
100
AcDbLine
 62
7
  6
CONTINUOUS
 10
13.0741653039
 20
7.7472028229
 11
13.0745942153
 21
7.747114022
  0
LINE
  5
2C7
100
AcDbEntity
  8
0
100
AcDbLine
 62
7
  6
CONTINUOUS
 10
13.0745942153
 20
7.747114022
 11
13.0751251043
 21
7.7470040622
  0
LINE
  5
2C8
100
AcDbEntity
  8
0
100
AcDbLine
 62
7
  6
CONTINUOUS
 10
9.0200509699
 20
7.7471157841
 11
9.0204797544
 21
7.7472045581
  0
LINE
  5
2C9
100
AcDbEntity
  8
0
100
AcDbLine
 62
7
  6
CONTINUOUS
 10
9.0204797544
 20
7.7472045581
 11
9.022356365
 21
7.7475926887
  0
LINE
  5
2CA
100
AcDbEntity
  8
0
100
AcDbLine
 62
7
  6
CONTINUOUS
 10
9.022356365
 20
7.7475926887
 11
9.0241619596
 21
7.7479655058
  0
SPLINE
  5
2CB
100
AcDbEntity
  8
0
100
AcDbSpline
 62
7
  6
CONTINUOUS
 70
0
 71
3
 72
16
 73
12
 74
0
 42
0.0000001
 43
0.0000001
 44
0.0000000001
 40
0.0
 40
0.0
 40
0.0
 40
0.0
 40
0.0746622885
 40
0.1625250645
 40
0.2619747209
 40
0.3724096935
 40
0.4923408004
 40
0.6192287416
 40
0.75201834
 40
0.8891420549
 40
1.0
 40
1.0
 40
1.0
 40
1.0
 10
11.0473183379
 20
7.8664211628
 30
0.0
 10
10.9522878512
 20
7.8664211628
 30
0.0
 10
10.7454252397
 20
7.8651735858
 30
0.0
 10
10.481558827
 20
7.8605714319
 30
0.0
 10
10.2179376284
 20
7.8530103235
 30
0.0
 10
9.9689586525
 20
7.8425375937
 30
0.0
 10
9.7331825287
 20
7.8291455828
 30
0.0
 10
9.5127051403
 20
7.8121812273
 30
0.0
 10
9.3235428231
 20
7.7940942112
 30
0.0
 10
9.1369068048
 20
7.7675675469
 30
0.0
 10
9.1004232383
 20
7.7633069843
 30
0.0
 10
9.048327372
 20
7.7528826441
 30
0.0
  0
LINE
  5
2CC
100
AcDbEntity
  8
0
100
AcDbLine
 62
7
  6
CONTINUOUS
 10
9.048327372
 20
7.7528826441
 11
9.0479759592
 21
7.7528123061
  0
LINE
  5
2CD
100
AcDbEntity
  8
0
100
AcDbLine
 62
7
  6
CONTINUOUS
 10
13.0468645146
 20
7.7527714956
 11
13.0463093072
 21
7.7528826434
  0
SPLINE
  5
2CE
100
AcDbEntity
  8
0
100
AcDbSpline
 62
7
  6
CONTINUOUS
 70
0
 71
3
 72
16
 73
12
 74
0
 42
0.0000001
 43
0.0000001
 44
0.0000000001
 40
0.0
 40
0.0
 40
0.0
 40
0.0
 40
0.1108579473
 40
0.2479816618
 40
0.3807712599
 40
0.5076592008
 40
0.6275903074
 40
0.7380252797
 40
0.8374749359
 40
0.9253377117
 40
1.0
 40
1.0
 40
1.0
 40
1.0
 10
13.0463093072
 20
7.7528826434
 30
0.0
 10
12.9942134381
 20
7.7633069842
 30
0.0
 10
12.9577298721
 20
7.7675675467
 30
0.0
 10
12.7710938527
 20
7.7940942112
 30
0.0
 10
12.5819315354
 20
7.8121812273
 30
0.0
 10
12.361454147
 20
7.8291455828
 30
0.0
 10
12.1256780232
 20
7.8425375937
 30
0.0
 10
11.8766990474
 20
7.8530103235
 30
0.0
 10
11.6130778487
 20
7.8605714319
 30
0.0
 10
11.349211436
 20
7.8651735858
 30
0.0
 10
11.1423488245
 20
7.8664211628
 30
0.0
 10
11.0473183379
 20
7.8664211628
 30
0.0
  0
SPLINE
  5
2CF
100
AcDbEntity
  8
0
100
AcDbSpline
 62
7
  6
CONTINUOUS
 70
0
 71
3
 72
24
 73
20
 74
0
 42
0.0000001
 43
0.0000001
 44
0.0000000001
 40
0.0
 40
0.0
 40
0.0
 40
0.0
 40
0.0549840322
 40
0.1101713722
 40
0.1652487427
 40
0.220099503
 40
0.2757915698
 40
0.3345111921
 40
0.3981043197
 40
0.4661657787
 40
0.5351599933
 40
0.6031154428
 40
0.6665402757
 40
0.7250898811
 40
0.7806115784
 40
0.8352887869
 40
0.890188711
 40
0.9451986043
 40
1.0
 40
1.0
 40
1.0
 40
1.0
 10
8.9359256465
 20
7.7244516808
 30
0.0
 10
8.9183653196
 20
7.7179161816
 30
0.0
 10
8.8838527791
 20
7.7027874713
 30
0.0
 10
8.8349779577
 20
7.6740572297
 30
0.0
 10
8.7898744988
 20
7.6394446648
 30
0.0
 10
8.7492775244
 20
7.5991030138
 30
0.0
 10
8.7135052953
 20
7.5525620838
 30
0.0
 10
8.6831178277
 20
7.4985651862
 30
0.0
 10
8.6599861142
 20
7.4362107504
 30
0.0
 10
8.6472911404
 20
7.3670699472
 30
0.0
 10
8.6474183907
 20
7.2951776414
 30
0.0
 10
8.6603281157
 20
7.2261777348
 30
0.0
 10
8.6835871843
 20
7.164041502
 30
0.0
 10
8.7140163848
 20
7.1102766836
 30
0.0
 10
8.7497672084
 20
7.0639492708
 30
0.0
 10
8.7902925289
 20
7.0237959303
 30
0.0
 10
8.8352841177
 20
6.9893407127
 30
0.0
 10
8.884014832
 20
6.960732814
 30
0.0
 10
8.9184164361
 20
6.9456597898
 30
0.0
 10
8.9359183305
 20
6.9391457222
 30
0.0
  0
LINE
  5
2D0
100
AcDbEntity
  8
0
100
AcDbLine
 62
7
  6
CONTINUOUS
 10
9.0228569864
 20
6.9159768689
 11
9.0224896289
 21
6.9160501856
  0
LINE
  5
2D1
100
AcDbEntity
  8
0
100
AcDbLine
 62
7
  6
CONTINUOUS
 10
9.0206843336
 20
6.9164114134
 11
9.020202118
 21
6.9165081639
  0
LINE
  5
2D2
100
AcDbEntity
  8
0
100
AcDbLine
 62
7
  6
CONTINUOUS
 10
9.020202118
 20
6.9165081639
 11
9.0197379003
 21
6.916601408
  0
LINE
  5
2D3
100
AcDbEntity
  8
0
100
AcDbLine
 62
7
  6
CONTINUOUS
 10
13.0721470468
 20
6.9160501856
 11
13.0717773846
 21
6.9159764091
  0
SPLINE
  5
2D4
100
AcDbEntity
  8
0
100
AcDbSpline
 62
7
  6
CONTINUOUS
 70
0
 71
3
 72
16
 73
12
 74
0
 42
0.0000001
 43
0.0000001
 44
0.0000000001
 40
0.0
 40
0.0
 40
0.0
 40
0.0
 40
0.1380070679
 40
0.2745691517
 40
0.4068148708
 40
0.5331831048
 40
0.6526229982
 40
0.7626056515
 40
0.8616479822
 40
0.9491508901
 40
1.0
 40
1.0
 40
1.0
 40
1.0
 10
11.0473183379
 20
6.7971735173
 30
0.0
 10
11.1393127832
 20
6.7971735173
 30
0.0
 10
11.3223384587
 20
6.7981488394
 30
0.0
 10
11.5935114228
 20
6.8025558483
 30
0.0
 10
11.8569113098
 20
6.8099108154
 30
0.0
 10
12.1088724513
 20
6.8202165402
 30
0.0
 10
12.3459596582
 20
6.8334951482
 30
0.0
 10
12.5647732784
 20
6.849768342
 30
0.0
 10
12.7622552225
 20
6.8690438873
 30
0.0
 10
12.9201978073
 20
6.8893614061
 30
0.0
 10
13.0122708275
 20
6.9046495426
 30
0.0
 10
13.0460716261
 20
6.9109999123
 30
0.0
  0
SPLINE
  5
2D5
100
AcDbEntity
  8
0
100
AcDbSpline
 62
7
  6
CONTINUOUS
 70
0
 71
3
 72
16
 73
12
 74
0
 42
0.0000001
 43
0.0000001
 44
0.0000000001
 40
0.0
 40
0.0
 40
0.0
 40
0.0
 40
0.0508491098
 40
0.1383520177
 40
0.2373943484
 40
0.3473770017
 40
0.4668168951
 40
0.5931851291
 40
0.7254308482
 40
0.8619929321
 40
1.0
 40
1.0
 40
1.0
 40
1.0
 10
9.0485650499
 20
6.9109999122
 30
0.0
 10
9.0823658484
 20
6.9046495426
 30
0.0
 10
9.1744388685
 20
6.8893614061
 30
0.0
 10
9.3323814532
 20
6.8690438873
 30
0.0
 10
9.5298633973
 20
6.849768342
 30
0.0
 10
9.7486770175
 20
6.8334951482
 30
0.0
 10
9.9857642244
 20
6.8202165402
 30
0.0
 10
10.2377253659
 20
6.8099108154
 30
0.0
 10
10.5011252529
 20
6.8025558483
 30
0.0
 10
10.772298217
 20
6.7981488394
 30
0.0
 10
10.9553238925
 20
6.7971735173
 30
0.0
 10
11.0473183379
 20
6.7971735173
 30
0.0
  0
SPLINE
  5
2D6
100
AcDbEntity
  8
0
100
AcDbSpline
 62
7
  6
CONTINUOUS
 70
0
 71
3
 72
24
 73
20
 74
0
 42
0.0000001
 43
0.0000001
 44
0.0000000001
 40
0.0
 40
0.0
 40
0.0
 40
0.0
 40
0.0548062537
 40
0.1098163107
 40
0.1647163983
 40
0.2193937696
 40
0.2749156322
 40
0.3334654119
 40
0.3968904336
 40
0.4648460856
 40
0.5338405055
 40
0.6019021672
 40
0.6654954842
 40
0.7242152813
 40
0.7799075139
 40
0.8347584376
 40
0.8898359721
 40
0.9450234764
 40
1.0
 40
1.0
 40
1.0
 40
1.0
 10
13.1587138471
 20
6.9391440481
 30
0.0
 10
13.1762172981
 20
6.945658501
 30
0.0
 10
13.2106204548
 20
6.9607319986
 30
0.0
 10
13.259352558
 20
6.9893407127
 30
0.0
 10
13.3043441469
 20
7.0237959303
 30
0.0
 10
13.3448694673
 20
7.0639492708
 30
0.0
 10
13.3806202909
 20
7.1102766836
 30
0.0
 10
13.4110494914
 20
7.164041502
 30
0.0
 10
13.43430856
 20
7.2261777348
 30
0.0
 10
13.4472182851
 20
7.2951776414
 30
0.0
 10
13.4473455353
 20
7.3670699472
 30
0.0
 10
13.4346505615
 20
7.4362107504
 30
0.0
 10
13.411518848
 20
7.4985651862
 30
0.0
 10
13.3811313804
 20
7.5525620838
 30
0.0
 10
13.3453591513
 20
7.5991030138
 30
0.0
 10
13.3047621769
 20
7.6394446648
 30
0.0
 10
13.259658718
 20
7.6740572297
 30
0.0
 10
13.2107861658
 20
7.7027861374
 30
0.0
 10
13.1762761629
 20
7.7179140745
 30
0.0
 10
13.15871838
 20
7.7244489449
 30
0.0
  0
SPLINE
  5
2D7
100
AcDbEntity
  8
0
100
AcDbSpline
 62
7
  6
CONTINUOUS
 70
0
 71
3
 72
21
 73
17
 74
0
 42
0.0000001
 43
0.0000001
 44
0.0000000001
 40
0.0
 40
0.0
 40
0.0
 40
0.0
 40
0.124968321
 40
0.1874692388
 40
0.249957506
 40
0.3124900438
 40
0.3750241452
 40
0.4375282799
 40
0.5000512104
 40
0.5626096144
 40
0.6251532248
 40
0.6876300454
 40
0.7500951369
 40
0.8126344583
 40
0.8752421922
 40
1.0
 40
1.0
 40
1.0
 40
1.0
 10
10.5532060618
 20
6.8023452026
 30
0.0
 10
10.5520832734
 20
6.800148435
 30
0.0
 10
10.5507903566
 20
6.7966305239
 30
0.0
 10
10.5499465884
 20
6.7917600259
 30
0.0
 10
10.5497740754
 20
6.788051361
 30
0.0
 10
10.5500711875
 20
6.7843511626
 30
0.0
 10
10.5508245525
 20
6.7807157447
 30
0.0
 10
10.5520277667
 20
6.7772038102
 30
0.0
 10
10.5536503374
 20
6.7738649786
 30
0.0
 10
10.5556608799
 20
6.770743587
 30
0.0
 10
10.5580312604
 20
6.7678866859
 30
0.0
 10
10.5607376072
 20
6.765346767
 30
0.0
 10
10.5637514678
 20
6.763181099
 30
0.0
 10
10.5670148934
 20
6.761408265
 30
0.0
 10
10.5716104045
 20
6.7595922317
 30
0.0
 10
10.5752839563
 20
6.7588571607
 30
0.0
 10
10.5777400272
 20
6.758673671
 30
0.0
  0
SPLINE
  5
2D8
100
AcDbEntity
  8
0
100
AcDbSpline
 62
7
  6
CONTINUOUS
 70
0
 71
3
 72
21
 73
17
 74
0
 42
0.0000001
 43
0.0000001
 44
0.0000000001
 40
0.0
 40
0.0
 40
0.0
 40
0.0
 40
0.1249683204
 40
0.1874692362
 40
0.2499575046
 40
0.3124900433
 40
0.375024144
 40
0.4375282784
 40
0.5000512097
 40
0.5626096141
 40
0.6251532236
 40
0.6876300433
 40
0.7500951354
 40
0.8126344576
 40
0.8752421917
 40
1.0
 40
1.0
 40
1.0
 40
1.0
 10
11.5414306864
 20
6.8023450607
 30
0.0
 10
11.5425534603
 20
6.8001482932
 30
0.0
 10
11.5438463569
 20
6.7966303856
 30
0.0
 10
11.5446901011
 20
6.791759897
 30
0.0
 10
11.5448625978
 20
6.7880512413
 30
0.0
 10
11.5445654723
 20
6.784351054
 30
0.0
 10
11.5438120964
 20
6.7807156486
 30
0.0
 10
11.5426088743
 20
6.7772037274
 30
0.0
 10
11.5409862988
 20
6.7738649093
 30
0.0
 10
11.5389757543
 20
6.7707435309
 30
0.0
 10
11.5366053741
 20
6.7678866426
 30
0.0
 10
11.5338990297
 20
6.7653467357
 30
0.0
 10
11.5308851738
 20
6.7631810782
 30
0.0
 10
11.527621755
 20
6.7614082527
 30
0.0
 10
11.5230262548
 20
6.759592228
 30
0.0
 10
11.5193527129
 20
6.7588571602
 30
0.0
 10
11.5168966485
 20
6.758673671
 30
0.0
  0
SPLINE
  5
2D9
100
AcDbEntity
  8
0
100
AcDbSpline
 62
7
  6
CONTINUOUS
 70
0
 71
3
 72
20
 73
16
 74
0
 42
0.0000001
 43
0.0000001
 44
0.0000000001
 40
0.0
 40
0.0
 40
0.0
 40
0.0
 40
0.1179160509
 40
0.1789063517
 40
0.2411708861
 40
0.3046152832
 40
0.3691216117
 40
0.4343983103
 40
0.5001358198
 40
0.5658589568
 40
0.6311347813
 40
0.6956314637
 40
0.7590007569
 40
0.8819928752
 40
1.0
 40
1.0
 40
1.0
 40
1.0
 10
10.9823396336
 20
8.3469282256
 30
0.0
 10
10.9797290928
 20
8.3444111067
 30
0.0
 10
10.9761112134
 20
8.3402099232
 30
0.0
 10
10.9721162444
 20
8.3339509398
 30
0.0
 10
10.9695126841
 20
8.3288220821
 30
0.0
 10
10.9673910721
 20
8.3233601519
 30
0.0
 10
10.9658077128
 20
8.3176217196
 30
0.0
 10
10.9648101092
 20
8.3116807396
 30
0.0
 10
10.9644510596
 20
8.3056292254
 30
0.0
 10
10.9647515059
 20
8.2995733315
 30
0.0
 10
10.965737777
 20
8.2936296644
 30
0.0
 10
10.9673399913
 20
8.2878980429
 30
0.0
 10
10.9701847877
 20
8.2807141422
 30
0.0
 10
10.9749030177
 20
8.2725603949
 30
0.0
 10
10.9797480407
 20
8.2668936686
 30
0.0
 10
10.9823396336
 20
8.2643530429
 30
0.0
  0
SPLINE
  5
2DA
100
AcDbEntity
  8
0
100
AcDbSpline
 62
7
  6
CONTINUOUS
 70
0
 71
3
 72
18
 73
14
 74
0
 42
0.0000001
 43
0.0000001
 44
0.0000000001
 40
0.0
 40
0.0
 40
0.0
 40
0.0
 40
0.1115116119
 40
0.2329006189
 40
0.2971554473
 40
0.3634911159
 40
0.4313105228
 40
0.4999508857
 40
0.5685926294
 40
0.6364017488
 40
0.7670586527
 40
0.8886813871
 40
1.0
 40
1.0
 40
1.0
 40
1.0
 10
10.9823396336
 20
8.2643530429
 30
0.0
 10
10.9843397104
 20
8.2669550361
 30
0.0
 10
10.988048996
 20
8.2727609725
 30
0.0
 10
10.9915345515
 20
8.2808238692
 30
0.0
 10
10.9936526994
 20
8.2879380704
 30
0.0
 10
10.9948547496
 20
8.2936593899
 30
0.0
 10
10.9955942125
 20
8.2995891401
 30
0.0
 10
10.9958193505
 20
8.3056284323
 30
0.0
 10
10.9955501246
 20
8.3116653973
 30
0.0
 10
10.9945648218
 20
8.3194712303
 30
0.0
 10
10.9922955953
 20
8.3286590123
 30
0.0
 10
10.9880877278
 20
8.3385466857
 30
0.0
 10
10.9843570368
 20
8.3443468481
 30
0.0
 10
10.9823396336
 20
8.3469282256
 30
0.0
  0
SPLINE
  5
2DB
100
AcDbEntity
  8
0
100
AcDbSpline
 62
7
  6
CONTINUOUS
 70
0
 71
3
 72
20
 73
16
 74
0
 42
0.0000001
 43
0.0000001
 44
0.0000000001
 40
0.0
 40
0.0
 40
0.0
 40
0.0
 40
0.1205525771
 40
0.1821235658
 40
0.2444783549
 40
0.3075631746
 40
0.3713268898
 40
0.4355757241
 40
0.5001255027
 40
0.5646552671
 40
0.6288984406
 40
0.6926623849
 40
0.7556979002
 40
0.8793945476
 40
1.0
 40
1.0
 40
1.0
 40
1.0
 10
10.9186256659
 20
8.3469282256
 30
0.0
 10
10.915790835
 20
8.3444323108
 30
0.0
 10
10.9118385567
 20
8.3402548113
 30
0.0
 10
10.9074419985
 20
8.3339708541
 30
0.0
 10
10.9045875536
 20
8.3288410751
 30
0.0
 10
10.9022607946
 20
8.3233767844
 30
0.0
 10
10.900523793
 20
8.3176343642
 30
0.0
 10
10.899429071
 20
8.3116879187
 30
0.0
 10
10.8990349245
 20
8.3056295586
 30
0.0
 10
10.8993648138
 20
8.2995660794
 30
0.0
 10
10.9004473745
 20
8.2936163129
 30
0.0
 10
10.9022052258
 20
8.2878807278
 30
0.0
 10
10.9053359541
 20
8.2806688588
 30
0.0
 10
10.9105391753
 20
8.2724862121
 30
0.0
 10
10.9158102418
 20
8.266873313
 30
0.0
 10
10.9186256659
 20
8.2643530429
 30
0.0
  0
SPLINE
  5
2DC
100
AcDbEntity
  8
0
100
AcDbSpline
 62
7
  6
CONTINUOUS
 70
0
 71
3
 72
17
 73
13
 74
0
 42
0.0000001
 43
0.0000001
 44
0.0000000001
 40
0.0
 40
0.0
 40
0.0
 40
0.0
 40
0.1079886646
 40
0.2285821386
 40
0.2933280837
 40
0.3606422567
 40
0.4297942439
 40
0.4999530681
 40
0.6391685856
 40
0.7713717859
 40
0.8922633752
 40
1.0
 40
1.0
 40
1.0
 40
1.0
 10
10.9186256659
 20
8.2643530429
 30
0.0
 10
10.9202622349
 20
8.2669959724
 30
0.0
 10
10.9232733794
 20
8.2728775862
 30
0.0
 10
10.9260475452
 20
8.2808805567
 30
0.0
 10
10.9277432113
 20
8.2879577939
 30
0.0
 10
10.9287093727
 20
8.2936734286
 30
0.0
 10
10.9293036099
 20
8.2995965852
 30
0.0
 10
10.9295443449
 20
8.3076160393
 30
0.0
 10
10.928871103
 20
8.3174556094
 30
0.0
 10
10.9266695848
 20
8.328564022
 30
0.0
 10
10.9233064135
 20
8.3384249542
 30
0.0
 10
10.9202780095
 20
8.344303699
 30
0.0
 10
10.9186256659
 20
8.3469282256
 30
0.0
  0
SPLINE
  5
2DD
100
AcDbEntity
  8
0
100
AcDbSpline
 62
7
  6
CONTINUOUS
 70
0
 71
3
 72
18
 73
14
 74
0
 42
0.0000001
 43
0.0000001
 44
0.0000000001
 40
0.0
 40
0.0
 40
0.0
 40
0.0
 40
0.1218213307
 40
0.2459012403
 40
0.3088482649
 40
0.372289191
 40
0.4360392149
 40
0.4999916908
 40
0.5639644654
 40
0.6277286115
 40
0.7539874165
 40
0.8781603378
 40
1.0
 40
1.0
 40
1.0
 40
1.0
 10
11.4956492298
 20
8.2684852126
 30
0.0
 10
11.4979507156
 20
8.2709159118
 30
0.0
 10
11.5022179869
 20
8.2761978479
 30
0.0
 10
11.5063733564
 20
8.2836545642
 30
0.0
 10
11.5088338767
 20
8.2900926466
 30
0.0
 10
11.510202681
 20
8.2951445395
 30
0.0
 10
11.5110345749
 20
8.300341139
 30
0.0
 10
11.5112859305
 20
8.3056123547
 30
0.0
 10
11.5109807347
 20
8.3108807164
 30
0.0
 10
11.5098542785
 20
8.3177789114
 30
0.0
 10
11.5071930145
 20
8.3260549737
 30
0.0
 10
11.5022684799
 20
8.3350823317
 30
0.0
 10
11.4980022934
 20
8.3403766693
 30
0.0
 10
11.4956930486
 20
8.3428006942
 30
0.0
  0
SPLINE
  5
2DE
100
AcDbEntity
  8
0
100
AcDbSpline
 62
7
  6
CONTINUOUS
 70
0
 71
3
 72
20
 73
16
 74
0
 42
0.0000001
 43
0.0000001
 44
0.0000000001
 40
0.0
 40
0.0
 40
0.0
 40
0.0
 40
0.1225987877
 40
0.1846307791
 40
0.2470658576
 40
0.3098770205
 40
0.3730621829
 40
0.4365033328
 40
0.5001162605
 40
0.5637045935
 40
0.627136218
 40
0.6903295145
 40
0.7531117933
 40
0.877377132
 40
1.0
 40
1.0
 40
1.0
 40
1.0
 10
10.8574165547
 20
8.3469282256
 30
0.0
 10
10.8544088671
 20
8.3444473622
 30
0.0
 10
10.8501989794
 20
8.3402882545
 30
0.0
 10
10.8454891597
 20
8.3339861715
 30
0.0
 10
10.8424398985
 20
8.3288560908
 30
0.0
 10
10.8399536219
 20
8.3233902556
 30
0.0
 10
10.8380969762
 20
8.3176448033
 30
0.0
 10
10.8369265163
 20
8.3116939218
 30
0.0
 10
10.8365049608
 20
8.3056298384
 30
0.0
 10
10.8368578573
 20
8.2995600114
 30
0.0
 10
10.8380155613
 20
8.2936052894
 30
0.0
 10
10.8398946135
 20
8.2878667218
 30
0.0
 10
10.8432491944
 20
8.2806331739
 30
0.0
 10
10.8488311754
 20
8.2724309173
 30
0.0
 10
10.854428602
 20
8.2668588319
 30
0.0
 10
10.8574165547
 20
8.2643530429
 30
0.0
  0
SPLINE
  5
2DF
100
AcDbEntity
  8
0
100
AcDbSpline
 62
7
  6
CONTINUOUS
 70
0
 71
3
 72
18
 73
14
 74
0
 42
0.0000001
 43
0.0000001
 44
0.0000000001
 40
0.0
 40
0.0
 40
0.0
 40
0.0
 40
0.104696334
 40
0.2245839321
 40
0.2897868942
 40
0.3579937228
 40
0.4283516288
 40
0.4998798646
 40
0.6416930407
 40
0.7753156759
 40
0.8955608478
 40
0.9498223179
 40
1.0
 40
1.0
 40
1.0
 40
1.0
 10
10.8574165547
 20
8.2643530429
 30
0.0
 10
10.8586466304
 20
8.2670403988
 30
0.0
 10
10.8608861743
 20
8.2729906278
 30
0.0
 10
10.8629124246
 20
8.2809314781
 30
0.0
 10
10.8641587467
 20
8.2879749882
 30
0.0
 10
10.8648714715
 20
8.2936854238
 30
0.0
 10
10.8653098622
 20
8.2996026671
 30
0.0
 10
10.8654872614
 20
8.3076121415
 30
0.0
 10
10.864993325
 20
8.3174108255
 30
0.0
 10
10.8633779774
 20
8.3284792256
 30
0.0
 10
10.8612567768
 20
8.3369352197
 30
0.0
 10
10.8591619208
 20
8.342925497
 30
0.0
 10
10.8580142049
 20
8.3456440045
 30
0.0
 10
10.8574165547
 20
8.3469282256
 30
0.0
  0
SPLINE
  5
2E0
100
AcDbEntity
  8
0
100
AcDbSpline
 62
7
  6
CONTINUOUS
 70
0
 71
3
 72
18
 73
14
 74
0
 42
0.0000001
 43
0.0000001
 44
0.0000000001
 40
0.0
 40
0.0
 40
0.0
 40
0.0
 40
0.1206456073
 40
0.2444109935
 40
0.3074990515
 40
0.3712724422
 40
0.4354908821
 40
0.4999828534
 40
0.5644932116
 40
0.6287215727
 40
0.7554718858
 40
0.8793500707
 40
1.0
 40
1.0
 40
1.0
 40
1.0
 10
11.5034654055
 20
8.2674090764
 30
0.0
 10
11.5058205314
 20
8.2698764373
 30
0.0
 10
11.5101955072
 20
8.2752710336
 30
0.0
 10
11.5144510353
 20
8.2829110635
 30
0.0
 10
11.5169828158
 20
8.2895400215
 30
0.0
 10
11.518395902
 20
8.2947643141
 30
0.0
 10
11.519257666
 20
8.300148604
 30
0.0
 10
11.5195185483
 20
8.305615917
 30
0.0
 10
11.5192032285
 20
8.3110802054
 30
0.0
 10
11.5180405628
 20
8.3182199565
 30
0.0
 10
11.515303695
 20
8.3267556487
 30
0.0
 10
11.5102467366
 20
8.3360187782
 30
0.0
 10
11.5058652672
 20
8.3414204158
 30
0.0
 10
11.5034993655
 20
8.3438776156
 30
0.0
  0
SPLINE
  5
2E1
100
AcDbEntity
  8
0
100
AcDbSpline
 62
7
  6
CONTINUOUS
 70
0
 71
3
 72
23
 73
19
 74
0
 42
0.0000001
 43
0.0000001
 44
0.0000000001
 40
0.0
 40
0.0
 40
0.0
 40
0.0
 40
0.0626594608
 40
0.0939845147
 40
0.1253060362
 40
0.1879274225
 40
0.2504997325
 40
0.3753974505
 40
0.4377233724
 40
0.5
 40
0.5622766276
 40
0.6246025495
 40
0.7495002675
 40
0.8120725775
 40
0.8746939638
 40
0.9060154853
 40
0.9373405392
 40
1.0
 40
1.0
 40
1.0
 40
1.0
 10
11.6188951044
 20
9.1373760842
 30
0.0
 10
11.6129471901
 20
9.1365971115
 30
0.0
 10
11.6040243859
 20
9.1354392165
 30
0.0
 10
11.5921256608
 20
9.1339131619
 30
0.0
 10
11.5802290683
 20
9.1323994068
 30
0.0
 10
11.5653587229
 20
9.1305554087
 30
0.0
 10
11.5415745508
 20
9.1278100268
 30
0.0
 10
11.5177527226
 20
9.1256054257
 30
0.0
 10
11.4938925784
 20
9.1244190663
 30
0.0
 10
11.4760009127
 20
9.1241089142
 30
0.0
 10
11.4581092471
 20
9.1244190663
 30
0.0
 10
11.4342491029
 20
9.1256054257
 30
0.0
 10
11.4104272746
 20
9.1278100268
 30
0.0
 10
11.3866431025
 20
9.1305554087
 30
0.0
 10
11.3717727572
 20
9.1323994068
 30
0.0
 10
11.3598761647
 20
9.1339131619
 30
0.0
 10
11.3479774396
 20
9.1354392165
 30
0.0
 10
11.3390546354
 20
9.1365971115
 30
0.0
 10
11.3331067211
 20
9.1373760842
 30
0.0
  0
SPLINE
  5
2E2
100
AcDbEntity
  8
0
100
AcDbSpline
 62
7
  6
CONTINUOUS
 70
0
 71
3
 72
20
 73
16
 74
0
 42
0.0000001
 43
0.0000001
 44
0.0000000001
 40
0.0
 40
0.0
 40
0.0
 40
0.0
 40
0.1240080922
 40
0.1863627752
 40
0.2488584162
 40
0.3114839949
 40
0.3742696654
 40
0.437149431
 40
0.50010929
 40
0.5630412908
 40
0.6259087897
 40
0.6887081644
 40
0.7513191232
 40
0.8759872458
 40
1.0
 40
1.0
 40
1.0
 40
1.0
 10
10.7999036657
 20
8.3469282256
 30
0.0
 10
10.7967768684
 20
8.3444570839
 30
0.0
 10
10.7923896676
 20
8.3403105888
 30
0.0
 10
10.7874624268
 20
8.3339966412
 30
0.0
 10
10.7842783502
 20
8.3288665648
 30
0.0
 10
10.7816815704
 20
8.3233998264
 30
0.0
 10
10.7797419415
 20
8.3176523307
 30
0.0
 10
10.7785188845
 20
8.3116982942
 30
0.0
 10
10.7780782714
 20
8.3056300429
 30
0.0
 10
10.7784471724
 20
8.2995555894
 30
0.0
 10
10.7796570883
 20
8.2935973406
 30
0.0
 10
10.7816202039
 20
8.2878567799
 30
0.0
 10
10.7851306164
 20
8.2806083468
 30
0.0
 10
10.7909755933
 20
8.2723939935
 30
0.0
 10
10.7967968224
 20
8.2668494645
 30
0.0
 10
10.7999036657
 20
8.2643530429
 30
0.0
  0
SPLINE
  5
2E3
100
AcDbEntity
  8
0
100
AcDbSpline
 62
7
  6
CONTINUOUS
 70
0
 71
3
 72
17
 73
13
 74
0
 42
0.0000001
 43
0.0000001
 44
0.0000000001
 40
0.0
 40
0.0
 40
0.0
 40
0.0
 40
0.1020819523
 40
0.2214540685
 40
0.3559353739
 40
0.4272453662
 40
0.4998501511
 40
0.6437089247
 40
0.7784752605
 40
0.8982520473
 40
0.9514725503
 40
1.0
 40
1.0
 40
1.0
 40
1.0
 10
10.7999036657
 20
8.2643530429
 30
0.0
 10
10.8006875165
 20
8.2670811905
 30
0.0
 10
10.8020988679
 20
8.2730835563
 30
0.0
 10
10.8036602221
 20
8.282863615
 30
0.0
 10
10.8044989767
 20
8.2918731667
 30
0.0
 10
10.8048585013
 20
8.2996070495
 30
0.0
 10
10.8049695678
 20
8.3076093878
 30
0.0
 10
10.804661323
 20
8.3173774449
 30
0.0
 10
10.8036527659
 20
8.3284157868
 30
0.0
 10
10.8023255165
 20
8.3368784145
 30
0.0
 10
10.8010061326
 20
8.3428967428
 30
0.0
 10
10.8002820342
 20
8.34563299
 30
0.0
 10
10.7999036657
 20
8.3469282256
 30
0.0
  0
SPLINE
  5
2E4
100
AcDbEntity
  8
0
100
AcDbSpline
 62
7
  6
CONTINUOUS
 70
0
 71
3
 72
20
 73
16
 74
0
 42
0.0000001
 43
0.0000001
 44
0.0000000001
 40
0.0
 40
0.0
 40
0.0
 40
0.0
 40
0.1247587337
 40
0.187287002
 40
0.2498166663
 40
0.3123443943
 40
0.3749169677
 40
0.4374960145
 40
0.5001053812
 40
0.5626851138
 40
0.6252504064
 40
0.6878396934
 40
0.750360465
 40
0.8752468134
 40
1.0
 40
1.0
 40
1.0
 40
1.0
 10
10.7472064219
 20
8.3469282256
 30
0.0
 10
10.7440160278
 20
8.3444620616
 30
0.0
 10
10.7395342434
 20
8.3403222546
 30
0.0
 10
10.7344904642
 20
8.3340021887
 30
0.0
 10
10.731234248
 20
8.3288721857
 30
0.0
 10
10.7285782992
 20
8.3234050231
 30
0.0
 10
10.7265941999
 20
8.3176564571
 30
0.0
 10
10.7253429318
 20
8.3117007069
 30
0.0
 10
10.7248920882
 20
8.3056301561
 30
0.0
 10
10.7252695835
 20
8.2995531484
 30
0.0
 10
10.7265075135
 20
8.2935929832
 30
0.0
 10
10.7285156779
 20
8.2878513847
 30
0.0
 10
10.7321097815
 20
8.2805950459
 30
0.0
 10
10.7380957403
 20
8.2723747122
 30
0.0
 10
10.7440360974
 20
8.266844664
 30
0.0
 10
10.7472064219
 20
8.2643530429
 30
0.0
  0
SPLINE
  5
2E5
100
AcDbEntity
  8
0
100
AcDbSpline
 62
7
  6
CONTINUOUS
 70
0
 71
3
 72
15
 73
11
 74
0
 42
0.0000001
 43
0.0000001
 44
0.0000000001
 40
0.0
 40
0.0
 40
0.0
 40
0.0
 40
0.1005447209
 40
0.2196272864
 40
0.3547617789
 40
0.4998483743
 40
0.6448914217
 40
0.7803274692
 40
0.8998422092
 40
1.0
 40
1.0
 40
1.0
 40
1.0
 10
10.7472064219
 20
8.2643530429
 30
0.0
 10
10.7475130806
 20
8.2671077906
 30
0.0
 10
10.748060895
 20
8.2731388718
 30
0.0
 10
10.7486634685
 20
8.2829011954
 30
0.0
 10
10.7490602919
 20
8.2939030368
 30
0.0
 10
10.7491939436
 20
8.3056268936
 30
0.0
 10
10.7490498805
 20
8.3173588216
 30
0.0
 10
10.7486607786
 20
8.3283798697
 30
0.0
 10
10.7480673492
 20
8.338152374
 30
0.0
 10
10.7475169435
 20
8.3441846452
 30
0.0
 10
10.7472064219
 20
8.3469282256
 30
0.0
  0
SPLINE
  5
2E6
100
AcDbEntity
  8
0
100
AcDbSpline
 62
7
  6
CONTINUOUS
 70
0
 71
3
 72
20
 73
16
 74
0
 42
0.0000001
 43
0.0000001
 44
0.0000000001
 40
0.0
 40
0.0
 40
0.0
 40
0.0
 40
0.1248423032
 40
0.1873899701
 40
0.2499234985
 40
0.3124403764
 40
0.3749892125
 40
0.4375347064
 40
0.5001049377
 40
0.5626453356
 40
0.6251769085
 40
0.6877427951
 40
0.7502535726
 40
0.8751643747
 40
1.0
 40
1.0
 40
1.0
 40
1.0
 10
10.7003505151
 20
8.3469282256
 30
0.0
 10
10.6971530311
 20
8.3444626075
 30
0.0
 10
10.6926607068
 20
8.3403235435
 30
0.0
 10
10.6876039178
 20
8.334002805
 30
0.0
 10
10.6843396534
 20
8.3288728133
 30
0.0
 10
10.6816771017
 20
8.3234056059
 30
0.0
 10
10.6796880382
 20
8.3176569216
 30
0.0
 10
10.6784336197
 20
8.3117009792
 30
0.0
 10
10.6779816332
 20
8.3056301688
 30
0.0
 10
10.6783600887
 20
8.2995528729
 30
0.0
 10
10.6796011474
 20
8.2935924926
 30
0.0
 10
10.6816143407
 20
8.2878507797
 30
0.0
 10
10.6852177944
 20
8.280593562
 30
0.0
 10
10.6912194918
 20
8.2723725822
 30
0.0
 10
10.6971731136
 20
8.2668441374
 30
0.0
 10
10.7003505151
 20
8.2643530429
 30
0.0
  0
SPLINE
  5
2E7
100
AcDbEntity
  8
0
100
AcDbSpline
 62
7
  6
CONTINUOUS
 70
0
 71
3
 72
20
 73
16
 74
0
 42
0.0000001
 43
0.0000001
 44
0.0000000001
 40
0.0
 40
0.0
 40
0.0
 40
0.0
 40
0.1227559175
 40
0.2470580401
 40
0.3098738312
 40
0.3730255174
 40
0.4363778
 40
0.4998758699
 40
0.5633956931
 40
0.6267661289
 40
0.6899101889
 40
0.7527372883
 40
0.8771129932
 40
0.9387676758
 40
1.0
 40
1.0
 40
1.0
 40
1.0
 10
11.4856804136
 20
8.2695682507
 30
0.0
 10
11.4879131906
 20
8.2719597702
 30
0.0
 10
11.4920450045
 20
8.2771271473
 30
0.0
 10
11.4960684588
 20
8.28439447
 30
0.0
 10
11.4984403357
 20
8.2906390712
 30
0.0
 10
11.4997558509
 20
8.295519836
 30
0.0
 10
11.5005525272
 20
8.3005310491
 30
0.0
 10
11.500792775
 20
8.3056092084
 30
0.0
 10
11.5004996835
 20
8.3106843056
 30
0.0
 10
11.4996850445
 20
8.3156921191
 30
0.0
 10
11.4983815915
 20
8.3205760917
 30
0.0
 10
11.4960487841
 20
8.326835852
 30
0.0
 10
11.4928694141
 20
8.3327065197
 30
0.0
 10
11.4889932352
 20
8.338043033
 30
0.0
 10
11.4868484988
 20
8.3405247128
 30
0.0
 10
11.4857326369
 20
8.3417156503
 30
0.0
  0
SPLINE
  5
2E8
100
AcDbEntity
  8
0
100
AcDbSpline
 62
7
  6
CONTINUOUS
 70
0
 71
3
 72
20
 73
16
 74
0
 42
0.0000001
 43
0.0000001
 44
0.0000000001
 40
0.0
 40
0.0
 40
0.0
 40
0.0
 40
0.1230303661
 40
0.2474128859
 40
0.3101446661
 40
0.373222545
 40
0.4364892244
 40
0.4998857928
 40
0.5633079099
 40
0.6265848919
 40
0.6896529979
 40
0.7524094905
 40
0.8148618647
 40
0.8769880218
 40
1.0
 40
1.0
 40
1.0
 40
1.0
 10
11.4669574212
 20
8.2643530429
 30
0.0
 10
11.4699802067
 20
8.2668560367
 30
0.0
 10
11.4756432963
 20
8.2724199956
 30
0.0
 10
11.481302178
 20
8.2806259181
 30
0.0
 10
11.4847022873
 20
8.2878638362
 30
0.0
 10
11.4866059211
 20
8.2936029957
 30
0.0
 10
11.4877788882
 20
8.299558742
 30
0.0
 10
11.4881364622
 20
8.3056299034
 30
0.0
 10
11.4877093347
 20
8.3116951884
 30
0.0
 10
11.4865234982
 20
8.3176469859
 30
0.0
 10
11.4846425823
 20
8.3233930405
 30
0.0
 10
11.4821239763
 20
8.3288591536
 30
0.0
 10
11.4790352603
 20
8.33398925
 30
0.0
 10
11.4742618625
 20
8.3402948625
 30
0.0
 10
11.4700000053
 20
8.3444502651
 30
0.0
 10
11.4669574212
 20
8.3469282256
 30
0.0
  0
SPLINE
  5
2E9
100
AcDbEntity
  8
0
100
AcDbSpline
 62
7
  6
CONTINUOUS
 70
0
 71
3
 72
20
 73
16
 74
0
 42
0.0000001
 43
0.0000001
 44
0.0000000001
 40
0.0
 40
0.0
 40
0.0
 40
0.0
 40
0.1242579957
 40
0.1866703373
 40
0.2491771686
 40
0.3117700929
 40
0.3744848426
 40
0.437264625
 40
0.5001080036
 40
0.5629229359
 40
0.6256899585
 40
0.688419411
 40
0.7510002615
 40
0.8757407513
 40
1.0
 40
1.0
 40
1.0
 40
1.0
 10
10.6602479423
 20
8.3469282256
 30
0.0
 10
10.6570999883
 20
8.3444587562
 30
0.0
 10
10.6526813147
 20
8.3403144903
 30
0.0
 10
10.6477153377
 20
8.3339984903
 30
0.0
 10
10.6445072736
 20
8.328868433
 30
0.0
 10
10.6418908222
 20
8.3234015488
 30
0.0
 10
10.6399364113
 20
8.3176536952
 30
0.0
 10
10.638703979
 20
8.3116990908
 30
0.0
 10
10.6382599667
 20
8.3056300803
 30
0.0
 10
10.638631723
 20
8.2995547835
 30
0.0
 10
10.639850948
 20
8.2935958996
 30
0.0
 10
10.6418290379
 20
8.2878549915
 30
0.0
 10
10.6453672555
 20
8.2806039244
 30
0.0
 10
10.6512590929
 20
8.2723875447
 30
0.0
 10
10.6571199807
 20
8.2668478521
 30
0.0
 10
10.6602479423
 20
8.2643530429
 30
0.0
  0
SPLINE
  5
2EA
100
AcDbEntity
  8
0
100
AcDbSpline
 62
7
  6
CONTINUOUS
 70
0
 71
3
 72
20
 73
16
 74
0
 42
0.0000001
 43
0.0000001
 44
0.0000000001
 40
0.0
 40
0.0
 40
0.0
 40
0.0
 40
0.1237256327
 40
0.2483098324
 40
0.310955968
 40
0.3738367802
 40
0.436821177
 40
0.49988929
 40
0.5629845861
 40
0.6259806584
 40
0.6888489095
 40
0.7515126189
 40
0.8139953811
 40
0.876283049
 40
1.0
 40
1.0
 40
1.0
 40
1.0
 10
11.4516580285
 20
8.2643530429
 30
0.0
 10
11.4547402873
 20
8.2668513616
 30
0.0
 10
11.4605153115
 20
8.2724015458
 30
0.0
 10
11.4663057884
 20
8.2806134944
 30
0.0
 10
11.4697838781
 20
8.2878588578
 30
0.0
 10
11.4717295729
 20
8.2935990132
 30
0.0
 10
11.4729286658
 20
8.2995565257
 30
0.0
 10
11.4732942486
 20
8.305630006
 30
0.0
 10
11.4728575847
 20
8.3116973798
 30
0.0
 10
11.4716454301
 20
8.3176507572
 30
0.0
 10
11.4697229936
 20
8.3233978332
 30
0.0
 10
11.4671490997
 20
8.3288643954
 30
0.0
 10
11.4639929342
 20
8.3339944857
 30
0.0
 10
11.4591107473
 20
8.3403060223
 30
0.0
 10
11.4547601954
 20
8.3444551168
 30
0.0
 10
11.4516580285
 20
8.3469282256
 30
0.0
  0
SPLINE
  5
2EB
100
AcDbEntity
  8
0
100
AcDbSpline
 62
7
  6
CONTINUOUS
 70
0
 71
3
 72
20
 73
16
 74
0
 42
0.0000001
 43
0.0000001
 44
0.0000000001
 40
0.0
 40
0.0
 40
0.0
 40
0.0
 40
0.1230119879
 40
0.1851381552
 40
0.2475905434
 40
0.3103470445
 40
0.3734151606
 40
0.4366921482
 40
0.5001142672
 40
0.563510844
 40
0.6267775093
 40
0.6898553819
 40
0.7525871642
 40
0.8769696594
 40
1.0
 40
1.0
 40
1.0
 40
1.0
 10
10.6276792545
 20
8.3469282256
 30
0.0
 10
10.6246366701
 20
8.3444502649
 30
0.0
 10
10.6203748128
 20
8.3402948615
 30
0.0
 10
10.6156014142
 20
8.3339892483
 30
0.0
 10
10.6125126981
 20
8.3288591508
 30
0.0
 10
10.6099940915
 20
8.3233930368
 30
0.0
 10
10.6081131764
 20
8.3176469811
 30
0.0
 10
10.6069273398
 20
8.311695183
 30
0.0
 10
10.6065002149
 20
8.3056298973
 30
0.0
 10
10.6068577879
 20
8.2995587361
 30
0.0
 10
10.6080307536
 20
8.2936029897
 30
0.0
 10
10.6099343912
 20
8.2878638321
 30
0.0
 10
10.6133345001
 20
8.2806259149
 30
0.0
 10
10.6189933808
 20
8.2724199935
 30
0.0
 10
10.6246564697
 20
8.2668560362
 30
0.0
 10
10.6276792545
 20
8.2643530429
 30
0.0
  0
SPLINE
  5
2EC
100
AcDbEntity
  8
0
100
AcDbSpline
 62
7
  6
CONTINUOUS
 70
0
 71
3
 72
18
 73
14
 74
0
 42
0.0000001
 43
0.0000001
 44
0.0000000001
 40
0.0
 40
0.0
 40
0.0
 40
0.0
 40
0.1218396556
 40
0.2460125719
 40
0.3722713707
 40
0.4360355174
 40
0.500008296
 40
0.5639607746
 40
0.6277108043
 40
0.6911517384
 40
0.7540987682
 40
0.8781786724
 40
1.0
 40
1.0
 40
1.0
 40
1.0
 10
10.5989436196
 20
8.3428006865
 30
0.0
 10
10.5966343757
 20
8.3403766618
 30
0.0
 10
10.5923681911
 20
8.3350823244
 30
0.0
 10
10.5874436589
 20
8.3260549676
 30
0.0
 10
10.5847823959
 20
8.3177789068
 30
0.0
 10
10.5836559408
 20
8.3108807128
 30
0.0
 10
10.5833507451
 20
8.3056123518
 30
0.0
 10
10.583602101
 20
8.3003411365
 30
0.0
 10
10.5844339956
 20
8.2951445376
 30
0.0
 10
10.5858027998
 20
8.290092645
 30
0.0
 10
10.5882633195
 20
8.2836545633
 30
0.0
 10
10.5924186886
 20
8.2761978484
 30
0.0
 10
10.5966859589
 20
8.2709159133
 30
0.0
 10
10.5989874442
 20
8.2684852145
 30
0.0
  0
SPLINE
  5
2ED
100
AcDbEntity
  8
0
100
AcDbSpline
 62
7
  6
CONTINUOUS
 70
0
 71
3
 72
18
 73
14
 74
0
 42
0.0000001
 43
0.0000001
 44
0.0000000001
 40
0.0
 40
0.0
 40
0.0
 40
0.0
 40
0.1192255053
 40
0.2427429777
 40
0.3700807439
 40
0.4348655121
 40
0.5000208887
 40
0.5651602853
 40
0.6299394429
 40
0.6941081204
 40
0.7573652863
 40
0.8807515755
 40
1.0
 40
1.0
 40
1.0
 40
1.0
 10
10.5854982427
 20
8.344934146
 30
0.0
 10
10.5830942564
 20
8.3424469366
 30
0.0
 10
10.5786325334
 20
8.3369407967
 30
0.0
 10
10.5734865056
 20
8.3274501187
 30
0.0
 10
10.5706985563
 20
8.3186607924
 30
0.0
 10
10.5695092919
 20
8.3112810044
 30
0.0
 10
10.5691863034
 20
8.3056198801
 30
0.0
 10
10.569454626
 20
8.2999556101
 30
0.0
 10
10.5703391902
 20
8.2943833197
 30
0.0
 10
10.5717849506
 20
8.288987253
 30
0.0
 10
10.5743659765
 20
8.2821725222
 30
0.0
 10
10.5786826654
 20
8.2743579721
 30
0.0
 10
10.583130866
 20
8.2688532968
 30
0.0
 10
10.58552123
 20
8.2663520727
 30
0.0
  0
SPLINE
  5
2EE
100
AcDbEntity
  8
0
100
AcDbSpline
 62
7
  6
CONTINUOUS
 70
0
 71
3
 72
20
 73
16
 74
0
 42
0.0000001
 43
0.0000001
 44
0.0000000001
 40
0.0
 40
0.0
 40
0.0
 40
0.0
 40
0.1242592744
 40
0.2489997888
 40
0.311580637
 40
0.3743100951
 40
0.4370771318
 40
0.4998920557
 40
0.5627354326
 40
0.6255152096
 40
0.6882299493
 40
0.7508228652
 40
0.8133296825
 40
0.875742014
 40
1.0
 40
1.0
 40
1.0
 40
1.0
 10
11.4343887334
 20
8.2643530429
 30
0.0
 10
11.4375166956
 20
8.2668478527
 30
0.0
 10
11.4433775842
 20
8.2723875468
 30
0.0
 10
11.4492694226
 20
8.2806039276
 30
0.0
 10
11.4528076408
 20
8.2878549956
 30
0.0
 10
11.4547857267
 20
8.2935959056
 30
0.0
 10
11.4560049531
 20
8.2995547894
 30
0.0
 10
11.4563767105
 20
8.3056300864
 30
0.0
 10
11.4559326955
 20
8.3116990962
 30
0.0
 10
11.4547002633
 20
8.3176537001
 30
0.0
 10
11.4527458516
 20
8.3234015525
 30
0.0
 10
11.4501294007
 20
8.3288684358
 30
0.0
 10
11.4469213367
 20
8.333998492
 30
0.0
 10
11.4419553606
 20
8.3403144912
 30
0.0
 10
11.4375366872
 20
8.3444587564
 30
0.0
 10
11.4343887334
 20
8.3469282256
 30
0.0
  0
SPLINE
  5
2EF
100
AcDbEntity
  8
0
100
AcDbSpline
 62
9
  6
CONTINUOUS
 70
0
 71
3
 72
14
 73
10
 74
0
 42
0.0000001
 43
0.0000001
 44
0.0000000001
 40
0.0
 40
0.0
 40
0.0
 40
0.0
 40
0.117356973
 40
0.2363038548
 40
0.3573081945
 40
0.4809291632
 40
0.6073173875
 40
0.7363500187
 40
1.0
 40
1.0
 40
1.0
 40
1.0
 10
8.9979346591
 20
6.9625882366
 30
0.0
 10
8.998814144
 20
6.9622980677
 30
0.0
 10
9.0005342826
 20
6.9615464357
 30
0.0
 10
9.0028839508
 20
6.9599618624
 30
0.0
 10
9.0049538894
 20
6.9579539707
 30
0.0
 10
9.00668909
 20
6.9555794818
 30
0.0
 10
9.0080488842
 20
6.952900358
 30
0.0
 10
9.0093212117
 20
6.9489945976
 30
0.0
 10
9.0096064086
 20
6.9458510772
 30
0.0
 10
9.0095043744
 20
6.9437730007
 30
0.0
  0
SPLINE
  5
2F0
100
AcDbEntity
  8
0
100
AcDbSpline
 62
7
  6
CONTINUOUS
 70
0
 71
3
 72
9
 73
5
 74
0
 42
0.0000001
 43
0.0000001
 44
0.0000000001
 40
0.0
 40
0.0
 40
0.0
 40
0.0
 40
0.4879702714
 40
1.0
 40
1.0
 40
1.0
 40
1.0
 10
10.5807114969
 20
8.3469282256
 30
0.0
 10
10.5787712095
 20
8.3448852628
 30
0.0
 10
10.5751051011
 20
8.3403938821
 30
0.0
 10
10.5721509021
 20
8.3354038163
 30
0.0
 10
10.570838273
 20
8.3327547551
 30
0.0
  0
SPLINE
  5
2F1
100
AcDbEntity
  8
0
100
AcDbSpline
 62
7
  6
CONTINUOUS
 70
0
 71
3
 72
20
 73
16
 74
0
 42
0.0000001
 43
0.0000001
 44
0.0000000001
 40
0.0
 40
0.0
 40
0.0
 40
0.0
 40
0.1246296145
 40
0.2494793837
 40
0.3120151545
 40
0.3746395269
 40
0.4372553612
 40
0.4998940161
 40
0.5625620134
 40
0.6251913329
 40
0.6877994807
 40
0.7503434844
 40
0.81286737
 40
0.8753665715
 40
1.0
 40
1.0
 40
1.0
 40
1.0
 10
11.4152336703
 20
8.2643530429
 30
0.0
 10
11.4183933888
 20
8.266845457
 30
0.0
 10
11.4243138602
 20
8.2723779142
 30
0.0
 10
11.4302762397
 20
8.2805972728
 30
0.0
 10
11.4338563379
 20
8.2878522942
 30
0.0
 10
11.4358569639
 20
8.2935937226
 30
0.0
 10
11.4370902082
 20
8.299553566
 30
0.0
 10
11.4374662663
 20
8.3056301431
 30
0.0
 10
11.437017132
 20
8.3117003054
 30
0.0
 10
11.4357705835
 20
8.3176557674
 30
0.0
 10
11.4337939211
 20
8.3234041546
 30
0.0
 10
11.4311478664
 20
8.3288712483
 30
0.0
 10
11.4279037105
 20
8.3340012658
 30
0.0
 10
11.4228794239
 20
8.3403203194
 30
0.0
 10
11.4184134382
 20
8.3444612403
 30
0.0
 10
11.4152336703
 20
8.3469282256
 30
0.0
  0
SPLINE
  5
2F2
100
AcDbEntity
  8
0
100
AcDbSpline
 62
9
  6
CONTINUOUS
 70
0
 71
3
 72
14
 73
10
 74
0
 42
0.0000001
 43
0.0000001
 44
0.0000000001
 40
0.0
 40
0.0
 40
0.0
 40
0.0
 40
0.1175688947
 40
0.2366901016
 40
0.3578093506
 40
0.4814730989
 40
0.6078270303
 40
0.7367507106
 40
1.0
 40
1.0
 40
1.0
 40
1.0
 10
13.0967642033
 20
6.9626014712
 30
0.0
 10
13.0958813174
 20
6.9623105795
 30
0.0
 10
13.0941545509
 20
6.9615576574
 30
0.0
 10
13.0917948878
 20
6.9599711968
 30
0.0
 10
13.0897153595
 20
6.95796153
 30
0.0
 10
13.0879712366
 20
6.9555853788
 30
0.0
 10
13.0866034557
 20
6.9529047127
 30
0.0
 10
13.0853222891
 20
6.9489980477
 30
0.0
 10
13.0850321425
 20
6.9458526775
 30
0.0
 10
13.0851322576
 20
6.9437736741
 30
0.0
  0
SPLINE
  5
2F3
100
AcDbEntity
  8
0
100
AcDbSpline
 62
7
  6
CONTINUOUS
 70
0
 71
3
 72
25
 73
21
 74
0
 42
0.0000001
 43
0.0000001
 44
0.0000000001
 40
0.0
 40
0.0
 40
0.0
 40
0.0
 40
0.0932037111
 40
0.1859572423
 40
0.2318343043
 40
0.277168184
 40
0.3658071779
 40
0.4512023943
 40
0.5326845706
 40
0.6095726275
 40
0.6811711459
 40
0.7468096752
 40
0.8059373255
 40
0.858035803
 40
0.9026502845
 40
0.9394248499
 40
0.9680273811
 40
0.98824408
 40
0.9951773766
 40
1.0
 40
1.0
 40
1.0
 40
1.0
 10
13.1498969902
 20
6.9583539287
 30
0.0
 10
13.1497210936
 20
6.9589412773
 30
0.0
 10
13.1493080057
 20
6.9600945211
 30
0.0
 10
13.1487133226
 20
6.9614988913
 30
0.0
 10
13.1482339144
 20
6.9626100595
 30
0.0
 10
13.1477756427
 20
6.9637008353
 30
0.0
 10
13.1472385069
 20
6.9650402857
 30
0.0
 10
13.146625884
 20
6.9666055194
 30
0.0
 10
13.1460302724
 20
6.9680943955
 30
0.0
 10
13.1454536497
 20
6.9694930148
 30
0.0
 10
13.1449088206
 20
6.9707919603
 30
0.0
 10
13.1444059753
 20
6.971981817
 30
0.0
 10
13.1439484432
 20
6.9730515499
 30
0.0
 10
13.1435386099
 20
6.973991255
 30
0.0
 10
13.1431788426
 20
6.9747922917
 30
0.0
 10
13.1428728224
 20
6.9754480615
 30
0.0
 10
13.1426226473
 20
6.9759524033
 30
0.0
 10
13.1424481548
 20
6.9762754747
 30
0.0
 10
13.1423352463
 20
6.9764528667
 30
0.0
 10
13.1422887732
 20
6.9765150727
 30
0.0
 10
13.1422670471
 20
6.9765381904
 30
0.0
  0
SPLINE
  5
2F4
100
AcDbEntity
  8
0
100
AcDbSpline
 62
7
  6
CONTINUOUS
 70
0
 71
3
 72
25
 73
21
 74
0
 42
0.0000001
 43
0.0000001
 44
0.0000000001
 40
0.0
 40
0.0
 40
0.0
 40
0.0
 40
0.09331271
 40
0.186146346
 40
0.2320500902
 40
0.2774015375
 40
0.3660621907
 40
0.4514631285
 40
0.5329356167
 40
0.6098006516
 40
0.681365814
 40
0.7469654607
 40
0.8060530265
 40
0.8581125811
 40
0.9026930277
 40
0.9394405875
 40
0.9680253749
 40
0.9882363957
 40
0.9951718197
 40
1.0
 40
1.0
 40
1.0
 40
1.0
 10
13.1498729449
 20
7.7051604776
 30
0.0
 10
13.1496975731
 20
7.7045749312
 30
0.0
 10
13.1492839896
 20
7.7034259563
 30
0.0
 10
13.148687885
 20
7.7020276808
 30
0.0
 10
13.1482087297
 20
7.7009210829
 30
0.0
 10
13.1477522409
 20
7.6998345088
 30
0.0
 10
13.1472177175
 20
7.6985002629
 30
0.0
 10
13.1466083614
 20
7.6969412533
 30
0.0
 10
13.1460150054
 20
7.6954589611
 30
0.0
 10
13.1454405015
 20
7.6940668515
 30
0.0
 10
13.144897747
 20
7.6927741675
 30
0.0
 10
13.1443970308
 20
7.6915901362
 30
0.0
 10
13.1439415277
 20
7.6905257229
 30
0.0
 10
13.1435336063
 20
7.6895907185
 30
0.0
 10
13.1431755849
 20
7.6887936836
 30
0.0
 10
13.1428710041
 20
7.6881411853
 30
0.0
 10
13.1426218017
 20
7.6876393829
 30
0.0
 10
13.1424478037
 20
7.6873179634
 30
0.0
 10
13.1423351387
 20
7.6871414521
 30
0.0
 10
13.1422887423
 20
7.6870795366
 30
0.0
 10
13.1422670568
 20
7.6870565148
 30
0.0
  0
SPLINE
  5
2F5
100
AcDbEntity
  8
0
100
AcDbSpline
 62
9
  6
CONTINUOUS
 70
0
 71
3
 72
14
 73
10
 74
0
 42
0.0000001
 43
0.0000001
 44
0.0000000001
 40
0.0
 40
0.0
 40
0.0
 40
0.0
 40
0.1173569875
 40
0.2363038765
 40
0.3573082167
 40
0.4809291788
 40
0.6073173932
 40
0.736350017
 40
1.0
 40
1.0
 40
1.0
 40
1.0
 10
13.0967020164
 20
7.7010064429
 30
0.0
 10
13.0958225313
 20
7.7012966125
 30
0.0
 10
13.094102392
 20
7.7020482454
 30
0.0
 10
13.091752722
 20
7.7036328186
 30
0.0
 10
13.0896827808
 20
7.7056407093
 30
0.0
 10
13.0879475767
 20
7.708015197
 30
0.0
 10
13.0865877783
 20
7.7106943199
 30
0.0
 10
13.0853154448
 20
7.7146000802
 30
0.0
 10
13.0850302442
 20
7.7177436018
 30
0.0
 10
13.0851322767
 20
7.7198216794
 30
0.0
  0
SPLINE
  5
2F6
100
AcDbEntity
  8
0
100
AcDbSpline
 62
9
  6
CONTINUOUS
 70
0
 71
3
 72
14
 73
10
 74
0
 42
0.0000001
 43
0.0000001
 44
0.0000000001
 40
0.0
 40
0.0
 40
0.0
 40
0.0
 40
0.1175689183
 40
0.2366901471
 40
0.3578093959
 40
0.4814731361
 40
0.6078270663
 40
0.7367507383
 40
1.0
 40
1.0
 40
1.0
 40
1.0
 10
8.9978724724
 20
7.700993209
 30
0.0
 10
8.9987553585
 20
7.7012841008
 30
0.0
 10
9.0004821253
 20
7.7020370229
 30
0.0
 10
9.0028417888
 20
7.7036234835
 30
0.0
 10
9.004921317
 20
7.7056331508
 30
0.0
 10
9.0066654397
 20
7.708009302
 30
0.0
 10
9.0080332204
 20
7.7106899681
 30
0.0
 10
9.009314387
 20
7.7145966328
 30
0.0
 10
9.0096045338
 20
7.7177420028
 30
0.0
 10
9.0095044189
 20
7.719821006
 30
0.0
  0
SPLINE
  5
2F7
100
AcDbEntity
  8
0
100
AcDbSpline
 62
7
  6
CONTINUOUS
 70
0
 71
3
 72
25
 73
21
 74
0
 42
0.0000001
 43
0.0000001
 44
0.0000000001
 40
0.0
 40
0.0
 40
0.0
 40
0.0
 40
0.0932037741
 40
0.1859566185
 40
0.2318332646
 40
0.277166878
 40
0.3658056196
 40
0.4512006487
 40
0.5326826463
 40
0.6095704996
 40
0.6811688164
 40
0.7468071944
 40
0.8059347158
 40
0.8580330169
 40
0.9026472656
 40
0.9394217661
 40
0.9680248444
 40
0.988242829
 40
0.9951768687
 40
1.0
 40
1.0
 40
1.0
 40
1.0
 10
8.9447396836
 20
7.7052407507
 30
0.0
 10
8.9449155933
 20
7.7046534035
 30
0.0
 10
8.9453285583
 20
7.7035001237
 30
0.0
 10
8.9459229562
 20
7.7020956337
 30
0.0
 10
8.9464021786
 20
7.700984391
 30
0.0
 10
8.9468603455
 20
7.699893574
 30
0.0
 10
8.9473974904
 20
7.6985541281
 30
0.0
 10
8.9480102264
 20
7.696988937
 30
0.0
 10
8.9486059097
 20
7.6955000882
 30
0.0
 10
8.9491825492
 20
7.6941014747
 30
0.0
 10
8.9497273884
 20
7.6928025322
 30
0.0
 10
8.9502302719
 20
7.6916126906
 30
0.0
 10
8.9506878439
 20
7.6905429738
 30
0.0
 10
8.9510976792
 20
7.68960327
 30
0.0
 10
8.9514574089
 20
7.6888022167
 30
0.0
 10
8.9517634228
 20
7.6881464391
 30
0.0
 10
8.9520137119
 20
7.6876421366
 30
0.0
 10
8.9521883772
 20
7.6873191372
 30
0.0
 10
8.9523013941
 20
7.6871417926
 30
0.0
 10
8.9523478992
 20
7.6870796019
 30
0.0
 10
8.9523696307
 20
7.6870564845
 30
0.0
  0
SPLINE
  5
2F8
100
AcDbEntity
  8
0
100
AcDbSpline
 62
7
  6
CONTINUOUS
 70
0
 71
3
 72
25
 73
21
 74
0
 42
0.0000001
 43
0.0000001
 44
0.0000000001
 40
0.0
 40
0.0
 40
0.0
 40
0.0
 40
0.0933123652
 40
0.1861467604
 40
0.2320509799
 40
0.2774026891
 40
0.3660635602
 40
0.4514647151
 40
0.5329373831
 40
0.609802587
 40
0.6813679046
 40
0.7469676462
 40
0.8060552518
 40
0.8581148299
 40
0.9026953208
 40
0.9394428975
 40
0.9680275221
 40
0.988237951
 40
0.9951727789
 40
1.0
 40
1.0
 40
1.0
 40
1.0
 10
8.9447637308
 20
6.9584342024
 30
0.0
 10
8.9449390931
 20
6.9590197474
 30
0.0
 10
8.9453528891
 20
6.9601686574
 30
0.0
 10
8.9459494531
 20
6.9615667367
 30
0.0
 10
8.9464288964
 20
6.9626732171
 30
0.0
 10
8.9468855371
 20
6.963759731
 30
0.0
 10
8.9474200249
 20
6.9650939932
 30
0.0
 10
8.9480291715
 20
6.9666530836
 30
0.0
 10
8.9486223809
 20
6.9681354338
 30
0.0
 10
8.9491968184
 20
6.9695275698
 30
0.0
 10
8.9497395171
 20
6.9708202757
 30
0.0
 10
8.9502401381
 20
6.9720043452
 30
0.0
 10
8.9506955376
 20
6.9730688002
 30
0.0
 10
8.9511033869
 20
6.9740038337
 30
0.0
 10
8.9514613819
 20
6.9748008785
 30
0.0
 10
8.9517659439
 20
6.9754533821
 30
0.0
 10
8.9520150955
 20
6.9759552027
 30
0.0
 10
8.9521890168
 20
6.97627665
 30
0.0
 10
8.9523016023
 20
6.9764531946
 30
0.0
 10
8.952347955
 20
6.9765151282
 30
0.0
 10
8.9523696179
 20
6.9765381626
 30
0.0
  0
SPLINE
  5
2F9
100
AcDbEntity
  8
0
100
AcDbSpline
 62
9
  6
CONTINUOUS
 70
0
 71
3
 72
14
 73
10
 74
0
 42
0.0000001
 43
0.0000001
 44
0.0000000001
 40
0.0
 40
0.0
 40
0.0
 40
0.0
 40
0.1168663769
 40
0.2354246868
 40
0.3562031411
 40
0.4796774956
 40
0.6060474585
 40
0.7352875872
 40
1.0
 40
1.0
 40
1.0
 40
1.0
 10
13.0722803476
 20
7.7475928829
 30
0.0
 10
13.0732487185
 20
7.7473927723
 30
0.0
 10
13.0751635283
 20
7.7467891019
 30
0.0
 10
13.0778201561
 20
7.7453277022
 30
0.0
 10
13.0801921632
 20
7.7433497594
 30
0.0
 10
13.0821999519
 20
7.7409189785
 30
0.0
 10
13.083784711
 20
7.7381108032
 30
0.0
 10
13.0852782282
 20
7.7339535952
 30
0.0
 10
13.0856283491
 20
7.7305669194
 30
0.0
 10
13.0855249443
 20
7.7283295206
 30
0.0
  0
SPLINE
  5
2FA
100
AcDbEntity
  8
0
100
AcDbSpline
 62
9
  6
CONTINUOUS
 70
0
 71
3
 72
15
 73
11
 74
0
 42
0.0000001
 43
0.0000001
 44
0.0000000001
 40
0.0
 40
0.0
 40
0.0
 40
0.0
 40
0.1519258084
 40
0.2990634615
 40
0.4385916529
 40
0.5688771243
 40
0.6890635986
 40
0.7994613222
 40
0.9020434531
 40
1.0
 40
1.0
 40
1.0
 40
1.0
 10
13.1014714722
 20
7.7240867596
 30
0.0
 10
13.1016117483
 20
7.7252359978
 30
0.0
 10
13.1017595645
 20
7.7275162723
 30
0.0
 10
13.1015796657
 20
7.7308619197
 30
0.0
 10
13.1009969539
 20
7.7339957754
 30
0.0
 10
13.1000282644
 20
7.7368184001
 30
0.0
 10
13.0987020351
 20
7.7392451977
 30
0.0
 10
13.0970471877
 20
7.74119852
 30
0.0
 10
13.0951077849
 20
7.7426032066
 30
0.0
 10
13.0936509061
 20
7.7431391614
 30
0.0
 10
13.0929203309
 20
7.7432924762
 30
0.0
  0
SPLINE
  5
2FB
100
AcDbEntity
  8
0
100
AcDbSpline
 62
9
  6
CONTINUOUS
 70
0
 71
3
 72
14
 73
10
 74
0
 42
0.0000001
 43
0.0000001
 44
0.0000000001
 40
0.0
 40
0.0
 40
0.0
 40
0.0
 40
0.1175239268
 40
0.2362099813
 40
0.3567381672
 40
0.4799683003
 40
0.6062142414
 40
0.7354091827
 40
1.0
 40
1.0
 40
1.0
 40
1.0
 10
9.0223563706
 20
7.7475926773
 30
0.0
 10
9.0213823561
 20
7.7473913964
 30
0.0
 10
9.0194602748
 20
7.7467876708
 30
0.0
 10
9.0167975924
 20
7.7453259207
 30
0.0
 10
9.0144296356
 20
7.7433466108
 30
0.0
 10
9.012428586
 20
7.7409163606
 30
0.0
 10
9.0108477638
 20
7.7381094817
 30
0.0
 10
9.0093542314
 20
7.7339540679
 30
0.0
 10
9.0090059083
 20
7.7305674266
 30
0.0
 10
9.0091118439
 20
7.7283307255
 30
0.0
  0
LINE
  5
2FC
100
AcDbEntity
  8
0
100
AcDbLine
 62
7
  6
CONTINUOUS
 10
8.9371219526
 20
7.7248877662
 11
8.9382775294
 21
7.722497475
  0
LINE
  5
2FD
100
AcDbEntity
  8
0
100
AcDbLine
 62
7
  6
CONTINUOUS
 10
8.9382775294
 20
7.722497475
 11
8.9443424818
 21
7.7065666758
  0
SPLINE
  5
2FE
100
AcDbEntity
  8
0
100
AcDbSpline
 62
9
  6
CONTINUOUS
 70
0
 71
3
 72
15
 73
11
 74
0
 42
0.0000001
 43
0.0000001
 44
0.0000000001
 40
0.0
 40
0.0
 40
0.0
 40
0.0
 40
0.1519220281
 40
0.2990571412
 40
0.4385847158
 40
0.5688714468
 40
0.6890604228
 40
0.7994608366
 40
0.9020444382
 40
1.0
 40
1.0
 40
1.0
 40
1.0
 10
8.9931653415
 20
7.724086759
 30
0.0
 10
8.9930250498
 20
7.7252360544
 30
0.0
 10
8.992877191
 20
7.7275164492
 30
0.0
 10
8.9930569931
 20
7.7308622999
 30
0.0
 10
8.9936395808
 20
7.7339964057
 30
0.0
 10
8.9946081358
 20
7.7368193366
 30
0.0
 10
8.9959342369
 20
7.7392464931
 30
0.0
 10
8.9975889775
 20
7.741200219
 30
0.0
 10
8.9995283137
 20
7.7426053389
 30
0.0
 10
9.0009852083
 20
7.7431415985
 30
0.0
 10
9.0017158042
 20
7.7432950526
 30
0.0
  0
LINE
  5
2FF
100
AcDbEntity
  8
0
100
AcDbLine
 62
7
  6
CONTINUOUS
 10
8.9371219526
 20
6.9387069139
 11
8.9382737106
 21
6.941098766
  0
LINE
  5
300
100
AcDbEntity
  8
0
100
AcDbLine
 62
7
  6
CONTINUOUS
 10
8.9382737106
 20
6.941098766
 11
8.9443424818
 21
6.9570280043
  0
LINE
  5
301
100
AcDbEntity
  8
0
100
AcDbLine
 62
9
  6
CONTINUOUS
 10
8.942677499
 20
7.7059606745
 11
8.9359088887
 21
7.7244454436
  0
SPLINE
  5
302
100
AcDbEntity
  8
0
100
AcDbSpline
 62
9
  6
CONTINUOUS
 70
0
 71
3
 72
14
 73
10
 74
0
 42
0.0000001
 43
0.0000001
 44
0.0000000001
 40
0.0
 40
0.0
 40
0.0
 40
0.0
 40
0.1167779818
 40
0.2353162932
 40
0.3561234068
 40
0.4796356104
 40
0.6060361894
 40
0.7352963732
 40
1.0
 40
1.0
 40
1.0
 40
1.0
 10
9.0224896066
 20
6.9160499813
 30
0.0
 10
9.0215161753
 20
6.9162443381
 30
0.0
 10
9.0195895657
 20
6.9168386399
 30
0.0
 10
9.0169131647
 20
6.9182918354
 30
0.0
 10
9.014519903
 20
6.9202672772
 30
0.0
 10
9.0124914865
 20
6.9227010893
 30
0.0
 10
9.0108883696
 20
6.9255169949
 30
0.0
 10
9.0093748873
 20
6.9296891643
 30
0.0
 10
9.0090151378
 20
6.9330912364
 30
0.0
 10
9.009115147
 20
6.9353390652
 30
0.0
  0
SPLINE
  5
303
100
AcDbEntity
  8
0
100
AcDbSpline
 62
9
  6
CONTINUOUS
 70
0
 71
3
 72
15
 73
11
 74
0
 42
0.0000001
 43
0.0000001
 44
0.0000000001
 40
0.0
 40
0.0
 40
0.0
 40
0.0
 40
0.1519256349
 40
0.2990631069
 40
0.4385911566
 40
0.5688765414
 40
0.6890630106
 40
0.7994608346
 40
0.9020431439
 40
1.0
 40
1.0
 40
1.0
 40
1.0
 10
8.9931652043
 20
6.9395079204
 30
0.0
 10
8.9930249255
 20
6.9383586824
 30
0.0
 10
8.9928771033
 20
6.9360784079
 30
0.0
 10
8.9930569945
 20
6.9327327594
 30
0.0
 10
8.9936397018
 20
6.9295989017
 30
0.0
 10
8.9946083888
 20
6.9267762736
 30
0.0
 10
8.9959346183
 20
6.9243494718
 30
0.0
 10
8.997589469
 20
6.9223961451
 30
0.0
 10
8.9995288774
 20
6.9209914532
 30
0.0
 10
9.0009857613
 20
6.9204554956
 30
0.0
 10
9.0017163396
 20
6.920302179
 30
0.0
  0
SPLINE
  5
304
100
AcDbEntity
  8
0
100
AcDbSpline
 62
9
  6
CONTINUOUS
 70
0
 71
3
 72
15
 73
11
 74
0
 42
0.0000001
 43
0.0000001
 44
0.0000000001
 40
0.0
 40
0.0
 40
0.0
 40
0.0
 40
0.1151644806
 40
0.2333041296
 40
0.3545638482
 40
0.4785387877
 40
0.6051507928
 40
0.7344436191
 40
0.866397459
 40
1.0
 40
1.0
 40
1.0
 40
1.0
 10
13.0721468622
 20
6.9160510179
 30
0.0
 10
13.0731070468
 20
6.916242735
 30
0.0
 10
13.0750165338
 20
6.916836454
 30
0.0
 10
13.0776787788
 20
6.9182877453
 30
0.0
 10
13.0800808182
 20
6.9202595168
 30
0.0
 10
13.0821246964
 20
6.9226942933
 30
0.0
 10
13.0837377968
 20
6.9255115147
 30
0.0
 10
13.0848677091
 20
6.9286259746
 30
0.0
 10
13.0854943192
 20
6.9319372937
 30
0.0
 10
13.0855701848
 20
6.9342042426
 30
0.0
 10
13.085521205
 20
6.9353390852
 30
0.0
  0
LINE
  5
305
100
AcDbEntity
  8
0
100
AcDbLine
 62
7
  6
CONTINUOUS
 10
13.1575147231
 20
6.9387069139
 11
13.1563591464
 21
6.9410972051
  0
LINE
  5
306
100
AcDbEntity
  8
0
100
AcDbLine
 62
7
  6
CONTINUOUS
 10
13.1563591464
 20
6.9410972051
 11
13.1502941939
 21
6.9570280043
  0
SPLINE
  5
307
100
AcDbEntity
  8
0
100
AcDbSpline
 62
9
  6
CONTINUOUS
 70
0
 71
3
 72
15
 73
11
 74
0
 42
0.0000001
 43
0.0000001
 44
0.0000000001
 40
0.0
 40
0.0
 40
0.0
 40
0.0
 40
0.1519220286
 40
0.2990571424
 40
0.4385847173
 40
0.5688714482
 40
0.6890604239
 40
0.7994608367
 40
0.9020444376
 40
1.0
 40
1.0
 40
1.0
 40
1.0
 10
13.1014713343
 20
6.9395079211
 30
0.0
 10
13.1016116259
 20
6.9383586256
 30
0.0
 10
13.1017594847
 20
6.9360782308
 30
0.0
 10
13.1015796826
 20
6.9327323801
 30
0.0
 10
13.1009970949
 20
6.9295982743
 30
0.0
 10
13.1000285399
 20
6.9267753434
 30
0.0
 10
13.0987024388
 20
6.9243481869
 30
0.0
 10
13.0970476982
 20
6.922394461
 30
0.0
 10
13.095108362
 20
6.9209893411
 30
0.0
 10
13.0936514674
 20
6.9204530815
 30
0.0
 10
13.0929208715
 20
6.9202996274
 30
0.0
  0
LINE
  5
308
100
AcDbEntity
  8
0
100
AcDbLine
 62
7
  6
CONTINUOUS
 10
13.1575147231
 20
7.7248877662
 11
13.1563629651
 21
7.722495914
  0
LINE
  5
309
100
AcDbEntity
  8
0
100
AcDbLine
 62
7
  6
CONTINUOUS
 10
13.1563629651
 20
7.722495914
 11
13.1502941939
 21
7.7065666758
  0
LINE
  5
30A
100
AcDbEntity
  8
0
100
AcDbLine
 62
9
  6
CONTINUOUS
 10
13.1519591767
 20
6.9576340056
 11
13.158727787
 21
6.9391492365
  0
SPLINE
  5
30B
100
AcDbEntity
  8
0
100
AcDbSpline
 62
7
  6
CONTINUOUS
 70
0
 71
3
 72
14
 73
10
 74
0
 42
0.0000001
 43
0.0000001
 44
0.0000000001
 40
0.0
 40
0.0
 40
0.0
 40
0.0
 40
0.0998844335
 40
0.219353946
 40
0.3549057051
 40
0.5001528407
 40
0.780691007
 40
0.8997235244
 40
1.0
 40
1.0
 40
1.0
 40
1.0
 10
11.3716482586
 20
8.3469282256
 30
0.0
 10
11.3715859606
 20
8.3441794386
 30
0.0
 10
11.3714757215
 20
8.3381422842
 30
0.0
 10
11.3713569848
 20
8.3283735674
 30
0.0
 10
11.3712790679
 20
8.3173557097
 30
0.0
 10
11.3712413353
 20
8.301903946
 30
0.0
 10
11.3713072113
 20
8.2869067242
 30
0.0
 10
11.3714769905
 20
8.2731485618
 30
0.0
 10
11.371586744
 20
8.2671126419
 30
0.0
 10
11.3716482586
 20
8.2643530429
 30
0.0
  0
SPLINE
  5
30C
100
AcDbEntity
  8
0
100
AcDbSpline
 62
7
  6
CONTINUOUS
 70
0
 71
3
 72
20
 73
16
 74
0
 42
0.0000001
 43
0.0000001
 44
0.0000000001
 40
0.0
 40
0.0
 40
0.0
 40
0.0
 40
0.1248768821
 40
0.2497999511
 40
0.3123057312
 40
0.374859919
 40
0.4373746357
 40
0.4998953437
 40
0.5624459915
 40
0.6249746934
 40
0.6875116469
 40
0.7500230932
 40
0.812558546
 40
0.8751159101
 40
1.0
 40
1.0
 40
1.0
 40
1.0
 10
11.3716482586
 20
8.2643530429
 30
0.0
 10
11.3748292011
 20
8.2668438751
 30
0.0
 10
11.3807894581
 20
8.2723715203
 30
0.0
 10
11.3867990313
 20
8.2805928227
 30
0.0
 10
11.3904071645
 20
8.2878504809
 30
0.0
 10
11.3924228699
 20
8.2935922529
 30
0.0
 10
11.3936654957
 20
8.2995527407
 30
0.0
 10
11.3940444327
 20
8.3056301814
 30
0.0
 10
11.3935918717
 20
8.3117011211
 30
0.0
 10
11.3923358769
 20
8.3176571592
 30
0.0
 10
11.3903443287
 20
8.3234059015
 30
0.0
 10
11.387678474
 20
8.3288731301
 30
0.0
 10
11.3844101831
 20
8.3340031148
 30
0.0
 10
11.3793468856
 20
8.3403241884
 30
0.0
 10
11.3748492891
 20
8.34446288
 30
0.0
 10
11.3716482586
 20
8.3469282256
 30
0.0
  0
SPLINE
  5
30D
100
AcDbEntity
  8
0
100
AcDbSpline
 62
7
  6
CONTINUOUS
 70
0
 71
3
 72
20
 73
16
 74
0
 42
0.0000001
 43
0.0000001
 44
0.0000000001
 40
0.0
 40
0.0
 40
0.0
 40
0.0
 40
0.1248356509
 40
0.2497464778
 40
0.3122572529
 40
0.3748231448
 40
0.4373547317
 40
0.4998951213
 40
0.5624653509
 40
0.6250108394
 40
0.6875596658
 40
0.7500765353
 40
0.8126100497
 40
0.8751577064
 40
1.0
 40
1.0
 40
1.0
 40
1.0
 10
11.3942861606
 20
8.2643530429
 30
0.0
 10
11.3974635628
 20
8.2668441379
 30
0.0
 10
11.4034171853
 20
8.2723725843
 30
0.0
 10
11.4094188837
 20
8.2805935651
 30
0.0
 10
11.413022338
 20
8.2878507838
 30
0.0
 10
11.4150355273
 20
8.2935924987
 30
0.0
 10
11.4162765875
 20
8.2995528788
 30
0.0
 10
11.416655044
 20
8.305630175
 30
0.0
 10
11.4162030548
 20
8.3117009847
 30
0.0
 10
11.4149486364
 20
8.3176569265
 30
0.0
 10
11.412959572
 20
8.3234056096
 30
0.0
 10
11.4102970209
 20
8.3288728161
 30
0.0
 10
11.4070327566
 20
8.3340028067
 30
0.0
 10
11.4019759685
 20
8.3403235445
 30
0.0
 10
11.3974836443
 20
8.3444626076
 30
0.0
 10
11.3942861606
 20
8.3469282256
 30
0.0
  0
SPLINE
  5
30E
100
AcDbEntity
  8
0
100
AcDbSpline
 62
7
  6
CONTINUOUS
 70
0
 71
3
 72
17
 73
13
 74
0
 42
0.0000001
 43
0.0000001
 44
0.0000000001
 40
0.0
 40
0.0
 40
0.0
 40
0.0
 40
0.0479388476
 40
0.1007925372
 40
0.2204096564
 40
0.3555787289
 40
0.5001514285
 40
0.5731316721
 40
0.6447743258
 40
0.7796484355
 40
0.8988442945
 40
1.0
 40
1.0
 40
1.0
 40
1.0
 10
11.321750134
 20
8.3469282256
 30
0.0
 10
11.321486138
 20
8.3456286944
 30
0.0
 10
11.3209816762
 20
8.342885984
 30
0.0
 10
11.32006311
 20
8.3368579035
 30
0.0
 10
11.3191412861
 20
8.3283939705
 30
0.0
 10
11.3184411956
 20
8.3173661775
 30
0.0
 10
11.3182272654
 20
8.3076084432
 30
0.0
 10
11.3183044325
 20
8.2996085692
 30
0.0
 10
11.3185542234
 20
8.2918807022
 30
0.0
 10
11.3191358954
 20
8.2828863227
 30
0.0
 10
11.3202193087
 20
8.2731168021
 30
0.0
 10
11.3212018819
 20
8.2670969562
 30
0.0
 10
11.321750134
 20
8.2643530429
 30
0.0
  0
SPLINE
  5
30F
100
AcDbEntity
  8
0
100
AcDbSpline
 62
7
  6
CONTINUOUS
 70
0
 71
3
 72
20
 73
16
 74
0
 42
0.0000001
 43
0.0000001
 44
0.0000000001
 40
0.0
 40
0.0
 40
0.0
 40
0.0
 40
0.1244649319
 40
0.2492660317
 40
0.3118218258
 40
0.3744929414
 40
0.4371760549
 40
0.4998931491
 40
0.5626391871
 40
0.625335441
 40
0.6879909841
 40
0.75055671
 40
0.8130729676
 40
0.8755335076
 40
1.0
 40
1.0
 40
1.0
 40
1.0
 10
11.321750134
 20
8.2643530429
 30
0.0
 10
11.3248957268
 20
8.2668465183
 30
0.0
 10
11.3307897024
 20
8.2723821891
 30
0.0
 10
11.3367206938
 20
8.2806002329
 30
0.0
 10
11.3402821529
 20
8.2878534972
 30
0.0
 10
11.3422727491
 20
8.2935946963
 30
0.0
 10
11.3434997558
 20
8.2995541125
 30
0.0
 10
11.3438739
 20
8.3056301186
 30
0.0
 10
11.3434270436
 20
8.3116997664
 30
0.0
 10
11.3421867771
 20
8.3176548455
 30
0.0
 10
11.3402200157
 20
8.3234029947
 30
0.0
 10
11.3375871328
 20
8.3288699957
 30
0.0
 10
11.3343590344
 20
8.334000032
 30
0.0
 10
11.3293606935
 20
8.3403177318
 30
0.0
 10
11.3249157508
 20
8.3444601397
 30
0.0
 10
11.321750134
 20
8.3469282256
 30
0.0
  0
SPLINE
  5
310
100
AcDbEntity
  8
0
100
AcDbSpline
 62
7
  6
CONTINUOUS
 70
0
 71
3
 72
17
 73
13
 74
0
 42
0.0000001
 43
0.0000001
 44
0.0000000001
 40
0.0
 40
0.0
 40
0.0
 40
0.0
 40
0.0492858327
 40
0.102982731
 40
0.2229722392
 40
0.3572176299
 40
0.5001468576
 40
0.5722625557
 40
0.6431397495
 40
0.7771131562
 40
0.8967194564
 40
1.0
 40
1.0
 40
1.0
 40
1.0
 10
11.2665105066
 20
8.3469282256
 30
0.0
 10
11.2660207247
 20
8.345638227
 30
0.0
 10
11.2650817988
 20
8.3429102012
 30
0.0
 10
11.2633695713
 20
8.3369046312
 30
0.0
 10
11.2616418837
 20
8.3284445016
 30
0.0
 10
11.2603278825
 20
8.3173924265
 30
0.0
 10
11.2599261961
 20
8.3076106473
 30
0.0
 10
11.2600707225
 20
8.2996050214
 30
0.0
 10
11.2605385743
 20
8.291863137
 30
0.0
 10
11.2616326485
 20
8.2828338308
 30
0.0
 10
11.2636676449
 20
8.2730408954
 30
0.0
 10
11.2654989442
 20
8.267061861
 30
0.0
 10
11.2665105066
 20
8.2643530429
 30
0.0
  0
SPLINE
  5
311
100
AcDbEntity
  8
0
100
AcDbSpline
 62
7
  6
CONTINUOUS
 70
0
 71
3
 72
20
 73
16
 74
0
 42
0.0000001
 43
0.0000001
 44
0.0000000001
 40
0.0
 40
0.0
 40
0.0
 40
0.0
 40
0.1233980649
 40
0.2478869662
 40
0.3105733707
 40
0.3735470473
 40
0.4366645667
 40
0.4998876273
 40
0.5631370981
 40
0.6262656442
 40
0.6892280765
 40
0.751935423
 40
0.8144037341
 40
0.8766151793
 40
1.0
 40
1.0
 40
1.0
 40
1.0
 10
11.2665105066
 20
8.2643530429
 30
0.0
 10
11.269564737
 20
8.2668535495
 30
0.0
 10
11.2752870373
 20
8.2724102085
 30
0.0
 10
11.2810154517
 20
8.2806193535
 30
0.0
 10
11.2844567533
 20
8.2878612109
 30
0.0
 10
11.2863826129
 20
8.2936008988
 30
0.0
 10
11.2875693828
 20
8.2995575763
 30
0.0
 10
11.2879311875
 20
8.3056299574
 30
0.0
 10
11.2874990221
 20
8.3116963411
 30
0.0
 10
11.2862992804
 20
8.3176489716
 30
0.0
 10
11.2843964243
 20
8.3233955677
 30
0.0
 10
11.2818485995
 20
8.3288619226
 30
0.0
 10
11.2787242339
 20
8.3339920212
 30
0.0
 10
11.2738933524
 20
8.3403007823
 30
0.0
 10
11.2695845937
 20
8.3444528466
 30
0.0
 10
11.2665105066
 20
8.3469282256
 30
0.0
  0
SPLINE
  5
312
100
AcDbEntity
  8
0
100
AcDbSpline
 62
7
  6
CONTINUOUS
 70
0
 71
3
 72
15
 73
11
 74
0
 42
0.0000001
 43
0.0000001
 44
0.0000000001
 40
0.0
 40
0.0
 40
0.0
 40
0.0
 40
0.1001578014
 40
0.2196725663
 40
0.3551086376
 40
0.5001516965
 40
0.6452382868
 40
0.7803727619
 40
0.8994553037
 40
1.0
 40
1.0
 40
1.0
 40
1.0
 10
11.3474302539
 20
8.3469282256
 30
0.0
 10
11.3471197322
 20
8.3441846449
 30
0.0
 10
11.3465693265
 20
8.3381523727
 30
0.0
 10
11.345975897
 20
8.3283798668
 30
0.0
 10
11.345586795
 20
8.3173588171
 30
0.0
 10
11.3454427323
 20
8.3056268882
 30
0.0
 10
11.3455763836
 20
8.2939030316
 30
0.0
 10
11.3459732076
 20
8.2829011916
 30
0.0
 10
11.3465757808
 20
8.2731388698
 30
0.0
 10
11.3471235952
 20
8.2671077899
 30
0.0
 10
11.3474302539
 20
8.2643530429
 30
0.0
  0
SPLINE
  5
313
100
AcDbEntity
  8
0
100
AcDbSpline
 62
7
  6
CONTINUOUS
 70
0
 71
3
 72
20
 73
16
 74
0
 42
0.0000001
 43
0.0000001
 44
0.0000000001
 40
0.0
 40
0.0
 40
0.0
 40
0.0
 40
0.1247532123
 40
0.2496395854
 40
0.3121603546
 40
0.3747496469
 40
0.4373149535
 40
0.4998946779
 40
0.5625040428
 40
0.6250830843
 40
0.6876556478
 40
0.7501833675
 40
0.8127130178
 40
0.875241276
 40
1.0
 40
1.0
 40
1.0
 40
1.0
 10
11.3474302539
 20
8.2643530429
 30
0.0
 10
11.350600579
 20
8.2668446645
 30
0.0
 10
11.3565409368
 20
8.2723747144
 30
0.0
 10
11.3625268966
 20
8.2805950491
 30
0.0
 10
11.3661210008
 20
8.2878513888
 30
0.0
 10
11.3681291612
 20
8.2935929892
 30
0.0
 10
11.3693670926
 20
8.2995531543
 30
0.0
 10
11.369744589
 20
8.3056301622
 30
0.0
 10
11.3692937427
 20
8.3117007123
 30
0.0
 10
11.3680424746
 20
8.3176564619
 30
0.0
 10
11.3660583745
 20
8.3234050268
 30
0.0
 10
11.3634024262
 20
8.3288721886
 30
0.0
 10
11.3601462102
 20
8.3340021903
 30
0.0
 10
11.3551024319
 20
8.3403222556
 30
0.0
 10
11.3506206477
 20
8.3444620618
 30
0.0
 10
11.3474302539
 20
8.3469282256
 30
0.0
  0
SPLINE
  5
314
100
AcDbEntity
  8
0
100
AcDbSpline
 62
7
  6
CONTINUOUS
 70
0
 71
3
 72
19
 73
15
 74
0
 42
0.0000001
 43
0.0000001
 44
0.0000000001
 40
0.0
 40
0.0
 40
0.0
 40
0.0
 40
0.0511674769
 40
0.1060615786
 40
0.2266009192
 40
0.3595249918
 40
0.4292780353
 40
0.5001338297
 40
0.5709976003
 40
0.6407690113
 40
0.7085389865
 40
0.773513719
 40
0.8937241324
 40
1.0
 40
1.0
 40
1.0
 40
1.0
 10
11.207004553
 20
8.3469282256
 30
0.0
 10
11.206303025
 20
8.3456499674
 30
0.0
 10
11.2049536227
 20
8.3429418015
 30
0.0
 10
11.202488424
 20
8.3369687173
 30
0.0
 10
11.1999827418
 20
8.3285194491
 30
0.0
 10
11.1984148083
 20
8.319422564
 30
0.0
 10
11.1977270455
 20
8.3116547596
 30
0.0
 10
11.197538725
 20
8.3056279896
 30
0.0
 10
11.1976962012
 20
8.2995996818
 30
0.0
 10
11.1982136974
 20
8.2936797821
 30
0.0
 10
11.199055018
 20
8.2879668057
 30
0.0
 10
11.2005288039
 20
8.2809071071
 30
0.0
 10
11.2029323694
 20
8.2729355158
 30
0.0
 10
11.2055659841
 20
8.2670180902
 30
0.0
 10
11.207004553
 20
8.2643530429
 30
0.0
  0
SPLINE
  5
315
100
AcDbEntity
  8
0
100
AcDbSpline
 62
7
  6
CONTINUOUS
 70
0
 71
3
 72
20
 73
16
 74
0
 42
0.0000001
 43
0.0000001
 44
0.0000000001
 40
0.0
 40
0.0
 40
0.0
 40
0.0
 40
0.1216904665
 40
0.2456906368
 40
0.3085892961
 40
0.3720465214
 40
0.4358543162
 40
0.4998793976
 40
0.5639269408
 40
0.6277424385
 40
0.6911951921
 40
0.754132209
 40
0.8165290479
 40
0.8783468666
 40
1.0
 40
1.0
 40
1.0
 40
1.0
 10
11.207004553
 20
8.2643530429
 30
0.0
 10
11.2099128107
 20
8.2668653903
 30
0.0
 10
11.215359714
 20
8.2724562257
 30
0.0
 10
11.2207662713
 20
8.2806497241
 30
0.0
 10
11.2240170986
 20
8.2878732614
 30
0.0
 10
11.2258400386
 20
8.2936104642
 30
0.0
 10
11.2269629384
 20
8.2995628718
 30
0.0
 10
11.2273051756
 20
8.3056297128
 30
0.0
 10
11.2268963156
 20
8.3116911037
 30
0.0
 10
11.2257609308
 20
8.3176399133
 30
0.0
 10
11.2239596721
 20
8.3233839717
 30
0.0
 10
11.221547215
 20
8.3288491253
 30
0.0
 10
11.2185880784
 20
8.3339791107
 30
0.0
 10
11.2140233208
 20
8.3402729502
 30
0.0
 10
11.2099323952
 20
8.3444405497
 30
0.0
 10
11.207004553
 20
8.3469282256
 30
0.0
  0
SPLINE
  5
316
100
AcDbEntity
  8
0
100
AcDbSpline
 62
7
  6
CONTINUOUS
 70
0
 71
3
 72
18
 73
14
 74
0
 42
0.0000001
 43
0.0000001
 44
0.0000000001
 40
0.0
 40
0.0
 40
0.0
 40
0.0
 40
0.1149472066
 40
0.2371748575
 40
0.3009685817
 40
0.3663503809
 40
0.4328538152
 40
0.4999868348
 40
0.5671278774
 40
0.6336267344
 40
0.7627926251
 40
0.8851911019
 40
1.0
 40
1.0
 40
1.0
 40
1.0
 10
11.0473183379
 20
8.2643530429
 30
0.0
 10
11.0496373617
 20
8.2669207337
 30
0.0
 10
11.0539602386
 20
8.2726529438
 30
0.0
 10
11.0581003453
 20
8.2807668996
 30
0.0
 10
11.0606046849
 20
8.2879176159
 30
0.0
 10
11.0620202736
 20
8.293644392
 30
0.0
 10
11.0628913196
 20
8.2995812431
 30
0.0
 10
11.0631566204
 20
8.3056287761
 30
0.0
 10
11.0628393944
 20
8.3116732906
 30
0.0
 10
11.0616764648
 20
8.3195071745
 30
0.0
 10
11.0589807752
 20
8.3287545994
 30
0.0
 10
11.0540030498
 20
8.3386597099
 30
0.0
 10
11.0496556599
 20
8.3443828293
 30
0.0
 10
11.0473183379
 20
8.3469282256
 30
0.0
  0
SPLINE
  5
317
100
AcDbEntity
  8
0
100
AcDbSpline
 62
7
  6
CONTINUOUS
 70
0
 71
3
 72
18
 73
14
 74
0
 42
0.0000001
 43
0.0000001
 44
0.0000000001
 40
0.0
 40
0.0
 40
0.0
 40
0.0
 40
0.1095166364
 40
0.2307605585
 40
0.362188463
 40
0.4306643531
 40
0.5000670284
 40
0.5694715982
 40
0.6379605779
 40
0.7047858836
 40
0.7692833519
 40
0.89026114
 40
1.0
 40
1.0
 40
1.0
 40
1.0
 10
11.1443904888
 20
8.3469282256
 30
0.0
 10
11.1425500428
 20
8.3443260525
 30
0.0
 10
11.1391603741
 20
8.3384861743
 30
0.0
 10
11.1353668976
 20
8.3286111763
 30
0.0
 10
11.1333245756
 20
8.3194539072
 30
0.0
 10
11.1324348112
 20
8.3116616204
 30
0.0
 10
11.1321914979
 20
8.305628265
 30
0.0
 10
11.132394961
 20
8.2995928972
 30
0.0
 10
11.1330633529
 20
8.2936666124
 30
0.0
 10
11.1341499527
 20
8.2879481252
 30
0.0
 10
11.1360607994
 20
8.2808525723
 30
0.0
 10
11.1391964742
 20
8.2728188345
 30
0.0
 10
11.1425666884
 20
8.2669747916
 30
0.0
 10
11.1443904888
 20
8.2643530429
 30
0.0
  0
SPLINE
  5
318
100
AcDbEntity
  8
0
100
AcDbSpline
 62
7
  6
CONTINUOUS
 70
0
 71
3
 72
20
 73
16
 74
0
 42
0.0000001
 43
0.0000001
 44
0.0000000001
 40
0.0
 40
0.0
 40
0.0
 40
0.0
 40
0.119374613
 40
0.2427336148
 40
0.3059261998
 40
0.370037592
 40
0.4347717184
 40
0.4998694447
 40
0.5649844842
 40
0.6297219574
 40
0.693837822
 40
0.7570919965
 40
0.8194021806
 40
0.8806962327
 40
1.0
 40
1.0
 40
1.0
 40
1.0
 10
11.1443904888
 20
8.2643530429
 30
0.0
 10
11.1471002511
 20
8.2668827037
 30
0.0
 10
11.1521705509
 20
8.27252094
 30
0.0
 10
11.157143824
 20
8.280690413
 30
0.0
 10
11.1601389089
 20
8.2878890347
 30
0.0
 10
11.1618230436
 20
8.2936227586
 30
0.0
 10
11.1628599743
 20
8.2995695963
 30
0.0
 10
11.1631759067
 20
8.3056294032
 30
0.0
 10
11.1627983932
 20
8.311684449
 30
0.0
 10
11.1617496861
 20
8.3176282703
 30
0.0
 10
11.1600854513
 20
8.3233688097
 30
0.0
 10
11.1578558146
 20
8.3288320305
 30
0.0
 10
11.1551200983
 20
8.3339614463
 30
0.0
 10
11.1509138627
 20
8.3402338046
 30
0.0
 10
11.1471194465
 20
8.3444225362
 30
0.0
 10
11.1443904888
 20
8.3469282256
 30
0.0
  0
SPLINE
  5
319
100
AcDbEntity
  8
0
100
AcDbSpline
 62
7
  6
CONTINUOUS
 70
0
 71
3
 72
17
 73
13
 74
0
 42
0.0000001
 43
0.0000001
 44
0.0000000001
 40
0.0
 40
0.0
 40
0.0
 40
0.0
 40
0.0485274529
 40
0.1017479633
 40
0.2215247748
 40
0.3562911342
 40
0.5001499189
 40
0.5727547138
 40
0.644064691
 40
0.7785459799
 40
0.8979180723
 40
1.0
 40
1.0
 40
1.0
 40
1.0
 10
11.29473301
 20
8.3469282256
 30
0.0
 10
11.2943546415
 20
8.3456329899
 30
0.0
 10
11.293630543
 20
8.3428967424
 30
0.0
 10
11.2923111591
 20
8.3368784132
 30
0.0
 10
11.2909839094
 20
8.3284157839
 30
0.0
 10
11.2899753523
 20
8.3173774403
 30
0.0
 10
11.2896671083
 20
8.3076093819
 30
0.0
 10
11.2897781745
 20
8.2996070435
 30
0.0
 10
11.2901376988
 20
8.2918731613
 30
0.0
 10
11.2909764546
 20
8.2828636113
 30
0.0
 10
11.292537808
 20
8.2730835542
 30
0.0
 10
11.2939491594
 20
8.2670811899
 30
0.0
 10
11.29473301
 20
8.2643530429
 30
0.0
  0
SPLINE
  5
31A
100
AcDbEntity
  8
0
100
AcDbSpline
 62
7
  6
CONTINUOUS
 70
0
 71
3
 72
20
 73
16
 74
0
 42
0.0000001
 43
0.0000001
 44
0.0000000001
 40
0.0
 40
0.0
 40
0.0
 40
0.0
 40
0.1240127798
 40
0.2486809271
 40
0.3112918836
 40
0.374091264
 40
0.436958777
 40
0.4998907694
 40
0.5628506266
 40
0.6257303869
 40
0.6885160473
 40
0.7511416177
 40
0.8136372446
 40
0.8759919175
 40
1.0
 40
1.0
 40
1.0
 40
1.0
 10
11.29473301
 20
8.2643530429
 30
0.0
 10
11.297839854
 20
8.266849465
 30
0.0
 10
11.3036610837
 20
8.2723939956
 30
0.0
 10
11.3095060617
 20
8.2806083499
 30
0.0
 10
11.3130164747
 20
8.287856784
 30
0.0
 10
11.3149795864
 20
8.2935973466
 30
0.0
 10
11.3161895037
 20
8.2995555953
 30
0.0
 10
11.3165584058
 20
8.305630049
 30
0.0
 10
11.31611779
 20
8.3116982996
 30
0.0
 10
11.3148947331
 20
8.3176523355
 30
0.0
 10
11.3129551033
 20
8.3233998302
 30
0.0
 10
11.3103583241
 20
8.3288665677
 30
0.0
 10
11.3071742477
 20
8.3339966428
 30
0.0
 10
11.3022470077
 20
8.3403105898
 30
0.0
 10
11.297859807
 20
8.3444570841
 30
0.0
 10
11.29473301
 20
8.3469282256
 30
0.0
  0
SPLINE
  5
31B
100
AcDbEntity
  8
0
100
AcDbSpline
 62
7
  6
CONTINUOUS
 70
0
 71
3
 72
18
 73
14
 74
0
 42
0.0000001
 43
0.0000001
 44
0.0000000001
 40
0.0
 40
0.0
 40
0.0
 40
0.0
 40
0.1130940109
 40
0.2351044484
 40
0.3650024861
 40
0.4321482408
 40
0.5000311079
 40
0.567909275
 40
0.635062432
 40
0.7009137614
 40
0.7649325368
 40
0.8867411617
 40
1.0
 40
1.0
 40
1.0
 40
1.0
 10
11.0798870257
 20
8.3469282256
 30
0.0
 10
11.0777039407
 20
8.34436581
 30
0.0
 10
11.0736536955
 20
8.3386048825
 30
0.0
 10
11.0690501739
 20
8.3287071559
 30
0.0
 10
11.0665626668
 20
8.3194891003
 30
0.0
 10
11.0654861434
 20
8.3116693057
 30
0.0
 10
11.0651922389
 20
8.3056285956
 30
0.0
 10
11.0654380247
 20
8.299585222
 30
0.0
 10
11.0662451553
 20
8.2936519253
 30
0.0
 10
11.0675570661
 20
8.2879278244
 30
0.0
 10
11.0698734435
 20
8.2807951068
 30
0.0
 10
11.0736946534
 20
8.2727053381
 30
0.0
 10
11.0777218066
 20
8.266936977
 30
0.0
 10
11.0798870257
 20
8.2643530429
 30
0.0
  0
SPLINE
  5
31C
100
AcDbEntity
  8
0
100
AcDbSpline
 62
7
  6
CONTINUOUS
 70
0
 71
3
 72
18
 73
14
 74
0
 42
0.0000001
 43
0.0000001
 44
0.0000000001
 40
0.0
 40
0.0
 40
0.0
 40
0.0
 40
0.1165494529
 40
0.2391869872
 40
0.302770016
 40
0.3677048871
 40
0.4335862525
 40
0.5000041475
 40
0.5664333102
 40
0.6323128735
 40
0.7607852443
 40
0.8835642086
 40
1.0
 40
1.0
 40
1.0
 40
1.0
 10
11.0798870257
 20
8.2643530429
 30
0.0
 10
11.082348269
 20
8.2669063156
 30
0.0
 10
11.0869439751
 20
8.2726044812
 30
0.0
 10
11.0913838232
 20
8.2807397627
 30
0.0
 10
11.0940646801
 20
8.2879076293
 30
0.0
 10
11.095577214
 20
8.2936369216
 30
0.0
 10
11.0965080775
 20
8.2995772631
 30
0.0
 10
11.0967916532
 20
8.3056289521
 30
0.0
 10
11.096452594
 20
8.311677258
 30
0.0
 10
11.0952085651
 20
8.3195250841
 30
0.0
 10
11.0923162873
 20
8.3288004272
 30
0.0
 10
11.086988314
 20
8.3387104255
 30
0.0
 10
11.0823669215
 20
8.3443979057
 30
0.0
 10
11.0798870257
 20
8.3469282256
 30
0.0
  0
SPLINE
  5
31D
100
AcDbEntity
  8
0
100
AcDbSpline
 62
7
  6
CONTINUOUS
 70
0
 71
3
 72
18
 73
14
 74
0
 42
0.0000001
 43
0.0000001
 44
0.0000000001
 40
0.0
 40
0.0
 40
0.0
 40
0.0
 40
0.1148089081
 40
0.2372074093
 40
0.3663733204
 40
0.4328721839
 40
0.5000132291
 40
0.5671462578
 40
0.6336496776
 40
0.6990314665
 40
0.7628251917
 40
0.8850528185
 40
1.0
 40
1.0
 40
1.0
 40
1.0
 10
11.0473183379
 20
8.3469282256
 30
0.0
 10
11.0449810156
 20
8.3443828291
 30
0.0
 10
11.0406336254
 20
8.3386597086
 30
0.0
 10
11.0356558992
 20
8.3287545967
 30
0.0
 10
11.03296021
 20
8.31950717
 30
0.0
 10
11.0317972805
 20
8.3116732851
 30
0.0
 10
11.0314800564
 20
8.3056287701
 30
0.0
 10
11.0317453565
 20
8.2995812371
 30
0.0
 10
11.0326164014
 20
8.2936443863
 30
0.0
 10
11.034031993
 20
8.2879176117
 30
0.0
 10
11.0365363322
 20
8.2807668964
 30
0.0
 10
11.040676438
 20
8.2726529417
 30
0.0
 10
11.0449993146
 20
8.2669207331
 30
0.0
 10
11.0473183379
 20
8.2643530429
 30
0.0
  0
SPLINE
  5
31E
100
AcDbEntity
  8
0
100
AcDbSpline
 62
7
  6
CONTINUOUS
 70
0
 71
3
 72
18
 73
14
 74
0
 42
0.0000001
 43
0.0000001
 44
0.0000000001
 40
0.0
 40
0.0
 40
0.0
 40
0.0
 40
0.1164358014
 40
0.2392147899
 40
0.3676871808
 40
0.4335667504
 40
0.4999959155
 40
0.5664138196
 40
0.6322951706
 40
0.6972300321
 40
0.7608130622
 40
0.8834505722
 40
1.0
 40
1.0
 40
1.0
 40
1.0
 10
11.01474965
 20
8.3469282256
 30
0.0
 10
11.012269754
 20
8.3443979055
 30
0.0
 10
11.0076483611
 20
8.3387104243
 30
0.0
 10
11.002320387
 20
8.3288004244
 30
0.0
 10
10.9994281097
 20
8.3195250796
 30
0.0
 10
10.9981840809
 20
8.3116772526
 30
0.0
 10
10.9978450236
 20
8.3056289461
 30
0.0
 10
10.9981285985
 20
8.2995772572
 30
0.0
 10
10.9990594609
 20
8.2936369158
 30
0.0
 10
11.0005719979
 20
8.287907625
 30
0.0
 10
11.0032528544
 20
8.2807397595
 30
0.0
 10
11.0076927016
 20
8.2726044791
 30
0.0
 10
11.0122884072
 20
8.2669063151
 30
0.0
 10
11.01474965
 20
8.2643530429
 30
0.0
  0
SPLINE
  5
31F
100
AcDbEntity
  8
0
100
AcDbSpline
 62
7
  6
CONTINUOUS
 70
0
 71
3
 72
18
 73
14
 74
0
 42
0.0000001
 43
0.0000001
 44
0.0000000001
 40
0.0
 40
0.0
 40
0.0
 40
0.0
 40
0.1132588633
 40
0.2350675123
 40
0.2990862869
 40
0.3649376274
 40
0.4320907989
 40
0.4999689567
 40
0.5678518212
 40
0.6349975692
 40
0.764895586
 40
0.8869059992
 40
1.0
 40
1.0
 40
1.0
 40
1.0
 10
11.01474965
 20
8.2643530429
 30
0.0
 10
11.0169148696
 20
8.2669369776
 30
0.0
 10
11.0209420232
 20
8.2727053402
 30
0.0
 10
11.0247632339
 20
8.28079511
 30
0.0
 10
11.0270796116
 20
8.2879278287
 30
0.0
 10
11.0283915197
 20
8.293651931
 30
0.0
 10
11.0291986513
 20
8.2995852279
 30
0.0
 10
11.0294444378
 20
8.3056286017
 30
0.0
 10
11.0291505316
 20
8.3116693112
 30
0.0
 10
11.028074008
 20
8.3194891048
 30
0.0
 10
11.0255865006
 20
8.3287071587
 30
0.0
 10
11.0209829798
 20
8.3386048838
 30
0.0
 10
11.0169327348
 20
8.3443658102
 30
0.0
 10
11.01474965
 20
8.3469282256
 30
0.0
  0
SPLINE
  5
320
100
AcDbEntity
  8
0
100
AcDbSpline
 62
7
  6
CONTINUOUS
 70
0
 71
3
 72
18
 73
14
 74
0
 42
0.0000001
 43
0.0000001
 44
0.0000000001
 40
0.0
 40
0.0
 40
0.0
 40
0.0
 40
0.0501776852
 40
0.1044391626
 40
0.2246843592
 40
0.3583070173
 40
0.5001202042
 40
0.5716484499
 40
0.6420063409
 40
0.7102131547
 40
0.7754161164
 40
0.8953036907
 40
1.0
 40
1.0
 40
1.0
 40
1.0
 10
11.237220121
 20
8.3469282256
 30
0.0
 10
11.2366224707
 20
8.3456440045
 30
0.0
 10
11.2354747549
 20
8.3429254967
 30
0.0
 10
11.2333798986
 20
8.3369352183
 30
0.0
 10
11.2312586977
 20
8.3284792228
 30
0.0
 10
11.22964335
 20
8.317410821
 30
0.0
 10
11.2291494148
 20
8.3076121356
 30
0.0
 10
11.2293268137
 20
8.2996026611
 30
0.0
 10
11.2297652037
 20
8.2936854183
 30
0.0
 10
11.2304779301
 20
8.2879749838
 30
0.0
 10
11.2317242521
 20
8.2809314748
 30
0.0
 10
11.2337505019
 20
8.2729906258
 30
0.0
 10
11.2359900456
 20
8.2670403982
 30
0.0
 10
11.237220121
 20
8.2643530429
 30
0.0
  0
SPLINE
  5
321
100
AcDbEntity
  8
0
100
AcDbSpline
 62
7
  6
CONTINUOUS
 70
0
 71
3
 72
20
 73
16
 74
0
 42
0.0000001
 43
0.0000001
 44
0.0000000001
 40
0.0
 40
0.0
 40
0.0
 40
0.0
 40
0.1193037771
 40
0.1805978392
 40
0.2429080376
 40
0.3061622208
 40
0.3702780962
 40
0.4350155755
 40
0.5001306171
 40
0.5652283522
 40
0.6299624643
 40
0.6940738484
 40
0.7572664349
 40
0.8806254123
 40
1.0
 40
1.0
 40
1.0
 40
1.0
 10
10.9502461869
 20
8.3469282256
 30
0.0
 10
10.947517229
 20
8.344422536
 30
0.0
 10
10.9437228127
 20
8.3402338037
 30
0.0
 10
10.9395165764
 20
8.3339614446
 30
0.0
 10
10.9367808599
 20
8.3288320277
 30
0.0
 10
10.9345512228
 20
8.3233688059
 30
0.0
 10
10.9328869886
 20
8.3176282655
 30
0.0
 10
10.9318382815
 20
8.3116844436
 30
0.0
 10
10.9314607703
 20
8.3056293971
 30
0.0
 10
10.9317767018
 20
8.2995695904
 30
0.0
 10
10.9328136312
 20
8.2936227527
 30
0.0
 10
10.9344977694
 20
8.2878890305
 30
0.0
 10
10.9374928537
 20
8.2806904099
 30
0.0
 10
10.9424661259
 20
8.2725209379
 30
0.0
 10
10.9475364252
 20
8.2668827032
 30
0.0
 10
10.9502461869
 20
8.2643530429
 30
0.0
  0
SPLINE
  5
322
100
AcDbEntity
  8
0
100
AcDbSpline
 62
7
  6
CONTINUOUS
 70
0
 71
3
 72
18
 73
14
 74
0
 42
0.0000001
 43
0.0000001
 44
0.0000000001
 40
0.0
 40
0.0
 40
0.0
 40
0.0
 40
0.1097388848
 40
0.2307166969
 40
0.295214165
 40
0.3620394833
 40
0.4305284777
 40
0.4999330379
 40
0.5693357104
 40
0.6378115934
 40
0.7692394762
 40
0.8904833738
 40
1.0
 40
1.0
 40
1.0
 40
1.0
 10
10.9502461869
 20
8.2643530429
 30
0.0
 10
10.9520699877
 20
8.2669747922
 30
0.0
 10
10.9554402022
 20
8.2728188366
 30
0.0
 10
10.9585758777
 20
8.2808525756
 30
0.0
 10
10.9604867247
 20
8.2879481296
 30
0.0
 10
10.9615733222
 20
8.293666618
 30
0.0
 10
10.9622417149
 20
8.2995929032
 30
0.0
 10
10.9624451786
 20
8.305628271
 30
0.0
 10
10.9622018638
 20
8.3116616258
 30
0.0
 10
10.9613120994
 20
8.3194539117
 30
0.0
 10
10.9592697771
 20
8.3286111791
 30
0.0
 10
10.9554763012
 20
8.3384861756
 30
0.0
 10
10.9520866328
 20
8.3443260527
 30
0.0
 10
10.9502461869
 20
8.3469282256
 30
0.0
  0
SPLINE
  5
323
100
AcDbEntity
  8
0
100
AcDbSpline
 62
7
  6
CONTINUOUS
 70
0
 71
3
 72
20
 73
16
 74
0
 42
0.0000001
 43
0.0000001
 44
0.0000000001
 40
0.0
 40
0.0
 40
0.0
 40
0.0
 40
0.1226228935
 40
0.2468882568
 40
0.3096705335
 40
0.3728638365
 40
0.4362954751
 40
0.4998837996
 40
0.5634967254
 40
0.6269378697
 40
0.6901230219
 40
0.7529341763
 40
0.8153692407
 40
0.8774012221
 40
1.0
 40
1.0
 40
1.0
 40
1.0
 10
11.237220121
 20
8.2643530429
 30
0.0
 10
11.2402080744
 20
8.2668588324
 30
0.0
 10
11.2458055017
 20
8.2724309195
 30
0.0
 10
11.2513874836
 20
8.280633177
 30
0.0
 10
11.254742065
 20
8.287866726
 30
0.0
 10
11.2566211134
 20
8.2936052953
 30
0.0
 10
11.2577788188
 20
8.2995600173
 30
0.0
 10
11.2581317163
 20
8.3056298445
 30
0.0
 10
11.2577101582
 20
8.3116939272
 30
0.0
 10
11.2565396984
 20
8.3176448081
 30
0.0
 10
11.254683052
 20
8.3233902593
 30
0.0
 10
11.2521967759
 20
8.3288560936
 30
0.0
 10
11.2491475149
 20
8.3339861732
 30
0.0
 10
11.2444376959
 20
8.3402882554
 30
0.0
 10
11.2402278084
 20
8.3444473624
 30
0.0
 10
11.237220121
 20
8.3469282256
 30
0.0
  0
SPLINE
  5
324
100
AcDbEntity
  8
0
100
AcDbSpline
 62
7
  6
CONTINUOUS
 70
0
 71
3
 72
20
 73
16
 74
0
 42
0.0000001
 43
0.0000001
 44
0.0000000001
 40
0.0
 40
0.0
 40
0.0
 40
0.0
 40
0.1216531432
 40
0.1834709719
 40
0.245867825
 40
0.3088048504
 40
0.3722576144
 40
0.4360731178
 40
0.500120663
 40
0.564145753
 40
0.6279535337
 40
0.691410752
 40
0.7543094132
 40
0.878309559
 40
1.0
 40
1.0
 40
1.0
 40
1.0
 10
10.8876321227
 20
8.3469282256
 30
0.0
 10
10.8847042803
 20
8.3444405495
 30
0.0
 10
10.8806133546
 20
8.3402729492
 30
0.0
 10
10.8760485961
 20
8.333979109
 30
0.0
 10
10.8730894594
 20
8.3288491225
 30
0.0
 10
10.8706770018
 20
8.323383968
 30
0.0
 10
10.8688757438
 20
8.3176399085
 30
0.0
 10
10.867740359
 20
8.3116910983
 30
0.0
 10
10.8673315015
 20
8.3056297066
 30
0.0
 10
10.8676737377
 20
8.2995628659
 30
0.0
 10
10.8687966362
 20
8.2936104583
 30
0.0
 10
10.8706195799
 20
8.2878732572
 30
0.0
 10
10.8738704067
 20
8.2806497209
 30
0.0
 10
10.879276963
 20
8.2724562236
 30
0.0
 10
10.8847238656
 20
8.2668653898
 30
0.0
 10
10.8876321227
 20
8.2643530429
 30
0.0
  0
SPLINE
  5
325
100
AcDbEntity
  8
0
100
AcDbSpline
 62
7
  6
CONTINUOUS
 70
0
 71
3
 72
19
 73
15
 74
0
 42
0.0000001
 43
0.0000001
 44
0.0000000001
 40
0.0
 40
0.0
 40
0.0
 40
0.0
 40
0.1062758923
 40
0.2264863296
 40
0.2914610623
 40
0.3592310517
 40
0.4290024775
 40
0.4998662383
 40
0.5707220296
 40
0.6404750657
 40
0.7733991158
 40
0.8939384318
 40
0.9488325261
 40
1.0
 40
1.0
 40
1.0
 40
1.0
 10
10.8876321227
 20
8.2643530429
 30
0.0
 10
10.889070692
 20
8.2670180909
 30
0.0
 10
10.8917043068
 20
8.2729355179
 30
0.0
 10
10.8941078729
 20
8.2809071104
 30
0.0
 10
10.895581659
 20
8.2879668101
 30
0.0
 10
10.8964229779
 20
8.2936797876
 30
0.0
 10
10.8969404747
 20
8.2995996878
 30
0.0
 10
10.8970979513
 20
8.3056279957
 30
0.0
 10
10.8969096298
 20
8.311654765
 30
0.0
 10
10.8962218668
 20
8.3194225684
 30
0.0
 10
10.8946539331
 20
8.3285194519
 30
0.0
 10
10.8921482514
 20
8.3369687187
 30
0.0
 10
10.8896830529
 20
8.3429418019
 30
0.0
 10
10.8883336507
 20
8.3456499674
 30
0.0
 10
10.8876321227
 20
8.3469282256
 30
0.0
  0
SPLINE
  5
326
100
AcDbEntity
  8
0
100
AcDbSpline
 62
7
  6
CONTINUOUS
 70
0
 71
3
 72
17
 73
13
 74
0
 42
0.0000001
 43
0.0000001
 44
0.0000000001
 40
0.0
 40
0.0
 40
0.0
 40
0.0
 40
0.107736635
 40
0.228628249
 40
0.3608314715
 40
0.500046999
 40
0.5702058329
 40
0.6393578053
 40
0.706671965
 40
0.77141791
 40
0.8920113601
 40
1.0
 40
1.0
 40
1.0
 40
1.0
 10
11.1760110098
 20
8.3469282256
 30
0.0
 10
11.174358666
 20
8.3443036987
 30
0.0
 10
11.1713302619
 20
8.3384249529
 30
0.0
 10
11.1679670901
 20
8.3285640192
 30
0.0
 10
11.1657655718
 20
8.3174556049
 30
0.0
 10
11.1650923315
 20
8.3076160334
 30
0.0
 10
11.1653330661
 20
8.2995965792
 30
0.0
 10
11.1659273025
 20
8.2936734231
 30
0.0
 10
11.1668934659
 20
8.2879577895
 30
0.0
 10
11.1685891318
 20
8.2808805535
 30
0.0
 10
11.171363297
 20
8.2728775841
 30
0.0
 10
11.1743744412
 20
8.2669959718
 30
0.0
 10
11.1760110098
 20
8.2643530429
 30
0.0
  0
SPLINE
  5
327
100
AcDbEntity
  8
0
100
AcDbSpline
 62
7
  6
CONTINUOUS
 70
0
 71
3
 72
20
 73
16
 74
0
 42
0.0000001
 43
0.0000001
 44
0.0000000001
 40
0.0
 40
0.0
 40
0.0
 40
0.0
 40
0.1233848304
 40
0.1855962858
 40
0.2480646109
 40
0.3107719658
 40
0.3737344083
 40
0.4368629598
 40
0.5001124325
 40
0.5633355014
 40
0.6264530068
 40
0.6894266774
 40
0.752113084
 40
0.8766019607
 40
1.0
 40
1.0
 40
1.0
 40
1.0
 10
10.8281261691
 20
8.3469282256
 30
0.0
 10
10.8250520818
 20
8.3444528464
 30
0.0
 10
10.8207433229
 20
8.3403007813
 30
0.0
 10
10.8159124405
 20
8.3339920195
 30
0.0
 10
10.8127880748
 20
8.3288619198
 30
0.0
 10
10.8102402495
 20
8.323395564
 30
0.0
 10
10.8083373941
 20
8.3176489668
 30
0.0
 10
10.8071376525
 20
8.3116963357
 30
0.0
 10
10.8067054897
 20
8.3056299512
 30
0.0
 10
10.8070672933
 20
8.2995575704
 30
0.0
 10
10.8082540619
 20
8.2936008928
 30
0.0
 10
10.8101799253
 20
8.2878612068
 30
0.0
 10
10.8136212263
 20
8.2806193504
 30
0.0
 10
10.8193496398
 20
8.2724102064
 30
0.0
 10
10.8250719393
 20
8.2668535489
 30
0.0
 10
10.8281261691
 20
8.2643530429
 30
0.0
  0
SPLINE
  5
328
100
AcDbEntity
  8
0
100
AcDbSpline
 62
7
  6
CONTINUOUS
 70
0
 71
3
 72
17
 73
13
 74
0
 42
0.0000001
 43
0.0000001
 44
0.0000000001
 40
0.0
 40
0.0
 40
0.0
 40
0.0
 40
0.1032805683
 40
0.2228868923
 40
0.3568603148
 40
0.4277375236
 40
0.4998532117
 40
0.6427824285
 40
0.777027796
 40
0.8970172795
 40
0.9507141704
 40
1.0
 40
1.0
 40
1.0
 40
1.0
 10
10.8281261691
 20
8.2643530429
 30
0.0
 10
10.8291377317
 20
8.2670618617
 30
0.0
 10
10.830969031
 20
8.2730408974
 30
0.0
 10
10.8330040285
 20
8.2828338345
 30
0.0
 10
10.8340981011
 20
8.2918631425
 30
0.0
 10
10.8345659533
 20
8.2996050274
 30
0.0
 10
10.8347104801
 20
8.3076106532
 30
0.0
 10
10.8343087927
 20
8.317392431
 30
0.0
 10
10.8329947915
 20
8.3284445045
 30
0.0
 10
10.8312671042
 20
8.3369046326
 30
0.0
 10
10.8295548769
 20
8.3429102016
 30
0.0
 10
10.828615951
 20
8.3456382271
 30
0.0
 10
10.8281261691
 20
8.3469282256
 30
0.0
  0
SPLINE
  5
329
100
AcDbEntity
  8
0
100
AcDbSpline
 62
7
  6
CONTINUOUS
 70
0
 71
3
 72
20
 73
16
 74
0
 42
0.0000001
 43
0.0000001
 44
0.0000000001
 40
0.0
 40
0.0
 40
0.0
 40
0.0
 40
0.1206054778
 40
0.2443021497
 40
0.3073376632
 40
0.371101615
 40
0.4353448027
 40
0.4998745584
 40
0.564424335
 40
0.6286731635
 40
0.6924368681
 40
0.7555216792
 40
0.817876454
 40
0.8794474327
 40
1.0
 40
1.0
 40
1.0
 40
1.0
 10
11.1760110098
 20
8.2643530429
 30
0.0
 10
11.1788264345
 20
8.2668733135
 30
0.0
 10
11.1840975016
 20
8.2724862142
 30
0.0
 10
11.1893007238
 20
8.280668862
 30
0.0
 10
11.1924314526
 20
8.287880732
 30
0.0
 10
11.1941893003
 20
8.2936163187
 30
0.0
 10
11.1952718623
 20
8.2995660853
 30
0.0
 10
11.1956017525
 20
8.3056295647
 30
0.0
 10
11.1952076036
 20
8.3116879241
 30
0.0
 10
11.1941128816
 20
8.317634369
 30
0.0
 10
11.1923758794
 20
8.3233767882
 30
0.0
 10
11.1900491208
 20
8.3288410779
 30
0.0
 10
11.1871946761
 20
8.3339708558
 30
0.0
 10
11.1827981186
 20
8.3402548123
 30
0.0
 10
11.1788458405
 20
8.344432311
 30
0.0
 10
11.1760110098
 20
8.3469282256
 30
0.0
  0
SPLINE
  5
32A
100
AcDbEntity
  8
0
100
AcDbSpline
 62
7
  6
CONTINUOUS
 70
0
 71
3
 72
20
 73
16
 74
0
 42
0.0000001
 43
0.0000001
 44
0.0000000001
 40
0.0
 40
0.0
 40
0.0
 40
0.0
 40
0.1244664817
 40
0.1869270206
 40
0.249443282
 40
0.3120090134
 40
0.3746645615
 40
0.4373608195
 40
0.5001068635
 40
0.562823964
 40
0.6255070744
 40
0.6881781886
 40
0.7507339841
 40
0.875535077
 40
1.0
 40
1.0
 40
1.0
 40
1.0
 10
10.7728865417
 20
8.3469282256
 30
0.0
 10
10.7697209252
 20
8.3444601399
 30
0.0
 10
10.7652759824
 20
8.3403177327
 30
0.0
 10
10.760277642
 20
8.3340000328
 30
0.0
 10
10.7570495434
 20
8.3288699963
 30
0.0
 10
10.7544166601
 20
8.323402995
 30
0.0
 10
10.7524498985
 20
8.3176548453
 30
0.0
 10
10.7512096319
 20
8.3116997657
 30
0.0
 10
10.7507627763
 20
8.3056301173
 30
0.0
 10
10.7511369199
 20
8.299554111
 30
0.0
 10
10.7523639263
 20
8.2935946946
 30
0.0
 10
10.7543545237
 20
8.2878534959
 30
0.0
 10
10.7579159827
 20
8.2806002319
 30
0.0
 10
10.7638469737
 20
8.2723821884
 30
0.0
 10
10.7697409491
 20
8.2668465181
 30
0.0
 10
10.7728865417
 20
8.2643530429
 30
0.0
  0
SPLINE
  5
32B
100
AcDbEntity
  8
0
100
AcDbSpline
 62
7
  6
CONTINUOUS
 70
0
 71
3
 72
17
 73
13
 74
0
 42
0.0000001
 43
0.0000001
 44
0.0000000001
 40
0.0
 40
0.0
 40
0.0
 40
0.0
 40
0.1011557977
 40
0.2203514629
 40
0.3552262786
 40
0.4268692963
 40
0.4998494458
 40
0.6444219144
 40
0.7795907443
 40
0.8992077042
 40
0.9520612413
 40
1.0
 40
1.0
 40
1.0
 40
1.0
 10
10.7728865417
 20
8.2643530429
 30
0.0
 10
10.7734347943
 20
8.2670969587
 30
0.0
 10
10.7744173643
 20
8.2731168022
 30
0.0
 10
10.7755007882
 20
8.2828863386
 30
0.0
 10
10.7760824467
 20
8.2918807433
 30
0.0
 10
10.7763322444
 20
8.2996086369
 30
0.0
 10
10.7764094134
 20
8.3076085121
 30
0.0
 10
10.7761954766
 20
8.3173662306
 30
0.0
 10
10.7754953858
 20
8.3283940059
 30
0.0
 10
10.7745735643
 20
8.3368579238
 30
0.0
 10
10.7736549989
 20
8.3428859931
 30
0.0
 10
10.7731505372
 20
8.3456286968
 30
0.0
 10
10.7728865417
 20
8.3469282256
 30
0.0
  0
SPLINE
  5
32C
100
AcDbEntity
  8
0
100
AcDbSpline
 62
7
  6
CONTINUOUS
 70
0
 71
3
 72
9
 73
5
 74
0
 42
0.0000001
 43
0.0000001
 44
0.0000000001
 40
0.0
 40
0.0
 40
0.0
 40
0.0
 40
0.5120296935
 40
1.0
 40
1.0
 40
1.0
 40
1.0
 10
11.5237983933
 20
8.3327547744
 30
0.0
 10
11.5224857649
 20
8.3354038316
 30
0.0
 10
11.5195315685
 20
8.3403938906
 30
0.0
 10
11.515865464
 20
8.3448852651
 30
0.0
 10
11.5139251788
 20
8.3469282256
 30
0.0
  0
SPLINE
  5
32D
100
AcDbEntity
  8
0
100
AcDbSpline
 62
7
  6
CONTINUOUS
 70
0
 71
3
 72
20
 73
16
 74
0
 42
0.0000001
 43
0.0000001
 44
0.0000000001
 40
0.0
 40
0.0
 40
0.0
 40
0.0
 40
0.1248840996
 40
0.1874414739
 40
0.2499769406
 40
0.3124883952
 40
0.3750253585
 40
0.4375540658
 40
0.5001047153
 40
0.5626254316
 40
0.6251401343
 40
0.6876943167
 40
0.7502000993
 40
0.8751231436
 40
1.0
 40
1.0
 40
1.0
 40
1.0
 10
10.7229884171
 20
8.3469282256
 30
0.0
 10
10.7197873864
 20
8.3444628798
 30
0.0
 10
10.7152897897
 20
8.3403241874
 30
0.0
 10
10.7102264914
 20
8.3340031131
 30
0.0
 10
10.7069582003
 20
8.3288731273
 30
0.0
 10
10.704292345
 20
8.3234058977
 30
0.0
 10
10.7023007977
 20
8.3176571544
 30
0.0
 10
10.7010448028
 20
8.3117011157
 30
0.0
 10
10.7005922445
 20
8.3056301752
 30
0.0
 10
10.7009711804
 20
8.2995527348
 30
0.0
 10
10.7022138048
 20
8.2935922469
 30
0.0
 10
10.7042295142
 20
8.2878504768
 30
0.0
 10
10.7078376468
 20
8.2805928195
 30
0.0
 10
10.713847219
 20
8.2723715181
 30
0.0
 10
10.7198074753
 20
8.2668438746
 30
0.0
 10
10.7229884171
 20
8.2643530429
 30
0.0
  0
SPLINE
  5
32E
100
AcDbEntity
  8
0
100
AcDbSpline
 62
7
  6
CONTINUOUS
 70
0
 71
3
 72
14
 73
10
 74
0
 42
0.0000001
 43
0.0000001
 44
0.0000000001
 40
0.0
 40
0.0
 40
0.0
 40
0.0
 40
0.1002765002
 40
0.2193090413
 40
0.4998472301
 40
0.6450943543
 40
0.7806460895
 40
0.9001155771
 40
1.0
 40
1.0
 40
1.0
 40
1.0
 10
10.7229884171
 20
8.2643530429
 30
0.0
 10
10.7230499318
 20
8.2671126425
 30
0.0
 10
10.7231596852
 20
8.2731485638
 30
0.0
 10
10.7233294645
 20
8.2869067282
 30
0.0
 10
10.7233953405
 20
8.3019039509
 30
0.0
 10
10.7233576078
 20
8.3173557142
 30
0.0
 10
10.7232796909
 20
8.3283735703
 30
0.0
 10
10.7231609542
 20
8.3381422854
 30
0.0
 10
10.7230507151
 20
8.3441794389
 30
0.0
 10
10.7229884171
 20
8.3469282256
 30
0.0
  0
SPLINE
  5
32F
100
AcDbEntity
  8
0
100
AcDbSpline
 62
7
  6
CONTINUOUS
 70
0
 71
3
 72
20
 73
16
 74
0
 42
0.0000001
 43
0.0000001
 44
0.0000000001
 40
0.0
 40
0.0
 40
0.0
 40
0.0
 40
0.1246334382
 40
0.1871326498
 40
0.2496565494
 40
0.3122005614
 40
0.3748087191
 40
0.437438044
 40
0.500106043
 40
0.5627447063
 40
0.6253605265
 40
0.6879848934
 40
0.7505206667
 40
0.8753704111
 40
1.0
 40
1.0
 40
1.0
 40
1.0
 10
10.6794030054
 20
8.3469282256
 30
0.0
 10
10.6762232373
 20
8.3444612401
 30
0.0
 10
10.6717572514
 20
8.3403203184
 30
0.0
 10
10.6667329639
 20
8.3340012641
 30
0.0
 10
10.6634888078
 20
8.3288712455
 30
0.0
 10
10.6608427526
 20
8.3234041508
 30
0.0
 10
10.6588660911
 20
8.3176557625
 30
0.0
 10
10.6576195425
 20
8.3117003
 30
0.0
 10
10.6571704109
 20
8.305630137
 30
0.0
 10
10.6575464679
 20
8.2995535601
 30
0.0
 10
10.6587797108
 20
8.2935937166
 30
0.0
 10
10.6607803408
 20
8.2878522901
 30
0.0
 10
10.6643604384
 20
8.2805972697
 30
0.0
 10
10.6703228169
 20
8.272377912
 30
0.0
 10
10.6762432876
 20
8.2668454565
 30
0.0
 10
10.6794030054
 20
8.2643530429
 30
0.0
  0
SPLINE
  5
330
100
AcDbEntity
  8
0
100
AcDbSpline
 62
7
  6
CONTINUOUS
 70
0
 71
3
 72
18
 73
14
 74
0
 42
0.0000001
 43
0.0000001
 44
0.0000000001
 40
0.0
 40
0.0
 40
0.0
 40
0.0
 40
0.111318623
 40
0.2329413818
 40
0.3635983071
 40
0.4314074334
 40
0.5000491799
 40
0.5686895521
 40
0.6365089444
 40
0.7028446011
 40
0.7670994301
 40
0.8884884129
 40
1.0
 40
1.0
 40
1.0
 40
1.0
 10
11.1122970421
 20
8.3469282256
 30
0.0
 10
11.1102796388
 20
8.3443468478
 30
0.0
 10
11.1065489475
 20
8.3385466844
 30
0.0
 10
11.1023410793
 20
8.3286590095
 30
0.0
 10
11.1000718531
 20
8.3194712258
 30
0.0
 10
11.0990865504
 20
8.3116653919
 30
0.0
 10
11.0988173261
 20
8.3056284262
 30
0.0
 10
11.0990424635
 20
8.2995891342
 30
0.0
 10
11.0997819254
 20
8.2936593842
 30
0.0
 10
11.1009839782
 20
8.2879380661
 30
0.0
 10
11.1031021258
 20
8.2808238659
 30
0.0
 10
11.1065876805
 20
8.2727609704
 30
0.0
 10
11.1102969658
 20
8.2669550355
 30
0.0
 10
11.1122970421
 20
8.2643530429
 30
0.0
  0
SPLINE
  5
331
100
AcDbEntity
  8
0
100
AcDbSpline
 62
9
  6
CONTINUOUS
 70
0
 71
3
 72
25
 73
21
 74
0
 42
0.0000001
 43
0.0000001
 44
0.0000000001
 40
0.0
 40
0.0
 40
0.0
 40
0.0
 40
0.0762087462
 40
0.1520800259
 40
0.2272579745
 40
0.3014116962
 40
0.3742043185
 40
0.44530871
 40
0.5144076096
 40
0.5811928838
 40
0.645367201
 40
0.7066499396
 40
0.7647750798
 40
0.8194915613
 40
0.8705672006
 40
0.9177972739
 40
0.9399123394
 40
0.9609981716
 40
0.9810340017
 40
1.0
 40
1.0
 40
1.0
 40
1.0
 10
11.0473183379
 20
6.8168585566
 30
0.0
 10
11.0992400305
 20
6.8168585521
 30
0.0
 10
11.2028537646
 20
6.8171660073
 30
0.0
 10
11.3576813269
 20
6.8185517085
 30
0.0
 10
11.5110976827
 20
6.82086243
 30
0.0
 10
11.6623993964
 20
6.8240974075
 30
0.0
 10
11.8109021901
 20
6.828257287
 30
0.0
 10
11.9559303711
 20
6.8333418177
 30
0.0
 10
12.0968269373
 20
6.8393497357
 30
0.0
 10
12.2329539611
 20
6.8462800998
 30
0.0
 10
12.363696662
 20
6.8541344902
 30
0.0
 10
12.4884673534
 20
6.8629056723
 30
0.0
 10
12.6067067281
 20
6.8725918719
 30
0.0
 10
12.7178850251
 20
6.8831884385
 30
0.0
 10
12.8215097152
 20
6.8946799422
 30
0.0
 10
12.9028806258
 20
6.9052148991
 30
0.0
 10
12.9638412865
 20
6.9141546305
 30
0.0
 10
13.0063911653
 20
6.920923836
 30
0.0
 10
13.0467315565
 20
6.9279022874
 30
0.0
 10
13.0728443755
 20
6.9328299751
 30
0.0
 10
13.085520177
 20
6.9353388492
 30
0.0
  0
SPLINE
  5
332
100
AcDbEntity
  8
0
100
AcDbSpline
 62
7
  6
CONTINUOUS
 70
0
 71
3
 72
20
 73
16
 74
0
 42
0.0000001
 43
0.0000001
 44
0.0000000001
 40
0.0
 40
0.0
 40
0.0
 40
0.0
 40
0.1237169607
 40
0.1860046387
 40
0.2484874149
 40
0.3111511328
 40
0.3740193939
 40
0.4370154717
 40
0.5001107696
 40
0.563178891
 40
0.6261632737
 40
0.68904408
 40
0.7516902179
 40
0.8762743929
 40
1.0
 40
1.0
 40
1.0
 40
1.0
 10
10.6429786472
 20
8.3469282256
 30
0.0
 10
10.6398764801
 20
8.3444551166
 30
0.0
 10
10.6355259281
 20
8.3403060214
 30
0.0
 10
10.6306437403
 20
8.3339944841
 30
0.0
 10
10.6274875746
 20
8.3288643926
 30
0.0
 10
10.6249136802
 20
8.3233978295
 30
0.0
 10
10.6229912444
 20
8.3176507524
 30
0.0
 10
10.6217790898
 20
8.3116973744
 30
0.0
 10
10.6213424286
 20
8.3056299999
 30
0.0
 10
10.6217080103
 20
8.2995565198
 30
0.0
 10
10.6229071018
 20
8.2935990072
 30
0.0
 10
10.6248528005
 20
8.2878588537
 30
0.0
 10
10.6283308897
 20
8.2806134913
 30
0.0
 10
10.6341213656
 20
8.2724015437
 30
0.0
 10
10.639896389
 20
8.2668513611
 30
0.0
 10
10.6429786472
 20
8.2643530429
 30
0.0
  0
SPLINE
  5
333
100
AcDbEntity
  8
0
100
AcDbSpline
 62
7
  6
CONTINUOUS
 70
0
 71
3
 72
20
 73
16
 74
0
 42
0.0000001
 43
0.0000001
 44
0.0000000001
 40
0.0
 40
0.0
 40
0.0
 40
0.0
 40
0.1180071501
 40
0.2409992927
 40
0.3043685845
 40
0.3688652758
 40
0.4341411146
 40
0.4998642427
 40
0.5656017499
 40
0.6308784423
 40
0.6953847597
 40
0.7588291481
 40
0.8210936681
 40
0.8820839589
 40
1.0
 40
1.0
 40
1.0
 40
1.0
 10
11.1122970421
 20
8.2643530429
 30
0.0
 10
11.1148886356
 20
8.2668936691
 30
0.0
 10
11.1197336591
 20
8.272560397
 30
0.0
 10
11.12445189
 20
8.2807141454
 30
0.0
 10
11.1272966868
 20
8.2878980471
 30
0.0
 10
11.1288988979
 20
8.2936296702
 30
0.0
 10
11.1298851701
 20
8.2995733374
 30
0.0
 10
11.1301856173
 20
8.3056292315
 30
0.0
 10
11.1298265655
 20
8.311680745
 30
0.0
 10
11.128828962
 20
8.3176217244
 30
0.0
 10
11.127245602
 20
8.3233601557
 30
0.0
 10
11.1251239905
 20
8.3288220849
 30
0.0
 10
11.1225204303
 20
8.3339509415
 30
0.0
 10
11.118525462
 20
8.3402099241
 30
0.0
 10
11.1149075827
 20
8.344411107
 30
0.0
 10
11.1122970421
 20
8.3469282256
 30
0.0
  0
SPLINE
  5
334
100
AcDbEntity
  8
0
100
AcDbSpline
 62
9
  6
CONTINUOUS
 70
0
 71
3
 72
9
 73
5
 74
0
 42
0.0000001
 43
0.0000001
 44
0.0000000001
 40
0.0
 40
0.0
 40
0.0
 40
0.0
 40
0.4980636194
 40
1.0
 40
1.0
 40
1.0
 40
1.0
 10
10.968212092
 20
5.6224403079
 30
0.0
 10
10.9808154824
 20
5.6269065563
 30
0.0
 10
11.0069481083
 20
5.6336772944
 30
0.0
 10
11.0338430237
 20
5.6359363051
 30
0.0
 10
11.0473183379
 20
5.6359363051
 30
0.0
  0
SPLINE
  5
335
100
AcDbEntity
  8
0
100
AcDbSpline
 62
7
  6
CONTINUOUS
 70
0
 71
3
 72
20
 73
16
 74
0
 42
0.0000001
 43
0.0000001
 44
0.0000000001
 40
0.0
 40
0.0
 40
0.0
 40
0.0
 40
0.0612323288
 40
0.1228870182
 40
0.2472627417
 40
0.3100898443
 40
0.373233913
 40
0.4366043475
 40
0.5001241723
 40
0.563622251
 40
0.626974525
 40
0.6901261962
 40
0.7529419943
 40
0.8772441052
 40
1.0
 40
1.0
 40
1.0
 40
1.0
 10
10.6089040537
 20
8.3417156659
 30
0.0
 10
10.6077881917
 20
8.3405247291
 30
0.0
 10
10.605643455
 20
8.3380430507
 30
0.0
 10
10.6017672745
 20
8.3327065405
 30
0.0
 10
10.5985879028
 20
8.3268358757
 30
0.0
 10
10.5962550924
 20
8.3205761182
 30
0.0
 10
10.5949516376
 20
8.3156921476
 30
0.0
 10
10.5941369953
 20
8.3106843362
 30
0.0
 10
10.5938439021
 20
8.3056092408
 30
0.0
 10
10.5940841459
 20
8.3005310831
 30
0.0
 10
10.5948808145
 20
8.2955198711
 30
0.0
 10
10.596196328
 20
8.290639108
 30
0.0
 10
10.5985682001
 20
8.2843945083
 30
0.0
 10
10.6025916458
 20
8.2771271851
 30
0.0
 10
10.6067234537
 20
8.2719598073
 30
0.0
 10
10.6089562276
 20
8.2695682874
 30
0.0
  0
SPLINE
  5
336
100
AcDbEntity
  8
0
100
AcDbSpline
 62
9
  6
CONTINUOUS
 70
0
 71
3
 72
27
 73
23
 74
0
 42
0.0000001
 43
0.0000001
 44
0.0000000001
 40
0.0
 40
0.0
 40
0.0
 40
0.0
 40
0.0190113042
 40
0.0390828403
 40
0.0601964381
 40
0.0823327847
 40
0.1054715134
 40
0.1295914832
 40
0.1546696802
 40
0.1806817558
 40
0.2354026084
 40
0.2935251376
 40
0.3548001198
 40
0.4189628329
 40
0.4857335879
 40
0.5548157266
 40
0.625901645
 40
0.6986744829
 40
0.7728074409
 40
0.8479639385
 40
0.9238133609
 40
1.0
 40
1.0
 40
1.0
 40
1.0
 10
13.0851311812
 20
6.9437734449
 30
0.0
 10
13.0724633008
 20
6.9410650572
 30
0.0
 10
13.0463644496
 20
6.9357598793
 30
0.0
 10
13.0060324659
 20
6.9282834321
 30
0.0
 10
12.9634915125
 20
6.9210690078
 30
0.0
 10
12.9187911577
 20
6.9141150556
 30
0.0
 10
12.8719812988
 20
6.9074189403
 30
0.0
 10
12.823113128
 20
6.900978361
 30
0.0
 10
12.7722394552
 20
6.8947911297
 30
0.0
 10
12.7005904544
 20
6.886741154
 30
0.0
 10
12.6064360292
 20
6.8773727236
 30
0.0
 10
12.4882186265
 20
6.8672941899
 30
0.0
 10
12.3634707749
 20
6.8581926439
 30
0.0
 10
12.232751705
 20
6.8500616854
 30
0.0
 10
12.0966490748
 20
6.8428964735
 30
0.0
 10
11.9557772692
 20
6.8366945844
 30
0.0
 10
11.8107741539
 20
6.8314526455
 30
0.0
 10
11.6622967038
 20
6.8271673194
 30
0.0
 10
11.5110205293
 20
6.8238369152
 30
0.0
 10
11.3576298223
 20
6.8214592339
 30
0.0
 10
11.2028279943
 20
6.8200338538
 30
0.0
 10
11.099231388
 20
6.8197176042
 30
0.0
 10
11.0473183379
 20
6.8197176166
 30
0.0
  0
SPLINE
  5
337
100
AcDbEntity
  8
0
100
AcDbSpline
 62
9
  6
CONTINUOUS
 70
0
 71
3
 72
11
 73
7
 74
0
 42
0.0000001
 43
0.0000001
 44
0.0000000001
 40
0.0
 40
0.0
 40
0.0
 40
0.0
 40
0.2236234122
 40
0.4713004832
 40
0.7330334967
 40
1.0
 40
1.0
 40
1.0
 40
1.0
 10
13.1014714506
 20
6.9395079205
 30
0.0
 10
13.1052107705
 20
6.9405079622
 30
0.0
 10
13.1130493253
 20
6.9427764074
 30
0.0
 10
13.1250919172
 20
6.9467835601
 30
0.0
 10
13.1376532648
 20
6.9515700392
 30
0.0
 10
13.1460657038
 20
6.955180191
 30
0.0
 10
13.1502739763
 20
6.9570890641
 30
0.0
  0
SPLINE
  5
338
100
AcDbEntity
  8
0
100
AcDbSpline
 62
7
  6
CONTINUOUS
 70
0
 71
3
 72
23
 73
19
 74
0
 42
0.0000001
 43
0.0000001
 44
0.0000000001
 40
0.0
 40
0.0
 40
0.0
 40
0.0
 40
0.0626594608
 40
0.0939845147
 40
0.1253060362
 40
0.1879274225
 40
0.2504997325
 40
0.3753974505
 40
0.4377233724
 40
0.5
 40
0.5622766276
 40
0.6246025495
 40
0.7495002675
 40
0.8120725775
 40
0.8746939638
 40
0.9060154853
 40
0.9373405392
 40
1.0
 40
1.0
 40
1.0
 40
1.0
 10
10.7615299546
 20
9.1373760842
 30
0.0
 10
10.7555820403
 20
9.1365971115
 30
0.0
 10
10.7466592362
 20
9.1354392165
 30
0.0
 10
10.7347605111
 20
9.1339131619
 30
0.0
 10
10.7228639185
 20
9.1323994068
 30
0.0
 10
10.7079935732
 20
9.1305554087
 30
0.0
 10
10.6842094011
 20
9.1278100268
 30
0.0
 10
10.6603875729
 20
9.1256054257
 30
0.0
 10
10.6365274287
 20
9.1244190663
 30
0.0
 10
10.618635763
 20
9.1241089142
 30
0.0
 10
10.6007440973
 20
9.1244190663
 30
0.0
 10
10.5768839531
 20
9.1256054257
 30
0.0
 10
10.5530621249
 20
9.1278100268
 30
0.0
 10
10.5292779528
 20
9.1305554087
 30
0.0
 10
10.5144076074
 20
9.1323994068
 30
0.0
 10
10.5025110149
 20
9.1339131619
 30
0.0
 10
10.4906122898
 20
9.1354392165
 30
0.0
 10
10.4816894856
 20
9.1365971115
 30
0.0
 10
10.4757415714
 20
9.1373760842
 30
0.0
  0
SPLINE
  5
339
100
AcDbEntity
  8
0
100
AcDbSpline
 62
7
  6
CONTINUOUS
 70
0
 71
3
 72
18
 73
14
 74
0
 42
0.0000001
 43
0.0000001
 44
0.0000000001
 40
0.0
 40
0.0
 40
0.0
 40
0.0
 40
0.1206499372
 40
0.2445281406
 40
0.3712784651
 40
0.4355068268
 40
0.5000171863
 40
0.5645091665
 40
0.6287275962
 40
0.692500975
 40
0.7555890416
 40
0.8793544146
 40
1.0
 40
1.0
 40
1.0
 40
1.0
 10
10.5911373203
 20
8.343877626
 30
0.0
 10
10.5887714185
 20
8.3414204271
 30
0.0
 10
10.5843899482
 20
8.3360187913
 30
0.0
 10
10.5793329874
 20
8.3267556646
 30
0.0
 10
10.5765961178
 20
8.3182199743
 30
0.0
 10
10.5754334491
 20
8.311080225
 30
0.0
 10
10.5751181288
 20
8.3056159375
 30
0.0
 10
10.5753790078
 20
8.3001486258
 30
0.0
 10
10.5762407663
 20
8.2947643365
 30
0.0
 10
10.5776538526
 20
8.2895400455
 30
0.0
 10
10.5801856295
 20
8.2829110885
 30
0.0
 10
10.5844411516
 20
8.2752710584
 30
0.0
 10
10.5888161231
 20
8.2698764618
 30
0.0
 10
10.5911712468
 20
8.2674091008
 30
0.0
  0
SPLINE
  5
33A
100
AcDbEntity
  8
0
100
AcDbSpline
 62
9
  6
CONTINUOUS
 70
0
 71
3
 72
14
 73
10
 74
0
 42
0.0000001
 43
0.0000001
 44
0.0000000001
 40
0.0
 40
0.0
 40
0.0
 40
0.0
 40
0.297340278
 40
0.4410142187
 40
0.5776979909
 40
0.7044151217
 40
0.8186612873
 40
0.9179787829
 40
1.0
 40
1.0
 40
1.0
 40
1.0
 10
13.1498965988
 20
6.9583538049
 30
0.0
 10
13.143584579
 20
6.9564817542
 30
0.0
 10
13.1341525414
 20
6.9539372798
 30
0.0
 10
13.121712242
 20
6.9509594788
 30
0.0
 10
13.112913496
 20
6.9490014143
 30
0.0
 10
13.1047250428
 20
6.947305696
 30
0.0
 10
13.0973282988
 20
6.9458700668
 30
0.0
 10
13.0908880008
 20
6.944703613
 30
0.0
 10
13.086926289
 20
6.9440484725
 30
0.0
 10
13.0851311968
 20
6.9437728177
 30
0.0
  0
SPLINE
  5
33B
100
AcDbEntity
  8
0
100
AcDbSpline
 62
7
  6
CONTINUOUS
 70
0
 71
3
 72
18
 73
14
 74
0
 42
0.0000001
 43
0.0000001
 44
0.0000000001
 40
0.0
 40
0.0
 40
0.0
 40
0.0
 40
0.1192484466
 40
0.2426347505
 40
0.3058919088
 40
0.3700605972
 40
0.4348397661
 40
0.4999791536
 40
0.5651345288
 40
0.629919295
 40
0.7572570486
 40
0.880774502
 40
1.0
 40
1.0
 40
1.0
 40
1.0
 10
11.5091154294
 20
8.2663520557
 30
0.0
 10
11.511505795
 20
8.2688532798
 30
0.0
 10
11.5159539987
 20
8.2743579553
 30
0.0
 10
11.5202706921
 20
8.2821725055
 30
0.0
 10
11.5228517207
 20
8.2889872372
 30
0.0
 10
11.52429748
 20
8.2943833054
 30
0.0
 10
11.5251820485
 20
8.2999555963
 30
0.0
 10
11.5254503736
 20
8.3056198672
 30
0.0
 10
11.5251273848
 20
8.311280992
 30
0.0
 10
11.5239381225
 20
8.318660781
 30
0.0
 10
11.5211501744
 20
8.3274501082
 30
0.0
 10
11.5160041486
 20
8.3369407878
 30
0.0
 10
11.5115424263
 20
8.3424469287
 30
0.0
 10
11.5091384401
 20
8.3449341387
 30
0.0
  0
SPLINE
  5
33C
100
AcDbEntity
  8
0
100
AcDbSpline
 62
9
  6
CONTINUOUS
 70
0
 71
3
 72
9
 73
5
 74
0
 42
0.0000001
 43
0.0000001
 44
0.0000000001
 40
0.0
 40
0.0
 40
0.0
 40
0.0
 40
0.5019363806
 40
1.0
 40
1.0
 40
1.0
 40
1.0
 10
11.0473183379
 20
5.6359363051
 30
0.0
 10
11.060793652
 20
5.6359363051
 30
0.0
 10
11.0876885674
 20
5.6336772944
 30
0.0
 10
11.1138211933
 20
5.6269065563
 30
0.0
 10
11.1264245837
 20
5.6224403079
 30
0.0
  0
SPLINE
  5
33D
100
AcDbEntity
  8
0
100
AcDbSpline
 62
7
  6
CONTINUOUS
 70
0
 71
3
 72
15
 73
11
 74
0
 42
0.0000001
 43
0.0000001
 44
0.0000000001
 40
0.0
 40
0.0
 40
0.0
 40
0.0
 40
0.1249995407
 40
0.1874993202
 40
0.249999093
 40
0.3749987101
 40
0.4999987405
 40
0.7499961382
 40
0.8749988431
 40
1.0
 40
1.0
 40
1.0
 40
1.0
 10
11.3331067211
 20
9.1373760842
 30
0.0
 10
11.3212096005
 20
9.1365970269
 30
0.0
 10
11.3033632159
 20
9.135439168
 30
0.0
 10
11.2795668939
 20
9.1339130886
 30
0.0
 10
11.2557698087
 20
9.1323990724
 30
0.0
 10
11.2260202496
 20
9.1305546077
 30
0.0
 10
11.1784093908
 20
9.1278068142
 30
0.0
 10
11.1307649372
 20
9.1256036219
 30
0.0
 10
11.0830871979
 20
9.1244189455
 30
0.0
 10
11.0592410928
 20
9.124212271
 30
0.0
 10
11.0473183379
 20
9.124212271
 30
0.0
  0
SPLINE
  5
33E
100
AcDbEntity
  8
0
100
AcDbSpline
 62
7
  6
CONTINUOUS
 70
0
 71
3
 72
18
 73
14
 74
0
 42
0.0000001
 43
0.0000001
 44
0.0000000001
 40
0.0
 40
0.0
 40
0.0
 40
0.0
 40
0.1175552389
 40
0.2406432458
 40
0.3686683776
 40
0.4341052856
 40
0.5000173045
 40
0.5659162492
 40
0.6313519203
 40
0.6959810181
 40
0.7594372143
 40
0.8823790838
 40
1.0
 40
1.0
 40
1.0
 40
1.0
 10
10.582026795
 20
8.3459562826
 30
0.0
 10
10.579606875
 20
8.343442327
 30
0.0
 10
10.5751073236
 20
8.3378349483
 30
0.0
 10
10.5699250632
 20
8.328128179
 30
0.0
 10
10.5671158234
 20
8.3190953185
 30
0.0
 10
10.5659119174
 20
8.3114804483
 30
0.0
 10
10.5655843624
 20
8.3056241937
 30
0.0
 10
10.5658574644
 20
8.2997647328
 30
0.0
 10
10.5667559164
 20
8.294006639
 30
0.0
 10
10.5682199368
 20
8.2884417238
 30
0.0
 10
10.5708233597
 20
8.2814491232
 30
0.0
 10
10.5751548062
 20
8.2734718422
 30
0.0
 10
10.5796345712
 20
8.2678602474
 30
0.0
 10
10.5820382756
 20
8.2653280943
 30
0.0
  0
SPLINE
  5
33F
100
AcDbEntity
  8
0
100
AcDbSpline
 62
7
  6
CONTINUOUS
 70
0
 71
3
 72
18
 73
14
 74
0
 42
0.0000001
 43
0.0000001
 44
0.0000000001
 40
0.0
 40
0.0
 40
0.0
 40
0.0
 40
0.117620939
 40
0.2405628269
 40
0.3040190179
 40
0.3686481257
 40
0.4340838095
 40
0.4999827451
 40
0.5658947623
 40
0.6313316663
 40
0.7593567827
 40
0.8824447689
 40
1.0
 40
1.0
 40
1.0
 40
1.0
 10
11.5125983916
 20
8.2653280854
 30
0.0
 10
11.5150020972
 20
8.2678602388
 30
0.0
 10
11.519481864
 20
8.2734718344
 30
0.0
 10
11.5238133131
 20
8.2814491159
 30
0.0
 10
11.5264167377
 20
8.2884417173
 30
0.0
 10
11.5278807561
 20
8.2940066341
 30
0.0
 10
11.5287792108
 20
8.2997647282
 30
0.0
 10
11.5290523145
 20
8.3056241897
 30
0.0
 10
11.5287247584
 20
8.3114804442
 30
0.0
 10
11.5275208535
 20
8.3190953145
 30
0.0
 10
11.5247116141
 20
8.3281281748
 30
0.0
 10
11.5195293552
 20
8.3378349442
 30
0.0
 10
11.5150298042
 20
8.343442323
 30
0.0
 10
11.5126098844
 20
8.3459562788
 30
0.0
  0
SPLINE
  5
340
100
AcDbEntity
  8
0
100
AcDbSpline
 62
9
  6
CONTINUOUS
 70
0
 71
3
 72
15
 73
11
 74
0
 42
0.0000001
 43
0.0000001
 44
0.0000000001
 40
0.0
 40
0.0
 40
0.0
 40
0.0
 40
0.1208214844
 40
0.2450157864
 40
0.371793274
 40
0.5000000122
 40
0.6282067457
 40
0.7549842424
 40
0.8791785539
 40
1.0
 40
1.0
 40
1.0
 40
1.0
 10
11.1154677788
 20
5.6235379522
 30
0.0
 10
11.110029675
 20
5.6244308202
 30
0.0
 10
11.098956278
 20
5.6259733205
 30
0.0
 10
11.0820702139
 20
5.6275843396
 30
0.0
 10
11.0647974411
 20
5.6285440007
 30
0.0
 10
11.0473183269
 20
5.6288626726
 30
0.0
 10
11.0298392121
 20
5.6285440045
 30
0.0
 10
11.0125664386
 20
5.6275843404
 30
0.0
 10
10.9956803763
 20
5.6259733134
 30
0.0
 10
10.9846069806
 20
5.6244308137
 30
0.0
 10
10.9791688784
 20
5.6235379466
 30
0.0
  0
SPLINE
  5
341
100
AcDbEntity
  8
0
100
AcDbSpline
 62
7
  6
CONTINUOUS
 70
0
 71
3
 72
15
 73
11
 74
0
 42
0.0000001
 43
0.0000001
 44
0.0000000001
 40
0.0
 40
0.0
 40
0.0
 40
0.0
 40
0.1250011569
 40
0.2500038618
 40
0.5000012597
 40
0.62500129
 40
0.750000907
 40
0.8125006798
 40
0.8750004593
 40
1.0
 40
1.0
 40
1.0
 40
1.0
 10
11.0473183379
 20
9.124212271
 30
0.0
 10
11.0353955829
 20
9.124212271
 30
0.0
 10
11.0115494778
 20
9.1244189455
 30
0.0
 10
10.9638717384
 20
9.1256036218
 30
0.0
 10
10.9162272849
 20
9.1278068143
 30
0.0
 10
10.8686164261
 20
9.1305546076
 30
0.0
 10
10.838866867
 20
9.1323990726
 30
0.0
 10
10.8150697818
 20
9.1339130886
 30
0.0
 10
10.7912734598
 20
9.1354391677
 30
0.0
 10
10.7734270752
 20
9.1365970269
 30
0.0
 10
10.7615299546
 20
9.1373760842
 30
0.0
  0
SPLINE
  5
342
100
AcDbEntity
  8
0
100
AcDbSpline
 62
9
  6
CONTINUOUS
 70
0
 71
3
 72
35
 73
31
 74
0
 42
0.0000001
 43
0.0000001
 44
0.0000000001
 40
0.0
 40
0.0
 40
0.0
 40
0.0
 40
0.0624746422
 40
0.1249460963
 40
0.1562009929
 40
0.1874559711
 40
0.2187107604
 40
0.249965176
 40
0.2812197163
 40
0.312474324
 40
0.3437285604
 40
0.374983103
 40
0.4062372433
 40
0.4374916012
 40
0.4687457753
 40
0.4999999944
 40
0.5312542105
 40
0.5625083872
 40
0.5937627447
 40
0.6250168816
 40
0.6562714275
 40
0.687525666
 40
0.7187802699
 40
0.7500348044
 40
0.7812892361
 40
0.8125440276
 40
0.8437989566
 40
0.8750538737
 40
0.9375253514
 40
1.0
 40
1.0
 40
1.0
 40
1.0
 10
13.1518645552
 20
6.9575994621
 30
0.0
 10
13.1711638845
 20
6.9647842095
 30
0.0
 10
13.2088716397
 20
6.9816898504
 30
0.0
 10
13.2527175899
 20
7.0090125512
 30
0.0
 10
13.2851970443
 20
7.0344056773
 30
0.0
 10
13.3081288568
 20
7.0551699462
 30
0.0
 10
13.329465329
 20
7.0775701721
 30
0.0
 10
13.3490553105
 20
7.101514404
 30
0.0
 10
13.3667516779
 20
7.1268914338
 30
0.0
 10
13.3824130591
 20
7.1535735339
 30
0.0
 10
13.3959129148
 20
7.1814128379
 30
0.0
 10
13.4071306214
 20
7.2102482645
 30
0.0
 10
13.4159674788
 20
7.239900836
 30
0.0
 10
13.422338762
 20
7.2701796084
 30
0.0
 10
13.4261847616
 20
7.3008817968
 30
0.0
 10
13.4274718972
 20
7.331797327
 30
0.0
 10
13.4261846253
 20
7.3627128504
 30
0.0
 10
13.4223386303
 20
7.3934150332
 30
0.0
 10
13.4159675253
 20
7.4236938415
 30
0.0
 10
13.4071307437
 20
7.4533464398
 30
0.0
 10
13.3959130031
 20
7.4821818563
 30
0.0
 10
13.3824130662
 20
7.5100211221
 30
0.0
 10
13.3667516165
 20
7.5367031783
 30
0.0
 10
13.3490552346
 20
7.5620801969
 30
0.0
 10
13.3294653484
 20
7.5860245082
 30
0.0
 10
13.3081290166
 20
7.6084248533
 30
0.0
 10
13.2851970801
 20
7.6291890111
 30
0.0
 10
13.2527175203
 20
7.6545818388
 30
0.0
 10
13.2088723282
 20
7.6819066885
 30
0.0
 10
13.1711623128
 20
7.6988062468
 30
0.0
 10
13.1518645543
 20
7.7059952183
 30
0.0
  0
SPLINE
  5
343
100
AcDbEntity
  8
0
100
AcDbSpline
 62
9
  6
CONTINUOUS
 70
0
 71
3
 72
35
 73
31
 74
0
 42
0.0000001
 43
0.0000001
 44
0.0000000001
 40
0.0
 40
0.0
 40
0.0
 40
0.0
 40
0.0624757476
 40
0.1249483705
 40
0.156203154
 40
0.1874578321
 40
0.2187124838
 40
0.2499667518
 40
0.2812210943
 40
0.3124755612
 40
0.3437295904
 40
0.3749839116
 40
0.4062379196
 40
0.4374920279
 40
0.4687460342
 40
0.4999999997
 40
0.5312539653
 40
0.5625079716
 40
0.5937620798
 40
0.6250160879
 40
0.656270409
 40
0.6875244383
 40
0.7187789052
 40
0.7500332477
 40
0.7812875156
 40
0.8125421673
 40
0.8437968456
 40
0.8750516291
 40
0.937524252
 40
1.0
 40
1.0
 40
1.0
 40
1.0
 10
13.1498729868
 20
7.7051604573
 30
0.0
 10
13.1689208001
 20
7.6977653859
 30
0.0
 10
13.2061157904
 20
7.6805233295
 30
0.0
 10
13.249337301
 20
7.6529756304
 30
0.0
 10
13.2813504236
 20
7.6275118526
 30
0.0
 10
13.3039501349
 20
7.606743068
 30
0.0
 10
13.3249750079
 20
7.5843815517
 30
0.0
 10
13.3442797342
 20
7.5605176234
 30
0.0
 10
13.3617203952
 20
7.5352580437
 30
0.0
 10
13.3771577162
 20
7.508725571
 30
0.0
 10
13.390464994
 20
7.4810621285
 30
0.0
 10
13.4015202906
 20
7.4524234136
 30
0.0
 10
13.4102297715
 20
7.4229856879
 30
0.0
 10
13.4165116647
 20
7.3929356295
 30
0.0
 10
13.4203062808
 20
7.3624710843
 30
0.0
 10
13.4215776153
 20
7.3317971522
 30
0.0
 10
13.4203062503
 20
7.3011232214
 30
0.0
 10
13.4165116034
 20
7.2706586799
 30
0.0
 10
13.4102296795
 20
7.2406086279
 30
0.0
 10
13.4015201692
 20
7.211170911
 30
0.0
 10
13.3904648447
 20
7.1825322069
 30
0.0
 10
13.3771575407
 20
7.154868777
 30
0.0
 10
13.3617201944
 20
7.128336319
 30
0.0
 10
13.3442795087
 20
7.1030767563
 30
0.0
 10
13.32497476
 20
7.0792128462
 30
0.0
 10
13.3039498673
 20
7.0568513484
 30
0.0
 10
13.2813501391
 20
7.0360825823
 30
0.0
 10
13.2493369951
 20
7.0106188306
 30
0.0
 10
13.2061154542
 20
6.9830711816
 30
0.0
 10
13.1689204656
 20
6.9658291238
 30
0.0
 10
13.1498726496
 20
6.9584340588
 30
0.0
  0
SPLINE
  5
344
100
AcDbEntity
  8
0
100
AcDbSpline
 62
9
  6
CONTINUOUS
 70
0
 71
3
 72
10
 73
6
 74
0
 42
0.0000001
 43
0.0000001
 44
0.0000000001
 40
0.0
 40
0.0
 40
0.0
 40
0.0
 40
0.5286452321
 40
0.7763525649
 40
1.0
 40
1.0
 40
1.0
 40
1.0
 10
13.1502751305
 20
7.7065050551
 30
0.0
 10
13.1419425657
 20
7.7102843927
 30
0.0
 10
13.129474526
 20
7.7153504221
 30
0.0
 10
13.1130504081
 20
7.7208201193
 30
0.0
 10
13.1052107422
 20
7.7230863436
 30
0.0
 10
13.1014714506
 20
7.7240867595
 30
0.0
  0
SPLINE
  5
345
100
AcDbEntity
  8
0
100
AcDbSpline
 62
9
  6
CONTINUOUS
 70
0
 71
3
 72
14
 73
10
 74
0
 42
0.0000001
 43
0.0000001
 44
0.0000000001
 40
0.0
 40
0.0
 40
0.0
 40
0.0
 40
0.0820247248
 40
0.1813444547
 40
0.2955914254
 40
0.4223088731
 40
0.5589919033
 40
0.7026648598
 40
1.0
 40
1.0
 40
1.0
 40
1.0
 10
13.0851323608
 20
7.7198216685
 30
0.0
 10
13.0869275261
 20
7.7195461154
 30
0.0
 10
13.0908892453
 20
7.7188904991
 30
0.0
 10
13.0973295679
 20
7.7177238195
 30
0.0
 10
13.1047263612
 20
7.7162885121
 30
0.0
 10
13.1129148061
 20
7.7145931738
 30
0.0
 10
13.121713362
 20
7.7126348782
 30
0.0
 10
13.1341534795
 20
7.7096575931
 30
0.0
 10
13.1435851332
 20
7.7071126433
 30
0.0
 10
13.1498970015
 20
7.7052407477
 30
0.0
  0
SPLINE
  5
346
100
AcDbEntity
  8
0
100
AcDbSpline
 62
9
  6
CONTINUOUS
 70
0
 71
3
 72
48
 73
44
 74
0
 42
0.0000001
 43
0.0000001
 44
0.0000000001
 40
0.0
 40
0.0
 40
0.0
 40
0.0
 40
0.0093603512
 40
0.0189920193
 40
0.0288881774
 40
0.0390427803
 40
0.0442154079
 40
0.0494509409
 40
0.060111551
 40
0.0710266449
 40
0.0821972524
 40
0.0936237309
 40
0.0994329464
 40
0.1053058378
 40
0.1172400423
 40
0.1294210456
 40
0.1418436267
 40
0.1545027918
 40
0.1673940157
 40
0.180514133
 40
0.2074300057
 40
0.221219981
 40
0.23522712
 40
0.2638777968
 40
0.2933506561
 40
0.3236136343
 40
0.3546333902
 40
0.3863762662
 40
0.4188077764
 40
0.4518921041
 40
0.485592897
 40
0.5198722975
 40
0.5546919621
 40
0.5900130631
 40
0.6257961628
 40
0.6985884127
 40
0.7355159242
 40
0.7727421574
 40
0.8102244686
 40
0.8479205291
 40
0.885789412
 40
0.9237903066
 40
1.0
 40
1.0
 40
1.0
 40
1.0
 10
13.0855236094
 20
7.7283309807
 30
0.0
 10
13.0792760257
 20
7.7296109832
 30
0.0
 10
13.0665949986
 20
7.7321849977
 30
0.0
 10
13.0472808885
 20
7.7359736324
 30
0.0
 10
13.0274002821
 20
7.7396818127
 30
0.0
 10
13.0104698424
 20
7.7426325132
 30
0.0
 10
12.9966433669
 20
7.744891912
 30
0.0
 10
12.9824591249
 20
7.7470970349
 30
0.0
 10
12.9643807412
 20
7.7497180317
 30
0.0
 10
12.9422717514
 20
7.7527118217
 30
0.0
 10
12.9196291753
 20
7.7556502149
 30
0.0
 10
12.9004315408
 20
7.7581028429
 30
0.0
 10
12.884816518
 20
7.7601159772
 30
0.0
 10
12.8688604119
 20
7.7621887725
 30
0.0
 10
12.8486004605
 20
7.7648298983
 30
0.0
 10
12.8239111501
 20
7.7680141904
 30
0.0
 10
12.7987213916
 20
7.771178929
 30
0.0
 10
12.7730356075
 20
7.7742754807
 30
0.0
 10
12.7468566711
 20
7.7772472198
 30
0.0
 10
12.7110003229
 20
7.7810777294
 30
0.0
 10
12.6745029229
 20
7.7846642417
 30
0.0
 10
12.6373833612
 20
7.7880852692
 30
0.0
 10
12.599075332
 20
7.7914880753
 30
0.0
 10
12.5501044727
 20
7.7956109073
 30
0.0
 10
12.4900702393
 20
7.8003300688
 30
0.0
 10
12.4284034845
 20
7.8048682063
 30
0.0
 10
12.3651713197
 20
7.8091968049
 30
0.0
 10
12.3004422494
 20
7.8132784259
 30
0.0
 10
12.2342883326
 20
7.8171001488
 30
0.0
 10
12.1667852778
 20
7.82068383
 30
0.0
 10
12.0980102952
 20
7.8240454676
 30
0.0
 10
12.0280410979
 20
7.8271806113
 30
0.0
 10
11.9569569321
 20
7.83008156
 30
0.0
 10
11.8848382984
 20
7.8327457294
 30
0.0
 10
11.7868533401
 20
7.8360052317
 30
0.0
 10
11.6877577117
 20
7.8387759874
 30
0.0
 10
11.587667787
 20
7.841095588
 30
0.0
 10
11.5116234068
 20
7.8426169471
 30
0.0
 10
11.4350509097
 20
7.8438985476
 30
0.0
 10
11.3580367391
 20
7.8449290269
 30
0.0
 10
11.2806664334
 20
7.8457223223
 30
0.0
 10
11.177054985
 20
7.8464891633
 30
0.0
 10
11.0992412382
 20
7.8467361635
 30
0.0
 10
11.0473183379
 20
7.8467361234
 30
0.0
  0
SPLINE
  5
347
100
AcDbEntity
  8
0
100
AcDbSpline
 62
9
  6
CONTINUOUS
 70
0
 71
3
 72
27
 73
23
 74
0
 42
0.0000001
 43
0.0000001
 44
0.0000000001
 40
0.0
 40
0.0
 40
0.0
 40
0.0
 40
0.0761866685
 40
0.1520361185
 40
0.227192643
 40
0.3013256258
 40
0.3740984844
 40
0.4451844188
 40
0.514266569
 40
0.581037331
 40
0.6452000467
 40
0.7064750255
 40
0.7645975455
 40
0.8193183822
 40
0.8453304463
 40
0.8704086315
 40
0.8945285904
 40
0.9176673073
 40
0.9398036336
 40
0.9609171964
 40
0.9809886987
 40
1.0
 40
1.0
 40
1.0
 40
1.0
 10
11.0473183379
 20
7.8438770635
 30
0.0
 10
11.0992314378
 20
7.8438770792
 30
0.0
 10
11.2028281423
 20
7.8435608251
 30
0.0
 10
11.3576301162
 20
7.8421354455
 30
0.0
 10
11.5110209652
 20
7.8397577632
 30
0.0
 10
11.6622972753
 20
7.8364273411
 30
0.0
 10
11.8107748521
 20
7.8321419997
 30
0.0
 10
11.9557780828
 20
7.8269000409
 30
0.0
 10
12.0966499927
 20
7.8206981513
 30
0.0
 10
12.2327527165
 20
7.8135329563
 30
0.0
 10
12.3634718625
 20
7.8054019436
 30
0.0
 10
12.4882197767
 20
7.7963003673
 30
0.0
 10
12.606437229
 20
7.7862218445
 30
0.0
 10
12.7005916849
 20
7.7768534247
 30
0.0
 10
12.772240697
 20
7.7688034182
 30
0.0
 10
12.8231143721
 20
7.7626161556
 30
0.0
 10
12.8719825438
 20
7.7561755473
 30
0.0
 10
12.9187923978
 20
7.7494794129
 30
0.0
 10
12.9634927308
 20
7.7425254503
 30
0.0
 10
13.0060336472
 20
7.7353110224
 30
0.0
 10
13.0463656041
 20
7.7278345698
 30
0.0
 10
13.072464444
 20
7.7225293853
 30
0.0
 10
13.0851323289
 20
7.7198209922
 30
0.0
  0
SPLINE
  5
348
100
AcDbEntity
  8
0
100
AcDbSpline
 62
9
  6
CONTINUOUS
 70
0
 71
3
 72
48
 73
44
 74
0
 42
0.0000001
 43
0.0000001
 44
0.0000000001
 40
0.0
 40
0.0
 40
0.0
 40
0.0
 40
0.07620967
 40
0.1142105182
 40
0.1520793711
 40
0.1897754187
 40
0.2272577184
 40
0.2644839293
 40
0.3014114098
 40
0.3742036102
 40
0.4099866944
 40
0.4453077861
 40
0.4801274376
 40
0.5144068245
 40
0.5481075898
 40
0.5811918944
 40
0.6136233872
 40
0.6453662384
 40
0.6763859859
 40
0.7066489554
 40
0.7361218257
 40
0.7647725006
 40
0.7787796076
 40
0.7925695598
 40
0.8194854561
 40
0.8326056299
 40
0.8454969477
 40
0.8581561322
 40
0.8705786152
 40
0.8827594112
 40
0.8946933172
 40
0.9005660332
 40
0.9063750875
 40
0.9178015452
 40
0.9289724424
 40
0.9398880149
 40
0.9505491664
 40
0.9557849437
 40
0.9609577385
 40
0.9711124133
 40
0.9810083892
 40
0.9906397909
 40
1.0
 40
1.0
 40
1.0
 40
1.0
 10
11.0473183379
 20
7.8467361234
 30
0.0
 10
10.9953954403
 20
7.8467360642
 30
0.0
 10
10.9175817217
 20
7.8464890774
 30
0.0
 10
10.8139703141
 20
7.8457223371
 30
0.0
 10
10.7366000497
 20
7.8449290247
 30
0.0
 10
10.6595858972
 20
7.8438985085
 30
0.0
 10
10.5830134097
 20
7.8426170948
 30
0.0
 10
10.5069690483
 20
7.8410960406
 30
0.0
 10
10.4068791648
 20
7.838776556
 30
0.0
 10
10.3077835942
 20
7.8360051501
 30
0.0
 10
10.2097986698
 20
7.8327454175
 30
0.0
 10
10.1376800437
 20
7.8300812492
 30
0.0
 10
10.0665958768
 20
7.8271804935
 30
0.0
 10
9.9966266799
 20
7.8240457772
 30
0.0
 10
9.9278517009
 20
7.8206845953
 30
0.0
 10
9.860348686
 20
7.8171006961
 30
0.0
 10
9.7941948357
 20
7.813278293
 30
0.0
 10
9.7294658081
 20
7.8091963124
 30
0.0
 10
9.6662335911
 20
7.8048686805
 30
0.0
 10
9.6045667838
 20
7.8003310542
 30
0.0
 10
9.5445326932
 20
7.7956098289
 30
0.0
 10
9.4955619512
 20
7.7914857192
 30
0.0
 10
9.457253803
 20
7.788084595
 30
0.0
 10
9.4201340675
 20
7.784665589
 30
0.0
 10
9.3836365389
 20
7.781079799
 30
0.0
 10
9.3477802874
 20
7.7772470976
 30
0.0
 10
9.3216017868
 20
7.7742704285
 30
0.0
 10
9.295916223
 20
7.7711719798
 30
0.0
 10
9.2707264671
 20
7.7680087645
 30
0.0
 10
9.2460369863
 20
7.7648289824
 30
0.0
 10
9.2257767087
 20
7.7621939185
 30
0.0
 10
9.2098202376
 20
7.7601272655
 30
0.0
 10
9.1942045964
 20
7.758120818
 30
0.0
 10
9.1750066925
 20
7.7556696818
 30
0.0
 10
9.1523641919
 20
7.752726647
 30
0.0
 10
9.1302554503
 20
7.7497242943
 30
0.0
 10
9.112177311
 20
7.7470955982
 30
0.0
 10
9.0979932277
 20
7.7448852338
 30
0.0
 10
9.0841669104
 20
7.7426228381
 30
0.0
 10
9.0672364274
 20
7.7396722488
 30
0.0
 10
9.04735543
 20
7.7359675718
 30
0.0
 10
9.0280408873
 20
7.7321832042
 30
0.0
 10
9.0153598082
 20
7.7296108054
 30
0.0
 10
9.0091123173
 20
7.7283308244
 30
0.0
  0
SPLINE
  5
349
100
AcDbEntity
  8
0
100
AcDbSpline
 62
9
  6
CONTINUOUS
 70
0
 71
3
 72
27
 73
23
 74
0
 42
0.0000001
 43
0.0000001
 44
0.0000000001
 40
0.0
 40
0.0
 40
0.0
 40
0.0
 40
0.0762104967
 40
0.1520837237
 40
0.2272636291
 40
0.3014192757
 40
0.3742138411
 40
0.4453203114
 40
0.5144208988
 40
0.5812072003
 40
0.6453821293
 40
0.7066637042
 40
0.7647856717
 40
0.8194984415
 40
0.8455034524
 40
0.8705712528
 40
0.8946760441
 40
0.9177942481
 40
0.9399055511
 40
0.9609903802
 40
0.9810285615
 40
1.0
 40
1.0
 40
1.0
 40
1.0
 10
11.0473183379
 20
7.8244800796
 30
0.0
 10
11.0995393216
 20
7.8244801169
 30
0.0
 10
11.2037504644
 20
7.8241649828
 30
0.0
 10
11.3594705899
 20
7.8227449183
 30
0.0
 10
11.5137710909
 20
7.8203761446
 30
0.0
 10
11.6659441013
 20
7.8170581502
 30
0.0
 10
11.8153011917
 20
7.8127890721
 30
0.0
 10
11.9611621529
 20
7.8075671155
 30
0.0
 10
12.1028651745
 20
7.8013893855
 30
0.0
 10
12.2397675507
 20
7.7942528767
 30
0.0
 10
12.3712492752
 20
7.7861552195
 30
0.0
 10
12.4967167841
 20
7.7770919764
 30
0.0
 10
12.6156052562
 20
7.7670575342
 30
0.0
 10
12.7102870426
 20
7.7577316145
 30
0.0
 10
12.7823301142
 20
7.7497192736
 30
0.0
 10
12.8334748447
 20
7.7435622069
 30
0.0
 10
12.8825946442
 20
7.7371542617
 30
0.0
 10
12.9296357285
 20
7.73049339
 30
0.0
 10
12.974547499
 20
7.723577334
 30
0.0
 10
13.0172804966
 20
7.7164036021
 30
0.0
 10
13.0577837619
 20
7.7089710508
 30
0.0
 10
13.0839903524
 20
7.7036972225
 30
0.0
 10
13.0967081478
 20
7.7010050685
 30
0.0
  0
SPLINE
  5
34A
100
AcDbEntity
  8
0
100
AcDbSpline
 62
9
  6
CONTINUOUS
 70
0
 71
3
 72
13
 73
9
 74
0
 42
0.0000001
 43
0.0000001
 44
0.0000000001
 40
0.0
 40
0.0
 40
0.0
 40
0.0
 40
0.0823940462
 40
0.1816765227
 40
0.2956545114
 40
0.4221196221
 40
0.7020968828
 40
1.0
 40
1.0
 40
1.0
 40
1.0
 10
13.0967081478
 20
7.7010050685
 30
0.0
 10
13.0979891159
 20
7.7007321743
 30
0.0
 10
13.1008040629
 20
7.7000856977
 30
0.0
 10
13.105363299
 20
7.698944733
 30
0.0
 10
13.1105793622
 20
7.697545565
 30
0.0
 10
13.118533081
 20
7.6952701956
 30
0.0
 10
13.129214004
 20
7.6919044111
 30
0.0
 10
13.1378564585
 20
7.6887800375
 30
0.0
 10
13.1422670473
 20
7.6870564904
 30
0.0
  0
SPLINE
  5
34B
100
AcDbEntity
  8
0
100
AcDbSpline
 62
9
  6
CONTINUOUS
 70
0
 71
3
 72
35
 73
31
 74
0
 42
0.0000001
 43
0.0000001
 44
0.0000000001
 40
0.0
 40
0.0
 40
0.0
 40
0.0
 40
0.0624712641
 40
0.1249406763
 40
0.1561940421
 40
0.1874478345
 40
0.2187021151
 40
0.2499562843
 40
0.2812110313
 40
0.3124661306
 40
0.3437212183
 40
0.3749768928
 40
0.4062324142
 40
0.4374883004
 40
0.4687441113
 40
0.5000000002
 40
0.5312558892
 40
0.5625117
 40
0.5937675862
 40
0.6250231076
 40
0.6562787821
 40
0.6875338697
 40
0.718788969
 40
0.750043716
 40
0.7812978852
 40
0.8125521657
 40
0.8438059582
 40
0.875059324
 40
0.9375287361
 40
1.0
 40
1.0
 40
1.0
 40
1.0
 10
13.1422670473
 20
7.6870564904
 30
0.0
 10
13.1604646602
 20
7.6800447497
 30
0.0
 10
13.1960168114
 20
7.6637078403
 30
0.0
 10
13.237386779
 20
7.637604618
 30
0.0
 10
13.2680631803
 20
7.6134543977
 30
0.0
 10
13.2897378213
 20
7.5937452872
 30
0.0
 10
13.3099204054
 20
7.5725102051
 30
0.0
 10
13.3284678173
 20
7.5498306849
 30
0.0
 10
13.3452374334
 20
7.5258050626
 30
0.0
 10
13.3600917139
 20
7.5005487326
 30
0.0
 10
13.3729056777
 20
7.4741969844
 30
0.0
 10
13.3835602419
 20
7.4468994455
 30
0.0
 10
13.3919593014
 20
7.4188247377
 30
0.0
 10
13.3980190933
 20
7.3901532171
 30
0.0
 10
13.4016795081
 20
7.3610773538
 30
0.0
 10
13.4029052654
 20
7.3317973398
 30
0.0
 10
13.4016795081
 20
7.3025173258
 30
0.0
 10
13.3980190933
 20
7.2734414626
 30
0.0
 10
13.3919593013
 20
7.244769942
 30
0.0
 10
13.3835602417
 20
7.2166952342
 30
0.0
 10
13.3729056776
 20
7.1893976954
 30
0.0
 10
13.3600917137
 20
7.1630459471
 30
0.0
 10
13.3452374333
 20
7.1377896172
 30
0.0
 10
13.3284678171
 20
7.1137639949
 30
0.0
 10
13.3099204052
 20
7.0910844748
 30
0.0
 10
13.289737821
 20
7.0698493927
 30
0.0
 10
13.2680631802
 20
7.050140282
 30
0.0
 10
13.2373867789
 20
7.0259900617
 30
0.0
 10
13.1960168107
 20
6.9998868413
 30
0.0
 10
13.1604646614
 20
6.9835499271
 30
0.0
 10
13.1422670473
 20
6.9765381897
 30
0.0
  0
SPLINE
  5
34C
100
AcDbEntity
  8
0
100
AcDbSpline
 62
9
  6
CONTINUOUS
 70
0
 71
3
 72
13
 73
9
 74
0
 42
0.0000001
 43
0.0000001
 44
0.0000000001
 40
0.0
 40
0.0
 40
0.0
 40
0.0
 40
0.2979097212
 40
0.5778832363
 40
0.7043573167
 40
0.8183489548
 40
0.9175424816
 40
1.0
 40
1.0
 40
1.0
 40
1.0
 10
13.1422670473
 20
6.9765381897
 30
0.0
 10
13.1378562889
 20
6.9748145483
 30
0.0
 10
13.1292136066
 20
6.9716901709
 30
0.0
 10
13.1185323184
 20
6.9683242323
 30
0.0
 10
13.1105781413
 20
6.96604882
 30
0.0
 10
13.1053630493
 20
6.9646497241
 30
0.0
 10
13.1008038103
 20
6.963509139
 30
0.0
 10
13.0979891186
 20
6.9628631988
 30
0.0
 10
13.096707281
 20
6.9625894287
 30
0.0
  0
SPLINE
  5
34D
100
AcDbEntity
  8
0
100
AcDbSpline
 62
9
  6
CONTINUOUS
 70
0
 71
3
 72
27
 73
23
 74
0
 42
0.0000001
 43
0.0000001
 44
0.0000000001
 40
0.0
 40
0.0
 40
0.0
 40
0.0
 40
0.0189706766
 40
0.0390093107
 40
0.0600947001
 40
0.0822060843
 40
0.1053241204
 40
0.1294287787
 40
0.1544965592
 40
0.180501609
 40
0.2352144681
 40
0.2933364713
 40
0.3546180122
 40
0.4187928961
 40
0.4855792286
 40
0.5546798266
 40
0.6257862717
 40
0.6985808146
 40
0.7727364362
 40
0.8479163198
 40
0.9237895271
 40
1.0
 40
1.0
 40
1.0
 40
1.0
 10
13.096707281
 20
6.9625894287
 30
0.0
 10
13.0839900322
 20
6.9598972403
 30
0.0
 10
13.0577836703
 20
6.9546233963
 30
0.0
 10
13.017280229
 20
6.9471909484
 30
0.0
 10
12.9745464936
 20
6.9400171965
 30
0.0
 10
12.9296344205
 20
6.9331011026
 30
0.0
 10
12.8825935054
 20
6.9264402547
 30
0.0
 10
12.8334739426
 20
6.9200323585
 30
0.0
 10
12.7823293083
 20
6.9138753305
 30
0.0
 10
12.7102861914
 20
6.9058630067
 30
0.0
 10
12.6156043373
 20
6.8965370473
 30
0.0
 10
12.4967158548
 20
6.886502592
 30
0.0
 10
12.3712484263
 20
6.8774393953
 30
0.0
 10
12.2397667883
 20
6.8693417928
 30
0.0
 10
12.1028644754
 20
6.8622052453
 30
0.0
 10
11.9611615035
 20
6.8560275095
 30
0.0
 10
11.8153006294
 20
6.8508055777
 30
0.0
 10
11.6659436526
 20
6.8465365106
 30
0.0
 10
11.5137707545
 20
6.8432185357
 30
0.0
 10
11.3594703653
 20
6.840849762
 30
0.0
 10
11.2037503512
 20
6.8394296941
 30
0.0
 10
11.0995392829
 20
6.8391145646
 30
0.0
 10
11.0473183379
 20
6.8391146005
 30
0.0
  0
SPLINE
  5
34E
100
AcDbEntity
  8
0
100
AcDbSpline
 62
9
  6
CONTINUOUS
 70
0
 71
3
 72
27
 73
23
 74
0
 42
0.0000001
 43
0.0000001
 44
0.0000000001
 40
0.0
 40
0.0
 40
0.0
 40
0.0
 40
0.0190111963
 40
0.0390825636
 40
0.0601959788
 40
0.0823321622
 40
0.1054707565
 40
0.1295906268
 40
0.1546687529
 40
0.1806807707
 40
0.2354015125
 40
0.2935239558
 40
0.3547989039
 40
0.4189616418
 40
0.4857324634
 40
0.5548146945
 40
0.6259007351
 40
0.6986737248
 40
0.772806845
 40
0.8479635323
 40
0.9238131592
 40
1.0
 40
1.0
 40
1.0
 40
1.0
 10
9.0094977419
 20
7.7198195939
 30
0.0
 10
9.0221655955
 20
7.7225279957
 30
0.0
 10
9.0482643484
 20
7.7278332268
 30
0.0
 10
9.0885961539
 20
7.7353097903
 30
0.0
 10
9.1311369027
 20
7.7425243253
 30
0.0
 10
9.1758370896
 20
7.7494783691
 30
0.0
 10
9.2226468478
 20
7.7561745725
 30
0.0
 10
9.2715149897
 20
7.7626152431
 30
0.0
 10
9.3223886947
 20
7.768802567
 30
0.0
 10
9.3940377994
 20
7.7768526591
 30
0.0
 10
9.4881924085
 20
7.7862211961
 30
0.0
 10
9.6064101055
 20
7.796299841
 30
0.0
 10
9.7311583686
 20
7.8054015151
 30
0.0
 10
9.861877978
 20
7.8135326093
 30
0.0
 10
9.9979812588
 20
7.8206978949
 30
0.0
 10
10.1388538001
 20
7.8268998548
 30
0.0
 10
10.283857725
 20
7.8321418747
 30
0.0
 10
10.4323360464
 20
7.836427274
 30
0.0
 10
10.5836131505
 20
7.8397576926
 30
0.0
 10
10.7370048305
 20
7.842135422
 30
0.0
 10
10.8918076645
 20
7.8435608361
 30
0.0
 10
10.9954049491
 20
7.8438770713
 30
0.0
 10
11.0473183379
 20
7.8438770635
 30
0.0
  0
SPLINE
  5
34F
100
AcDbEntity
  8
0
100
AcDbSpline
 62
9
  6
CONTINUOUS
 70
0
 71
3
 72
11
 73
7
 74
0
 42
0.0000001
 43
0.0000001
 44
0.0000000001
 40
0.0
 40
0.0
 40
0.0
 40
0.0
 40
0.2236234122
 40
0.4713004832
 40
0.7330334967
 40
1.0
 40
1.0
 40
1.0
 40
1.0
 10
8.9931652251
 20
7.7240867595
 30
0.0
 10
8.9894259052
 20
7.7230867179
 30
0.0
 10
8.9815873504
 20
7.7208182726
 30
0.0
 10
8.9695447586
 20
7.71681112
 30
0.0
 10
8.9569834109
 20
7.7120246409
 30
0.0
 10
8.9485709719
 20
7.7084144891
 30
0.0
 10
8.9443626994
 20
7.7065056159
 30
0.0
  0
SPLINE
  5
350
100
AcDbEntity
  8
0
100
AcDbSpline
 62
9
  6
CONTINUOUS
 70
0
 71
3
 72
14
 73
10
 74
0
 42
0.0000001
 43
0.0000001
 44
0.0000000001
 40
0.0
 40
0.0
 40
0.0
 40
0.0
 40
0.2973157338
 40
0.4409804702
 40
0.577658675
 40
0.7043759202
 40
0.8186254637
 40
0.9179587179
 40
1.0
 40
1.0
 40
1.0
 40
1.0
 10
8.944739918
 20
7.705240825
 30
0.0
 10
8.9510506548
 20
7.707112566
 30
0.0
 10
8.9604807397
 20
7.7096570295
 30
0.0
 10
8.9729188935
 20
7.7126335911
 30
0.0
 10
8.9817161933
 20
7.714591756
 30
0.0
 10
8.9899035562
 20
7.7162876759
 30
0.0
 10
8.9973000003
 20
7.7177224679
 30
0.0
 10
9.0037404297
 20
7.7188886517
 30
0.0
 10
9.0077022438
 20
7.7195451941
 30
0.0
 10
9.0094976148
 20
7.7198205522
 30
0.0
  0
SPLINE
  5
351
100
AcDbEntity
  8
0
100
AcDbSpline
 62
9
  6
CONTINUOUS
 70
0
 71
3
 72
35
 73
31
 74
0
 42
0.0000001
 43
0.0000001
 44
0.0000000001
 40
0.0
 40
0.0
 40
0.0
 40
0.0
 40
0.062474642
 40
0.1249460966
 40
0.156200993
 40
0.1874559714
 40
0.2187107609
 40
0.2499651759
 40
0.2812197165
 40
0.3124743242
 40
0.3437285606
 40
0.3749831034
 40
0.4062372435
 40
0.4374916015
 40
0.4687457757
 40
0.4999999947
 40
0.5312542109
 40
0.5625083875
 40
0.5937627449
 40
0.6250168821
 40
0.6562714277
 40
0.6875256663
 40
0.7187802701
 40
0.7500348044
 40
0.7812892367
 40
0.812544028
 40
0.8437989567
 40
0.8750538741
 40
0.9375253514
 40
1.0
 40
1.0
 40
1.0
 40
1.0
 10
8.9427721205
 20
7.7059952179
 30
0.0
 10
8.9234727902
 20
7.6988104736
 30
0.0
 10
8.8857650371
 20
7.6819048256
 30
0.0
 10
8.8419190971
 20
7.6545821115
 30
0.0
 10
8.8094396341
 20
7.6291889974
 30
0.0
 10
8.7865078081
 20
7.6084247439
 30
0.0
 10
8.7651713193
 20
7.5860245337
 30
0.0
 10
8.7455813417
 20
7.5620802978
 30
0.0
 10
8.7278850021
 20
7.5367032485
 30
0.0
 10
8.7122236497
 20
7.5100211318
 30
0.0
 10
8.6987238147
 20
7.4821818184
 30
0.0
 10
8.6875061125
 20
7.4533463908
 30
0.0
 10
8.6786692516
 20
7.4236938205
 30
0.0
 10
8.6722979627
 20
7.3934150497
 30
0.0
 10
8.6684519485
 20
7.3627128636
 30
0.0
 10
8.6671647916
 20
7.3317973345
 30
0.0
 10
8.6684520397
 20
7.3008818104
 30
0.0
 10
8.6722980158
 20
7.2701796251
 30
0.0
 10
8.6786691106
 20
7.2399008147
 30
0.0
 10
8.6875058834
 20
7.210248214
 30
0.0
 10
8.6987236234
 20
7.181412797
 30
0.0
 10
8.712223578
 20
7.1535735396
 30
0.0
 10
8.7278850548
 20
7.1268914994
 30
0.0
 10
8.745581464
 20
7.1015145003
 30
0.0
 10
8.7651713552
 20
7.0775701944
 30
0.0
 10
8.7865076725
 20
7.0551698362
 30
0.0
 10
8.8094395961
 20
7.0344056643
 30
0.0
 10
8.8419191464
 20
7.0090128244
 30
0.0
 10
8.8857643463
 20
6.9816879854
 30
0.0
 10
8.9234743642
 20
6.9647884363
 30
0.0
 10
8.9427721215
 20
6.9575994618
 30
0.0
  0
SPLINE
  5
352
100
AcDbEntity
  8
0
100
AcDbSpline
 62
9
  6
CONTINUOUS
 70
0
 71
3
 72
13
 73
9
 74
0
 42
0.0000001
 43
0.0000001
 44
0.0000000001
 40
0.0
 40
0.0
 40
0.0
 40
0.0
 40
0.2979100305
 40
0.5778825883
 40
0.7043570421
 40
0.8183491088
 40
0.9175397055
 40
1.0
 40
1.0
 40
1.0
 40
1.0
 10
8.9523696284
 20
7.6870564904
 30
0.0
 10
8.9567803801
 20
7.6887801482
 30
0.0
 10
8.965423046
 20
7.6919045137
 30
0.0
 10
8.9761043208
 20
7.6952704379
 30
0.0
 10
8.9840584854
 20
7.6975458524
 30
0.0
 10
8.9892735413
 20
7.6989449294
 30
0.0
 10
8.9938327761
 20
7.700085528
 30
0.0
 10
8.9966474629
 20
7.7007314649
 30
0.0
 10
8.997929343
 20
7.7010052406
 30
0.0
  0
SPLINE
  5
353
100
AcDbEntity
  8
0
100
AcDbSpline
 62
9
  6
CONTINUOUS
 70
0
 71
3
 72
27
 73
23
 74
0
 42
0.0000001
 43
0.0000001
 44
0.0000000001
 40
0.0
 40
0.0
 40
0.0
 40
0.0
 40
0.0189706685
 40
0.0390092816
 40
0.0600946573
 40
0.0822060453
 40
0.1053240982
 40
0.1294287799
 40
0.1544965803
 40
0.1805016336
 40
0.23521444
 40
0.2933364111
 40
0.3546179828
 40
0.4187929052
 40
0.4855792107
 40
0.5546797955
 40
0.6257862566
 40
0.698580808
 40
0.772736425
 40
0.8479163124
 40
0.9237895265
 40
1.0
 40
1.0
 40
1.0
 40
1.0
 10
8.997929343
 20
7.7010052406
 30
0.0
 10
9.0106465864
 20
7.703697429
 30
0.0
 10
9.0368529296
 20
7.7089712687
 30
0.0
 10
9.0773563441
 20
7.716403706
 30
0.0
 10
9.1200900603
 20
7.7235774507
 30
0.0
 10
9.1650021387
 20
7.7304935484
 30
0.0
 10
9.2120430838
 20
7.737154408
 30
0.0
 10
9.2611626874
 20
7.74356232
 30
0.0
 10
9.3123073537
 20
7.7497193612
 30
0.0
 10
9.3843504521
 20
7.7577316867
 30
0.0
 10
9.4790322561
 20
7.7670576121
 30
0.0
 10
9.5979207061
 20
7.7770920454
 30
0.0
 10
9.7233881614
 20
7.7861552676
 30
0.0
 10
9.8548698295
 20
7.79425291
 30
0.0
 10
9.9917721467
 20
7.80138942
 30
0.0
 10
10.133475106
 20
7.8075671443
 30
0.0
 10
10.2793359907
 20
7.812789097
 30
0.0
 10
10.4286929848
 20
7.8170581767
 30
0.0
 10
10.5808658925
 20
7.8203761277
 30
0.0
 10
10.7351662894
 20
7.8227449176
 30
0.0
 10
10.890886315
 20
7.8241649988
 30
0.0
 10
10.9950973911
 20
7.8244801113
 30
0.0
 10
11.0473183379
 20
7.8244800796
 30
0.0
  0
SPLINE
  5
354
100
AcDbEntity
  8
0
100
AcDbSpline
 62
9
  6
CONTINUOUS
 70
0
 71
3
 72
27
 73
23
 74
0
 42
0.0000001
 43
0.0000001
 44
0.0000000001
 40
0.0
 40
0.0
 40
0.0
 40
0.0
 40
0.0762105114
 40
0.152083763
 40
0.2272636849
 40
0.30141933
 40
0.3742139015
 40
0.4453203683
 40
0.514420993
 40
0.581207354
 40
0.6453822278
 40
0.7066637452
 40
0.7647857462
 40
0.819498582
 40
0.8455035813
 40
0.8705713446
 40
0.8946760923
 40
0.9177942592
 40
0.9399055378
 40
0.9609903596
 40
0.981028548
 40
1.0
 40
1.0
 40
1.0
 40
1.0
 10
11.0473183379
 20
6.8391146005
 30
0.0
 10
10.9950973268
 20
6.8391145734
 30
0.0
 10
10.8908861225
 20
6.8394296834
 30
0.0
 10
10.7351659073
 20
6.8408497676
 30
0.0
 10
10.5808653286
 20
6.8432185658
 30
0.0
 10
10.4286922525
 20
6.8465365169
 30
0.0
 10
10.2793351119
 20
6.8508055999
 30
0.0
 10
10.1334740744
 20
6.856027541
 30
0.0
 10
9.9917709428
 20
6.8622052977
 30
0.0
 10
9.8548684969
 20
6.8693418865
 30
0.0
 10
9.7233867625
 20
6.8774394932
 30
0.0
 10
9.5979192636
 20
6.8865027037
 30
0.0
 10
9.4790307263
 20
6.8965371873
 30
0.0
 10
9.3843488542
 20
6.9058631705
 30
0.0
 10
9.3123057477
 20
6.9138755212
 30
0.0
 10
9.2611610625
 20
6.9200325776
 30
0.0
 10
9.2120413259
 20
6.9264405082
 30
0.0
 10
9.1650002971
 20
6.9331013698
 30
0.0
 10
9.1200885589
 20
6.9400174254
 30
0.0
 10
9.0773555664
 20
6.9471911726
 30
0.0
 10
9.0368522825
 20
6.9546237487
 30
0.0
 10
9.0106456717
 20
6.9598975922
 30
0.0
 10
8.9979278637
 20
6.9625897519
 30
0.0
  0
SPLINE
  5
355
100
AcDbEntity
  8
0
100
AcDbSpline
 62
9
  6
CONTINUOUS
 70
0
 71
3
 72
13
 73
9
 74
0
 42
0.0000001
 43
0.0000001
 44
0.0000000001
 40
0.0
 40
0.0
 40
0.0
 40
0.0
 40
0.0823955586
 40
0.1816809644
 40
0.2956589617
 40
0.4221232758
 40
0.7020985347
 40
1.0
 40
1.0
 40
1.0
 40
1.0
 10
8.9979278637
 20
6.9625897519
 30
0.0
 10
8.9966468908
 20
6.9628626495
 30
0.0
 10
8.9938319185
 20
6.9635091484
 30
0.0
 10
8.9892726822
 20
6.9646501278
 30
0.0
 10
8.9840566632
 20
6.9660492948
 30
0.0
 10
8.9761031023
 20
6.9683246274
 30
0.0
 10
8.9654224098
 20
6.9716903762
 30
0.0
 10
8.9567801272
 20
6.9748146696
 30
0.0
 10
8.9523696284
 20
6.9765381897
 30
0.0
  0
SPLINE
  5
356
100
AcDbEntity
  8
0
100
AcDbSpline
 62
9
  6
CONTINUOUS
 70
0
 71
3
 72
35
 73
31
 74
0
 42
0.0000001
 43
0.0000001
 44
0.0000000001
 40
0.0
 40
0.0
 40
0.0
 40
0.0
 40
0.0624712632
 40
0.1249406748
 40
0.1561940406
 40
0.1874478329
 40
0.2187021133
 40
0.2499562823
 40
0.2812110292
 40
0.3124661285
 40
0.3437212159
 40
0.3749768903
 40
0.4062324114
 40
0.4374882977
 40
0.4687441092
 40
0.499999999
 40
0.531255889
 40
0.5625117004
 40
0.5937675867
 40
0.6250231079
 40
0.6562787822
 40
0.6875338698
 40
0.718788969
 40
0.7500437159
 40
0.7812978849
 40
0.8125521654
 40
0.8438059578
 40
0.8750593235
 40
0.9375287355
 40
1.0
 40
1.0
 40
1.0
 40
1.0
 10
8.9523696284
 20
6.9765381897
 30
0.0
 10
8.9341720172
 20
6.983549934
 30
0.0
 10
8.8986198642
 20
6.9998868375
 30
0.0
 10
8.8572498978
 20
7.0259900617
 30
0.0
 10
8.8265734966
 20
7.0501402814
 30
0.0
 10
8.8048988553
 20
7.0698493916
 30
0.0
 10
8.7847162708
 20
7.0910844731
 30
0.0
 10
8.7661688594
 20
7.1137639935
 30
0.0
 10
8.7493992439
 20
7.1377896161
 30
0.0
 10
8.7345449637
 20
7.1630459461
 30
0.0
 10
8.7217309992
 20
7.1893976938
 30
0.0
 10
8.711076434
 20
7.2166952321
 30
0.0
 10
8.7026773746
 20
7.2447699399
 30
0.0
 10
8.6966175837
 20
7.2734414608
 30
0.0
 10
8.6929571691
 20
7.3025173246
 30
0.0
 10
8.6917314102
 20
7.3317973393
 30
0.0
 10
8.6929571663
 20
7.3610773541
 30
0.0
 10
8.6966175812
 20
7.3901532179
 30
0.0
 10
8.702677375
 20
7.4188247383
 30
0.0
 10
8.7110764347
 20
7.4468994459
 30
0.0
 10
8.721730998
 20
7.474196985
 30
0.0
 10
8.7345449613
 20
7.5005487334
 30
0.0
 10
8.7493992418
 20
7.5258050632
 30
0.0
 10
8.7661688588
 20
7.5498306848
 30
0.0
 10
8.7847162709
 20
7.5725102046
 30
0.0
 10
8.8048988547
 20
7.5937452868
 30
0.0
 10
8.8265734952
 20
7.6134543978
 30
0.0
 10
8.8572498963
 20
7.6376046184
 30
0.0
 10
8.8986198655
 20
7.6637078367
 30
0.0
 10
8.9341720127
 20
7.6800447566
 30
0.0
 10
8.9523696284
 20
7.6870564904
 30
0.0
  0
SPLINE
  5
357
100
AcDbEntity
  8
0
100
AcDbSpline
 62
9
  6
CONTINUOUS
 70
0
 71
3
 72
35
 73
31
 74
0
 42
0.0000001
 43
0.0000001
 44
0.0000000001
 40
0.0
 40
0.0
 40
0.0
 40
0.0
 40
0.0624757473
 40
0.1249483693
 40
0.1562031526
 40
0.1874578304
 40
0.2187124822
 40
0.2499667498
 40
0.2812210921
 40
0.3124755592
 40
0.3437295881
 40
0.3749839093
 40
0.406237917
 40
0.4374920253
 40
0.4687460325
 40
0.4999999988
 40
0.5312539656
 40
0.5625079722
 40
0.5937620805
 40
0.6250160886
 40
0.6562704091
 40
0.6875244386
 40
0.7187789052
 40
0.7500332475
 40
0.7812875156
 40
0.8125421669
 40
0.8437968453
 40
0.8750516288
 40
0.937524252
 40
1.0
 40
1.0
 40
1.0
 40
1.0
 10
8.9447639489
 20
6.9584340963
 30
0.0
 10
8.9257161369
 20
6.9658291772
 30
0.0
 10
8.8885211322
 20
6.9830712089
 30
0.0
 10
8.8452996062
 20
7.0106188942
 30
0.0
 10
8.8132864593
 20
7.0360826476
 30
0.0
 10
8.7906867276
 20
7.056851415
 30
0.0
 10
8.7696618356
 20
7.0792129181
 30
0.0
 10
8.7503570977
 20
7.1030768416
 30
0.0
 10
8.7329164303
 20
7.1283364208
 30
0.0
 10
8.7174790903
 20
7.1548688858
 30
0.0
 10
8.7041717838
 20
7.1825323182
 30
0.0
 10
8.6931164589
 20
7.2111710257
 30
0.0
 10
8.6844069609
 20
7.2406087504
 30
0.0
 10
8.6781250633
 20
7.2706588116
 30
0.0
 10
8.6743304279
 20
7.3011233579
 30
0.0
 10
8.6730590605
 20
7.3317972928
 30
0.0
 10
8.674330393
 20
7.3624712294
 30
0.0
 10
8.678125022
 20
7.3929357776
 30
0.0
 10
8.6844069454
 20
7.4229858334
 30
0.0
 10
8.6931164426
 20
7.4524235572
 30
0.0
 10
8.7041717437
 20
7.4810622736
 30
0.0
 10
8.7174790243
 20
7.5087257185
 30
0.0
 10
8.732916358
 20
7.5352581883
 30
0.0
 10
8.7503570448
 20
7.5605177544
 30
0.0
 10
8.7696617896
 20
7.5843816714
 30
0.0
 10
8.7906866715
 20
7.6067431838
 30
0.0
 10
8.8132863876
 20
7.627511968
 30
0.0
 10
8.8452995189
 20
7.652975744
 30
0.0
 10
8.8885210604
 20
7.6805234019
 30
0.0
 10
8.9257160435
 20
7.6977654856
 30
0.0
 10
8.9447638649
 20
7.7051605429
 30
0.0
  0
SPLINE
  5
358
100
AcDbEntity
  8
0
100
AcDbSpline
 62
9
  6
CONTINUOUS
 70
0
 71
3
 72
10
 73
6
 74
0
 42
0.0000001
 43
0.0000001
 44
0.0000000001
 40
0.0
 40
0.0
 40
0.0
 40
0.0
 40
0.5286452311
 40
0.7763525654
 40
1.0
 40
1.0
 40
1.0
 40
1.0
 10
8.9443615452
 20
6.9570896249
 30
0.0
 10
8.95269411
 20
6.9533102874
 30
0.0
 10
8.9651621497
 20
6.948244258
 30
0.0
 10
8.9815862676
 20
6.9427745607
 30
0.0
 10
8.9894259336
 20
6.9405083364
 30
0.0
 10
8.9931652251
 20
6.9395079205
 30
0.0
  0
SPLINE
  5
359
100
AcDbEntity
  8
0
100
AcDbSpline
 62
9
  6
CONTINUOUS
 70
0
 71
3
 72
14
 73
10
 74
0
 42
0.0000001
 43
0.0000001
 44
0.0000000001
 40
0.0
 40
0.0
 40
0.0
 40
0.0
 40
0.0820235249
 40
0.1813421928
 40
0.295589235
 40
0.4223063905
 40
0.5589894126
 40
0.70266284
 40
1.0
 40
1.0
 40
1.0
 40
1.0
 10
9.0095048641
 20
6.9437729218
 30
0.0
 10
9.0077097257
 20
6.9440485267
 30
0.0
 10
9.0037480108
 20
6.9447039602
 30
0.0
 10
8.9973077302
 20
6.9458707682
 30
0.0
 10
8.9899109267
 20
6.9473060288
 30
0.0
 10
8.9817223888
 20
6.9490010817
 30
0.0
 10
8.972923911
 20
6.9509599288
 30
0.0
 10
8.9604836841
 20
6.9539372008
 30
0.0
 10
8.9510518526
 20
6.9564818815
 30
0.0
 10
8.9447399301
 20
6.9583538504
 30
0.0
  0
SPLINE
  5
35A
100
AcDbEntity
  8
0
100
AcDbSpline
 62
9
  6
CONTINUOUS
 70
0
 71
3
 72
25
 73
21
 74
0
 42
0.0000001
 43
0.0000001
 44
0.0000000001
 40
0.0
 40
0.0
 40
0.0
 40
0.0
 40
0.0189660142
 40
0.0390018909
 40
0.0600877378
 40
0.0822027641
 40
0.1294327575
 40
0.1805084265
 40
0.2352249328
 40
0.2933500459
 40
0.3546327574
 40
0.4188070832
 40
0.4855923884
 40
0.5546913073
 40
0.6257957124
 40
0.6985883432
 40
0.7727420544
 40
0.8479199962
 40
0.9237912641
 40
1.0
 40
1.0
 40
1.0
 40
1.0
 10
9.0091165274
 20
6.9353388436
 30
0.0
 10
9.0217923101
 20
6.9328298194
 30
0.0
 10
9.0479051141
 20
6.9279018214
 30
0.0
 10
9.0882454993
 20
6.9209230218
 30
0.0
 10
9.1307953811
 20
6.9141537308
 30
0.0
 10
9.191756019
 20
6.9052143257
 30
0.0
 10
9.2731269914
 20
6.8946803005
 30
0.0
 10
9.3767517204
 20
6.8831894237
 30
0.0
 10
9.4879298357
 20
6.8725907816
 30
0.0
 10
9.6061692226
 20
6.8629048164
 30
0.0
 10
9.7309400139
 20
6.8541355016
 30
0.0
 10
9.8616827619
 20
6.8462818898
 30
0.0
 10
9.9978097392
 20
6.8393498785
 30
0.0
 10
10.138706322
 20
6.8333412345
 30
0.0
 10
10.2837345396
 20
6.8282569344
 30
0.0
 10
10.4322373419
 20
6.8240971078
 30
0.0
 10
10.5835390519
 20
6.8208622359
 30
0.0
 10
10.7369553916
 20
6.8185517749
 30
0.0
 10
10.8917829339
 20
6.8171661657
 30
0.0
 10
10.9953966523
 20
6.8168585547
 30
0.0
 10
11.0473183379
 20
6.8168585566
 30
0.0
  0
SPLINE
  5
35B
100
AcDbEntity
  8
0
100
AcDbSpline
 62
9
  6
CONTINUOUS
 70
0
 71
3
 72
27
 73
23
 74
0
 42
0.0000001
 43
0.0000001
 44
0.0000000001
 40
0.0
 40
0.0
 40
0.0
 40
0.0
 40
0.0761866537
 40
0.1520360988
 40
0.2271926143
 40
0.301325578
 40
0.3740984303
 40
0.445184357
 40
0.5142665019
 40
0.5810372694
 40
0.6451999885
 40
0.7064749578
 40
0.7645974652
 40
0.8193183173
 40
0.8453304091
 40
0.8704086193
 40
0.8945285816
 40
0.9176672781
 40
0.9398035847
 40
0.9609171523
 40
0.9809886787
 40
1.0
 40
1.0
 40
1.0
 40
1.0
 10
11.0473183379
 20
6.8197176166
 30
0.0
 10
10.9954052621
 20
6.8197176121
 30
0.0
 10
10.8918085989
 20
6.8200338411
 30
0.0
 10
10.7370066865
 20
6.8214592377
 30
0.0
 10
10.5836159018
 20
6.823836941
 30
0.0
 10
10.4323396549
 20
6.8271673143
 30
0.0
 10
10.2838621405
 20
6.8314526501
 30
0.0
 10
10.1388589618
 20
6.8366945948
 30
0.0
 10
9.9979870954
 20
6.8428964934
 30
0.0
 10
9.8618844081
 20
6.8500617256
 30
0.0
 10
9.7311652945
 20
6.8581926822
 30
0.0
 10
9.6064174248
 20
6.8672942326
 30
0.0
 10
9.4882000111
 20
6.8773727795
 30
0.0
 10
9.3940455626
 20
6.8867412223
 30
0.0
 10
9.322396521
 20
6.8947912078
 30
0.0
 10
9.2715228187
 20
6.9009784474
 30
0.0
 10
9.2226546523
 20
6.9074190366
 30
0.0
 10
9.1758448354
 20
6.9141151636
 30
0.0
 10
9.1311445387
 20
6.9210691247
 30
0.0
 10
9.0886036275
 20
6.9282835499
 30
0.0
 10
9.048271647
 20
6.9357599974
 30
0.0
 10
9.0221727834
 20
6.9410651799
 30
0.0
 10
9.0095048882
 20
6.9437735732
 30
0.0
  0
ELLIPSE
  5
35C
100
AcDbEntity
  8
0
100
AcDbEllipse
 62
7
  6
CONTINUOUS
 10
11.0473183379
 20
5.3311192524
 30
0.0
 11
0.4724409449
 21
0.0
 31
0.0
 40
0.625
 41
0.0
 42
6.2831853072
  0
ENDSEC
  0
SECTION
  2
OBJECTS
  0
DICTIONARY
  5
C
100
AcDbDictionary
280
0
281
1
  3
ACAD_GROUP
350
D
  3
ACAD_MLINESTYLE
350
17
  3
ACAD_LAYOUT
350
1A
  3
ACAD_PLOTSETTINGS
350
19
  3
ACAD_PLOTSTYLENAME
350
E
  0
DICTIONARY
  5
D
102
{ACAD_REACTORS
330
C
102
}
100
AcDbDictionary
280
0
281
1
  0
ACDBDICTIONARYWDFLT
  5
E
102
{ACAD_REACTORS
330
C
102
}
100
AcDbDictionary
281
1
  3
Normal
350
F
100
AcDbDictionaryWithDefault
340
F
  0
DICTIONARY
  5
17
102
{ACAD_REACTORS
330
C
102
}
100
AcDbDictionary
280
0
281
1
  3
Standard
350
18
  0
DICTIONARY
  5
19
102
{ACAD_REACTORS
330
C
102
}
100
AcDbDictionary
281
1
  0
DICTIONARY
  5
1A
102
{ACAD_REACTORS
330
C
102
}
100
AcDbDictionary
281
1
  3
Model
350
35D
  3
Layout1
350
35E
  0
ACDBPLACEHOLDER
  5
F
102
{ACAD_REACTORS
330
E
102
}
  0
MLINESTYLE
  5
18
102
{ACAD_REACTORS
330
17
102
}
100
AcDbMlineStyle
  2
STANDARD
 70
0
  3

 62
256
 51
90.0
 52
90.0
 71
2
 49
0.5
 62
256
  6
BYLAYER
 49
-0.5
 62
256
  6
BYLAYER
  0
LAYOUT
  5
35D
102
{ACAD_REACTORS
330
1A
102
}
100
AcDbPlotSettings
  1

  2
none_device
  4
ANSI_C_(22.00_x_17.00_Inches)
  6

 40
0.0
 41
0.0
 42
0.0
 43
0.0
 44
558.8
 45
431.8
 46
0.0
 47
0.0
 48
0.0
 49
0.0
140
0.0
141
0.0
142
1.0
143
1.0
 70
1024
 72
0
 73
0
 74
0
  7

 75
0
147
1.0
148
0.0
149
0.0
100
AcDbLayout
  1
Model
 70
0
 71
0
 10
0.0
 20
0.0
 11
22.0
 21
17.0
 12
0.0
 22
0.0
 32
0.0
 14
0.0
 24
0.0
 34
0.0
 15
0.0
 25
0.0
 35
0.0
146
0.0
 13
0.0
 23
0.0
 33
0.0
 16
1.0
 26
0.0
 36
0.0
 17
0.0
 27
1.0
 37
0.0
 76
0
330
205
345
0
346
0
  0
LAYOUT
  5
35E
102
{ACAD_REACTORS
330
1A
102
}
100
AcDbPlotSettings
  1

  2
none_device
  4
ANSI_C_(22.00_x_17.00_Inches)
  6

 40
0.0
 41
0.0
 42
0.0
 43
0.0
 44
558.8
 45
431.8
 46
0.0
 47
0.0
 48
0.0
 49
0.0
140
0.0
141
0.0
142
1.0
143
1.0
 70
0
 72
0
 73
0
 74
0
  7

 75
0
147
1.0
148
0.0
149
0.0
100
AcDbLayout
  1
Layout1
 70
0
 71
1
 10
0.0
 20
0.0
 11
22.0
 21
17.0
 12
0.0
 22
0.0
 32
0.0
 14
0.0
 24
0.0
 34
0.0
 15
0.0
 25
0.0
 35
0.0
146
0.0
 13
0.0
 23
0.0
 33
0.0
 16
1.0
 26
0.0
 36
0.0
 17
0.0
 27
1.0
 37
0.0
 76
0
330
206
345
0
346
0
  0
ENDSEC
  0
EOF
