999
DXF file: 40-27_right.dxf
999
Pro/ENGINEER 2013150 by Parametric Technology Corporation
  0
SECTION
  2
HEADER
  9
$ACADVER
  1
AC1021
  9
$DWGCODEPAGE
  3
ANSI_1252
  9
$EXTMAX
 10
11.0
 20
8.5
 30
0.0
  9
$EXTMIN
 10
0.0
 20
0.0
 30
0.0
  9
$LIMMIN
 10
0.0
 20
0.0
  9
$LIMMAX
 10
11.0
 20
8.5
  9
$VIEWCTR
 10
5.5
 20
4.25
  9
$VIEWSIZE
 40
8.5
  9
$CLAYER
  8
0
  9
$LTSCALE
 40
0.605
  9
$CELTYPE
  6
BYLAYER
  9
$DIMSCALE
 40
1.0
  9
$DIMASZ
 40
0.1
  9
$DIMEXO
 40
0.0625
  9
$DIMDLI
 40
0.418
  9
$DIMEXE
 40
0.125
  9
$DIMCEN
 40
0.099
  9
$DIMLFAC
 40
1.0
  9
$DIMBLK
  1
_FILLED
  9
$DIMTXT
 40
0.08
  9
$DIMTOL
 70
1
  9
$DIMLIM
 70
0
  9
$DIMTFAC
 40
1.0
  9
$DIMTP
 40
0.001
  9
$DIMTM
 40
0.001
  9
$DIMGAP
 40
0.09
  9
$DIMDSEP
 70
46
  9
$PDMODE
 70
3
  9
$PDSIZE
 40
0.06
  9
$HANDSEED
  5
36A
  9
$TILEMODE
 70
1
  9
$MEASUREMENT
 70
0
  9
$INSUNITS
 70
1
  0
ENDSEC
  0
SECTION
  2
CLASSES
  0
CLASS
  1
ACDBDICTIONARYWDFLT
  2
AcDbDictionaryWithDefault
  3
AutoCAD 2000
 90
0
 91
1
280
0
281
0
  0
CLASS
  1
ACDBPLACEHOLDER
  2
AcDbPlaceHolder
  3
AutoCAD 2000
 90
0
 91
1
280
0
281
0
  0
CLASS
  1
LAYOUT
  2
AcDbLayout
  3
AutoCAD 2000
 90
0
 91
0
280
0
281
0
  0
ENDSEC
  0
SECTION
  2
TABLES
  0
TABLE
  2
VPORT
  5
8
100
AcDbSymbolTable
 70
2
  0
VPORT
  5
1F4
100
AcDbSymbolTableRecord
100
AcDbViewportTableRecord
  2
*ACTIVE
 70
0
 10
0.0
 20
0.0
 11
1.0
 21
1.0
 12
5.5
 22
4.25
 13
0.0
 23
0.0
 14
1.0
 24
1.0
 15
0.0
 25
0.0
 16
0.0
 26
0.0
 36
1.0
 17
0.0
 27
0.0
 37
0.0
 40
8.5
 41
1.2941176471
 42
50.0
 43
0.0
 44
0.0
 50
0.0
 51
0.0
 71
0
 72
100
 73
1
 74
1
 75
0
 76
0
 77
0
 78
0
  0
ENDTAB
  0
TABLE
  2
LTYPE
  5
5
100
AcDbSymbolTable
 70
6
  0
LTYPE
  5
14
100
AcDbSymbolTableRecord
100
AcDbLinetypeTableRecord
  2
BYBLOCK
 70
0
  3

 72
65
 73
0
 40
0.0
  0
LTYPE
  5
15
100
AcDbSymbolTableRecord
100
AcDbLinetypeTableRecord
  2
BYLAYER
 70
0
  3

 72
65
 73
0
 40
0.0
  0
LTYPE
  5
16
100
AcDbSymbolTableRecord
100
AcDbLinetypeTableRecord
  2
CONTINUOUS
 70
64
  3
Solid line
 72
65
 73
0
 40
0.0
  0
LTYPE
  5
1F5
100
AcDbSymbolTableRecord
100
AcDbLinetypeTableRecord
  2
CENTER
 70
64
  3
____ _ ____ _ ____ _ ____ _ ____ _ ____ _ ____
 72
65
 73
4
 40
0.6
 49
0.375
 74
0
 49
-0.075
 74
0
 49
0.075
 74
0
 49
-0.075
 74
0
  0
LTYPE
  5
1F6
100
AcDbSymbolTableRecord
100
AcDbLinetypeTableRecord
  2
HIDDEN
 70
64
  3
- - - - - - - - - - - - - - - - - - - -
 72
65
 73
2
 40
0.2
 49
0.1
 74
0
 49
-0.1
 74
0
  0
LTYPE
  5
1F7
100
AcDbSymbolTableRecord
100
AcDbLinetypeTableRecord
  2
PHANTOM
 70
64
  3
_____ _ _ _____ _ _ _____ _ _ _____
 72
65
 73
6
 40
0.8
 49
0.45
 74
0
 49
-0.05
 74
0
 49
0.1
 74
0
 49
-0.05
 74
0
 49
0.1
 74
0
 49
-0.05
 74
0
  0
LTYPE
  5
1F8
100
AcDbSymbolTableRecord
100
AcDbLinetypeTableRecord
  2
DOT
 70
64
  3
. . . . . . . . . . . . . . . . . . . .
 72
65
 73
2
 40
0.2
 49
0.1
 74
0
 49
-0.1
 74
0
  0
LTYPE
  5
1F9
100
AcDbSymbolTableRecord
100
AcDbLinetypeTableRecord
  2
DASHED
 70
64
  3
- - - - - - - - - - - - - - - - - - - -
 72
65
 73
2
 40
0.2
 49
0.1
 74
0
 49
-0.1
 74
0
  0
ENDTAB
  0
TABLE
  2
LAYER
  5
2
100
AcDbSymbolTable
 70
36
  0
LAYER
  5
10
100
AcDbSymbolTableRecord
100
AcDbLayerTableRecord
  2
0
 70
0
 62
7
  6
CONTINUOUS
370
-3
390
F
  0
LAYER
  5
1FA
100
AcDbSymbolTableRecord
100
AcDbLayerTableRecord
  2
DEFAULT_1
 70
0
 62
7
  6
CENTER
370
-3
390
F
  0
LAYER
  5
1FB
100
AcDbSymbolTableRecord
100
AcDbLayerTableRecord
  2
DEFAULT_2
 70
0
 62
8
  6
HIDDEN
370
-3
390
F
  0
LAYER
  5
1FC
100
AcDbSymbolTableRecord
100
AcDbLayerTableRecord
  2
DEFAULT_3
 70
0
 62
7
  6
PHANTOM
370
-3
390
F
  0
LAYER
  5
1FD
100
AcDbSymbolTableRecord
100
AcDbLayerTableRecord
  2
01_ALL_DTM_PLN
 70
0
 62
7
  6
CONTINUOUS
370
-3
390
F
  0
LAYER
  5
1FE
100
AcDbSymbolTableRecord
100
AcDbLayerTableRecord
  2
01__ASM_ALL_DTM_PLN
 70
0
 62
7
  6
CONTINUOUS
370
-3
390
F
  0
LAYER
  5
1FF
100
AcDbSymbolTableRecord
100
AcDbLayerTableRecord
  2
01__ASM_DEF_DTM_PLN
 70
0
 62
7
  6
CONTINUOUS
370
-3
390
F
  0
LAYER
  5
200
100
AcDbSymbolTableRecord
100
AcDbLayerTableRecord
  2
01___PRT_ALL_DTM_PLN
 70
0
 62
7
  6
CONTINUOUS
370
-3
390
F
  0
LAYER
  5
201
100
AcDbSymbolTableRecord
100
AcDbLayerTableRecord
  2
01___PRT_DEF_DTM_PLN
 70
0
 62
7
  6
CONTINUOUS
370
-3
390
F
  0
LAYER
  5
202
100
AcDbSymbolTableRecord
100
AcDbLayerTableRecord
  2
02_ALL_AXES
 70
0
 62
7
  6
CONTINUOUS
370
-3
390
F
  0
LAYER
  5
203
100
AcDbSymbolTableRecord
100
AcDbLayerTableRecord
  2
02__ASM_ALL_AXES
 70
0
 62
7
  6
CONTINUOUS
370
-3
390
F
  0
LAYER
  5
204
100
AcDbSymbolTableRecord
100
AcDbLayerTableRecord
  2
02___PRT_ALL_AXES
 70
0
 62
7
  6
CONTINUOUS
370
-3
390
F
  0
LAYER
  5
205
100
AcDbSymbolTableRecord
100
AcDbLayerTableRecord
  2
03_ALL_CURVES
 70
0
 62
7
  6
CONTINUOUS
370
-3
390
F
  0
LAYER
  5
206
100
AcDbSymbolTableRecord
100
AcDbLayerTableRecord
  2
03__ASM_ALL_CURVES
 70
0
 62
7
  6
CONTINUOUS
370
-3
390
F
  0
LAYER
  5
207
100
AcDbSymbolTableRecord
100
AcDbLayerTableRecord
  2
03___PRT_ALL_CURVES
 70
0
 62
7
  6
CONTINUOUS
370
-3
390
F
  0
LAYER
  5
208
100
AcDbSymbolTableRecord
100
AcDbLayerTableRecord
  2
04_ALL_DTM_PNT
 70
0
 62
7
  6
CONTINUOUS
370
-3
390
F
  0
LAYER
  5
209
100
AcDbSymbolTableRecord
100
AcDbLayerTableRecord
  2
04__ASM_ALL_DTM_PNT
 70
0
 62
7
  6
CONTINUOUS
370
-3
390
F
  0
LAYER
  5
20A
100
AcDbSymbolTableRecord
100
AcDbLayerTableRecord
  2
04___PRT_ALL_DTM_PNT
 70
0
 62
7
  6
CONTINUOUS
370
-3
390
F
  0
LAYER
  5
20B
100
AcDbSymbolTableRecord
100
AcDbLayerTableRecord
  2
05_ALL_DTM_CSYS
 70
0
 62
7
  6
CONTINUOUS
370
-3
390
F
  0
LAYER
  5
20C
100
AcDbSymbolTableRecord
100
AcDbLayerTableRecord
  2
05__ASM_ALL_DTM_CSYS
 70
0
 62
7
  6
CONTINUOUS
370
-3
390
F
  0
LAYER
  5
20D
100
AcDbSymbolTableRecord
100
AcDbLayerTableRecord
  2
05__ASM_DEF_DTM_CSYS
 70
0
 62
7
  6
CONTINUOUS
370
-3
390
F
  0
LAYER
  5
20E
100
AcDbSymbolTableRecord
100
AcDbLayerTableRecord
  2
05___PRT_ALL_DTM_CSYS
 70
0
 62
7
  6
CONTINUOUS
370
-3
390
F
  0
LAYER
  5
20F
100
AcDbSymbolTableRecord
100
AcDbLayerTableRecord
  2
05___PRT_DEF_DTM_CSYS
 70
0
 62
7
  6
CONTINUOUS
370
-3
390
F
  0
LAYER
  5
210
100
AcDbSymbolTableRecord
100
AcDbLayerTableRecord
  2
06_ALL_SURFS
 70
0
 62
7
  6
CONTINUOUS
370
-3
390
F
  0
LAYER
  5
211
100
AcDbSymbolTableRecord
100
AcDbLayerTableRecord
  2
06__ASM_ALL_SURFS
 70
0
 62
7
  6
CONTINUOUS
370
-3
390
F
  0
LAYER
  5
212
100
AcDbSymbolTableRecord
100
AcDbLayerTableRecord
  2
06___PRT_ALL_SURFS
 70
0
 62
7
  6
CONTINUOUS
370
-3
390
F
  0
LAYER
  5
213
100
AcDbSymbolTableRecord
100
AcDbLayerTableRecord
  2
07__ASM_ALL_SKELETONS
 70
0
 62
7
  6
CONTINUOUS
370
-3
390
F
  0
LAYER
  5
214
100
AcDbSymbolTableRecord
100
AcDbLayerTableRecord
  2
2-184_ASSY_PLANES
 70
0
 62
7
  6
CONTINUOUS
370
-3
390
F
  0
LAYER
  5
215
100
AcDbSymbolTableRecord
100
AcDbLayerTableRecord
  2
ALL_ASSEMBLY_MEMBERS
 70
0
 62
7
  6
CONTINUOUS
370
-3
390
F
  0
LAYER
  5
216
100
AcDbSymbolTableRecord
100
AcDbLayerTableRecord
  2
ALL_FEATURES
 70
0
 62
7
  6
CONTINUOUS
370
-3
390
F
  0
LAYER
  5
217
100
AcDbSymbolTableRecord
100
AcDbLayerTableRecord
  2
AXES_FEATURES
 70
0
 62
7
  6
CONTINUOUS
370
-3
390
F
  0
LAYER
  5
218
100
AcDbSymbolTableRecord
100
AcDbLayerTableRecord
  2
CHAMFER_FEATURES
 70
0
 62
7
  6
CONTINUOUS
370
-3
390
F
  0
LAYER
  5
219
100
AcDbSymbolTableRecord
100
AcDbLayerTableRecord
  2
CUT_FEATURES
 70
0
 62
7
  6
CONTINUOUS
370
-3
390
F
  0
LAYER
  5
21A
100
AcDbSymbolTableRecord
100
AcDbLayerTableRecord
  2
DATUM_PLANES
 70
0
 62
7
  6
CONTINUOUS
370
-3
390
F
  0
LAYER
  5
21B
100
AcDbSymbolTableRecord
100
AcDbLayerTableRecord
  2
DEFAULT_COORDINATE_SYSTEM
 70
0
 62
7
  6
CONTINUOUS
370
-3
390
F
  0
LAYER
  5
21C
100
AcDbSymbolTableRecord
100
AcDbLayerTableRecord
  2
DEFAULT_DATUM_AXES
 70
0
 62
7
  6
CONTINUOUS
370
-3
390
F
  0
LAYER
  5
21D
100
AcDbSymbolTableRecord
100
AcDbLayerTableRecord
  2
DEFAULT_DATUM_CURVES
 70
0
 62
7
  6
CONTINUOUS
370
-3
390
F
  0
LAYER
  5
21E
100
AcDbSymbolTableRecord
100
AcDbLayerTableRecord
  2
DEFAULT_DATUM_PLANES
 70
0
 62
7
  6
CONTINUOUS
370
-3
390
F
  0
LAYER
  5
21F
100
AcDbSymbolTableRecord
100
AcDbLayerTableRecord
  2
DEFAULT_SURFACES
 70
0
 62
7
  6
CONTINUOUS
370
-3
390
F
  0
LAYER
  5
220
100
AcDbSymbolTableRecord
100
AcDbLayerTableRecord
  2
DIMENSIONS
 70
0
 62
7
  6
CONTINUOUS
370
-3
390
F
  0
LAYER
  5
221
100
AcDbSymbolTableRecord
100
AcDbLayerTableRecord
  2
PART_REFERENCE_DIMENSIONS
 70
0
 62
7
  6
CONTINUOUS
370
-3
390
F
  0
LAYER
  5
222
100
AcDbSymbolTableRecord
100
AcDbLayerTableRecord
  2
PLATED_SURFACE
 70
0
 62
7
  6
CONTINUOUS
370
-3
390
F
  0
LAYER
  5
223
100
AcDbSymbolTableRecord
100
AcDbLayerTableRecord
  2
PLATED_SURFACES
 70
0
 62
7
  6
CONTINUOUS
370
-3
390
F
  0
LAYER
  5
224
100
AcDbSymbolTableRecord
100
AcDbLayerTableRecord
  2
PROTRUSION_FEATURES
 70
0
 62
7
  6
CONTINUOUS
370
-3
390
F
  0
LAYER
  5
225
100
AcDbSymbolTableRecord
100
AcDbLayerTableRecord
  2
QUILTS
 70
0
 62
7
  6
CONTINUOUS
370
-3
390
F
  0
LAYER
  5
226
100
AcDbSymbolTableRecord
100
AcDbLayerTableRecord
  2
REFERENCE_DIMENSIONS
 70
0
 62
7
  6
CONTINUOUS
370
-3
390
F
  0
LAYER
  5
227
100
AcDbSymbolTableRecord
100
AcDbLayerTableRecord
  2
ROUND_FEATURES
 70
0
 62
7
  6
CONTINUOUS
370
-3
390
F
  0
LAYER
  5
228
100
AcDbSymbolTableRecord
100
AcDbLayerTableRecord
  2
SHELL_FEATURES
 70
0
 62
7
  6
CONTINUOUS
370
-3
390
F
  0
LAYER
  5
229
100
AcDbSymbolTableRecord
100
AcDbLayerTableRecord
  2
XSEC_DATUMS
 70
0
 62
7
  6
CONTINUOUS
370
-3
390
F
  0
ENDTAB
  0
TABLE
  2
STYLE
  5
3
100
AcDbSymbolTable
 70
1
  0
STYLE
  5
11
100
AcDbSymbolTableRecord
100
AcDbTextStyleTableRecord
  2
STANDARD
 70
0
 40
0.0
 41
0.8
 50
0.0
 71
0
 42
0.2
  3
txt
  4

  0
STYLE
  5
22A
100
AcDbSymbolTableRecord
100
AcDbTextStyleTableRecord
  2
TEXTSTYLE_1
 70
0
 40
0.0
 41
0.8
 50
0.0
 71
0
 42
0.2
  3
gdt
  4

  0
ENDTAB
  0
TABLE
  2
VIEW
  5
6
100
AcDbSymbolTable
 70
0
  0
ENDTAB
  0
TABLE
  2
UCS
  5
7
100
AcDbSymbolTable
 70
0
  0
ENDTAB
  0
TABLE
  2
APPID
  5
9
100
AcDbSymbolTable
 70
1
  0
APPID
  5
22B
100
AcDbSymbolTableRecord
100
AcDbRegAppTableRecord
  2
ACAD
 70
0
  0
ENDTAB
  0
TABLE
  2
BLOCK_RECORD
  5
1
100
AcDbSymbolTable
 70
0
  0
BLOCK_RECORD
  5
22C
100
AcDbSymbolTableRecord
100
AcDbBlockTableRecord
  2
*Model_Space
  0
BLOCK_RECORD
  5
22D
100
AcDbSymbolTableRecord
100
AcDbBlockTableRecord
  2
*Paper_Space
  0
ENDTAB
  0
TABLE
  2
DIMSTYLE
  5
A
100
AcDbSymbolTable
 70
1
100
AcDbDimStyleTable
 71
0
  0
DIMSTYLE
105
22E
100
AcDbSymbolTableRecord
100
AcDbDimStyleTableRecord
  2
STANDARD
 70
0
  3

  4

 40
1.0
 41
0.1
 42
0.0625
 43
0.38
 44
0.125
 45
0.0
 46
0.0
 47
0.001
 48
0.001
140
0.08
141
0.09
142
0.0
143
25.4
144
1.0
145
0.0
146
1.0
147
0.09
 71
1.0
 72
0.0
 73
1
 74
1
 75
0
 76
0
 77
0
 78
4
170
0
171
2
172
0
173
0
174
0
175
0
176
0
177
0
178
0
270
2
271
3
272
3
273
2
274
2
275
0
280
0
281
0
282
0
283
1
284
4
285
0
286
0
287
3
288
0
340
11
278
46
  0
ENDTAB
  0
ENDSEC
  0
SECTION
  2
BLOCKS
  0
BLOCK
  5
20
100
AcDbEntity
  8
0
100
AcDbBlockBegin
  2
*Model_Space
 70
0
 10
0.0
 20
0.0
 30
0.0
  3
*Model_Space
  1

  0
ENDBLK
  5
21
100
AcDbEntity
  8
0
100
AcDbBlockEnd
  0
BLOCK
  5
1C
100
AcDbEntity
  8
0
100
AcDbBlockBegin
  2
*Paper_Space
 70
0
 10
0.0
 20
0.0
 30
0.0
  3
*Paper_Space
  1

  0
ENDBLK
  5
1D
100
AcDbEntity
  8
0
100
AcDbBlockEnd
  0
ENDSEC
  0
SECTION
  2
ENTITIES
  0
LINE
  5
22F
100
AcDbEntity
  8
0
100
AcDbLine
 62
7
  6
CONTINUOUS
 10
0.0
 20
0.0
 11
0.0
 21
8.5
  0
LINE
  5
230
100
AcDbEntity
  8
0
100
AcDbLine
 62
7
  6
CONTINUOUS
 10
0.0
 20
0.0
 11
11.0
 21
0.0
  0
LINE
  5
231
100
AcDbEntity
  8
0
100
AcDbLine
 62
7
  6
CONTINUOUS
 10
0.0
 20
8.5
 11
11.0
 21
8.5
  0
LINE
  5
232
100
AcDbEntity
  8
0
100
AcDbLine
 62
7
  6
CONTINUOUS
 10
11.0
 20
0.0
 11
11.0
 21
8.5
  0
LINE
  5
233
100
AcDbEntity
  8
0
100
AcDbLine
 62
7
  6
CONTINUOUS
 10
3.4492963708
 20
3.0157842451
 11
3.4698098166
 21
2.9865823241
  0
LINE
  5
234
100
AcDbEntity
  8
0
100
AcDbLine
 62
9
  6
CONTINUOUS
 10
3.3714353264
 20
3.1488562073
 11
3.568585866
 21
2.8682025056
  0
LINE
  5
235
100
AcDbEntity
  8
0
100
AcDbLine
 62
9
  6
CONTINUOUS
 10
3.3411561751
 20
3.2047960627
 11
3.6109401304
 21
2.8207450434
  0
LINE
  5
236
100
AcDbEntity
  8
0
100
AcDbLine
 62
9
  6
CONTINUOUS
 10
3.6369502624
 20
2.8255788065
 11
3.3545252651
 21
3.2276249844
  0
LINE
  5
237
100
AcDbEntity
  8
0
100
AcDbLine
 62
9
  6
CONTINUOUS
 10
3.6562621101
 20
2.8516015144
 11
3.3855554754
 21
3.2369660142
  0
LINE
  5
238
100
AcDbEntity
  8
0
100
AcDbLine
 62
9
  6
CONTINUOUS
 10
3.7104090229
 20
2.8939525136
 11
3.4437611177
 21
3.2735392079
  0
LINE
  5
239
100
AcDbEntity
  8
0
100
AcDbLine
 62
9
  6
CONTINUOUS
 10
3.8965468997
 20
3.0810250146
 11
3.6828772559
 21
3.3851944913
  0
LINE
  5
23A
100
AcDbEntity
  8
0
100
AcDbLine
 62
9
  6
CONTINUOUS
 10
3.7454653533
 20
3.4109095396
 11
3.9419656769
 21
3.1311814531
  0
LINE
  5
23B
100
AcDbEntity
  8
0
100
AcDbLine
 62
9
  6
CONTINUOUS
 10
3.7694094329
 20
3.4325032076
 11
3.9704004901
 21
3.1463823362
  0
LINE
  5
23C
100
AcDbEntity
  8
0
100
AcDbLine
 62
7
  6
CONTINUOUS
 10
3.9812618342
 20
3.1721358257
 11
3.7973202283
 21
3.4339859463
  0
LINE
  5
23D
100
AcDbEntity
  8
0
100
AcDbLine
 62
7
  6
CONTINUOUS
 10
4.1808181702
 20
4.6206517506
 11
4.1808181702
 21
4.6000799269
  0
LINE
  5
23E
100
AcDbEntity
  8
0
100
AcDbLine
 62
9
  6
CONTINUOUS
 10
4.1954680878
 20
4.7823775416
 11
4.1954680878
 21
4.4383541359
  0
LINE
  5
23F
100
AcDbEntity
  8
0
100
AcDbLine
 62
9
  6
CONTINUOUS
 10
4.2037515578
 20
4.8451591393
 11
4.2037515578
 21
4.3755725382
  0
LINE
  5
240
100
AcDbEntity
  8
0
100
AcDbLine
 62
7
  6
CONTINUOUS
 10
4.5556443988
 20
4.6466479302
 11
4.5536509934
 21
4.644337595
  0
LINE
  5
241
100
AcDbEntity
  8
0
100
AcDbLine
 62
9
  6
CONTINUOUS
 10
4.2276474098
 20
4.3646210586
 11
4.2276474098
 21
4.8561106189
  0
LINE
  5
242
100
AcDbEntity
  8
0
100
AcDbLine
 62
9
  6
CONTINUOUS
 10
4.2585170563
 20
4.3748944286
 11
4.2585170563
 21
4.845837249
  0
LINE
  5
243
100
AcDbEntity
  8
0
100
AcDbLine
 62
7
  6
CONTINUOUS
 10
4.3058769499
 20
4.6103658388
 11
4.3058769499
 21
4.3953658388
  0
LINE
  5
244
100
AcDbEntity
  8
0
100
AcDbLine
 62
9
  6
CONTINUOUS
 10
4.32330666
 20
4.8427352346
 11
4.32330666
 21
4.6833633231
  0
LWPOLYLINE
  5
245
100
AcDbEntity
  8
0
100
AcDbPolyline
 62
7
  6
CONTINUOUS
 90
21
 70
0
 10
4.2037515578
 20
4.3755725382
 10
4.2038592193
 20
4.3746307499
 10
4.2041804653
 20
4.3730388971
 10
4.2046696932
 20
4.3714802435
 10
4.2053194545
 20
4.3699752781
 10
4.2061234024
 20
4.3685414691
 10
4.2070779018
 20
4.3671942013
 10
4.2081792777
 20
4.3659524886
 10
4.2094196902
 20
4.3648410031
 10
4.2107888636
 20
4.363883936
 10
4.2122703549
 20
4.3630937192
 10
4.2138443027
 20
4.3624740366
 10
4.2154894122
 20
4.3620292436
 10
4.2171818238
 20
4.361764118
 10
4.2189004215
 20
4.3616828007
 10
4.220627246
 20
4.3617906646
 10
4.2223410765
 20
4.3620950756
 10
4.2240132193
 20
4.3626028027
 10
4.2256136142
 20
4.3633184537
 10
4.2271193407
 20
4.3642355624
 10
4.2276474253
 20
4.3646210704
  0
LINE
  5
246
100
AcDbEntity
  8
0
100
AcDbLine
 62
7
  6
CONTINUOUS
 10
4.5536509934
 20
4.644337595
 11
4.5525880211
 21
4.6387591167
  0
LINE
  5
247
100
AcDbEntity
  8
0
100
AcDbLine
 62
7
  6
CONTINUOUS
 10
4.5558769499
 20
4.5948882624
 11
4.560538392
 21
4.6193515104
  0
LINE
  5
248
100
AcDbEntity
  8
0
100
AcDbLine
 62
7
  6
CONTINUOUS
 10
4.5600261935
 20
4.5957946452
 11
4.5563803915
 21
4.5766614766
  0
LINE
  5
249
100
AcDbEntity
  8
0
100
AcDbLine
 62
7
  6
CONTINUOUS
 10
4.5558769499
 20
4.6103658388
 11
4.5558769499
 21
4.3953658388
  0
LINE
  5
24A
100
AcDbEntity
  8
0
100
AcDbLine
 62
9
  6
CONTINUOUS
 10
4.5923718634
 20
4.4243737054
 11
4.5923718634
 21
4.7963579721
  0
LINE
  5
24B
100
AcDbEntity
  8
0
100
AcDbLine
 62
9
  6
CONTINUOUS
 10
4.6526822475
 20
4.7827926636
 11
4.6526822475
 21
4.4379390141
  0
LINE
  5
24C
100
AcDbEntity
  8
0
100
AcDbLine
 62
9
  6
CONTINUOUS
 10
4.6846869013
 20
4.7866967087
 11
4.6846869013
 21
4.434034969
  0
LWPOLYLINE
  5
24D
100
AcDbEntity
  8
0
100
AcDbPolyline
 62
7
  6
CONTINUOUS
 90
21
 70
0
 10
4.7083769499
 20
4.7718658388
 10
4.7082891022
 20
4.773529598
 10
4.7080284576
 20
4.7751846683
 10
4.7075994963
 20
4.7768142692
 10
4.7070066867
 20
4.7784016036
 10
4.70625497
 20
4.7799284902
 10
4.7053501936
 20
4.7813755729
 10
4.7042976054
 20
4.7827248451
 10
4.7031032406
 20
4.7839571909
 10
4.7017794064
 20
4.7850558491
 10
4.7003429877
 20
4.7860120218
 10
4.6988111491
 20
4.7868175736
 10
4.6972034865
 20
4.7874634139
 10
4.6955378025
 20
4.787941741
 10
4.6938322456
 20
4.7882446283
 10
4.6921074907
 20
4.7883641389
 10
4.69038183
 20
4.7882948496
 10
4.6886731677
 20
4.7880410876
 10
4.6870015084
 20
4.7876113793
 10
4.6853851647
 20
4.7870144765
 10
4.6846868841
 20
4.7866967003
  0
LINE
  5
24E
100
AcDbEntity
  8
0
100
AcDbLine
 62
7
  6
CONTINUOUS
 10
4.7083769499
 20
4.4488702538
 11
4.7083769499
 21
4.7718614237
  0
LINE
  5
24F
100
AcDbEntity
  8
0
100
AcDbLine
 62
7
  6
CONTINUOUS
 10
3.9419656769
 20
3.1311814531
 11
3.8965468997
 21
3.0810250146
  0
LINE
  5
250
100
AcDbEntity
  8
0
100
AcDbLine
 62
7
  6
CONTINUOUS
 10
3.7454653533
 20
3.4109095396
 11
3.6828772559
 21
3.3851944913
  0
LINE
  5
251
100
AcDbEntity
  8
0
100
AcDbLine
 62
7
  6
CONTINUOUS
 10
4.9783769499
 20
4.4612358388
 11
4.9783769499
 21
4.7594958388
  0
LINE
  5
252
100
AcDbEntity
  8
0
100
AcDbLine
 62
9
  6
CONTINUOUS
 10
4.9969969499
 20
4.4426158388
 11
4.9969969499
 21
4.7781158388
  0
LINE
  5
253
100
AcDbEntity
  8
ALL_FEATURES
100
AcDbLine
 62
7
  6
CONTINUOUS
 10
5.424011748
 20
4.3771779062
 11
5.5612016272
 21
4.3853289276
  0
LINE
  5
254
100
AcDbEntity
  8
ALL_FEATURES
100
AcDbLine
 62
7
  6
CONTINUOUS
 10
5.5988883643
 20
4.3628658388
 11
5.7383769499
 21
4.3628658388
  0
LINE
  5
255
100
AcDbEntity
  8
0
100
AcDbLine
 62
7
  6
CONTINUOUS
 10
5.0721839218
 20
4.821750785
 11
5.0721839218
 21
4.3989808925
  0
LINE
  5
256
100
AcDbEntity
  8
0
100
AcDbLine
 62
9
  6
CONTINUOUS
 10
5.1243341752
 20
4.3787376867
 11
5.1243341752
 21
4.8419939908
  0
LINE
  5
257
100
AcDbEntity
  8
0
100
AcDbLine
 62
9
  6
CONTINUOUS
 10
5.1523426584
 20
4.3880426936
 11
5.1523426584
 21
4.8326889839
  0
LINE
  5
258
100
AcDbEntity
  8
0
100
AcDbLine
 62
7
  6
CONTINUOUS
 10
4.6526822475
 20
4.4379390139
 11
4.5923718634
 21
4.4243737054
  0
LINE
  5
259
100
AcDbEntity
  8
0
100
AcDbLine
 62
9
  6
CONTINUOUS
 10
4.5558769499
 20
4.3953658388
 11
4.3058769499
 21
4.3953658388
  0
LINE
  5
25A
100
AcDbEntity
  8
ALL_FEATURES
100
AcDbLine
 62
7
  6
CONTINUOUS
 10
5.0721839218
 20
4.4426158388
 11
4.9969969499
 21
4.4426158388
  0
LINE
  5
25B
100
AcDbEntity
  8
0
100
AcDbLine
 62
7
  6
CONTINUOUS
 10
4.9969969499
 20
4.4426158388
 11
5.0721839218
 21
4.4426158388
  0
LINE
  5
25C
100
AcDbEntity
  8
0
100
AcDbLine
 62
7
  6
CONTINUOUS
 10
5.0817744542
 20
4.4510256008
 11
5.122544233
 21
4.4510256008
  0
LINE
  5
25D
100
AcDbEntity
  8
0
100
AcDbLine
 62
7
  6
CONTINUOUS
 10
5.0817744542
 20
4.4630400162
 11
5.122544233
 21
4.4630400162
  0
LINE
  5
25E
100
AcDbEntity
  8
0
100
AcDbLine
 62
7
  6
CONTINUOUS
 10
5.0817744542
 20
4.4757413327
 11
5.122544233
 21
4.4757413327
  0
LINE
  5
25F
100
AcDbEntity
  8
ALL_FEATURES
100
AcDbLine
 62
7
  6
CONTINUOUS
 10
4.9783769499
 20
4.4778658388
 11
4.7083769499
 21
4.4778658388
  0
LINE
  5
260
100
AcDbEntity
  8
0
100
AcDbLine
 62
7
  6
CONTINUOUS
 10
4.7083769499
 20
4.4778658388
 11
4.9783769499
 21
4.4778658388
  0
LWPOLYLINE
  5
261
100
AcDbEntity
  8
0
100
AcDbPolyline
 62
7
  6
CONTINUOUS
 90
21
 70
0
 10
4.6846868841
 20
4.4340349772
 10
4.6853851647
 20
4.433717201
 10
4.6870015084
 20
4.4331202982
 10
4.6886731677
 20
4.4326905899
 10
4.69038183
 20
4.4324368279
 10
4.6921074907
 20
4.4323675386
 10
4.6938322456
 20
4.4324870492
 10
4.6955378025
 20
4.4327899366
 10
4.6972034865
 20
4.4332682636
 10
4.6988111491
 20
4.4339141039
 10
4.7003429877
 20
4.4347196557
 10
4.7017794064
 20
4.4356758285
 10
4.7031032406
 20
4.4367744866
 10
4.7042976054
 20
4.4380068324
 10
4.7053501936
 20
4.4393561046
 10
4.70625497
 20
4.4408031873
 10
4.7070066867
 20
4.4423300739
 10
4.7075994963
 20
4.4439174083
 10
4.7080284576
 20
4.4455470092
 10
4.7082891022
 20
4.4472020795
 10
4.7083769499
 20
4.4488658388
  0
LWPOLYLINE
  5
262
100
AcDbEntity
  8
0
100
AcDbPolyline
 62
7
  6
CONTINUOUS
 90
21
 70
0
 10
4.2276474253
 20
4.8561106071
 10
4.2271193407
 20
4.8564961151
 10
4.2256136142
 20
4.8574132238
 10
4.2240132193
 20
4.8581288748
 10
4.2223410765
 20
4.8586366019
 10
4.220627246
 20
4.8589410129
 10
4.2189004215
 20
4.8590488768
 10
4.2171818238
 20
4.8589675595
 10
4.2154894122
 20
4.8587024339
 10
4.2138443027
 20
4.8582576409
 10
4.2122703549
 20
4.8576379583
 10
4.2107888636
 20
4.8568477415
 10
4.2094196902
 20
4.8558906744
 10
4.2081792777
 20
4.8547791889
 10
4.2070779018
 20
4.8535374762
 10
4.2061234024
 20
4.8521902084
 10
4.2053194545
 20
4.8507563995
 10
4.2046696932
 20
4.849251434
 10
4.2041804653
 20
4.8476927804
 10
4.2038592193
 20
4.8461009276
 10
4.2037515578
 20
4.8451591393
  0
LINE
  5
263
100
AcDbEntity
  8
0
100
AcDbLine
 62
7
  6
CONTINUOUS
 10
5.0817744542
 20
4.4890703307
 11
5.122544233
 21
4.4890703307
  0
LINE
  5
264
100
AcDbEntity
  8
0
100
AcDbLine
 62
7
  6
CONTINUOUS
 10
5.0817744542
 20
4.5029648644
 11
5.122544233
 21
4.5029648644
  0
LINE
  5
265
100
AcDbEntity
  8
0
100
AcDbLine
 62
7
  6
CONTINUOUS
 10
5.0817744542
 20
4.5173601511
 11
5.122544233
 21
4.5173601511
  0
LINE
  5
266
100
AcDbEntity
  8
0
100
AcDbLine
 62
7
  6
CONTINUOUS
 10
5.0817744542
 20
4.5321890731
 11
5.122544233
 21
4.5321890731
  0
LINE
  5
267
100
AcDbEntity
  8
0
100
AcDbLine
 62
7
  6
CONTINUOUS
 10
5.0817744542
 20
4.5473824914
 11
5.122544233
 21
4.5473824914
  0
LINE
  5
268
100
AcDbEntity
  8
0
100
AcDbLine
 62
7
  6
CONTINUOUS
 10
5.0817744542
 20
4.5628695671
 11
5.122544233
 21
4.5628695671
  0
LINE
  5
269
100
AcDbEntity
  8
0
100
AcDbLine
 62
7
  6
CONTINUOUS
 10
5.0817744542
 20
4.5785780923
 11
5.122544233
 21
4.5785780923
  0
LINE
  5
26A
100
AcDbEntity
  8
0
100
AcDbLine
 62
7
  6
CONTINUOUS
 10
5.0817744542
 20
4.5944348266
 11
5.122544233
 21
4.5944348266
  0
LINE
  5
26B
100
AcDbEntity
  8
0
100
AcDbLine
 62
7
  6
CONTINUOUS
 10
4.5561004242
 20
4.5756799976
 11
4.5558769499
 21
4.5757225803
  0
LINE
  5
26C
100
AcDbEntity
  8
0
100
AcDbLine
 62
9
  6
CONTINUOUS
 10
5.3932309414
 20
4.8460030994
 11
5.3932309414
 21
4.382177813
  0
LINE
  5
26D
100
AcDbEntity
  8
ALL_FEATURES
100
AcDbLine
 62
7
  6
CONTINUOUS
 10
5.8914451666
 20
5.109428974
 11
5.8754324835
 21
5.0754798506
  0
LINE
  5
26E
100
AcDbEntity
  8
ALL_FEATURES
100
AcDbLine
 62
7
  6
CONTINUOUS
 10
5.7383769499
 20
4.6103658388
 11
5.609554759
 21
4.6103658388
  0
LINE
  5
26F
100
AcDbEntity
  8
0
100
AcDbLine
 62
9
  6
CONTINUOUS
 10
4.1954681031
 20
4.6103658388
 11
4.2585170564
 21
4.6103658388
  0
LINE
  5
270
100
AcDbEntity
  8
0
100
AcDbLine
 62
9
  6
CONTINUOUS
 10
4.6526822383
 20
4.6103658388
 11
4.7083769499
 21
4.6103658388
  0
LINE
  5
271
100
AcDbEntity
  8
0
100
AcDbLine
 62
7
  6
CONTINUOUS
 10
5.0817744542
 20
4.6103658388
 11
5.122544233
 21
4.6103658388
  0
LINE
  5
272
100
AcDbEntity
  8
0
100
AcDbLine
 62
7
  6
CONTINUOUS
 10
5.0817744542
 20
4.6262968509
 11
5.122544233
 21
4.6262968509
  0
LINE
  5
273
100
AcDbEntity
  8
0
100
AcDbLine
 62
7
  6
CONTINUOUS
 10
5.0817744542
 20
4.6421535852
 11
5.122544233
 21
4.6421535852
  0
LINE
  5
274
100
AcDbEntity
  8
0
100
AcDbLine
 62
7
  6
CONTINUOUS
 10
5.0817744542
 20
4.6578621105
 11
5.122544233
 21
4.6578621105
  0
LINE
  5
275
100
AcDbEntity
  8
0
100
AcDbLine
 62
7
  6
CONTINUOUS
 10
5.0817744542
 20
4.6733491861
 11
5.122544233
 21
4.6733491861
  0
LINE
  5
276
100
AcDbEntity
  8
0
100
AcDbLine
 62
7
  6
CONTINUOUS
 10
5.0817744542
 20
4.6885426044
 11
5.122544233
 21
4.6885426044
  0
LINE
  5
277
100
AcDbEntity
  8
0
100
AcDbLine
 62
7
  6
CONTINUOUS
 10
5.0817744542
 20
4.7033715264
 11
5.122544233
 21
4.7033715264
  0
LINE
  5
278
100
AcDbEntity
  8
0
100
AcDbLine
 62
7
  6
CONTINUOUS
 10
5.0817744542
 20
4.7177668131
 11
5.122544233
 21
4.7177668131
  0
LINE
  5
279
100
AcDbEntity
  8
0
100
AcDbLine
 62
7
  6
CONTINUOUS
 10
4.5536509934
 20
4.644337595
 11
4.5509556554
 21
4.6448511884
  0
LINE
  5
27A
100
AcDbEntity
  8
0
100
AcDbLine
 62
7
  6
CONTINUOUS
 10
5.0817744542
 20
4.7316613468
 11
5.122544233
 21
4.7316613468
  0
LINE
  5
27B
100
AcDbEntity
  8
ALL_FEATURES
100
AcDbLine
 62
7
  6
CONTINUOUS
 10
4.9783769499
 20
4.7428658388
 11
4.7083769499
 21
4.7428658388
  0
LINE
  5
27C
100
AcDbEntity
  8
0
100
AcDbLine
 62
7
  6
CONTINUOUS
 10
4.7083769499
 20
4.7428658388
 11
4.9783769499
 21
4.7428658388
  0
LINE
  5
27D
100
AcDbEntity
  8
0
100
AcDbLine
 62
7
  6
CONTINUOUS
 10
5.0817744542
 20
4.7449903448
 11
5.122544233
 21
4.7449903448
  0
LINE
  5
27E
100
AcDbEntity
  8
0
100
AcDbLine
 62
7
  6
CONTINUOUS
 10
5.0817744542
 20
4.7576916613
 11
5.122544233
 21
4.7576916613
  0
LINE
  5
27F
100
AcDbEntity
  8
0
100
AcDbLine
 62
7
  6
CONTINUOUS
 10
5.0817744542
 20
4.7697060767
 11
5.122544233
 21
4.7697060767
  0
LINE
  5
280
100
AcDbEntity
  8
ALL_FEATURES
100
AcDbLine
 62
7
  6
CONTINUOUS
 10
5.0721839218
 20
4.7781158388
 11
4.9969969499
 21
4.7781158388
  0
LINE
  5
281
100
AcDbEntity
  8
0
100
AcDbLine
 62
7
  6
CONTINUOUS
 10
4.9969969499
 20
4.7781158388
 11
5.0721839218
 21
4.7781158388
  0
LINE
  5
282
100
AcDbEntity
  8
0
100
AcDbLine
 62
7
  6
CONTINUOUS
 10
4.2585170563
 20
4.845837249
 11
4.32330666
 21
4.8427352346
  0
LINE
  5
283
100
AcDbEntity
  8
0
100
AcDbLine
 62
7
  6
CONTINUOUS
 10
4.6526822475
 20
4.7827926636
 11
4.5923718634
 21
4.7963579721
  0
LINE
  5
284
100
AcDbEntity
  8
ALL_FEATURES
100
AcDbLine
 62
9
  6
CONTINUOUS
 10
5.5612016272
 20
4.8354027499
 11
5.5612016272
 21
4.3853289276
  0
LINE
  5
285
100
AcDbEntity
  8
ALL_FEATURES
100
AcDbLine
 62
9
  6
CONTINUOUS
 10
5.6007745362
 20
4.8578658388
 11
5.6007745362
 21
4.7755271157
  0
LINE
  5
286
100
AcDbEntity
  8
ALL_FEATURES
100
AcDbLine
 62
9
  6
CONTINUOUS
 10
5.6007745362
 20
4.6927045618
 11
5.6007745362
 21
4.5280271157
  0
LINE
  5
287
100
AcDbEntity
  8
ALL_FEATURES
100
AcDbLine
 62
9
  6
CONTINUOUS
 10
5.6007745362
 20
4.4452045618
 11
5.6007745362
 21
4.3628658388
  0
LINE
  5
288
100
AcDbEntity
  8
ALL_FEATURES
100
AcDbLine
 62
7
  6
CONTINUOUS
 10
5.7383769499
 20
4.8578658388
 11
5.5988883643
 21
4.8578658388
  0
LINE
  5
289
100
AcDbEntity
  8
ALL_FEATURES
100
AcDbLine
 62
7
  6
CONTINUOUS
 10
5.3932309414
 20
4.8460030994
 11
5.5612016272
 21
4.8354027499
  0
LINE
  5
28A
100
AcDbEntity
  8
ALL_FEATURES
100
AcDbLine
 62
7
  6
CONTINUOUS
 10
5.7383769499
 20
4.2645056574
 11
5.7383769499
 21
4.9562260201
  0
LINE
  5
28B
100
AcDbEntity
  8
ALL_FEATURES
100
AcDbLine
 62
9
  6
CONTINUOUS
 10
5.8081591892
 20
4.2295415732
 11
5.8081591892
 21
4.9911901043
  0
LINE
  5
28C
100
AcDbEntity
  8
ALL_FEATURES
100
AcDbLine
 62
9
  6
CONTINUOUS
 10
5.8754324835
 20
4.1452518269
 11
5.8754324835
 21
5.0754798506
  0
LINE
  5
28D
100
AcDbEntity
  8
ALL_FEATURES
100
AcDbLine
 62
7
  6
CONTINUOUS
 10
5.8914451666
 20
4.1113027035
 11
5.8754324835
 21
4.1452518269
  0
LINE
  5
28E
100
AcDbEntity
  8
ALL_FEATURES
100
AcDbLine
 62
9
  6
CONTINUOUS
 10
5.8914451666
 20
4.1113027035
 11
5.8914451666
 21
5.109428974
  0
LINE
  5
28F
100
AcDbEntity
  8
ALL_FEATURES
100
AcDbLine
 62
9
  6
CONTINUOUS
 10
5.9126228915
 20
4.0760188064
 11
5.9126228915
 21
5.1447128711
  0
LINE
  5
290
100
AcDbEntity
  8
ALL_FEATURES
100
AcDbLine
 62
9
  6
CONTINUOUS
 10
5.9350522246
 20
4.0594182862
 11
5.9350522246
 21
5.1613133913
  0
LINE
  5
291
100
AcDbEntity
  8
ALL_FEATURES
100
AcDbLine
 62
7
  6
CONTINUOUS
 10
6.0053883094
 20
4.0425719419
 11
6.0053883094
 21
5.1781597356
  0
LINE
  5
292
100
AcDbEntity
  8
ALL_FEATURES
100
AcDbLine
 62
7
  6
CONTINUOUS
 10
6.0143883094
 20
4.1158658388
 11
6.0143883094
 21
5.1048658388
  0
ARC
  5
293
100
AcDbEntity
  8
0
100
AcDbCircle
 62
7
  6
CONTINUOUS
 10
2.7941533102
 20
2.8725493728
 40
0.6399999979
100
AcDbArc
 50
25.5773644382
 51
31.2742773618
  0
ARC
  5
294
100
AcDbEntity
  8
0
100
AcDbCircle
 62
7
  6
CONTINUOUS
 10
3.1128605217
 20
2.4188536393
 40
0.6399999979
100
AcDbArc
 50
38.8994304161
 51
44.5963433397
  0
ARC
  5
295
100
AcDbEntity
  8
0
100
AcDbCircle
 62
7
  6
CONTINUOUS
 10
2.3142298492
 20
4.4692965125
 40
2.105
100
AcDbArc
 50
311.549589104
 51
318.7373799501
  0
ARC
  5
296
100
AcDbEntity
  8
0
100
AcDbCircle
 62
7
  6
CONTINUOUS
 10
3.0608769499
 20
4.3953658388
 40
1.495
100
AcDbArc
 50
307.003503175
 51
360.0
  0
ARC
  5
297
100
AcDbEntity
  8
0
100
AcDbCircle
 62
7
  6
CONTINUOUS
 10
3.0608769499
 20
4.3953658388
 40
1.245
100
AcDbArc
 50
307.3885226285
 51
360.0
  0
ARC
  5
298
100
AcDbEntity
  8
0
100
AcDbCircle
 62
7
  6
CONTINUOUS
 10
4.1010374285
 20
2.749502952
 40
2.105
100
AcDbArc
 50
76.5019050393
 51
83.9387775118
  0
ARC
  5
299
100
AcDbEntity
  8
0
100
AcDbCircle
 62
7
  6
CONTINUOUS
 10
3.7120355033
 20
2.7819816282
 40
0.56
100
AcDbArc
 50
118.6241186739
 51
125.6618279892
  0
ARC
  5
29A
100
AcDbEntity
  8
0
100
AcDbCircle
 62
7
  6
CONTINUOUS
 10
3.3389789339
 20
3.313046404
 40
0.56
100
AcDbArc
 50
304.5118797887
 51
311.549589104
  0
ARC
  5
29B
100
AcDbEntity
  8
0
100
AcDbCircle
 62
7
  6
CONTINUOUS
 10
3.6845909433
 20
2.8104011088
 40
0.0499999934
100
AcDbArc
 50
124.5118793537
 51
162.3288015642
  0
ARC
  5
29C
100
AcDbEntity
  8
0
100
AcDbCircle
 62
7
  6
CONTINUOUS
 10
3.3564054947
 20
3.2775895891
 40
0.0499999934
100
AcDbArc
 50
267.8449062137
 51
305.6618284242
  0
ARC
  5
29D
100
AcDbEntity
  8
0
100
AcDbCircle
 62
7
  6
CONTINUOUS
 10
3.9784965761
 20
3.0970422018
 40
0.049999989
100
AcDbArc
 50
99.3184658946
 51
136.9382872203
  0
ARC
  5
29E
100
AcDbEntity
  8
0
100
AcDbCircle
 62
7
  6
CONTINUOUS
 10
3.5658858078
 20
4.3233491291
 40
0.6399999996
100
AcDbArc
 50
4.6804866442
 51
10.3520137592
  0
ARC
  5
29F
100
AcDbEntity
  8
0
100
AcDbCircle
 62
7
  6
CONTINUOUS
 10
3.7257398703
 20
3.4568540757
 40
0.049999989
100
AcDbArc
 50
293.2354205576
 51
330.8552418833
  0
ARC
  5
2A0
100
AcDbEntity
  8
0
100
AcDbCircle
 62
7
  6
CONTINUOUS
 10
2.8952957895
 20
5.3911208194
 40
2.155
100
AcDbArc
 50
291.4363278278
 51
293.2354323903
  0
ARC
  5
2A1
100
AcDbEntity
  8
0
100
AcDbCircle
 62
7
  6
CONTINUOUS
 10
4.1010374285
 20
6.4712287255
 40
2.105
100
AcDbArc
 50
282.4790917205
 51
283.4980949607
  0
ARC
  5
2A2
100
AcDbEntity
  8
0
100
AcDbCircle
 62
7
  6
CONTINUOUS
 10
2.6362148279
 20
5.0046320321
 40
1.959133291
100
AcDbArc
 50
348.4885109472
 51
348.9868331883
  0
ARC
  5
2A3
100
AcDbEntity
  8
0
100
AcDbCircle
 62
7
  6
CONTINUOUS
 10
3.5658858078
 20
4.8973825484
 40
0.6399999996
100
AcDbArc
 50
349.6479862408
 51
355.3195133558
  0
ARC
  5
2A4
100
AcDbEntity
  8
0
100
AcDbCircle
 62
7
  6
CONTINUOUS
 10
4.4521853704
 20
1.4258093773
 40
2.105
100
AcDbArc
 50
111.4363278278
 51
118.6241186739
  0
ARC
  5
2A5
100
AcDbEntity
  8
0
100
AcDbCircle
 62
7
  6
CONTINUOUS
 10
4.2102982837
 20
3.550364537
 40
0.93
100
AcDbArc
 50
205.5773615344
 51
215.086853889
  0
ARC
  5
2A6
100
AcDbEntity
  8
0
100
AcDbCircle
 62
7
  6
CONTINUOUS
 10
4.2308117295
 20
3.521162616
 40
0.93
100
AcDbArc
 50
215.086853889
 51
224.5963462435
  0
ARC
  5
2A7
100
AcDbEntity
  8
0
100
AcDbCircle
 62
7
  6
CONTINUOUS
 10
5.0808181702
 20
4.6000799269
 40
0.9
100
AcDbArc
 50
180.0
 51
190.3520137566
  0
ARC
  5
2A8
100
AcDbEntity
  8
0
100
AcDbCircle
 62
7
  6
CONTINUOUS
 10
4.2580118244
 20
4.3248970908
 40
0.0499999808
100
AcDbArc
 50
89.4210369844
 51
127.3937400953
  0
ARC
  5
2A9
100
AcDbEntity
  8
0
100
AcDbCircle
 62
7
  6
CONTINUOUS
 10
4.6629535863
 20
4.3890055052
 40
0.049999975
100
AcDbArc
 50
64.2359022576
 51
101.8544826603
  0
ARC
  5
2AA
100
AcDbEntity
  8
0
100
AcDbCircle
 62
7
  6
CONTINUOUS
 10
5.1048638333
 20
4.4029193012
 40
0.031290451
100
AcDbArc
 50
222.4467448854
 51
231.3213935675
  0
ARC
  5
2AB
100
AcDbEntity
  8
0
100
AcDbCircle
 62
7
  6
CONTINUOUS
 10
5.1026420166
 20
4.3995118121
 40
0.0307557222
100
AcDbArc
 50
223.141990614
 51
227.2739559034
  0
ARC
  5
2AC
100
AcDbEntity
  8
0
100
AcDbCircle
 62
7
  6
CONTINUOUS
 10
5.1015484091
 20
4.3993659472
 40
0.030736237
100
AcDbArc
 50
313.7842182178
 51
317.8450333394
  0
ARC
  5
2AD
100
AcDbEntity
  8
0
100
AcDbCircle
 62
7
  6
CONTINUOUS
 10
5.1039095378
 20
4.4003446095
 40
0.030685518
100
AcDbArc
 50
223.8337185996
 51
232.6867561894
  0
ARC
  5
2AE
100
AcDbEntity
  8
0
100
AcDbCircle
 62
7
  6
CONTINUOUS
 10
5.1016803135
 20
4.3992309482
 40
0.0305475039
100
AcDbArc
 50
313.0784549467
 51
313.7808107323
  0
ARC
  5
2AF
100
AcDbEntity
  8
0
100
AcDbCircle
 62
7
  6
CONTINUOUS
 10
5.1029881824
 20
4.3990045553
 40
0.0302336635
100
AcDbArc
 50
225.4397257848
 51
229.8902392369
  0
ARC
  5
2B0
100
AcDbEntity
  8
0
100
AcDbCircle
 62
7
  6
CONTINUOUS
 10
5.1028177191
 20
4.3988042589
 40
0.0299706528
100
AcDbArc
 50
229.8927828596
 51
234.2534222056
  0
ARC
  5
2B1
100
AcDbEntity
  8
0
100
AcDbCircle
 62
7
  6
CONTINUOUS
 10
5.1019746228
 20
4.3988048275
 40
0.0297840259
100
AcDbArc
 50
231.6970421796
 51
236.0007478865
  0
ARC
  5
2B2
100
AcDbEntity
  8
0
100
AcDbCircle
 62
7
  6
CONTINUOUS
 10
5.1015520578
 20
4.3985082486
 40
0.0297251936
100
AcDbArc
 50
310.4416814778
 51
314.9272348151
  0
ARC
  5
2B3
100
AcDbEntity
  8
0
100
AcDbCircle
 62
7
  6
CONTINUOUS
 10
5.1018830069
 20
4.3986880123
 40
0.0296355705
100
AcDbArc
 50
227.271307953
 51
231.6960575013
  0
ARC
  5
2B4
100
AcDbEntity
  8
0
100
AcDbCircle
 62
7
  6
CONTINUOUS
 10
5.1010221634
 20
4.3999161225
 40
0.0295741632
100
AcDbArc
 50
229.3959012073
 51
237.9305753549
  0
ARC
  5
2B5
100
AcDbEntity
  8
0
100
AcDbCircle
 62
7
  6
CONTINUOUS
 10
5.1027501313
 20
4.3980742969
 40
0.0289719802
100
AcDbArc
 50
304.2201046468
 51
313.0954159508
  0
ARC
  5
2B6
100
AcDbEntity
  8
0
100
AcDbCircle
 62
7
  6
CONTINUOUS
 10
5.1037557843
 20
4.3990774676
 40
0.0286392143
100
AcDbArc
 50
302.2619552945
 51
310.9984984804
  0
ARC
  5
2B7
100
AcDbEntity
  8
0
100
AcDbCircle
 62
7
  6
CONTINUOUS
 10
5.1022588552
 20
4.3976690152
 40
0.0286280009
100
AcDbArc
 50
305.9137195566
 51
310.4546280055
  0
ARC
  5
2B8
100
AcDbEntity
  8
0
100
AcDbCircle
 62
7
  6
CONTINUOUS
 10
4.9969969499
 20
4.4612358388
 40
0.01862
100
AcDbArc
 50
180.0
 51
270.0
  0
ARC
  5
2B9
100
AcDbEntity
  8
0
100
AcDbCircle
 62
7
  6
CONTINUOUS
 10
5.7413769499
 20
0.1941999803
 40
4.195
100
AcDbArc
 50
92.4616119432
 51
94.3387549229
  0
ARC
  5
2BA
100
AcDbEntity
  8
0
100
AcDbCircle
 62
7
  6
CONTINUOUS
 10
5.5164486782
 20
1.6597779468
 40
2.155
100
AcDbArc
 50
136.9382753876
 51
138.7373799501
  0
ARC
  5
2BB
100
AcDbEntity
  8
0
100
AcDbCircle
 62
7
  6
CONTINUOUS
 10
5.9745485048
 20
4.3207743232
 40
1.4529383222
100
AcDbArc
 50
167.2813793878
 51
167.7764076306
  0
ARC
  5
2BC
100
AcDbEntity
  8
0
100
AcDbCircle
 62
7
  6
CONTINUOUS
 10
5.3206140743
 20
3.9740215683
 40
0.875
100
AcDbArc
 50
85.2395075336
 51
101.0876350149
  0
ARC
  5
2BD
100
AcDbEntity
  8
ALL_FEATURES
100
AcDbCircle
 62
7
  6
CONTINUOUS
 10
5.3206140743
 20
3.9740215683
 40
0.875
100
AcDbArc
 50
85.2395075336
 51
101.0876350149
  0
ARC
  5
2BE
100
AcDbEntity
  8
ALL_FEATURES
100
AcDbCircle
 62
7
  6
CONTINUOUS
 10
6.0405078168
 20
4.3444564714
 40
0.3039204648
100
AcDbArc
 50
249.6970355865
 51
263.3643665393
  0
ARC
  5
2BF
100
AcDbEntity
  8
ALL_FEATURES
100
AcDbCircle
 62
7
  6
CONTINUOUS
 10
5.6554666513
 20
4.0386837351
 40
0.2444212051
100
AcDbArc
 50
25.8490587855
 51
51.3390445145
  0
ARC
  5
2C0
100
AcDbEntity
  8
ALL_FEATURES
100
AcDbCircle
 62
7
  6
CONTINUOUS
 10
6.0613682825
 20
4.1892946635
 40
0.1869668717
100
AcDbArc
 50
204.6543569553
 51
217.2907938915
  0
ARC
  5
2C1
100
AcDbEntity
  8
ALL_FEATURES
100
AcDbCircle
 62
7
  6
CONTINUOUS
 10
5.6913589871
 20
4.0835473134
 40
0.1869668717
100
AcDbArc
 50
51.3390445145
 51
75.43503933
  0
ARC
  5
2C2
100
AcDbEntity
  8
ALL_FEATURES
100
AcDbCircle
 62
7
  6
CONTINUOUS
 10
5.9524014334
 20
4.1063118354
 40
0.05
100
AcDbArc
 50
217.2907938915
 51
249.6970355865
  0
ARC
  5
2C3
100
AcDbEntity
  8
ALL_FEATURES
100
AcDbCircle
 62
7
  6
CONTINUOUS
 10
5.5629196279
 20
4.3453658388
 40
0.04
100
AcDbArc
 50
25.9444797724
 51
92.4616119432
  0
ARC
  5
2C4
100
AcDbEntity
  8
0
100
AcDbCircle
 62
7
  6
CONTINUOUS
 10
5.1465733527
 20
4.3586026725
 40
0.0299999995
100
AcDbArc
 50
78.9123633026
 51
137.842785453
  0
ARC
  5
2C5
100
AcDbEntity
  8
ALL_FEATURES
100
AcDbCircle
 62
7
  6
CONTINUOUS
 10
5.9886383094
 20
4.1158658388
 40
0.02575
100
AcDbArc
 50
310.633514965
 51
360.0
  0
ARC
  5
2C6
100
AcDbEntity
  8
0
100
AcDbCircle
 62
7
  6
CONTINUOUS
 10
4.4308769499
 20
4.6103658388
 40
0.13
100
AcDbArc
 50
344.1606194498
 51
195.9405845322
  0
ARC
  5
2C7
100
AcDbEntity
  8
0
100
AcDbCircle
 62
7
  6
CONTINUOUS
 10
4.4308769499
 20
4.6103658388
 40
0.125
100
AcDbArc
 50
0.0
 51
180.0
  0
ARC
  5
2C8
100
AcDbEntity
  8
DEFAULT_2
100
AcDbCircle
 62
8
  6
HIDDEN
 10
4.4312341689
 20
4.6104653468
 40
0.1246294212
100
AcDbArc
 50
12.8446744597
 51
17.1486587603
  0
ARC
  5
2C9
100
AcDbEntity
  8
0
100
AcDbCircle
 62
7
  6
CONTINUOUS
 10
4.264175653
 20
4.9348658388
 40
0.56
100
AcDbArc
 50
269.4210370892
 51
274.2375859016
  0
ARC
  5
2CA
100
AcDbEntity
  8
0
100
AcDbCircle
 62
7
  6
CONTINUOUS
 10
4.2580118244
 20
4.8958345867
 40
0.0499999808
100
AcDbArc
 50
232.6062599048
 51
270.5789630156
  0
ARC
  5
2CB
100
AcDbEntity
  8
0
100
AcDbCircle
 62
7
  6
CONTINUOUS
 10
4.6629535863
 20
4.8317261723
 40
0.049999975
100
AcDbArc
 50
258.1455173397
 51
295.7640977424
  0
ARC
  5
2CC
100
AcDbEntity
  8
0
100
AcDbCircle
 62
7
  6
CONTINUOUS
 10
5.0808181702
 20
4.6206517506
 40
0.9
100
AcDbArc
 50
169.6479862434
 51
180.0
  0
ARC
  5
2CD
100
AcDbEntity
  8
0
100
AcDbCircle
 62
7
  6
CONTINUOUS
 10
4.9969969499
 20
4.7594958388
 40
0.01862
100
AcDbArc
 50
90.0
 51
180.0
  0
ARC
  5
2CE
100
AcDbEntity
  8
0
100
AcDbCircle
 62
7
  6
CONTINUOUS
 10
5.1046276164
 20
4.8180647226
 40
0.0309458473
100
AcDbArc
 50
128.6030020633
 51
137.6028449336
  0
ARC
  5
2CF
100
AcDbEntity
  8
0
100
AcDbCircle
 62
7
  6
CONTINUOUS
 10
5.1026420166
 20
4.8212198655
 40
0.0307557222
100
AcDbArc
 50
132.7260440965
 51
136.8580093861
  0
ARC
  5
2D0
100
AcDbEntity
  8
0
100
AcDbCircle
 62
7
  6
CONTINUOUS
 10
5.1015462353
 20
4.8213636799
 40
0.0307392246
100
AcDbArc
 50
42.1550806385
 51
46.1206059888
  0
ARC
  5
2D1
100
AcDbEntity
  8
0
100
AcDbCircle
 62
7
  6
CONTINUOUS
 10
5.1016772584
 20
4.821497491
 40
0.0305519559
100
AcDbArc
 50
46.1237778683
 51
46.9215081061
  0
ARC
  5
2D2
100
AcDbEntity
  8
0
100
AcDbCircle
 62
7
  6
CONTINUOUS
 10
5.10376023
 20
4.8205544932
 40
0.030461866
100
AcDbArc
 50
127.2546764559
 51
136.1989467696
  0
ARC
  5
2D3
100
AcDbEntity
  8
0
100
AcDbCircle
 62
7
  6
CONTINUOUS
 10
5.1029637577
 20
4.8217540562
 40
0.0301973349
100
AcDbArc
 50
130.0939867386
 51
134.5631118728
  0
ARC
  5
2D4
100
AcDbEntity
  8
0
100
AcDbCircle
 62
7
  6
CONTINUOUS
 10
5.1465733527
 20
4.862129005
 40
0.0299999995
100
AcDbArc
 50
222.157214547
 51
281.0876366974
  0
ARC
  5
2D5
100
AcDbEntity
  8
0
100
AcDbCircle
 62
7
  6
CONTINUOUS
 10
5.1027851915
 20
4.8219692781
 40
0.0299176882
100
AcDbArc
 50
125.7167948136
 51
130.0978380746
  0
ARC
  5
2D6
100
AcDbEntity
  8
0
100
AcDbCircle
 62
7
  6
CONTINUOUS
 10
5.1014222182
 20
4.8220824632
 40
0.0299166927
100
AcDbArc
 50
45.0873667223
 51
49.5561512846
  0
ARC
  5
2D7
100
AcDbEntity
  8
0
100
AcDbCircle
 62
7
  6
CONTINUOUS
 10
5.101963925
 20
4.8219413697
 40
0.0297659944
100
AcDbArc
 50
124.0236024648
 51
128.3041170138
  0
ARC
  5
2D8
100
AcDbEntity
  8
0
100
AcDbCircle
 62
7
  6
CONTINUOUS
 10
5.10185862
 20
4.8220720725
 40
0.029598156
100
AcDbArc
 50
128.3009771288
 51
132.731326797
  0
ARC
  5
2D9
100
AcDbEntity
  8
0
100
AcDbCircle
 62
7
  6
CONTINUOUS
 10
5.1008971267
 20
4.8209853056
 40
0.0293639111
100
AcDbArc
 50
122.0639777795
 51
130.6344356157
  0
ARC
  5
2DA
100
AcDbEntity
  8
0
100
AcDbCircle
 62
7
  6
CONTINUOUS
 10
5.1021533898
 20
4.8229284705
 40
0.0287985337
100
AcDbArc
 50
49.5713617941
 51
54.0924236113
  0
ARC
  5
2DB
100
AcDbEntity
  8
0
100
AcDbCircle
 62
7
  6
CONTINUOUS
 10
5.1028893957
 20
4.8228315921
 40
0.0287496258
100
AcDbArc
 50
46.8700451949
 51
55.7951962882
  0
ARC
  5
2DC
100
AcDbEntity
  8
0
100
AcDbCircle
 62
7
  6
CONTINUOUS
 10
5.1037952433
 20
4.8217073817
 40
0.028573198
100
AcDbArc
 50
48.9912707158
 51
57.7292288723
  0
ARC
  5
2DD
100
AcDbEntity
  8
0
100
AcDbCircle
 62
7
  6
CONTINUOUS
 10
5.3206140743
 20
5.2467101092
 40
0.875
100
AcDbArc
 50
258.9123649851
 51
268.218405495
  0
ARC
  5
2DE
100
AcDbEntity
  8
ALL_FEATURES
100
AcDbCircle
 62
7
  6
CONTINUOUS
 10
5.3206140743
 20
5.2467101092
 40
0.875
100
AcDbArc
 50
258.9123649851
 51
268.218405495
  0
ARC
  5
2DF
100
AcDbEntity
  8
ALL_FEATURES
100
AcDbCircle
 62
7
  6
CONTINUOUS
 10
6.0405078168
 20
4.8762752061
 40
0.3039204648
100
AcDbArc
 50
96.6356334607
 51
110.3029644135
  0
ARC
  5
2E0
100
AcDbEntity
  8
ALL_FEATURES
100
AcDbCircle
 62
7
  6
CONTINUOUS
 10
5.6554666513
 20
5.1820479424
 40
0.2444212051
100
AcDbArc
 50
308.6609554855
 51
334.1509412145
  0
ARC
  5
2E1
100
AcDbEntity
  8
ALL_FEATURES
100
AcDbCircle
 62
7
  6
CONTINUOUS
 10
5.6913589871
 20
5.1371843641
 40
0.1869668717
100
AcDbArc
 50
284.56496067
 51
308.6609554855
  0
ARC
  5
2E2
100
AcDbEntity
  8
ALL_FEATURES
100
AcDbCircle
 62
7
  6
CONTINUOUS
 10
6.0613682825
 20
5.0314370141
 40
0.1869668717
100
AcDbArc
 50
142.7092061085
 51
155.3456430447
  0
ARC
  5
2E3
100
AcDbEntity
  8
ALL_FEATURES
100
AcDbCircle
 62
7
  6
CONTINUOUS
 10
5.9524014334
 20
5.1144198421
 40
0.05
100
AcDbArc
 50
110.3029644135
 51
142.7092061085
  0
ARC
  5
2E4
100
AcDbEntity
  8
ALL_FEATURES
100
AcDbCircle
 62
7
  6
CONTINUOUS
 10
5.5629196279
 20
4.8753658388
 40
0.04
100
AcDbArc
 50
267.5383880568
 51
334.0555202276
  0
ARC
  5
2E5
100
AcDbEntity
  8
ALL_FEATURES
100
AcDbCircle
 62
7
  6
CONTINUOUS
 10
5.9886383094
 20
5.1048658388
 40
0.02575
100
AcDbArc
 50
0.0
 51
49.366485035
  0
ARC
  5
2E6
100
AcDbEntity
  8
ALL_FEATURES
100
AcDbCircle
 62
7
  6
CONTINUOUS
 10
5.7413769499
 20
9.0265316972
 40
4.195
100
AcDbArc
 50
265.2395075336
 51
267.5383880568
  0
LINE
  5
2E7
100
AcDbEntity
  8
DEFAULT_2
100
AcDbLine
 62
8
  6
HIDDEN
 10
4.5503230673
 20
4.6472126746
 11
4.5489616653
 21
4.6513658388
  0
LINE
  5
2E8
100
AcDbEntity
  8
DEFAULT_2
100
AcDbLine
 62
8
  6
HIDDEN
 10
4.5489616653
 20
4.6513658388
 11
4.550323086
 21
4.6472126192
  0
SPLINE
  5
2E9
100
AcDbEntity
  8
0
100
AcDbSpline
 62
7
  6
CONTINUOUS
 70
0
 71
3
 72
9
 73
5
 74
0
 42
0.0000001
 43
0.0000001
 44
0.0000000001
 40
0.0
 40
0.0
 40
0.0
 40
0.0
 40
0.4999990854
 40
1.0
 40
1.0
 40
1.0
 40
1.0
 10
3.9772446764
 20
3.1491496898
 30
0.0
 10
3.9762315143
 20
3.1484379748
 30
0.0
 10
3.9740292629
 20
3.1472524528
 30
0.0
 10
3.9716223134
 20
3.1465828224
 30
0.0
 10
3.9704004901
 20
3.1463823362
 30
0.0
  0
SPLINE
  5
2EA
100
AcDbEntity
  8
0
100
AcDbSpline
 62
7
  6
CONTINUOUS
 70
0
 71
3
 72
9
 73
5
 74
0
 42
0.0000001
 43
0.0000001
 44
0.0000000001
 40
0.0
 40
0.0
 40
0.0
 40
0.0
 40
0.4999990854
 40
1.0
 40
1.0
 40
1.0
 40
1.0
 10
3.7743340925
 20
3.4380031041
 30
0.0
 10
3.7733209303
 20
3.437291389
 30
0.0
 10
3.7714587431
 20
3.4356217687
 30
0.0
 10
3.7700124406
 20
3.4335846089
 30
0.0
 10
3.7694094329
 20
3.4325032076
 30
0.0
  0
SPLINE
  5
2EB
100
AcDbEntity
  8
0
100
AcDbSpline
 62
7
  6
CONTINUOUS
 70
0
 71
3
 72
15
 73
11
 74
0
 42
0.0000001
 43
0.0000001
 44
0.0000000001
 40
0.0
 40
0.0
 40
0.0
 40
0.0
 40
0.1249562035
 40
0.250015953
 40
0.3750045582
 40
0.4999997705
 40
0.6249958588
 40
0.7499851734
 40
0.8750441968
 40
1.0
 40
1.0
 40
1.0
 40
1.0
 10
3.7973202283
 20
3.4339859463
 30
0.0
 10
3.7967010586
 20
3.4348673655
 30
0.0
 10
3.7952750417
 20
3.4365060545
 30
0.0
 10
3.7927085813
 20
3.4385020615
 30
0.0
 10
3.789809226
 20
3.4399764618
 30
0.0
 10
3.7866784834
 20
3.4408657966
 30
0.0
 10
3.7834316735
 20
3.4410910248
 30
0.0
 10
3.7802040969
 20
3.4406873961
 30
0.0
 10
3.7771127829
 20
3.4396801627
 30
0.0
 10
3.7752155088
 20
3.4386222718
 30
0.0
 10
3.7743340925
 20
3.4380031041
 30
0.0
  0
SPLINE
  5
2EC
100
AcDbEntity
  8
0
100
AcDbSpline
 62
7
  6
CONTINUOUS
 70
0
 71
3
 72
15
 73
11
 74
0
 42
0.0000001
 43
0.0000001
 44
0.0000000001
 40
0.0
 40
0.0
 40
0.0
 40
0.0
 40
0.1249562035
 40
0.250015953
 40
0.3750045582
 40
0.4999997705
 40
0.6249958588
 40
0.7499851734
 40
0.8750441968
 40
1.0
 40
1.0
 40
1.0
 40
1.0
 10
3.9812618342
 20
3.1721358257
 30
0.0
 10
3.9818810039
 20
3.1712544065
 30
0.0
 10
3.9829388983
 20
3.1693571228
 30
0.0
 10
3.9839461271
 20
3.1662658038
 30
0.0
 10
3.9843497593
 20
3.1630382353
 30
0.0
 10
3.9841245262
 20
3.1597914314
 30
0.0
 10
3.9832351847
 20
3.1566606849
 30
0.0
 10
3.9817607849
 20
3.1537613207
 30
0.0
 10
3.9797647752
 20
3.1511948667
 30
0.0
 10
3.9781260928
 20
3.1497688575
 30
0.0
 10
3.9772446764
 20
3.1491496898
 30
0.0
  0
SPLINE
  5
2ED
100
AcDbEntity
  8
0
100
AcDbSpline
 62
7
  6
CONTINUOUS
 70
0
 71
3
 72
15
 73
11
 74
0
 42
0.0000001
 43
0.0000001
 44
0.0000000001
 40
0.0
 40
0.0
 40
0.0
 40
0.0
 40
0.1249998171
 40
0.2500001252
 40
0.3749994539
 40
0.499999501
 40
0.6249996392
 40
0.7499993267
 40
0.8749999465
 40
1.0
 40
1.0
 40
1.0
 40
1.0
 10
3.6369502624
 20
2.8255788065
 30
0.0
 10
3.6365418707
 20
2.8242969238
 30
0.0
 10
3.6353585601
 20
2.82183737
 30
0.0
 10
3.6327008925
 20
2.8187426485
 30
0.0
 10
3.6293111793
 20
2.8164546731
 30
0.0
 10
3.6254217203
 20
2.8152034303
 30
0.0
 10
3.6213459751
 20
2.8149883342
 30
0.0
 10
3.6173528997
 20
2.8158733385
 30
0.0
 10
3.6137660063
 20
2.8178242719
 30
0.0
 10
3.6117849612
 20
2.8196980119
 30
0.0
 10
3.6109401304
 20
2.8207450434
 30
0.0
  0
SPLINE
  5
2EE
100
AcDbEntity
  8
0
100
AcDbSpline
 62
7
  6
CONTINUOUS
 70
0
 71
3
 72
15
 73
11
 74
0
 42
0.0000001
 43
0.0000001
 44
0.0000000001
 40
0.0
 40
0.0
 40
0.0
 40
0.0
 40
0.1249998171
 40
0.2500001252
 40
0.3749994539
 40
0.499999501
 40
0.6249996392
 40
0.7499993267
 40
0.8749999465
 40
1.0
 40
1.0
 40
1.0
 40
1.0
 10
3.3545252651
 20
3.2276249844
 30
0.0
 10
3.3531808516
 20
3.2276755757
 30
0.0
 10
3.3504657443
 20
3.2273966116
 30
0.0
 10
3.3466530616
 20
3.2259461122
 30
0.0
 10
3.3433510176
 20
3.2235333353
 30
0.0
 10
3.3408547555
 20
3.2202988066
 30
0.0
 10
3.3392700401
 20
3.2165376044
 30
0.0
 10
3.3387482561
 20
3.2124810509
 30
0.0
 10
3.339366983
 20
3.2084450725
 30
0.0
 10
3.3404577471
 20
3.2059459376
 30
0.0
 10
3.3411561751
 20
3.2047960627
 30
0.0
  0
SPLINE
  5
2EF
100
AcDbEntity
  8
0
100
AcDbSpline
 62
7
  6
CONTINUOUS
 70
0
 71
3
 72
11
 73
7
 74
0
 42
0.0000001
 43
0.0000001
 44
0.0000000001
 40
0.0
 40
0.0
 40
0.0
 40
0.0
 40
0.3292474359
 40
0.6096956659
 40
0.8349431362
 40
1.0
 40
1.0
 40
1.0
 40
1.0
 10
5.3932309414
 20
4.382177813
 30
0.0
 10
5.3962349319
 20
4.3819342565
 30
0.0
 10
5.4017869098
 20
4.3813406101
 30
0.0
 10
5.4093473213
 20
4.3802100338
 30
0.0
 10
5.4153862296
 20
4.3790955519
 30
0.0
 10
5.4188815395
 20
4.378354281
 30
0.0
 10
5.420356261
 20
4.3780256755
 30
0.0
  0
LINE
  5
2F0
100
AcDbEntity
  8
0
100
AcDbLine
 62
7
  6
CONTINUOUS
 10
5.420356261
 20
4.3780256755
 11
5.424011748
 21
4.3771779062
  0
SPLINE
  5
2F1
100
AcDbEntity
  8
0
100
AcDbSpline
 62
7
  6
CONTINUOUS
 70
0
 71
3
 72
39
 73
35
 74
0
 42
0.0000001
 43
0.0000001
 44
0.0000000001
 40
0.0
 40
0.0
 40
0.0
 40
0.0
 40
0.0000816327
 40
0.0001894669
 40
0.0003418907
 40
0.0007802263
 40
0.0013960761
 40
0.0021888743
 40
0.0031580547
 40
0.0043030511
 40
0.0056232972
 40
0.0087872728
 40
0.0126454506
 40
0.0171930173
 40
0.0224242614
 40
0.0283333027
 40
0.0349142743
 40
0.0500686095
 40
0.067834702
 40
0.0881347783
 40
0.1108847413
 40
0.1359984536
 40
0.1633753187
 40
0.1929103111
 40
0.2580107716
 40
0.3303013701
 40
0.4086456771
 40
0.4917490701
 40
0.5781287338
 40
0.6661509924
 40
0.7540695036
 40
0.840098443
 40
0.9226116103
 40
1.0
 40
1.0
 40
1.0
 40
1.0
 10
5.2934106047
 20
4.372133085
 30
0.0
 10
5.2934078624
 20
4.3721331703
 30
0.0
 10
5.2934226037
 20
4.3721361821
 30
0.0
 10
5.2934290046
 20
4.3721385996
 30
0.0
 10
5.2934543638
 20
4.3721452615
 30
0.0
 10
5.2934914313
 20
4.3721556776
 30
0.0
 10
5.2935523172
 20
4.3721721361
 30
0.0
 10
5.2936290607
 20
4.3721930039
 30
0.0
 10
5.2937235139
 20
4.372218538
 30
0.0
 10
5.2938349085
 20
4.3722486108
 30
0.0
 10
5.294017613
 20
4.3722978301
 30
0.0
 10
5.2942883818
 20
4.3723705913
 30
0.0
 10
5.2946639869
 20
4.3724712627
 30
0.0
 10
5.2951067747
 20
4.3725896307
 30
0.0
 10
5.2956163292
 20
4.3727251507
 30
0.0
 10
5.2961921774
 20
4.3728773018
 30
0.0
 10
5.2970909218
 20
4.3731129513
 30
0.0
 10
5.2983762505
 20
4.3734454646
 30
0.0
 10
5.3001100858
 20
4.3738852602
 30
0.0
 10
5.3020942595
 20
4.3743763243
 30
0.0
 10
5.3043217242
 20
4.3749121029
 30
0.0
 10
5.3067846235
 20
4.3754858747
 30
0.0
 10
5.3094746051
 20
4.3760896423
 30
0.0
 10
5.3134837853
 20
4.3769519608
 30
0.0
 10
5.3189861746
 20
4.3780496269
 30
0.0
 10
5.3261275917
 20
4.3793084913
 30
0.0
 10
5.3338970501
 20
4.3804770936
 30
0.0
 10
5.3421663191
 20
4.3814863084
 30
0.0
 10
5.3507862063
 20
4.3822772403
 30
0.0
 10
5.3595883169
 20
4.3828074235
 30
0.0
 10
5.3683911784
 20
4.3830539734
 30
0.0
 10
5.3770121881
 20
4.3830183456
 30
0.0
 10
5.3852739966
 20
4.3827283373
 30
0.0
 10
5.3906380206
 20
4.3823828653
 30
0.0
 10
5.3932309414
 20
4.382177813
 30
0.0
  0
SPLINE
  5
2F2
100
AcDbEntity
  8
0
100
AcDbSpline
 62
7
  6
CONTINUOUS
 70
0
 71
3
 72
19
 73
15
 74
0
 42
0.0000001
 43
0.0000001
 44
0.0000000001
 40
0.0
 40
0.0
 40
0.0
 40
0.0
 40
0.0573378543
 40
0.1164614415
 40
0.2395988296
 40
0.3034070774
 40
0.3683345713
 40
0.5001169091
 40
0.5662729643
 40
0.6320269992
 40
0.6969889935
 40
0.760768268
 40
0.8836443349
 40
1.0
 40
1.0
 40
1.0
 40
1.0
 10
5.1190431384
 20
4.3748596766
 30
0.0
 10
5.1184699366
 20
4.3744980458
 30
0.0
 10
5.1172788831
 20
4.3738048691
 30
0.0
 10
5.1147325399
 20
4.3725609996
 30
0.0
 10
5.1119860959
 20
4.3715687643
 30
0.0
 10
5.1090943125
 20
4.3708531179
 30
0.0
 10
5.1060596433
 20
4.3703188023
 30
0.0
 10
5.1029489078
 20
4.3700962688
 30
0.0
 10
5.099831616
 20
4.3701924985
 30
0.0
 10
5.097514419
 20
4.3704280208
 30
0.0
 10
5.0952475994
 20
4.3708227759
 30
0.0
 10
5.0923590384
 20
4.3715407146
 30
0.0
 10
5.0889864847
 20
4.3727844977
 30
0.0
 10
5.0864851571
 20
4.3741242878
 30
0.0
 10
5.0853198666
 20
4.3748548176
 30
0.0
  0
SPLINE
  5
2F3
100
AcDbEntity
  8
0
100
AcDbSpline
 62
7
  6
CONTINUOUS
 70
0
 71
3
 72
18
 73
14
 74
0
 42
0.0000001
 43
0.0000001
 44
0.0000000001
 40
0.0
 40
0.0
 40
0.0
 40
0.0
 40
0.1109639486
 40
0.2323757887
 40
0.363264446
 40
0.4999079142
 40
0.5686953279
 40
0.6367113147
 40
0.7032080275
 40
0.7675195187
 40
0.8294297324
 40
0.8888230943
 40
1.0
 40
1.0
 40
1.0
 40
1.0
 10
5.122544233
 20
4.3790928075
 30
0.0
 10
5.1212811741
 20
4.3780835743
 30
0.0
 10
5.118448942
 20
4.3761931514
 30
0.0
 10
5.1135751396
 20
4.3740629382
 30
0.0
 10
5.108049937
 20
4.3726940843
 30
0.0
 10
5.103143666
 20
4.3722890339
 30
0.0
 10
5.0991586563
 20
4.3724391882
 30
0.0
 10
5.0962147894
 20
4.3727983579
 30
0.0
 10
5.0933751779
 20
4.37338918
 30
0.0
 10
5.090683513
 20
4.3742011084
 30
0.0
 10
5.0881678186
 20
4.3752031486
 30
0.0
 10
5.0851333906
 20
4.3767137973
 30
0.0
 10
5.0830458696
 20
4.3780891069
 30
0.0
 10
5.0817744542
 20
4.3790928075
 30
0.0
  0
SPLINE
  5
2F4
100
AcDbEntity
  8
0
100
AcDbSpline
 62
7
  6
CONTINUOUS
 70
0
 71
3
 72
18
 73
14
 74
0
 42
0.0000001
 43
0.0000001
 44
0.0000000001
 40
0.0
 40
0.0
 40
0.0
 40
0.0
 40
0.1091316753
 40
0.2301460004
 40
0.3618279849
 40
0.4999390017
 40
0.5694984672
 40
0.6381974638
 40
0.7052004222
 40
0.7697619253
 40
0.8316154075
 40
0.8906209224
 40
1.0
 40
1.0
 40
1.0
 40
1.0
 10
5.122544233
 20
4.3818012309
 30
0.0
 10
5.1212715271
 20
4.3808781758
 30
0.0
 10
5.1184186193
 20
4.3791545283
 30
0.0
 10
5.1135506871
 20
4.377228719
 30
0.0
 10
5.1080365117
 20
4.3759917334
 30
0.0
 10
5.1031426038
 20
4.3756257328
 30
0.0
 10
5.0991603776
 20
4.3757617846
 30
0.0
 10
5.0962182745
 20
4.3760874166
 30
0.0
 10
5.093380331
 20
4.3766230184
 30
0.0
 10
5.0906897875
 20
4.3773591791
 30
0.0
 10
5.0881746453
 20
4.3782679089
 30
0.0
 10
5.0851499066
 20
4.3796339301
 30
0.0
 10
5.0830553307
 20
4.3808834148
 30
0.0
 10
5.0817744542
 20
4.3818012309
 30
0.0
  0
SPLINE
  5
2F5
100
AcDbEntity
  8
0
100
AcDbSpline
 62
7
  6
CONTINUOUS
 70
0
 71
3
 72
18
 73
14
 74
0
 42
0.0000001
 43
0.0000001
 44
0.0000000001
 40
0.0
 40
0.0
 40
0.0
 40
0.0
 40
0.1073073433
 40
0.2279412626
 40
0.3604136865
 40
0.499969543
 40
0.5702884444
 40
0.6396607853
 40
0.7071656438
 40
0.7719791465
 40
0.8337830651
 40
0.8924100801
 40
1.0
 40
1.0
 40
1.0
 40
1.0
 10
5.122544233
 20
4.3855753279
 30
0.0
 10
5.1212611211
 20
4.3847437186
 30
0.0
 10
5.1183876741
 20
4.3831968316
 30
0.0
 10
5.1135268967
 20
4.3814831723
 30
0.0
 10
5.1080237993
 20
4.3803825391
 30
0.0
 10
5.1031416043
 20
4.3800568629
 30
0.0
 10
5.0991620012
 20
4.3801782406
 30
0.0
 10
5.0962215844
 20
4.3804689126
 30
0.0
 10
5.0933852849
 20
4.3809469559
 30
0.0
 10
5.090695922
 20
4.3816040877
 30
0.0
 10
5.0881814685
 20
4.3824153928
 30
0.0
 10
5.0851668108
 20
4.3836313597
 30
0.0
 10
5.0830655153
 20
4.3847486232
 30
0.0
 10
5.0817744542
 20
4.3855753279
 30
0.0
  0
SPLINE
  5
2F6
100
AcDbEntity
  8
0
100
AcDbSpline
 62
7
  6
CONTINUOUS
 70
0
 71
3
 72
17
 73
13
 74
0
 42
0.0000001
 43
0.0000001
 44
0.0000000001
 40
0.0
 40
0.0
 40
0.0
 40
0.0
 40
0.1055429215
 40
0.2258297518
 40
0.3590781027
 40
0.5000299363
 40
0.641043452
 40
0.7090376456
 40
0.7741026332
 40
0.8358688348
 40
0.8941394587
 40
1.0
 40
1.0
 40
1.0
 40
1.0
 10
5.122544233
 20
4.3903975021
 30
0.0
 10
5.1212501648
 20
4.3896625405
 30
0.0
 10
5.1183569317
 20
4.3883017346
 30
0.0
 10
5.1135044244
 20
4.3868065337
 30
0.0
 10
5.1080117042
 20
4.3858461596
 30
0.0
 10
5.1021549215
 20
4.3855036646
 30
0.0
 10
5.0972152698
 20
4.3857759592
 30
0.0
 10
5.0933899795
 20
4.3863408809
 30
0.0
 10
5.0907017536
 20
4.3869160719
 30
0.0
 10
5.0881881158
 20
4.3876263436
 30
0.0
 10
5.0851836502
 20
4.3886877374
 30
0.0
 10
5.0830762151
 20
4.3896670572
 30
0.0
 10
5.0817744542
 20
4.3903975021
 30
0.0
  0
SPLINE
  5
2F7
100
AcDbEntity
  8
0
100
AcDbSpline
 62
7
  6
CONTINUOUS
 70
0
 71
3
 72
17
 73
13
 74
0
 42
0.0000001
 43
0.0000001
 44
0.0000000001
 40
0.0
 40
0.0
 40
0.0
 40
0.0
 40
0.1038744364
 40
0.2238388143
 40
0.3578074807
 40
0.5000488349
 40
0.6423578359
 40
0.710805476
 40
0.7761046635
 40
0.8378365716
 40
0.8957741611
 40
1.0
 40
1.0
 40
1.0
 40
1.0
 10
5.122544233
 20
4.3962452702
 30
0.0
 10
5.1212389942
 20
4.3956120649
 30
0.0
 10
5.1183274508
 20
4.3944457786
 30
0.0
 10
5.1134836692
 20
4.3931740684
 30
0.0
 10
5.1080012426
 20
4.3923568251
 30
0.0
 10
5.1021546746
 20
4.3920653284
 30
0.0
 10
5.0972209588
 20
4.3922971365
 30
0.0
 10
5.0933941922
 20
4.3927795674
 30
0.0
 10
5.0907071536
 20
4.3932703988
 30
0.0
 10
5.0881943834
 20
4.3938765114
 30
0.0
 10
5.085199877
 20
4.394779705
 30
0.0
 10
5.0830870995
 20
4.3956161252
 30
0.0
 10
5.0817744542
 20
4.3962452702
 30
0.0
  0
SPLINE
  5
2F8
100
AcDbEntity
  8
0
100
AcDbSpline
 62
7
  6
CONTINUOUS
 70
0
 71
3
 72
17
 73
13
 74
0
 42
0.0000001
 43
0.0000001
 44
0.0000000001
 40
0.0
 40
0.0
 40
0.0
 40
0.0
 40
0.1023653407
 40
0.2220491621
 40
0.3566692985
 40
0.5000657395
 40
0.6435350858
 40
0.7123911862
 40
0.7779041466
 40
0.8396098929
 40
0.8972519804
 40
1.0
 40
1.0
 40
1.0
 40
1.0
 10
5.122544233
 20
4.4030913673
 30
0.0
 10
5.1212280892
 20
4.4025648524
 30
0.0
 10
5.1183003465
 20
4.4016004629
 30
0.0
 10
5.1134653082
 20
4.4005559784
 30
0.0
 10
5.1079921787
 20
4.3998843184
 30
0.0
 10
5.102154457
 20
4.399644693
 30
0.0
 10
5.0972258946
 20
4.3998352908
 30
0.0
 10
5.093397887
 20
4.4002330267
 30
0.0
 10
5.090711949
 20
4.4006374185
 30
0.0
 10
5.0882000637
 20
4.4011367709
 30
0.0
 10
5.0852148578
 20
4.4018789565
 30
0.0
 10
5.0830977008
 20
4.402568373
 30
0.0
 10
5.0817744542
 20
4.4030913673
 30
0.0
  0
SPLINE
  5
2F9
100
AcDbEntity
  8
0
100
AcDbSpline
 62
7
  6
CONTINUOUS
 70
0
 71
3
 72
16
 73
12
 74
0
 42
0.0000001
 43
0.0000001
 44
0.0000000001
 40
0.0
 40
0.0
 40
0.0
 40
0.0
 40
0.1010736458
 40
0.2205279114
 40
0.3557094361
 40
0.5000909637
 40
0.6445498067
 40
0.7794336365
 40
0.8411219389
 40
0.8985162824
 40
1.0
 40
1.0
 40
1.0
 40
1.0
 10
5.122544233
 20
4.4109038736
 30
0.0
 10
5.1212180682
 20
4.4104886567
 30
0.0
 10
5.1182768107
 20
4.409732289
 30
0.0
 10
5.1134498664
 20
4.4089176935
 30
0.0
 10
5.1079847316
 20
4.408393479
 30
0.0
 10
5.102154135
 20
4.4082065107
 30
0.0
 10
5.0963272041
 20
4.4083822674
 30
0.0
 10
5.0916560762
 20
4.4088364367
 30
0.0
 10
5.0882049559
 20
4.4093732561
 30
0.0
 10
5.0852279149
 20
4.4099523341
 30
0.0
 10
5.0831074218
 20
4.4104915427
 30
0.0
 10
5.0817744542
 20
4.4109038736
 30
0.0
  0
SPLINE
  5
2FA
100
AcDbEntity
  8
0
100
AcDbSpline
 62
7
  6
CONTINUOUS
 70
0
 71
3
 72
15
 73
11
 74
0
 42
0.0000001
 43
0.0000001
 44
0.0000000001
 40
0.0
 40
0.0
 40
0.0
 40
0.0
 40
0.100043866
 40
0.2193162486
 40
0.3549388664
 40
0.5000905632
 40
0.6453288881
 40
0.7806524917
 40
0.8995206127
 40
1.0
 40
1.0
 40
1.0
 40
1.0
 10
5.122544233
 20
4.4196463637
 30
0.0
 10
5.1212096963
 20
4.4193465085
 30
0.0
 10
5.1182581328
 20
4.4188029354
 30
0.0
 10
5.1134381177
 20
4.418220005
 30
0.0
 10
5.1079793578
 20
4.4178446336
 30
0.0
 10
5.1021544891
 20
4.4177107167
 30
0.0
 10
5.0963334119
 20
4.4178364692
 30
0.0
 10
5.0908831468
 20
4.4182167669
 30
0.0
 10
5.0860684384
 20
4.4188111694
 30
0.0
 10
5.0831155707
 20
4.4193486517
 30
0.0
 10
5.0817744542
 20
4.4196463637
 30
0.0
  0
SPLINE
  5
2FB
100
AcDbEntity
  8
0
100
AcDbSpline
 62
7
  6
CONTINUOUS
 70
0
 71
3
 72
15
 73
11
 74
0
 42
0.0000001
 43
0.0000001
 44
0.0000000001
 40
0.0
 40
0.0
 40
0.0
 40
0.0
 40
0.0993343381
 40
0.2184873556
 40
0.3544168313
 40
0.5001032151
 40
0.6458726939
 40
0.7814891391
 40
0.9002179548
 40
1.0
 40
1.0
 40
1.0
 40
1.0
 10
5.122544233
 20
4.429278076
 30
0.0
 10
5.1212035223
 20
4.4290967669
 30
0.0
 10
5.1182448221
 20
4.4287693019
 30
0.0
 10
5.113429583
 20
4.4284191487
 30
0.0
 10
5.1079750576
 20
4.4281935749
 30
0.0
 10
5.1021540117
 20
4.4281130945
 30
0.0
 10
5.0963371226
 20
4.428188677
 30
0.0
 10
5.0908915279
 20
4.4284171926
 30
0.0
 10
5.0860808349
 20
4.4287743357
 30
0.0
 10
5.0831214966
 20
4.4290981
 30
0.0
 10
5.0817744542
 20
4.429278076
 30
0.0
  0
SPLINE
  5
2FC
100
AcDbEntity
  8
0
100
AcDbSpline
 62
7
  6
CONTINUOUS
 70
0
 71
3
 72
15
 73
11
 74
0
 42
0.0000001
 43
0.0000001
 44
0.0000000001
 40
0.0
 40
0.0
 40
0.0
 40
0.0
 40
0.0989686066
 40
0.2180595851
 40
0.3541454498
 40
0.5001034405
 40
0.6461457195
 40
0.7819153742
 40
0.9005756554
 40
1.0
 40
1.0
 40
1.0
 40
1.0
 10
5.122544233
 20
4.439754103
 30
0.0
 10
5.1212002957
 20
4.4396934269
 30
0.0
 10
5.1182380578
 20
4.4395840561
 30
0.0
 10
5.1134253856
 20
4.4394672757
 30
0.0
 10
5.1079730847
 20
4.4393920267
 30
0.0
 10
5.1021539815
 20
4.439365175
 30
0.0
 10
5.0963391648
 20
4.4393903922
 30
0.0
 10
5.0908958734
 20
4.4394666163
 30
0.0
 10
5.0860872267
 20
4.4395857461
 30
0.0
 10
5.083124613
 20
4.4396938787
 30
0.0
 10
5.0817744542
 20
4.439754103
 30
0.0
  0
SPLINE
  5
2FD
100
AcDbEntity
  8
0
100
AcDbSpline
 62
7
  6
CONTINUOUS
 70
0
 71
3
 72
15
 73
11
 74
0
 42
0.0000001
 43
0.0000001
 44
0.0000000001
 40
0.0
 40
0.0
 40
0.0
 40
0.0
 40
0.0994233852
 40
0.2180789868
 40
0.3538497151
 40
0.4998925682
 40
0.6458523036
 40
0.7819396292
 40
0.9010327003
 40
1.0
 40
1.0
 40
1.0
 40
1.0
 10
5.0817744542
 20
4.7809775745
 30
0.0
 10
5.0831246
 20
4.7810377983
 30
0.0
 10
5.0860871371
 20
4.7811459265
 30
0.0
 10
5.0908957216
 20
4.7812650613
 30
0.0
 10
5.0963389719
 20
4.7813412806
 30
0.0
 10
5.1021538347
 20
4.7813665035
 30
0.0
 10
5.1079729893
 20
4.7813396523
 30
0.0
 10
5.1134253621
 20
4.7812644006
 30
0.0
 10
5.1182380649
 20
4.7811476224
 30
0.0
 10
5.1212003134
 20
4.7810382498
 30
0.0
 10
5.122544233
 20
4.7809775745
 30
0.0
  0
SPLINE
  5
2FE
100
AcDbEntity
  8
0
100
AcDbSpline
 62
7
  6
CONTINUOUS
 70
0
 71
3
 72
15
 73
11
 74
0
 42
0.0000001
 43
0.0000001
 44
0.0000000001
 40
0.0
 40
0.0
 40
0.0
 40
0.0
 40
0.0997810803
 40
0.2185052306
 40
0.3541227471
 40
0.4998928019
 40
0.6455809264
 40
0.7815118629
 40
0.9006669685
 40
1.0
 40
1.0
 40
1.0
 40
1.0
 10
5.0817744542
 20
4.7914536015
 30
0.0
 10
5.0831214836
 20
4.7916335758
 30
0.0
 10
5.086080746
 20
4.7919573273
 30
0.0
 10
5.0908913756
 20
4.7923144854
 30
0.0
 10
5.0963369299
 20
4.7925429866
 30
0.0
 10
5.1021538647
 20
4.792618586
 30
0.0
 10
5.1079749623
 20
4.792538107
 30
0.0
 10
5.1134295593
 20
4.792312525
 30
0.0
 10
5.1182448296
 20
4.7919623782
 30
0.0
 10
5.12120354
 20
4.7916349082
 30
0.0
 10
5.122544233
 20
4.7914536015
 30
0.0
  0
SPLINE
  5
2FF
100
AcDbEntity
  8
0
100
AcDbSpline
 62
7
  6
CONTINUOUS
 70
0
 71
3
 72
15
 73
11
 74
0
 42
0.0000001
 43
0.0000001
 44
0.0000000001
 40
0.0
 40
0.0
 40
0.0
 40
0.0
 40
0.1004793643
 40
0.2193473817
 40
0.3546710051
 40
0.499909361
 40
0.6450611592
 40
0.780683837
 40
0.8999562098
 40
1.0
 40
1.0
 40
1.0
 40
1.0
 10
5.0817744542
 20
4.8010853138
 30
0.0
 10
5.0831155704
 20
4.8013830257
 30
0.0
 10
5.0860684364
 20
4.8019205076
 30
0.0
 10
5.0908831432
 20
4.8025149107
 30
0.0
 10
5.0963334077
 20
4.8028952078
 30
0.0
 10
5.1021544869
 20
4.8030209609
 30
0.0
 10
5.1079793583
 20
4.8028870439
 30
0.0
 10
5.1134381203
 20
4.8025116721
 30
0.0
 10
5.118258135
 20
4.8019287418
 30
0.0
 10
5.1212096974
 20
4.8013851687
 30
0.0
 10
5.122544233
 20
4.8010853138
 30
0.0
  0
SPLINE
  5
300
100
AcDbEntity
  8
0
100
AcDbSpline
 62
7
  6
CONTINUOUS
 70
0
 71
3
 72
16
 73
12
 74
0
 42
0.0000001
 43
0.0000001
 44
0.0000000001
 40
0.0
 40
0.0
 40
0.0
 40
0.0
 40
0.1014827257
 40
0.158875207
 40
0.2205607762
 40
0.3554456663
 40
0.4999050941
 40
0.644288343
 40
0.7794713273
 40
0.8989276597
 40
1.0
 40
1.0
 40
1.0
 40
1.0
 10
5.0817744542
 20
4.8098278039
 30
0.0
 10
5.0831074088
 20
4.8102401308
 30
0.0
 10
5.085227866
 20
4.8107793193
 30
0.0
 10
5.0882048265
 20
4.8113584073
 30
0.0
 10
5.0916558974
 20
4.8118952309
 30
0.0
 10
5.096327012
 20
4.8123493795
 30
0.0
 10
5.1021539873
 20
4.8125251733
 30
0.0
 10
5.107984637
 20
4.8123382087
 30
0.0
 10
5.1134498417
 20
4.8118139754
 30
0.0
 10
5.1182768198
 20
4.8109993943
 30
0.0
 10
5.1212180854
 20
4.8102430154
 30
0.0
 10
5.122544233
 20
4.8098278039
 30
0.0
  0
SPLINE
  5
301
100
AcDbEntity
  8
0
100
AcDbSpline
 62
7
  6
CONTINUOUS
 70
0
 71
3
 72
17
 73
13
 74
0
 42
0.0000001
 43
0.0000001
 44
0.0000000001
 40
0.0
 40
0.0
 40
0.0
 40
0.0
 40
0.1027470103
 40
0.1603872679
 40
0.2220903032
 40
0.2876036702
 40
0.3564603967
 40
0.4999303377
 40
0.6433284886
 40
0.7779500869
 40
0.8976359618
 40
1.0
 40
1.0
 40
1.0
 40
1.0
 10
5.0817744542
 20
4.8176403102
 30
0.0
 10
5.0830976877
 20
4.8181632993
 30
0.0
 10
5.0852148106
 20
4.8188526918
 30
0.0
 10
5.0881999343
 20
4.8195948864
 30
0.0
 10
5.0907117599
 20
4.8200942494
 30
0.0
 10
5.093397682
 20
4.8204985888
 30
0.0
 10
5.0972257057
 20
4.8208963773
 30
0.0
 10
5.1021543098
 20
4.8210869851
 30
0.0
 10
5.1079920844
 20
4.820847374
 30
0.0
 10
5.1134652829
 20
4.8201756879
 30
0.0
 10
5.1183003568
 20
4.8191312219
 30
0.0
 10
5.121228106
 20
4.8181668184
 30
0.0
 10
5.122544233
 20
4.8176403102
 30
0.0
  0
SPLINE
  5
302
100
AcDbEntity
  8
0
100
AcDbSpline
 62
7
  6
CONTINUOUS
 70
0
 71
3
 72
17
 73
13
 74
0
 42
0.0000001
 43
0.0000001
 44
0.0000000001
 40
0.0
 40
0.0
 40
0.0
 40
0.0
 40
0.1042248078
 40
0.1621606041
 40
0.223889826
 40
0.2891893826
 40
0.357637668
 40
0.4999472734
 40
0.6421903215
 40
0.7761604505
 40
0.8961268646
 40
1.0
 40
1.0
 40
1.0
 40
1.0
 10
5.0817744542
 20
4.8244864073
 30
0.0
 10
5.0830870864
 20
4.825115546
 30
0.0
 10
5.0851998319
 20
4.8259519377
 30
0.0
 10
5.0881942537
 20
4.8268551413
 30
0.0
 10
5.090706963
 20
4.8274612668
 30
0.0
 10
5.093393989
 20
4.8279520353
 30
0.0
 10
5.0972207687
 20
4.8284345293
 30
0.0
 10
5.1021545272
 20
4.82866635
 30
0.0
 10
5.1080011488
 20
4.8283748702
 30
0.0
 10
5.1134836431
 20
4.8275575959
 30
0.0
 10
5.1183274624
 20
4.8262859073
 30
0.0
 10
5.1212390106
 20
4.8251196046
 30
0.0
 10
5.122544233
 20
4.8244864073
 30
0.0
  0
SPLINE
  5
303
100
AcDbEntity
  8
0
100
AcDbSpline
 62
7
  6
CONTINUOUS
 70
0
 71
3
 72
17
 73
13
 74
0
 42
0.0000001
 43
0.0000001
 44
0.0000000001
 40
0.0
 40
0.0
 40
0.0
 40
0.0
 40
0.1058594864
 40
0.1641283574
 40
0.2258919002
 40
0.2909572149
 40
0.3589520755
 40
0.4999662067
 40
0.6409197162
 40
0.7741695306
 40
0.8944583783
 40
1.0
 40
1.0
 40
1.0
 40
1.0
 10
5.0817744542
 20
4.8303341754
 30
0.0
 10
5.083076202
 20
4.831064613
 30
0.0
 10
5.0851836075
 20
4.8320439002
 30
0.0
 10
5.0881879859
 20
4.8331053046
 30
0.0
 10
5.0907015612
 20
4.8338155913
 30
0.0
 10
5.0933897781
 20
4.8343907094
 30
0.0
 10
5.0972150784
 20
4.8349557041
 30
0.0
 10
5.1021547738
 20
4.8352280141
 30
0.0
 10
5.108011611
 20
4.8348855386
 30
0.0
 10
5.1135043974
 20
4.8339251286
 30
0.0
 10
5.1183569447
 20
4.8324299522
 30
0.0
 10
5.1212501809
 20
4.8310691279
 30
0.0
 10
5.122544233
 20
4.8303341754
 30
0.0
  0
SPLINE
  5
304
100
AcDbEntity
  8
0
100
AcDbSpline
 62
7
  6
CONTINUOUS
 70
0
 71
3
 72
18
 73
14
 74
0
 42
0.0000001
 43
0.0000001
 44
0.0000000001
 40
0.0
 40
0.0
 40
0.0
 40
0.0
 40
0.1075888375
 40
0.166214141
 40
0.2280154287
 40
0.2928292114
 40
0.360334759
 40
0.4297069459
 40
0.5000266494
 40
0.6395841592
 40
0.7720580441
 40
0.8926939579
 40
1.0
 40
1.0
 40
1.0
 40
1.0
 10
5.0817744542
 20
4.8351563496
 30
0.0
 10
5.0830655023
 20
4.8359830459
 30
0.0
 10
5.0851667704
 20
4.8371002732
 30
0.0
 10
5.0881813383
 20
4.8383162511
 30
0.0
 10
5.0906957277
 20
4.8391275729
 30
0.0
 10
5.0933850857
 20
4.8397846234
 30
0.0
 10
5.0962213846
 20
4.8402627231
 30
0.0
 10
5.0991618178
 20
4.8405534386
 30
0.0
 10
5.1031414533
 20
4.8406748138
 30
0.0
 10
5.108023707
 20
4.8403491639
 30
0.0
 10
5.1135268688
 20
4.8392484877
 30
0.0
 10
5.1183876887
 20
4.8375348561
 30
0.0
 10
5.1212611368
 20
4.8359879488
 30
0.0
 10
5.122544233
 20
4.8351563496
 30
0.0
  0
SPLINE
  5
305
100
AcDbEntity
  8
0
100
AcDbSpline
 62
7
  6
CONTINUOUS
 70
0
 71
3
 72
18
 73
14
 74
0
 42
0.0000001
 43
0.0000001
 44
0.0000000001
 40
0.0
 40
0.0
 40
0.0
 40
0.0
 40
0.1093779691
 40
0.1683818159
 40
0.230232697
 40
0.294794432
 40
0.3617981043
 40
0.4304969709
 40
0.5000572323
 40
0.6381698812
 40
0.7698533273
 40
0.8908696258
 40
1.0
 40
1.0
 40
1.0
 40
1.0
 10
5.0817744542
 20
4.8389304466
 30
0.0
 10
5.0830553176
 20
4.8398482533
 30
0.0
 10
5.0851498686
 20
4.8410976986
 30
0.0
 10
5.0881745149
 20
4.8424637306
 30
0.0
 10
5.0906895912
 20
4.843372479
 30
0.0
 10
5.0933801341
 20
4.8441085498
 30
0.0
 10
5.0962180743
 20
4.8446442139
 30
0.0
 10
5.0991601938
 20
4.8449698948
 30
0.0
 10
5.1031424527
 20
4.8451059439
 30
0.0
 10
5.1080364201
 20
4.8447399725
 30
0.0
 10
5.1135506583
 20
4.8435029394
 30
0.0
 10
5.1184186354
 20
4.8415771598
 30
0.0
 10
5.1212715424
 20
4.8398534907
 30
0.0
 10
5.122544233
 20
4.8389304466
 30
0.0
  0
SPLINE
  5
306
100
AcDbEntity
  8
0
100
AcDbSpline
 62
7
  6
CONTINUOUS
 70
0
 71
3
 72
18
 73
14
 74
0
 42
0.0000001
 43
0.0000001
 44
0.0000000001
 40
0.0
 40
0.0
 40
0.0
 40
0.0
 40
0.1111757713
 40
0.1705675082
 40
0.2324751509
 40
0.2967868248
 40
0.3632842772
 40
0.4313001585
 40
0.5000883619
 40
0.6367334407
 40
0.7676235603
 40
0.8890373527
 40
1.0
 40
1.0
 40
1.0
 40
1.0
 10
5.0817744542
 20
4.84163887
 30
0.0
 10
5.0830458565
 20
4.8426425603
 30
0.0
 10
5.0851333551
 20
4.8440178277
 30
0.0
 10
5.0881676881
 20
4.8455284866
 30
0.0
 10
5.0906833146
 20
4.8465305472
 30
0.0
 10
5.0933749832
 20
4.8473423777
 30
0.0
 10
5.0962145887
 20
4.8479332675
 30
0.0
 10
5.099158472
 20
4.8482924914
 30
0.0
 10
5.1031435147
 20
4.8484426427
 30
0.0
 10
5.1080498462
 20
4.8480376242
 30
0.0
 10
5.1135751099
 20
4.8466687187
 30
0.0
 10
5.1184489596
 20
4.8445385371
 30
0.0
 10
5.121281189
 20
4.8426480913
 30
0.0
 10
5.122544233
 20
4.84163887
 30
0.0
  0
SPLINE
  5
307
100
AcDbEntity
  8
0
100
AcDbSpline
 62
7
  6
CONTINUOUS
 70
0
 71
3
 72
15
 73
11
 74
0
 42
0.0000001
 43
0.0000001
 44
0.0000000001
 40
0.0
 40
0.0
 40
0.0
 40
0.0
 40
0.1164448624
 40
0.2394229177
 40
0.4994969558
 40
0.6314076112
 40
0.7601895318
 40
0.8834392497
 40
0.9426144693
 40
1.0
 40
1.0
 40
1.0
 40
1.0
 10
5.0853088281
 20
4.8458699237
 30
0.0
 10
5.0864743834
 20
4.8466013252
 30
0.0
 10
5.0889772838
 20
4.8479432446
 30
0.0
 10
5.0945295884
 20
4.8499922452
 30
0.0
 10
5.1006616496
 20
4.8508011108
 30
0.0
 10
5.1068123244
 20
4.8503583597
 30
0.0
 10
5.1112673499
 20
4.8494228013
 30
0.0
 10
5.1147383885
 20
4.8481683228
 30
0.0
 10
5.1172861504
 20
4.8469229529
 30
0.0
 10
5.1184776687
 20
4.8462290236
 30
0.0
 10
5.1190510759
 20
4.8458670012
 30
0.0
  0
SPLINE
  5
308
100
AcDbEntity
  8
0
100
AcDbSpline
 62
7
  6
CONTINUOUS
 70
0
 71
3
 72
12
 73
8
 74
0
 42
0.0000001
 43
0.0000001
 44
0.0000000001
 40
0.0
 40
0.0
 40
0.0
 40
0.0
 40
0.1251433882
 40
0.2502955809
 40
0.5002025164
 40
0.7501139352
 40
1.0
 40
1.0
 40
1.0
 40
1.0
 10
5.0802007556
 20
4.8422508961
 30
0.0
 10
5.0795584262
 20
4.84156543
 30
0.0
 10
5.0783358693
 20
4.8401342363
 30
0.0
 10
5.0761779654
 20
4.8370560028
 30
0.0
 10
5.0740565435
 20
4.8328349121
 30
0.0
 10
5.0725292513
 20
4.8273868733
 30
0.0
 10
5.0721836812
 20
4.8236265541
 30
0.0
 10
5.0721837395
 20
4.821750785
 30
0.0
  0
SPLINE
  5
309
100
AcDbEntity
  8
0
100
AcDbSpline
 62
7
  6
CONTINUOUS
 70
0
 71
3
 72
12
 73
8
 74
0
 42
0.0000001
 43
0.0000001
 44
0.0000000001
 40
0.0
 40
0.0
 40
0.0
 40
0.0
 40
0.1251433882
 40
0.2502955809
 40
0.5002025164
 40
0.7501139352
 40
1.0
 40
1.0
 40
1.0
 40
1.0
 10
5.0802007556
 20
4.3784807814
 30
0.0
 10
5.0795584262
 20
4.3791662475
 30
0.0
 10
5.0783358693
 20
4.3805974412
 30
0.0
 10
5.0761779654
 20
4.3836756747
 30
0.0
 10
5.0740565435
 20
4.3878967654
 30
0.0
 10
5.0725292513
 20
4.3933448042
 30
0.0
 10
5.0721836812
 20
4.3971051234
 30
0.0
 10
5.0721837395
 20
4.3989808925
 30
0.0
  0
SPLINE
  5
30A
100
AcDbEntity
  8
0
100
AcDbSpline
 62
7
  6
CONTINUOUS
 70
0
 71
3
 72
21
 73
17
 74
0
 42
0.0000001
 43
0.0000001
 44
0.0000000001
 40
0.0
 40
0.0
 40
0.0
 40
0.0
 40
0.1238514945
 40
0.1861613147
 40
0.2486331389
 40
0.3112319153
 40
0.3740457241
 40
0.4369812676
 40
0.4999740696
 40
0.5629733947
 40
0.6259028918
 40
0.688720909
 40
0.7513605219
 40
0.8138449874
 40
0.8761396475
 40
1.0
 40
1.0
 40
1.0
 40
1.0
 10
5.0817744542
 20
4.4109038736
 30
0.0
 10
5.0829953057
 20
4.4093541812
 30
0.0
 10
5.0850296788
 20
4.4071681254
 30
0.0
 10
5.0881205416
 20
4.4046835875
 30
0.0
 10
5.0906359689
 20
4.4030649692
 30
0.0
 10
5.0933329602
 20
4.4017498945
 30
0.0
 10
5.096184533
 20
4.4007904719
 30
0.0
 10
5.0991427465
 20
4.4002068515
 30
0.0
 10
5.1021554036
 20
4.4000234806
 30
0.0
 10
5.1051659425
 20
4.4002316744
 30
0.0
 10
5.1081215441
 20
4.4008252746
 30
0.0
 10
5.1109746911
 20
4.4017795944
 30
0.0
 10
5.1136821837
 20
4.4030736957
 30
0.0
 10
5.1162132367
 20
4.4046695455
 30
0.0
 10
5.1193121384
 20
4.4071460055
 30
0.0
 10
5.1213324113
 20
4.4093469311
 30
0.0
 10
5.122544233
 20
4.4109038736
 30
0.0
  0
SPLINE
  5
30B
100
AcDbEntity
  8
0
100
AcDbSpline
 62
7
  6
CONTINUOUS
 70
0
 71
3
 72
22
 73
18
 74
0
 42
0.0000001
 43
0.0000001
 44
0.0000000001
 40
0.0
 40
0.0
 40
0.0
 40
0.0
 40
0.1243185369
 40
0.1867388381
 40
0.2492320054
 40
0.3117624756
 40
0.3744276854
 40
0.4371562126
 40
0.4999116052
 40
0.5626743713
 40
0.6253980268
 40
0.6880663908
 40
0.7506327205
 40
0.8131321379
 40
0.8755348006
 40
0.9378435186
 40
1.0
 40
1.0
 40
1.0
 40
1.0
 10
5.0817744542
 20
4.4196463637
 30
0.0
 10
5.0829938246
 20
4.4180764192
 30
0.0
 10
5.0850261927
 20
4.4158602828
 30
0.0
 10
5.0881188098
 20
4.4133384035
 30
0.0
 10
5.0906340856
 20
4.4116964508
 30
0.0
 10
5.0933311629
 20
4.4103622286
 30
0.0
 10
5.096183173
 20
4.4093886982
 30
0.0
 10
5.0991420177
 20
4.4087964583
 30
0.0
 10
5.1021554277
 20
4.4086103697
 30
0.0
 10
5.1051666768
 20
4.4088216434
 30
0.0
 10
5.1081228548
 20
4.4094239915
 30
0.0
 10
5.1109763863
 20
4.4103922953
 30
0.0
 10
5.1136840909
 20
4.4117053021
 30
0.0
 10
5.1162148848
 20
4.4133240511
 30
0.0
 10
5.1185448063
 20
4.4152129988
 30
0.0
 10
5.1206625791
 20
4.417327353
 30
0.0
 10
5.1219391764
 20
4.4188578743
 30
0.0
 10
5.122544233
 20
4.4196463637
 30
0.0
  0
SPLINE
  5
30C
100
AcDbEntity
  8
ALL_FEATURES
100
AcDbSpline
 62
7
  6
CONTINUOUS
 70
0
 71
3
 72
15
 73
11
 74
0
 42
0.0000001
 43
0.0000001
 44
0.0000000001
 40
0.0
 40
0.0
 40
0.0
 40
0.0
 40
0.1250395163
 40
0.2500537747
 40
0.3750372168
 40
0.5000002191
 40
0.6249632571
 40
0.7499467557
 40
0.8749607199
 40
1.0
 40
1.0
 40
1.0
 40
1.0
 10
5.6007745362
 20
4.6927045618
 30
0.0
 10
5.6005167938
 20
4.6961513765
 30
0.0
 10
5.6000133223
 20
4.7030452679
 30
0.0
 10
5.5993917581
 20
4.7133941693
 30
0.0
 10
5.5989833772
 20
4.72375203
 30
0.0
 10
5.5988410537
 20
4.7341158598
 30
0.0
 10
5.5989833383
 20
4.7444796913
 30
0.0
 10
5.599391642
 20
4.7548375498
 30
0.0
 10
5.6000132571
 20
4.7651864358
 30
0.0
 10
5.6005167943
 20
4.7720803075
 30
0.0
 10
5.6007745362
 20
4.7755271157
 30
0.0
  0
SPLINE
  5
30D
100
AcDbEntity
  8
0
100
AcDbSpline
 62
7
  6
CONTINUOUS
 70
0
 71
3
 72
22
 73
18
 74
0
 42
0.0000001
 43
0.0000001
 44
0.0000000001
 40
0.0
 40
0.0
 40
0.0
 40
0.0
 40
0.1246411938
 40
0.1871409573
 40
0.2496540975
 40
0.3121445636
 40
0.3747159398
 40
0.4373113939
 40
0.4999132738
 40
0.5625231
 40
0.6251144719
 40
0.6876882949
 40
0.7502112897
 40
0.8127264093
 40
0.8752068803
 40
0.9376531266
 40
1.0
 40
1.0
 40
1.0
 40
1.0
 10
5.0817744542
 20
4.429278076
 30
0.0
 10
5.0829928497
 20
4.4276945862
 30
0.0
 10
5.0850238823
 20
4.4254583384
 30
0.0
 10
5.0881176563
 20
4.4229114546
 30
0.0
 10
5.090632825
 20
4.4212538862
 30
0.0
 10
5.0933299541
 20
4.4199068459
 30
0.0
 10
5.0961822547
 20
4.418923867
 30
0.0
 10
5.0991415244
 20
4.4183258525
 30
0.0
 10
5.1021554439
 20
4.4181379425
 30
0.0
 10
5.1051671744
 20
4.4183512807
 30
0.0
 10
5.1081237376
 20
4.4189594863
 30
0.0
 10
5.1109775353
 20
4.419937165
 30
0.0
 10
5.1136853358
 20
4.4212627921
 30
0.0
 10
5.116216102
 20
4.4228970011
 30
0.0
 10
5.1185458752
 20
4.4248038615
 30
0.0
 10
5.1206634362
 20
4.4269381411
 30
0.0
 10
5.1219394102
 20
4.4284824548
 30
0.0
 10
5.122544233
 20
4.429278076
 30
0.0
  0
SPLINE
  5
30E
100
AcDbEntity
  8
0
100
AcDbSpline
 62
7
  6
CONTINUOUS
 70
0
 71
3
 72
22
 73
18
 74
0
 42
0.0000001
 43
0.0000001
 44
0.0000000001
 40
0.0
 40
0.0
 40
0.0
 40
0.0
 40
0.1248026811
 40
0.1873422968
 40
0.2498655241
 40
0.3123360248
 40
0.3748604268
 40
0.4373891965
 40
0.4999141176
 40
0.5624472731
 40
0.6249723572
 40
0.6874988508
 40
0.7500002101
 40
0.8125232782
 40
0.8750427746
 40
0.9375578852
 40
1.0
 40
1.0
 40
1.0
 40
1.0
 10
5.0817744542
 20
4.439754103
 30
0.0
 10
5.0829923659
 20
4.4381638274
 30
0.0
 10
5.0850227313
 20
4.4359175064
 30
0.0
 10
5.0881170799
 20
4.4333580873
 30
0.0
 10
5.0906321932
 20
4.4316926932
 30
0.0
 10
5.0933293465
 20
4.4303392281
 30
0.0
 10
5.096181792
 20
4.4293515118
 30
0.0
 10
5.0991412755
 20
4.4287506015
 30
0.0
 10
5.1021554521
 20
4.4285617779
 30
0.0
 10
5.1051674255
 20
4.4287761515
 30
0.0
 10
5.1081241823
 20
4.4293872945
 30
0.0
 10
5.1109781129
 20
4.4303696734
 30
0.0
 10
5.1136859599
 20
4.4317016264
 30
0.0
 10
5.1162167104
 20
4.4333435834
 30
0.0
 10
5.1185464079
 20
4.4352594202
 30
0.0
 10
5.1206638621
 20
4.4374036843
 30
0.0
 10
5.1219395262
 20
4.4389549082
 30
0.0
 10
5.122544233
 20
4.439754103
 30
0.0
  0
SPLINE
  5
30F
100
AcDbEntity
  8
0
100
AcDbSpline
 62
7
  6
CONTINUOUS
 70
0
 71
3
 72
22
 73
18
 74
0
 42
0.0000001
 43
0.0000001
 44
0.0000000001
 40
0.0
 40
0.0
 40
0.0
 40
0.0
 40
0.1248026811
 40
0.1873422968
 40
0.2498655241
 40
0.3123360248
 40
0.3748604268
 40
0.4373891965
 40
0.4999141176
 40
0.5624472731
 40
0.6249723572
 40
0.6874988508
 40
0.7500002101
 40
0.8125232782
 40
0.8750427746
 40
0.9375578852
 40
1.0
 40
1.0
 40
1.0
 40
1.0
 10
5.0817744542
 20
4.4510256008
 30
0.0
 10
5.0829923659
 20
4.4494353251
 30
0.0
 10
5.0850227313
 20
4.4471890042
 30
0.0
 10
5.0881170799
 20
4.444629585
 30
0.0
 10
5.0906321932
 20
4.4429641909
 30
0.0
 10
5.0933293465
 20
4.4416107258
 30
0.0
 10
5.096181792
 20
4.4406230096
 30
0.0
 10
5.0991412755
 20
4.4400220992
 30
0.0
 10
5.1021554521
 20
4.4398332757
 30
0.0
 10
5.1051674255
 20
4.4400476493
 30
0.0
 10
5.1081241823
 20
4.4406587923
 30
0.0
 10
5.1109781129
 20
4.4416411711
 30
0.0
 10
5.1136859599
 20
4.4429731241
 30
0.0
 10
5.1162167104
 20
4.4446150811
 30
0.0
 10
5.1185464079
 20
4.4465309179
 30
0.0
 10
5.1206638621
 20
4.448675182
 30
0.0
 10
5.1219395262
 20
4.4502264059
 30
0.0
 10
5.122544233
 20
4.4510256008
 30
0.0
  0
SPLINE
  5
310
100
AcDbEntity
  8
0
100
AcDbSpline
 62
7
  6
CONTINUOUS
 70
0
 71
3
 72
15
 73
11
 74
0
 42
0.0000001
 43
0.0000001
 44
0.0000000001
 40
0.0
 40
0.0
 40
0.0
 40
0.0
 40
0.0989686066
 40
0.2180595851
 40
0.3541454498
 40
0.5001034405
 40
0.6461457195
 40
0.7819153742
 40
0.9005756554
 40
1.0
 40
1.0
 40
1.0
 40
1.0
 10
5.122544233
 20
4.4510256008
 30
0.0
 10
5.1212002957
 20
4.4510862769
 30
0.0
 10
5.1182380578
 20
4.4511956477
 30
0.0
 10
5.1134253856
 20
4.4513124281
 30
0.0
 10
5.1079730847
 20
4.4513876771
 30
0.0
 10
5.1021539815
 20
4.4514145288
 30
0.0
 10
5.0963391648
 20
4.4513893116
 30
0.0
 10
5.0908958734
 20
4.4513130875
 30
0.0
 10
5.0860872267
 20
4.4511939577
 30
0.0
 10
5.083124613
 20
4.4510858251
 30
0.0
 10
5.0817744542
 20
4.4510256008
 30
0.0
  0
SPLINE
  5
311
100
AcDbEntity
  8
0
100
AcDbSpline
 62
7
  6
CONTINUOUS
 70
0
 71
3
 72
22
 73
18
 74
0
 42
0.0000001
 43
0.0000001
 44
0.0000000001
 40
0.0
 40
0.0
 40
0.0
 40
0.0
 40
0.1246411938
 40
0.1871409573
 40
0.2496540975
 40
0.3121445636
 40
0.3747159398
 40
0.4373113939
 40
0.4999132738
 40
0.5625231
 40
0.6251144719
 40
0.6876882949
 40
0.7502112897
 40
0.8127264093
 40
0.8752068803
 40
0.9376531266
 40
1.0
 40
1.0
 40
1.0
 40
1.0
 10
5.0817744542
 20
4.4630400162
 30
0.0
 10
5.0829928497
 20
4.4614565265
 30
0.0
 10
5.0850238823
 20
4.4592202786
 30
0.0
 10
5.0881176563
 20
4.4566733948
 30
0.0
 10
5.090632825
 20
4.4550158264
 30
0.0
 10
5.0933299541
 20
4.4536687862
 30
0.0
 10
5.0961822547
 20
4.4526858072
 30
0.0
 10
5.0991415244
 20
4.4520877928
 30
0.0
 10
5.1021554439
 20
4.4518998827
 30
0.0
 10
5.1051671744
 20
4.4521132209
 30
0.0
 10
5.1081237376
 20
4.4527214266
 30
0.0
 10
5.1109775353
 20
4.4536991053
 30
0.0
 10
5.1136853358
 20
4.4550247323
 30
0.0
 10
5.116216102
 20
4.4566589413
 30
0.0
 10
5.1185458752
 20
4.4585658018
 30
0.0
 10
5.1206634362
 20
4.4607000813
 30
0.0
 10
5.1219394102
 20
4.4622443951
 30
0.0
 10
5.122544233
 20
4.4630400162
 30
0.0
  0
SPLINE
  5
312
100
AcDbEntity
  8
0
100
AcDbSpline
 62
7
  6
CONTINUOUS
 70
0
 71
3
 72
15
 73
11
 74
0
 42
0.0000001
 43
0.0000001
 44
0.0000000001
 40
0.0
 40
0.0
 40
0.0
 40
0.0
 40
0.0993343381
 40
0.2184873556
 40
0.3544168313
 40
0.5001032151
 40
0.6458726939
 40
0.7814891391
 40
0.9002179548
 40
1.0
 40
1.0
 40
1.0
 40
1.0
 10
5.122544233
 20
4.4630400162
 30
0.0
 10
5.1212035223
 20
4.4632213253
 30
0.0
 10
5.1182448221
 20
4.4635487903
 30
0.0
 10
5.113429583
 20
4.4638989435
 30
0.0
 10
5.1079750576
 20
4.4641245173
 30
0.0
 10
5.1021540117
 20
4.4642049977
 30
0.0
 10
5.0963371226
 20
4.4641294152
 30
0.0
 10
5.0908915279
 20
4.4639008996
 30
0.0
 10
5.0860808349
 20
4.4635437565
 30
0.0
 10
5.0831214966
 20
4.4632199922
 30
0.0
 10
5.0817744542
 20
4.4630400162
 30
0.0
  0
SPLINE
  5
313
100
AcDbEntity
  8
0
100
AcDbSpline
 62
7
  6
CONTINUOUS
 70
0
 71
3
 72
22
 73
18
 74
0
 42
0.0000001
 43
0.0000001
 44
0.0000000001
 40
0.0
 40
0.0
 40
0.0
 40
0.0
 40
0.1243185369
 40
0.1867388381
 40
0.2492320054
 40
0.3117624756
 40
0.3744276854
 40
0.4371562126
 40
0.4999116052
 40
0.5626743713
 40
0.6253980268
 40
0.6880663908
 40
0.7506327205
 40
0.8131321379
 40
0.8755348006
 40
0.9378435186
 40
1.0
 40
1.0
 40
1.0
 40
1.0
 10
5.0817744542
 20
4.4757413327
 30
0.0
 10
5.0829938246
 20
4.4741713882
 30
0.0
 10
5.0850261927
 20
4.4719552518
 30
0.0
 10
5.0881188098
 20
4.4694333725
 30
0.0
 10
5.0906340856
 20
4.4677914198
 30
0.0
 10
5.0933311629
 20
4.4664571976
 30
0.0
 10
5.096183173
 20
4.4654836672
 30
0.0
 10
5.0991420177
 20
4.4648914273
 30
0.0
 10
5.1021554277
 20
4.4647053387
 30
0.0
 10
5.1051666768
 20
4.4649166124
 30
0.0
 10
5.1081228548
 20
4.4655189605
 30
0.0
 10
5.1109763863
 20
4.4664872643
 30
0.0
 10
5.1136840909
 20
4.4678002711
 30
0.0
 10
5.1162148848
 20
4.4694190201
 30
0.0
 10
5.1185448063
 20
4.4713079678
 30
0.0
 10
5.1206625791
 20
4.473422322
 30
0.0
 10
5.1219391764
 20
4.4749528433
 30
0.0
 10
5.122544233
 20
4.4757413327
 30
0.0
  0
SPLINE
  5
314
100
AcDbEntity
  8
0
100
AcDbSpline
 62
7
  6
CONTINUOUS
 70
0
 71
3
 72
15
 73
11
 74
0
 42
0.0000001
 43
0.0000001
 44
0.0000000001
 40
0.0
 40
0.0
 40
0.0
 40
0.0
 40
0.1000479418
 40
0.2193237736
 40
0.3549480262
 40
0.5001026894
 40
0.6453380994
 40
0.7806555648
 40
0.8995198906
 40
1.0
 40
1.0
 40
1.0
 40
1.0
 10
5.122544233
 20
4.4757413327
 30
0.0
 10
5.121209642
 20
4.4760412
 30
0.0
 10
5.1182579766
 20
4.4765847898
 30
0.0
 10
5.1134378349
 20
4.4771677179
 30
0.0
 10
5.107978964
 20
4.4775430835
 30
0.0
 10
5.1021540718
 20
4.4776769682
 30
0.0
 10
5.0963330774
 20
4.4775512281
 30
0.0
 10
5.09088299
 20
4.4771709066
 30
0.0
 10
5.0860684072
 20
4.4765765197
 30
0.0
 10
5.0831155803
 20
4.4760390468
 30
0.0
 10
5.0817744542
 20
4.4757413327
 30
0.0
  0
SPLINE
  5
315
100
AcDbEntity
  8
0
100
AcDbSpline
 62
7
  6
CONTINUOUS
 70
0
 71
3
 72
21
 73
17
 74
0
 42
0.0000001
 43
0.0000001
 44
0.0000000001
 40
0.0
 40
0.0
 40
0.0
 40
0.0
 40
0.1238514945
 40
0.1861613147
 40
0.2486331389
 40
0.3112319153
 40
0.3740457241
 40
0.4369812676
 40
0.4999740696
 40
0.5629733947
 40
0.6259028918
 40
0.688720909
 40
0.7513605219
 40
0.8138449874
 40
0.8761396475
 40
1.0
 40
1.0
 40
1.0
 40
1.0
 10
5.0817744542
 20
4.4890703307
 30
0.0
 10
5.0829953057
 20
4.4875206384
 30
0.0
 10
5.0850296788
 20
4.4853345825
 30
0.0
 10
5.0881205416
 20
4.4828500446
 30
0.0
 10
5.0906359689
 20
4.4812314264
 30
0.0
 10
5.0933329602
 20
4.4799163517
 30
0.0
 10
5.096184533
 20
4.478956929
 30
0.0
 10
5.0991427465
 20
4.4783733087
 30
0.0
 10
5.1021554036
 20
4.4781899378
 30
0.0
 10
5.1051659425
 20
4.4783981315
 30
0.0
 10
5.1081215441
 20
4.4789917317
 30
0.0
 10
5.1109746911
 20
4.4799460515
 30
0.0
 10
5.1136821837
 20
4.4812401528
 30
0.0
 10
5.1162132367
 20
4.4828360026
 30
0.0
 10
5.1193121384
 20
4.4853124626
 30
0.0
 10
5.1213324113
 20
4.4875133883
 30
0.0
 10
5.122544233
 20
4.4890703307
 30
0.0
  0
SPLINE
  5
316
100
AcDbEntity
  8
0
100
AcDbSpline
 62
7
  6
CONTINUOUS
 70
0
 71
3
 72
16
 73
12
 74
0
 42
0.0000001
 43
0.0000001
 44
0.0000000001
 40
0.0
 40
0.0
 40
0.0
 40
0.0
 40
0.1010736458
 40
0.2205279114
 40
0.3557094361
 40
0.5000909637
 40
0.6445498067
 40
0.7794336365
 40
0.8411219389
 40
0.8985162824
 40
1.0
 40
1.0
 40
1.0
 40
1.0
 10
5.122544233
 20
4.4890703307
 30
0.0
 10
5.1212180682
 20
4.4894855476
 30
0.0
 10
5.1182768107
 20
4.4902419153
 30
0.0
 10
5.1134498664
 20
4.4910565108
 30
0.0
 10
5.1079847316
 20
4.4915807253
 30
0.0
 10
5.102154135
 20
4.4917676936
 30
0.0
 10
5.0963272041
 20
4.491591937
 30
0.0
 10
5.0916560762
 20
4.4911377676
 30
0.0
 10
5.0882049559
 20
4.4906009483
 30
0.0
 10
5.0852279149
 20
4.4900218702
 30
0.0
 10
5.0831074218
 20
4.4894826617
 30
0.0
 10
5.0817744542
 20
4.4890703307
 30
0.0
  0
SPLINE
  5
317
100
AcDbEntity
  8
0
100
AcDbSpline
 62
7
  6
CONTINUOUS
 70
0
 71
3
 72
22
 73
18
 74
0
 42
0.0000001
 43
0.0000001
 44
0.0000000001
 40
0.0
 40
0.0
 40
0.0
 40
0.0
 40
0.1231930471
 40
0.1853378865
 40
0.2477632726
 40
0.3104344471
 40
0.3734267242
 40
0.4366177225
 40
0.4999059703
 40
0.5631996208
 40
0.626383027
 40
0.6893809028
 40
0.7520994898
 40
0.8145460013
 40
0.8766789874
 40
0.9385086631
 40
1.0
 40
1.0
 40
1.0
 40
1.0
 10
5.0817744542
 20
4.5029648644
 30
0.0
 10
5.0829973154
 20
4.5014420538
 30
0.0
 10
5.0850343638
 20
4.4992959449
 30
0.0
 10
5.0881228524
 20
4.496860886
 30
0.0
 10
5.0906384648
 20
4.4952732137
 30
0.0
 10
5.0933353262
 20
4.4939835209
 30
0.0
 10
5.0961863136
 20
4.4930427877
 30
0.0
 10
5.0991436974
 20
4.4924705808
 30
0.0
 10
5.1021553726
 20
4.4922908083
 30
0.0
 10
5.105164982
 20
4.4924949221
 30
0.0
 10
5.1081198357
 20
4.4930769463
 30
0.0
 10
5.1109724302
 20
4.4940127053
 30
0.0
 10
5.1136797693
 20
4.4952818723
 30
0.0
 10
5.1162106212
 20
4.4968468912
 30
0.0
 10
5.1185410275
 20
4.4986735626
 30
0.0
 10
5.1206595241
 20
4.5007186358
 30
0.0
 10
5.1219383381
 20
4.5022011742
 30
0.0
 10
5.122544233
 20
4.5029648644
 30
0.0
  0
SPLINE
  5
318
100
AcDbEntity
  8
0
100
AcDbSpline
 62
7
  6
CONTINUOUS
 70
0
 71
3
 72
17
 73
13
 74
0
 42
0.0000001
 43
0.0000001
 44
0.0000000001
 40
0.0
 40
0.0
 40
0.0
 40
0.0
 40
0.1023653407
 40
0.2220491621
 40
0.3566692985
 40
0.5000657395
 40
0.6435350858
 40
0.7123911862
 40
0.7779041466
 40
0.8396098929
 40
0.8972519804
 40
1.0
 40
1.0
 40
1.0
 40
1.0
 10
5.122544233
 20
4.5029648644
 30
0.0
 10
5.1212280892
 20
4.5034913793
 30
0.0
 10
5.1183003465
 20
4.5044557688
 30
0.0
 10
5.1134653082
 20
4.5055002533
 30
0.0
 10
5.1079921787
 20
4.5061719133
 30
0.0
 10
5.102154457
 20
4.5064115387
 30
0.0
 10
5.0972258946
 20
4.5062209409
 30
0.0
 10
5.093397887
 20
4.505823205
 30
0.0
 10
5.090711949
 20
4.5054188133
 30
0.0
 10
5.0882000637
 20
4.5049194609
 30
0.0
 10
5.0852148578
 20
4.5041772753
 30
0.0
 10
5.0830977008
 20
4.5034878587
 30
0.0
 10
5.0817744542
 20
4.5029648644
 30
0.0
  0
SPLINE
  5
319
100
AcDbEntity
  8
0
100
AcDbSpline
 62
7
  6
CONTINUOUS
 70
0
 71
3
 72
21
 73
17
 74
0
 42
0.0000001
 43
0.0000001
 44
0.0000000001
 40
0.0
 40
0.0
 40
0.0
 40
0.0
 40
0.1224091726
 40
0.1843679159
 40
0.2467549629
 40
0.3095352778
 40
0.3727678398
 40
0.4362939939
 40
0.4999665772
 40
0.563643189
 40
0.6271598476
 40
0.6903997243
 40
0.7532356051
 40
0.8156543285
 40
0.8776053427
 40
1.0
 40
1.0
 40
1.0
 40
1.0
 10
5.0817744542
 20
4.5173601511
 30
0.0
 10
5.0829998836
 20
4.5158707518
 30
0.0
 10
5.0850402759
 20
4.5137743208
 30
0.0
 10
5.0881257417
 20
4.5114006117
 30
0.0
 10
5.0906415587
 20
4.5098513541
 30
0.0
 10
5.0933382339
 20
4.5085931506
 30
0.0
 10
5.0961884871
 20
4.5076755856
 30
0.0
 10
5.0991448533
 20
4.5071175199
 30
0.0
 10
5.1021553345
 20
4.5069422033
 30
0.0
 10
5.1051638165
 20
4.5071412659
 30
0.0
 10
5.1081177425
 20
4.5077089365
 30
0.0
 10
5.1109696813
 20
4.5086217176
 30
0.0
 10
5.1136766707
 20
4.5098598291
 30
0.0
 10
5.1162077558
 20
4.5113870403
 30
0.0
 10
5.1193009805
 20
4.5137526405
 30
0.0
 10
5.1213277945
 20
4.5158636943
 30
0.0
 10
5.122544233
 20
4.5173601511
 30
0.0
  0
SPLINE
  5
31A
100
AcDbEntity
  8
0
100
AcDbSpline
 62
7
  6
CONTINUOUS
 70
0
 71
3
 72
17
 73
13
 74
0
 42
0.0000001
 43
0.0000001
 44
0.0000000001
 40
0.0
 40
0.0
 40
0.0
 40
0.0
 40
0.1038744364
 40
0.2238388143
 40
0.3578074807
 40
0.5000488349
 40
0.6423578359
 40
0.710805476
 40
0.7761046635
 40
0.8378365716
 40
0.8957741611
 40
1.0
 40
1.0
 40
1.0
 40
1.0
 10
5.122544233
 20
4.5173601511
 30
0.0
 10
5.1212389942
 20
4.5179933564
 30
0.0
 10
5.1183274508
 20
4.5191596427
 30
0.0
 10
5.1134836692
 20
4.5204313529
 30
0.0
 10
5.1080012426
 20
4.5212485962
 30
0.0
 10
5.1021546746
 20
4.5215400929
 30
0.0
 10
5.0972209588
 20
4.5213082848
 30
0.0
 10
5.0933941922
 20
4.5208258539
 30
0.0
 10
5.0907071536
 20
4.5203350225
 30
0.0
 10
5.0881943834
 20
4.5197289099
 30
0.0
 10
5.085199877
 20
4.5188257163
 30
0.0
 10
5.0830870995
 20
4.5179892961
 30
0.0
 10
5.0817744542
 20
4.5173601511
 30
0.0
  0
SPLINE
  5
31B
100
AcDbEntity
  8
0
100
AcDbSpline
 62
7
  6
CONTINUOUS
 70
0
 71
3
 72
21
 73
17
 74
0
 42
0.0000001
 43
0.0000001
 44
0.0000000001
 40
0.0
 40
0.0
 40
0.0
 40
0.0
 40
0.1214549922
 40
0.1831839071
 40
0.2455174895
 40
0.3084194629
 40
0.3719286516
 40
0.4358431155
 40
0.4999617653
 40
0.5640828305
 40
0.6279855619
 40
0.6915040885
 40
0.7544712791
 40
0.8168490962
 40
0.8785752196
 40
1.0
 40
1.0
 40
1.0
 40
1.0
 10
5.0817744542
 20
4.5321890731
 30
0.0
 10
5.0830030477
 20
4.5307394946
 30
0.0
 10
5.0850474458
 20
4.5287023054
 30
0.0
 10
5.0881292066
 20
4.5264014818
 30
0.0
 10
5.0906452295
 20
4.5248979287
 30
0.0
 10
5.0933416487
 20
4.5236771634
 30
0.0
 10
5.0961910189
 20
4.522787118
 30
0.0
 10
5.0991461929
 20
4.5222458393
 30
0.0
 10
5.1021552907
 20
4.5220758106
 30
0.0
 10
5.1051624642
 20
4.5222688775
 30
0.0
 10
5.1081153079
 20
4.5228195103
 30
0.0
 10
5.1109664389
 20
4.5237049766
 30
0.0
 10
5.1136730546
 20
4.524906234
 30
0.0
 10
5.1162041074
 20
4.5263882286
 30
0.0
 10
5.119293429
 20
4.5286809301
 30
0.0
 10
5.1213246011
 20
4.530732563
 30
0.0
 10
5.122544233
 20
4.5321890731
 30
0.0
  0
SPLINE
  5
31C
100
AcDbEntity
  8
0
100
AcDbSpline
 62
7
  6
CONTINUOUS
 70
0
 71
3
 72
17
 73
13
 74
0
 42
0.0000001
 43
0.0000001
 44
0.0000000001
 40
0.0
 40
0.0
 40
0.0
 40
0.0
 40
0.1055415891
 40
0.2258291597
 40
0.3590772739
 40
0.5000283094
 40
0.6410413415
 40
0.7090346999
 40
0.7740992773
 40
0.8358669848
 40
0.894138631
 40
1.0
 40
1.0
 40
1.0
 40
1.0
 10
5.122544233
 20
4.5321890731
 30
0.0
 10
5.1212501812
 20
4.5329240254
 30
0.0
 10
5.1183569598
 20
4.5342848381
 30
0.0
 10
5.1135044577
 20
4.5357800154
 30
0.0
 10
5.1080117483
 20
4.5367404249
 30
0.0
 10
5.1021549844
 20
4.5370828975
 30
0.0
 10
5.0972153639
 20
4.5368106307
 30
0.0
 10
5.0933900914
 20
4.5362457438
 30
0.0
 10
5.0907018709
 20
4.5356705097
 30
0.0
 10
5.0881881998
 20
4.5349602503
 30
0.0
 10
5.0851836802
 20
4.5338988646
 30
0.0
 10
5.0830762253
 20
4.5329195238
 30
0.0
 10
5.0817744542
 20
4.5321890731
 30
0.0
  0
SPLINE
  5
31D
100
AcDbEntity
  8
0
100
AcDbSpline
 62
7
  6
CONTINUOUS
 70
0
 71
3
 72
21
 73
17
 74
0
 42
0.0000001
 43
0.0000001
 44
0.0000000001
 40
0.0
 40
0.0
 40
0.0
 40
0.0
 40
0.1203515601
 40
0.1818176777
 40
0.2440932278
 40
0.3071375961
 40
0.3709662713
 40
0.4353280574
 40
0.4999592581
 40
0.5645911142
 40
0.6289382799
 40
0.6927788048
 40
0.7558988619
 40
0.8182307501
 40
0.8796984513
 40
1.0
 40
1.0
 40
1.0
 40
1.0
 10
5.0817744542
 20
4.5473824914
 30
0.0
 10
5.0830068588
 20
4.5459789975
 30
0.0
 10
5.0850559171
 20
4.5440103901
 30
0.0
 10
5.0881333086
 20
4.5417935838
 30
0.0
 10
5.0906495594
 20
4.5403428228
 30
0.0
 10
5.0933456273
 20
4.5391651841
 30
0.0
 10
5.0961939929
 20
4.5383069138
 30
0.0
 10
5.0991478223
 20
4.5377850056
 30
0.0
 10
5.1021553778
 20
4.5376210699
 30
0.0
 10
5.105161086
 20
4.5378072475
 30
0.0
 10
5.1081127021
 20
4.5383382645
 30
0.0
 10
5.1109628773
 20
4.5391922605
 30
0.0
 10
5.113669005
 20
4.5403509765
 30
0.0
 10
5.1161999136
 20
4.5417807912
 30
0.0
 10
5.1192845412
 20
4.5439894389
 30
0.0
 10
5.1213207661
 20
4.5459722267
 30
0.0
 10
5.122544233
 20
4.5473824914
 30
0.0
  0
SPLINE
  5
31E
100
AcDbEntity
  8
0
100
AcDbSpline
 62
7
  6
CONTINUOUS
 70
0
 71
3
 72
18
 73
14
 74
0
 42
0.0000001
 43
0.0000001
 44
0.0000000001
 40
0.0
 40
0.0
 40
0.0
 40
0.0
 40
0.1073073433
 40
0.2279412626
 40
0.3604136865
 40
0.499969543
 40
0.5702884444
 40
0.6396607853
 40
0.7071656438
 40
0.7719791465
 40
0.8337830651
 40
0.8924100801
 40
1.0
 40
1.0
 40
1.0
 40
1.0
 10
5.122544233
 20
4.5473824914
 30
0.0
 10
5.1212611211
 20
4.5482141007
 30
0.0
 10
5.1183876741
 20
4.5497609877
 30
0.0
 10
5.1135268967
 20
4.551474647
 30
0.0
 10
5.1080237993
 20
4.5525752802
 30
0.0
 10
5.1031416043
 20
4.5529009563
 30
0.0
 10
5.0991620012
 20
4.5527795787
 30
0.0
 10
5.0962215844
 20
4.5524889067
 30
0.0
 10
5.0933852849
 20
4.5520108634
 30
0.0
 10
5.090695922
 20
4.5513537316
 30
0.0
 10
5.0881814685
 20
4.5505424265
 30
0.0
 10
5.0851668108
 20
4.5493264596
 30
0.0
 10
5.0830655153
 20
4.5482091961
 30
0.0
 10
5.0817744542
 20
4.5473824914
 30
0.0
  0
SPLINE
  5
31F
100
AcDbEntity
  8
0
100
AcDbSpline
 62
7
  6
CONTINUOUS
 70
0
 71
3
 72
21
 73
17
 74
0
 42
0.0000001
 43
0.0000001
 44
0.0000000001
 40
0.0
 40
0.0
 40
0.0
 40
0.0
 40
0.1191029733
 40
0.1802737317
 40
0.2424843845
 40
0.3056913684
 40
0.3698809309
 40
0.434744417
 40
0.4999504243
 40
0.5651549912
 40
0.6300013779
 40
0.694205159
 40
0.7575008315
 40
0.8197865448
 40
0.8809667528
 40
1.0
 40
1.0
 40
1.0
 40
1.0
 10
5.0817744542
 20
4.5628695671
 30
0.0
 10
5.0830113444
 20
4.5615182978
 30
0.0
 10
5.0850656695
 20
4.5596274651
 30
0.0
 10
5.0881378253
 20
4.5575053283
 30
0.0
 10
5.0906541799
 20
4.5561141584
 30
0.0
 10
5.0933498179
 20
4.5549853258
 30
0.0
 10
5.0961969873
 20
4.5541627474
 30
0.0
 10
5.0991493227
 20
4.5536625831
 30
0.0
 10
5.1021551887
 20
4.5535054966
 30
0.0
 10
5.1051593039
 20
4.5536838855
 30
0.0
 10
5.1081095677
 20
4.554192776
 30
0.0
 10
5.1109586865
 20
4.55501126
 30
0.0
 10
5.1136642523
 20
4.5561220313
 30
0.0
 10
5.1161950449
 20
4.557492885
 30
0.0
 10
5.1192742276
 20
4.5596068975
 30
0.0
 10
5.1213162174
 20
4.5615116732
 30
0.0
 10
5.122544233
 20
4.5628695671
 30
0.0
  0
SPLINE
  5
320
100
AcDbEntity
  8
0
100
AcDbSpline
 62
7
  6
CONTINUOUS
 70
0
 71
3
 72
18
 73
14
 74
0
 42
0.0000001
 43
0.0000001
 44
0.0000000001
 40
0.0
 40
0.0
 40
0.0
 40
0.0
 40
0.1091316753
 40
0.2301460004
 40
0.3618279849
 40
0.4999390017
 40
0.5694984672
 40
0.6381974638
 40
0.7052004222
 40
0.7697619253
 40
0.8316154075
 40
0.8906209224
 40
1.0
 40
1.0
 40
1.0
 40
1.0
 10
5.122544233
 20
4.5628695671
 30
0.0
 10
5.1212715271
 20
4.5637926222
 30
0.0
 10
5.1184186193
 20
4.5655162696
 30
0.0
 10
5.1135506871
 20
4.5674420789
 30
0.0
 10
5.1080365117
 20
4.5686790645
 30
0.0
 10
5.1031426038
 20
4.5690450652
 30
0.0
 10
5.0991603776
 20
4.5689090133
 30
0.0
 10
5.0962182745
 20
4.5685833813
 30
0.0
 10
5.093380331
 20
4.5680477795
 30
0.0
 10
5.0906897875
 20
4.5673116188
 30
0.0
 10
5.0881746453
 20
4.566402889
 30
0.0
 10
5.0851499066
 20
4.5650368679
 30
0.0
 10
5.0830553307
 20
4.5637873831
 30
0.0
 10
5.0817744542
 20
4.5628695671
 30
0.0
  0
SPLINE
  5
321
100
AcDbEntity
  8
0
100
AcDbSpline
 62
7
  6
CONTINUOUS
 70
0
 71
3
 72
21
 73
17
 74
0
 42
0.0000001
 43
0.0000001
 44
0.0000000001
 40
0.0
 40
0.0
 40
0.0
 40
0.0
 40
0.1177201109
 40
0.1785683235
 40
0.2407125479
 40
0.3041021525
 40
0.3686906611
 40
0.4341067512
 40
0.4999441202
 40
0.5657778585
 40
0.6311737881
 40
0.6957793156
 40
0.7592711954
 40
0.8215085105
 40
0.8823734143
 40
1.0
 40
1.0
 40
1.0
 40
1.0
 10
5.0817744542
 20
4.5785780923
 30
0.0
 10
5.0830165799
 20
4.577285006
 30
0.0
 10
5.0850767545
 20
4.575480803
 30
0.0
 10
5.0881429406
 20
4.5734634435
 30
0.0
 10
5.0906593733
 20
4.5721384146
 30
0.0
 10
5.0933544592
 20
4.5710636048
 30
0.0
 10
5.0962003237
 20
4.5702806056
 30
0.0
 10
5.0991510554
 20
4.5698045385
 30
0.0
 10
5.1021551324
 20
4.5696550324
 30
0.0
 10
5.1051575537
 20
4.5698248221
 30
0.0
 10
5.108106358
 20
4.5703092387
 30
0.0
 10
5.110954285
 20
4.5710884163
 30
0.0
 10
5.1136591541
 20
4.5721460216
 30
0.0
 10
5.1161896748
 20
4.5734514949
 30
0.0
 10
5.1192625428
 20
4.5754607538
 30
0.0
 10
5.1213109197
 20
4.5772785615
 30
0.0
 10
5.122544233
 20
4.5785780923
 30
0.0
  0
SPLINE
  5
322
100
AcDbEntity
  8
0
100
AcDbSpline
 62
7
  6
CONTINUOUS
 70
0
 71
3
 72
18
 73
14
 74
0
 42
0.0000001
 43
0.0000001
 44
0.0000000001
 40
0.0
 40
0.0
 40
0.0
 40
0.0
 40
0.1109639486
 40
0.2323757887
 40
0.363264446
 40
0.4999079142
 40
0.5686953279
 40
0.6367113147
 40
0.7032080275
 40
0.7675195187
 40
0.8294297324
 40
0.8888230943
 40
1.0
 40
1.0
 40
1.0
 40
1.0
 10
5.122544233
 20
4.5785780923
 30
0.0
 10
5.1212811741
 20
4.5795873255
 30
0.0
 10
5.118448942
 20
4.5814777484
 30
0.0
 10
5.1135751396
 20
4.5836079616
 30
0.0
 10
5.108049937
 20
4.5849768155
 30
0.0
 10
5.103143666
 20
4.5853818659
 30
0.0
 10
5.0991586563
 20
4.5852317115
 30
0.0
 10
5.0962147894
 20
4.5848725419
 30
0.0
 10
5.0933751779
 20
4.5842817198
 30
0.0
 10
5.090683513
 20
4.5834697914
 30
0.0
 10
5.0881678186
 20
4.5824677512
 30
0.0
 10
5.0851333906
 20
4.5809571025
 30
0.0
 10
5.0830458696
 20
4.5795817929
 30
0.0
 10
5.0817744542
 20
4.5785780923
 30
0.0
  0
SPLINE
  5
323
100
AcDbEntity
  8
0
100
AcDbSpline
 62
7
  6
CONTINUOUS
 70
0
 71
3
 72
21
 73
17
 74
0
 42
0.0000001
 43
0.0000001
 44
0.0000000001
 40
0.0
 40
0.0
 40
0.0
 40
0.0
 40
0.1162140847
 40
0.1767158223
 40
0.2387925941
 40
0.3023837511
 40
0.3674057572
 40
0.433419182
 40
0.4999375786
 40
0.5664500209
 40
0.6324400279
 40
0.6974820456
 40
0.7611900936
 40
0.8233795057
 40
0.8839058567
 40
1.0
 40
1.0
 40
1.0
 40
1.0
 10
5.0817744542
 20
4.5944348266
 30
0.0
 10
5.0830226106
 20
4.5932057332
 30
0.0
 10
5.0850891428
 20
4.5914967515
 30
0.0
 10
5.0881485482
 20
4.5895936551
 30
0.0
 10
5.0906649679
 20
4.5883409819
 30
0.0
 10
5.0933593803
 20
4.5873252026
 30
0.0
 10
5.0962038193
 20
4.586585401
 30
0.0
 10
5.0991528578
 20
4.5861356187
 30
0.0
 10
5.102155074
 20
4.5859943778
 30
0.0
 10
5.1051557325
 20
4.5861547901
 30
0.0
 10
5.1081029945
 20
4.5866125037
 30
0.0
 10
5.1109496202
 20
4.5873487713
 30
0.0
 10
5.1136536698
 20
4.5883482873
 30
0.0
 10
5.1161837954
 20
4.589582263
 30
0.0
 10
5.1192494799
 20
4.5914773105
 30
0.0
 10
5.1213048102
 20
4.5931994865
 30
0.0
 10
5.122544233
 20
4.5944348266
 30
0.0
  0
SPLINE
  5
324
100
AcDbEntity
  8
0
100
AcDbSpline
 62
7
  6
CONTINUOUS
 70
0
 71
3
 72
20
 73
16
 74
0
 42
0.0000001
 43
0.0000001
 44
0.0000000001
 40
0.0
 40
0.0
 40
0.0
 40
0.0
 40
0.1127359833
 40
0.1725424886
 40
0.234650799
 40
0.2988507623
 40
0.3648571713
 40
0.5000066354
 40
0.5680081876
 40
0.6353286403
 40
0.7013085409
 40
0.7653607994
 40
0.8273175721
 40
0.8870841447
 40
1.0
 40
1.0
 40
1.0
 40
1.0
 10
5.122544233
 20
4.5944348266
 30
0.0
 10
5.1212899524
 20
4.5955249001
 30
0.0
 10
5.1192194507
 20
4.597031111
 30
0.0
 10
5.1161707416
 20
4.5986722836
 30
0.0
 10
5.1136419377
 20
4.5997463761
 30
0.0
 10
5.1109396818
 20
4.6006161183
 30
0.0
 10
5.1071200896
 20
4.6014768973
 30
0.0
 10
5.1031444372
 20
4.6018353123
 30
0.0
 10
5.0991569319
 20
4.6016715475
 30
0.0
 10
5.0962111816
 20
4.6012804553
 30
0.0
 10
5.0933699378
 20
4.6006370183
 30
0.0
 10
5.0906772369
 20
4.5997529699
 30
0.0
 10
5.0881611383
 20
4.5986622091
 30
0.0
 10
5.0851176098
 20
4.5970132658
 30
0.0
 10
5.0830372441
 20
4.5955191054
 30
0.0
 10
5.0817744542
 20
4.5944348266
 30
0.0
  0
SPLINE
  5
325
100
AcDbEntity
  8
0
100
AcDbSpline
 62
7
  6
CONTINUOUS
 70
0
 71
3
 72
21
 73
17
 74
0
 42
0.0000001
 43
0.0000001
 44
0.0000000001
 40
0.0
 40
0.0
 40
0.0
 40
0.0
 40
0.1146005895
 40
0.174736743
 40
0.2367468741
 40
0.300556949
 40
0.366042185
 40
0.4326904158
 40
0.4999309627
 40
0.5671631348
 40
0.6337845436
 40
0.6992929327
 40
0.7632353469
 40
0.8253789561
 40
0.8855482493
 40
1.0
 40
1.0
 40
1.0
 40
1.0
 10
5.0817744542
 20
4.6103658388
 30
0.0
 10
5.0830294836
 20
4.6092063974
 30
0.0
 10
5.0851027838
 20
4.6076009018
 30
0.0
 10
5.0881545948
 20
4.6058208614
 30
0.0
 10
5.0906708874
 20
4.6046464012
 30
0.0
 10
5.0933645008
 20
4.6036943531
 30
0.0
 10
5.0962074116
 20
4.6030011359
 30
0.0
 10
5.0991546968
 20
4.6025796855
 30
0.0
 10
5.1021550145
 20
4.6024473499
 30
0.0
 10
5.105153874
 20
4.6025976567
 30
0.0
 10
5.1080995372
 20
4.60302658
 30
0.0
 10
5.1109447688
 20
4.6037165612
 30
0.0
 10
5.1136478754
 20
4.6046533668
 30
0.0
 10
5.1161774646
 20
4.6058100884
 30
0.0
 10
5.1192350908
 20
4.607582171
 30
0.0
 10
5.121297838
 20
4.609200367
 30
0.0
 10
5.122544233
 20
4.6103658388
 30
0.0
  0
SPLINE
  5
326
100
AcDbEntity
  8
0
100
AcDbSpline
 62
7
  6
CONTINUOUS
 70
0
 71
3
 72
21
 73
17
 74
0
 42
0.0000001
 43
0.0000001
 44
0.0000000001
 40
0.0
 40
0.0
 40
0.0
 40
0.0
 40
0.114453054
 40
0.1746217139
 40
0.2367640668
 40
0.3007056353
 40
0.3662133806
 40
0.4328340934
 40
0.5000653934
 40
0.5673051638
 40
0.633953451
 40
0.6994378965
 40
0.7632478868
 40
0.8252605306
 40
0.8853982265
 40
1.0
 40
1.0
 40
1.0
 40
1.0
 10
5.122544233
 20
4.6103658388
 30
0.0
 10
5.1212978237
 20
4.6115313239
 30
0.0
 10
5.1192350525
 20
4.6131495032
 30
0.0
 10
5.1161774576
 20
4.6149216215
 30
0.0
 10
5.1136479023
 20
4.6160783243
 30
0.0
 10
5.1109448258
 20
4.6170150902
 30
0.0
 10
5.1080996301
 20
4.6177050798
 30
0.0
 10
5.1051540003
 20
4.6181340066
 30
0.0
 10
5.1021551758
 20
4.6182843279
 30
0.0
 10
5.0991548821
 20
4.6181519896
 30
0.0
 10
5.0962076133
 20
4.6177306031
 30
0.0
 10
5.0933646908
 20
4.617037463
 30
0.0
 10
5.0906710901
 20
4.6160853033
 30
0.0
 10
5.0881547254
 20
4.6149108663
 30
0.0
 10
5.0851028149
 20
4.6131308346
 30
0.0
 10
5.0830294968
 20
4.6115252922
 30
0.0
 10
5.0817744542
 20
4.6103658388
 30
0.0
  0
SPLINE
  5
327
100
AcDbEntity
  8
0
100
AcDbSpline
 62
7
  6
CONTINUOUS
 70
0
 71
3
 72
20
 73
16
 74
0
 42
0.0000001
 43
0.0000001
 44
0.0000000001
 40
0.0
 40
0.0
 40
0.0
 40
0.0
 40
0.1129146955
 40
0.1726796854
 40
0.2346339167
 40
0.2986863084
 40
0.3646669741
 40
0.4319873459
 40
0.4999896811
 40
0.6351407331
 40
0.7011477955
 40
0.7653485916
 40
0.8274581564
 40
0.8872653189
 40
1.0
 40
1.0
 40
1.0
 40
1.0
 10
5.0817744542
 20
4.6262968509
 30
0.0
 10
5.083037231
 20
4.6252125834
 30
0.0
 10
5.0851175765
 20
4.6237184677
 30
0.0
 10
5.0881610077
 20
4.6220695147
 30
0.0
 10
5.0906770363
 20
4.6209787321
 30
0.0
 10
5.0933697455
 20
4.6200947888
 30
0.0
 10
5.0962109804
 20
4.619451279
 30
0.0
 10
5.0991567471
 20
4.6190601281
 30
0.0
 10
5.1031442865
 20
4.6188963644
 30
0.0
 10
5.1071199829
 20
4.6192547642
 30
0.0
 10
5.1109396242
 20
4.6201155351
 30
0.0
 10
5.113641911
 20
4.6209853139
 30
0.0
 10
5.1161707491
 20
4.6220594246
 30
0.0
 10
5.1192194875
 20
4.6237005627
 30
0.0
 10
5.121289967
 20
4.6252067902
 30
0.0
 10
5.122544233
 20
4.6262968509
 30
0.0
  0
SPLINE
  5
328
100
AcDbEntity
  8
0
100
AcDbSpline
 62
7
  6
CONTINUOUS
 70
0
 71
3
 72
21
 73
17
 74
0
 42
0.0000001
 43
0.0000001
 44
0.0000000001
 40
0.0
 40
0.0
 40
0.0
 40
0.0
 40
0.1160954479
 40
0.1766211879
 40
0.2388093416
 40
0.3025165312
 40
0.3675579142
 40
0.4335472355
 40
0.5000588159
 40
0.5665764418
 40
0.632589899
 40
0.6976110899
 40
0.7612022088
 40
0.8232814665
 40
0.8837847086
 40
1.0
 40
1.0
 40
1.0
 40
1.0
 10
5.122544233
 20
4.6262968509
 30
0.0
 10
5.1213047961
 20
4.6275322051
 30
0.0
 10
5.1192494402
 20
4.6292543643
 30
0.0
 10
5.116183789
 20
4.6311494486
 30
0.0
 10
5.1136536969
 20
4.6323834047
 30
0.0
 10
5.1109496766
 20
4.6333828786
 30
0.0
 10
5.1081030874
 20
4.6341191549
 30
0.0
 10
5.1051558589
 20
4.6345768723
 30
0.0
 10
5.1021552353
 20
4.6347373001
 30
0.0
 10
5.0991530436
 20
4.6345960562
 30
0.0
 10
5.0962040214
 20
4.6341463425
 30
0.0
 10
5.093359568
 20
4.6334066217
 30
0.0
 10
5.0906651726
 20
4.632390725
 30
0.0
 10
5.0881486788
 20
4.6311380763
 30
0.0
 10
5.0850891718
 20
4.6292349874
 30
0.0
 10
5.0830226237
 20
4.6275259572
 30
0.0
 10
5.0817744542
 20
4.6262968509
 30
0.0
  0
SPLINE
  5
329
100
AcDbEntity
  8
0
100
AcDbSpline
 62
7
  6
CONTINUOUS
 70
0
 71
3
 72
18
 73
14
 74
0
 42
0.0000001
 43
0.0000001
 44
0.0000000001
 40
0.0
 40
0.0
 40
0.0
 40
0.0
 40
0.1111757713
 40
0.1705675082
 40
0.2324751509
 40
0.2967868248
 40
0.3632842772
 40
0.4313001585
 40
0.5000883619
 40
0.6367334407
 40
0.7676235603
 40
0.8890373527
 40
1.0
 40
1.0
 40
1.0
 40
1.0
 10
5.0817744542
 20
4.6421535852
 30
0.0
 10
5.0830458565
 20
4.641149895
 30
0.0
 10
5.0851333551
 20
4.6397746276
 30
0.0
 10
5.0881676881
 20
4.6382639686
 30
0.0
 10
5.0906833146
 20
4.637261908
 30
0.0
 10
5.0933749832
 20
4.6364500776
 30
0.0
 10
5.0962145887
 20
4.6358591877
 30
0.0
 10
5.099158472
 20
4.6354999639
 30
0.0
 10
5.1031435147
 20
4.6353498126
 30
0.0
 10
5.1080498462
 20
4.635754831
 30
0.0
 10
5.1135751099
 20
4.6371237365
 30
0.0
 10
5.1184489596
 20
4.6392539182
 30
0.0
 10
5.121281189
 20
4.6411443639
 30
0.0
 10
5.122544233
 20
4.6421535852
 30
0.0
  0
SPLINE
  5
32A
100
AcDbEntity
  8
0
100
AcDbSpline
 62
7
  6
CONTINUOUS
 70
0
 71
3
 72
21
 73
17
 74
0
 42
0.0000001
 43
0.0000001
 44
0.0000000001
 40
0.0
 40
0.0
 40
0.0
 40
0.0
 40
0.1176278916
 40
0.1784922053
 40
0.2407282597
 40
0.3042192691
 40
0.3688241704
 40
0.4342194242
 40
0.5000523102
 40
0.5658889142
 40
0.6313050139
 40
0.6958926833
 40
0.759282294
 40
0.8214289793
 40
0.8822786613
 40
1.0
 40
1.0
 40
1.0
 40
1.0
 10
5.122544233
 20
4.6421535852
 30
0.0
 10
5.1213109058
 20
4.6434531307
 30
0.0
 10
5.1192625018
 20
4.6452709216
 30
0.0
 10
5.116189669
 20
4.6472802183
 30
0.0
 10
5.1136591815
 20
4.6485856712
 30
0.0
 10
5.1109543407
 20
4.6496432322
 30
0.0
 10
5.1081064509
 20
4.6504224187
 30
0.0
 10
5.1051576801
 20
4.6509068394
 30
0.0
 10
5.1021552938
 20
4.6510766455
 30
0.0
 10
5.0991512416
 20
4.6509271363
 30
0.0
 10
5.0962005262
 20
4.6504511419
 30
0.0
 10
5.0933546448
 20
4.6496682271
 30
0.0
 10
5.09065958
 20
4.6485932948
 30
0.0
 10
5.0881430712
 20
4.6472682912
 30
0.0
 10
5.0850767817
 20
4.6452509382
 30
0.0
 10
5.083016593
 20
4.6434466852
 30
0.0
 10
5.0817744542
 20
4.6421535852
 30
0.0
  0
SPLINE
  5
32B
100
AcDbEntity
  8
0
100
AcDbSpline
 62
7
  6
CONTINUOUS
 70
0
 71
3
 72
18
 73
14
 74
0
 42
0.0000001
 43
0.0000001
 44
0.0000000001
 40
0.0
 40
0.0
 40
0.0
 40
0.0
 40
0.1093779691
 40
0.1683818159
 40
0.230232697
 40
0.294794432
 40
0.3617981043
 40
0.4304969709
 40
0.5000572323
 40
0.6381698812
 40
0.7698533273
 40
0.8908696258
 40
1.0
 40
1.0
 40
1.0
 40
1.0
 10
5.0817744542
 20
4.6578621105
 30
0.0
 10
5.0830553176
 20
4.6569443038
 30
0.0
 10
5.0851498686
 20
4.6556948585
 30
0.0
 10
5.0881745149
 20
4.6543288265
 30
0.0
 10
5.0906895912
 20
4.6534200781
 30
0.0
 10
5.0933801341
 20
4.6526840073
 30
0.0
 10
5.0962180743
 20
4.6521483432
 30
0.0
 10
5.0991601938
 20
4.6518226623
 30
0.0
 10
5.1031424527
 20
4.6516866132
 30
0.0
 10
5.1080364201
 20
4.6520525846
 30
0.0
 10
5.1135506583
 20
4.6532896177
 30
0.0
 10
5.1184186354
 20
4.6552153973
 30
0.0
 10
5.1212715424
 20
4.6569390664
 30
0.0
 10
5.122544233
 20
4.6578621105
 30
0.0
  0
SPLINE
  5
32C
100
AcDbEntity
  8
0
100
AcDbSpline
 62
7
  6
CONTINUOUS
 70
0
 71
3
 72
21
 73
17
 74
0
 42
0.0000001
 43
0.0000001
 44
0.0000000001
 40
0.0
 40
0.0
 40
0.0
 40
0.0
 40
0.1190345547
 40
0.1802141914
 40
0.242498642
 40
0.3057934328
 40
0.3699965957
 40
0.4348423157
 40
0.5000460393
 40
0.5652512868
 40
0.630114761
 40
0.694303462
 40
0.7575104931
 40
0.8197235838
 40
0.8808957798
 40
1.0
 40
1.0
 40
1.0
 40
1.0
 10
5.122544233
 20
4.6578621105
 30
0.0
 10
5.1213162037
 20
4.6592200195
 30
0.0
 10
5.1192741854
 20
4.6611247786
 30
0.0
 10
5.1161950395
 20
4.6632388296
 30
0.0
 10
5.1136642799
 20
4.6646096623
 30
0.0
 10
5.1109587417
 20
4.6657203872
 30
0.0
 10
5.1081096607
 20
4.6665388804
 30
0.0
 10
5.1051594303
 20
4.6670477753
 30
0.0
 10
5.1021553501
 20
4.6672261813
 30
0.0
 10
5.0991495094
 20
4.6670690915
 30
0.0
 10
5.0961971902
 20
4.6665690039
 30
0.0
 10
5.0933500015
 20
4.665746513
 30
0.0
 10
5.0906543884
 20
4.6646175532
 30
0.0
 10
5.0881379558
 20
4.6632264095
 30
0.0
 10
5.085065695
 20
4.661104278
 30
0.0
 10
5.0830113576
 20
4.6592133941
 30
0.0
 10
5.0817744542
 20
4.6578621105
 30
0.0
  0
SPLINE
  5
32D
100
AcDbEntity
  8
0
100
AcDbSpline
 62
7
  6
CONTINUOUS
 70
0
 71
3
 72
18
 73
14
 74
0
 42
0.0000001
 43
0.0000001
 44
0.0000000001
 40
0.0
 40
0.0
 40
0.0
 40
0.0
 40
0.1075888375
 40
0.166214141
 40
0.2280154287
 40
0.2928292114
 40
0.360334759
 40
0.4297069459
 40
0.5000266494
 40
0.6395841592
 40
0.7720580441
 40
0.8926939579
 40
1.0
 40
1.0
 40
1.0
 40
1.0
 10
5.0817744542
 20
4.6733491861
 30
0.0
 10
5.0830655023
 20
4.6725224898
 30
0.0
 10
5.0851667704
 20
4.6714052625
 30
0.0
 10
5.0881813383
 20
4.6701892847
 30
0.0
 10
5.0906957277
 20
4.6693779628
 30
0.0
 10
5.0933850857
 20
4.6687209124
 30
0.0
 10
5.0962213846
 20
4.6682428126
 30
0.0
 10
5.0991618178
 20
4.6679520971
 30
0.0
 10
5.1031414533
 20
4.667830722
 30
0.0
 10
5.108023707
 20
4.6681563718
 30
0.0
 10
5.1135268688
 20
4.669257048
 30
0.0
 10
5.1183876887
 20
4.6709706797
 30
0.0
 10
5.1212611368
 20
4.672517587
 30
0.0
 10
5.122544233
 20
4.6733491861
 30
0.0
  0
SPLINE
  5
32E
100
AcDbEntity
  8
0
100
AcDbSpline
 62
7
  6
CONTINUOUS
 70
0
 71
3
 72
21
 73
17
 74
0
 42
0.0000001
 43
0.0000001
 44
0.0000000001
 40
0.0
 40
0.0
 40
0.0
 40
0.0
 40
0.120303534
 40
0.1817713218
 40
0.2441030947
 40
0.3072227607
 40
0.3710626628
 40
0.4354091475
 40
0.5000401467
 40
0.5646706418
 40
0.6290320305
 40
0.6928600137
 40
0.7559043638
 40
0.818181089
 40
0.8796478974
 40
1.0
 40
1.0
 40
1.0
 40
1.0
 10
5.122544233
 20
4.6733491861
 30
0.0
 10
5.1213207458
 20
4.6747594743
 30
0.0
 10
5.1192844764
 20
4.6767422582
 30
0.0
 10
5.1161998599
 20
4.6789509757
 30
0.0
 10
5.1136689302
 20
4.680380745
 30
0.0
 10
5.110962812
 20
4.6815394348
 30
0.0
 10
5.108112661
 20
4.6823934213
 30
0.0
 10
5.1051610773
 20
4.682924429
 30
0.0
 10
5.1021554033
 20
4.6831106092
 30
0.0
 10
5.099147879
 20
4.6829466656
 30
0.0
 10
5.0961940713
 20
4.682424804
 30
0.0
 10
5.093345709
 20
4.6815665687
 30
0.0
 10
5.0906496593
 20
4.6803888695
 30
0.0
 10
5.0881333697
 20
4.6789381229
 30
0.0
 10
5.0850559269
 20
4.6767213195
 30
0.0
 10
5.0830068646
 20
4.6747526866
 30
0.0
 10
5.0817744542
 20
4.6733491861
 30
0.0
  0
SPLINE
  5
32F
100
AcDbEntity
  8
0
100
AcDbSpline
 62
7
  6
CONTINUOUS
 70
0
 71
3
 72
17
 73
13
 74
0
 42
0.0000001
 43
0.0000001
 44
0.0000000001
 40
0.0
 40
0.0
 40
0.0
 40
0.0
 40
0.105858813
 40
0.1641293454
 40
0.2258959107
 40
0.2909624445
 40
0.3589591793
 40
0.4999717335
 40
0.6409175174
 40
0.7741644261
 40
0.8944557836
 40
1.0
 40
1.0
 40
1.0
 40
1.0
 10
5.0817744542
 20
4.6885426044
 30
0.0
 10
5.0830761938
 20
4.6878121713
 30
0.0
 10
5.0851836062
 20
4.6868328652
 30
0.0
 10
5.0881880459
 20
4.6857714607
 30
0.0
 10
5.0907017052
 20
4.6850611695
 30
0.0
 10
5.0933899971
 20
4.6844859829
 30
0.0
 10
5.0972153356
 20
4.6839210921
 30
0.0
 10
5.1021549193
 20
4.683648743
 30
0.0
 10
5.1080115855
 20
4.6839912475
 30
0.0
 10
5.1135042583
 20
4.684951624
 30
0.0
 10
5.1183568464
 20
4.6864467785
 30
0.0
 10
5.121250149
 20
4.6878076338
 30
0.0
 10
5.122544233
 20
4.6885426044
 30
0.0
  0
SPLINE
  5
330
100
AcDbEntity
  8
0
100
AcDbSpline
 62
7
  6
CONTINUOUS
 70
0
 71
3
 72
21
 73
17
 74
0
 42
0.0000001
 43
0.0000001
 44
0.0000000001
 40
0.0
 40
0.0
 40
0.0
 40
0.0
 40
0.1214260909
 40
0.1831516747
 40
0.2455282255
 40
0.3084945148
 40
0.3720124369
 40
0.4359145178
 40
0.5000347552
 40
0.5641526542
 40
0.6280670685
 40
0.6915753565
 40
0.7544774481
 40
0.8168134298
 40
0.8785437286
 40
1.0
 40
1.0
 40
1.0
 40
1.0
 10
5.122544233
 20
4.6885426044
 30
0.0
 10
5.1213245877
 20
4.6899991305
 30
0.0
 10
5.1192933849
 20
4.6920507472
 30
0.0
 10
5.1162041028
 20
4.6943434881
 30
0.0
 10
5.1136730827
 20
4.6958254608
 30
0.0
 10
5.1109664931
 20
4.6970266687
 30
0.0
 10
5.108115401
 20
4.6979121443
 30
0.0
 10
5.1051625907
 20
4.6984627819
 30
0.0
 10
5.1021554522
 20
4.6986558673
 30
0.0
 10
5.0991463805
 20
4.6984858352
 30
0.0
 10
5.0961912225
 20
4.6979446398
 30
0.0
 10
5.0933418287
 20
4.6970546867
 30
0.0
 10
5.0906454412
 20
4.6958337869
 30
0.0
 10
5.0881293369
 20
4.6943302613
 30
0.0
 10
5.0850474686
 20
4.6920294408
 30
0.0
 10
5.0830030608
 20
4.6899921984
 30
0.0
 10
5.0817744542
 20
4.6885426044
 30
0.0
  0
SPLINE
  5
331
100
AcDbEntity
  8
0
100
AcDbSpline
 62
7
  6
CONTINUOUS
 70
0
 71
3
 72
17
 73
13
 74
0
 42
0.0000001
 43
0.0000001
 44
0.0000000001
 40
0.0
 40
0.0
 40
0.0
 40
0.0
 40
0.1042248078
 40
0.1621606041
 40
0.223889826
 40
0.2891893826
 40
0.357637668
 40
0.4999472734
 40
0.6421903215
 40
0.7761604505
 40
0.8961268646
 40
1.0
 40
1.0
 40
1.0
 40
1.0
 10
5.0817744542
 20
4.7033715264
 30
0.0
 10
5.0830870864
 20
4.7027423877
 30
0.0
 10
5.0851998319
 20
4.701905996
 30
0.0
 10
5.0881942537
 20
4.7010027924
 30
0.0
 10
5.090706963
 20
4.7003966669
 30
0.0
 10
5.093393989
 20
4.6999058985
 30
0.0
 10
5.0972207687
 20
4.6994234044
 30
0.0
 10
5.1021545272
 20
4.6991915837
 30
0.0
 10
5.1080011488
 20
4.6994830635
 30
0.0
 10
5.1134836431
 20
4.7003003379
 30
0.0
 10
5.1183274624
 20
4.7015720264
 30
0.0
 10
5.1212390106
 20
4.7027383291
 30
0.0
 10
5.122544233
 20
4.7033715264
 30
0.0
  0
SPLINE
  5
332
100
AcDbEntity
  8
0
100
AcDbSpline
 62
7
  6
CONTINUOUS
 70
0
 71
3
 72
21
 73
17
 74
0
 42
0.0000001
 43
0.0000001
 44
0.0000000001
 40
0.0
 40
0.0
 40
0.0
 40
0.0
 40
0.1223959691
 40
0.1843464565
 40
0.246763912
 40
0.3095988834
 40
0.3728381613
 40
0.436354176
 40
0.5000299666
 40
0.5637018027
 40
0.6272278916
 40
0.6904595366
 40
0.7532399989
 40
0.8156294294
 40
0.8775895352
 40
1.0
 40
1.0
 40
1.0
 40
1.0
 10
5.122544233
 20
4.7033715264
 30
0.0
 10
5.1213277813
 20
4.7048679995
 30
0.0
 10
5.1193009356
 20
4.7069790374
 30
0.0
 10
5.1162077514
 20
4.7093446773
 30
0.0
 10
5.113676699
 20
4.7108718662
 30
0.0
 10
5.1109697351
 20
4.7121099268
 30
0.0
 10
5.1081178356
 20
4.7130227174
 30
0.0
 10
5.105163943
 20
4.7135903929
 30
0.0
 10
5.1021554961
 20
4.7137894746
 30
0.0
 10
5.0991450412
 20
4.7136141546
 30
0.0
 10
5.096188691
 20
4.7130561749
 30
0.0
 10
5.0933384125
 20
4.712138704
 30
0.0
 10
5.0906417716
 20
4.7108803632
 30
0.0
 10
5.088125872
 20
4.7093311336
 30
0.0
 10
5.0850402976
 20
4.7069574267
 30
0.0
 10
5.0829998968
 20
4.7048609417
 30
0.0
 10
5.0817744542
 20
4.7033715264
 30
0.0
  0
SPLINE
  5
333
100
AcDbEntity
  8
0
100
AcDbSpline
 62
7
  6
CONTINUOUS
 70
0
 71
3
 72
17
 73
13
 74
0
 42
0.0000001
 43
0.0000001
 44
0.0000000001
 40
0.0
 40
0.0
 40
0.0
 40
0.0
 40
0.1027470103
 40
0.1603872679
 40
0.2220903032
 40
0.2876036702
 40
0.3564603967
 40
0.4999303377
 40
0.6433284886
 40
0.7779500869
 40
0.8976359618
 40
1.0
 40
1.0
 40
1.0
 40
1.0
 10
5.0817744542
 20
4.7177668131
 30
0.0
 10
5.0830976877
 20
4.717243824
 30
0.0
 10
5.0852148106
 20
4.7165544314
 30
0.0
 10
5.0881999343
 20
4.7158122369
 30
0.0
 10
5.0907117599
 20
4.7153128738
 30
0.0
 10
5.093397682
 20
4.7149085345
 30
0.0
 10
5.0972257057
 20
4.714510746
 30
0.0
 10
5.1021543098
 20
4.7143201382
 30
0.0
 10
5.1079920844
 20
4.7145597493
 30
0.0
 10
5.1134652829
 20
4.7152314354
 30
0.0
 10
5.1183003568
 20
4.7162759014
 30
0.0
 10
5.121228106
 20
4.7172403049
 30
0.0
 10
5.122544233
 20
4.7177668131
 30
0.0
  0
SPLINE
  5
334
100
AcDbEntity
  8
0
100
AcDbSpline
 62
7
  6
CONTINUOUS
 70
0
 71
3
 72
22
 73
18
 74
0
 42
0.0000001
 43
0.0000001
 44
0.0000000001
 40
0.0
 40
0.0
 40
0.0
 40
0.0
 40
0.0614919082
 40
0.1233223196
 40
0.18545479
 40
0.2479000328
 40
0.3106177042
 40
0.3736149864
 40
0.4367977549
 40
0.5000905901
 40
0.5633780944
 40
0.6265690146
 40
0.6895603614
 40
0.7522317083
 40
0.814659465
 40
0.8768056492
 40
1.0
 40
1.0
 40
1.0
 40
1.0
 10
5.122544233
 20
4.7177668131
 30
0.0
 10
5.1219383324
 20
4.7185305105
 30
0.0
 10
5.1206594949
 20
4.7200130573
 30
0.0
 10
5.118540984
 20
4.7220581323
 30
0.0
 10
5.116210617
 20
4.7238848272
 30
0.0
 10
5.1136797978
 20
4.7254498234
 30
0.0
 10
5.1109724836
 20
4.7267189385
 30
0.0
 10
5.1081199288
 20
4.727654707
 30
0.0
 10
5.1051651085
 20
4.7282367363
 30
0.0
 10
5.1021555342
 20
4.7284408696
 30
0.0
 10
5.0991438856
 20
4.7282610936
 30
0.0
 10
5.0961865177
 20
4.7276889751
 30
0.0
 10
5.0933355035
 20
4.7267483374
 30
0.0
 10
5.0906386789
 20
4.725458505
 30
0.0
 10
5.0881229825
 20
4.7238708611
 30
0.0
 10
5.0850343846
 20
4.7214358035
 30
0.0
 10
5.0829973286
 20
4.7192896401
 30
0.0
 10
5.0817744542
 20
4.7177668131
 30
0.0
  0
SPLINE
  5
335
100
AcDbEntity
  8
0
100
AcDbSpline
 62
7
  6
CONTINUOUS
 70
0
 71
3
 72
16
 73
12
 74
0
 42
0.0000001
 43
0.0000001
 44
0.0000000001
 40
0.0
 40
0.0
 40
0.0
 40
0.0
 40
0.1014827257
 40
0.158875207
 40
0.2205607762
 40
0.3554456663
 40
0.4999050941
 40
0.644288343
 40
0.7794713273
 40
0.8989276597
 40
1.0
 40
1.0
 40
1.0
 40
1.0
 10
5.0817744542
 20
4.7316613468
 30
0.0
 10
5.0831074088
 20
4.7312490199
 30
0.0
 10
5.085227866
 20
4.7307098314
 30
0.0
 10
5.0882048265
 20
4.7301307433
 30
0.0
 10
5.0916558974
 20
4.7295939198
 30
0.0
 10
5.096327012
 20
4.7291397711
 30
0.0
 10
5.1021539873
 20
4.7289639774
 30
0.0
 10
5.107984637
 20
4.729150942
 30
0.0
 10
5.1134498417
 20
4.7296751753
 30
0.0
 10
5.1182768198
 20
4.7304897564
 30
0.0
 10
5.1212180854
 20
4.7312461353
 30
0.0
 10
5.122544233
 20
4.7316613468
 30
0.0
  0
SPLINE
  5
336
100
AcDbEntity
  8
0
100
AcDbSpline
 62
7
  6
CONTINUOUS
 70
0
 71
3
 72
21
 73
17
 74
0
 42
0.0000001
 43
0.0000001
 44
0.0000000001
 40
0.0
 40
0.0
 40
0.0
 40
0.0
 40
0.1238616666
 40
0.186155819
 40
0.248639014
 40
0.3112777053
 40
0.3740951324
 40
0.4370239957
 40
0.5000225095
 40
0.56301457
 40
0.6259500241
 40
0.6887628908
 40
0.7513618592
 40
0.8138360434
 40
0.8761471938
 40
1.0
 40
1.0
 40
1.0
 40
1.0
 10
5.122544233
 20
4.7316613468
 30
0.0
 10
5.1213323982
 20
4.7332183061
 30
0.0
 10
5.1193120923
 20
4.7354192162
 30
0.0
 10
5.1162132328
 20
4.7378957164
 30
0.0
 10
5.1136822123
 20
4.7394915432
 30
0.0
 10
5.1109747443
 20
4.7407855918
 30
0.0
 10
5.1081216372
 20
4.741739921
 30
0.0
 10
5.1051660691
 20
4.7423335265
 30
0.0
 10
5.1021555651
 20
4.7425417401
 30
0.0
 10
5.099142935
 20
4.7423583657
 30
0.0
 10
5.0961847372
 20
4.7417748356
 30
0.0
 10
5.0933331365
 20
4.7408155097
 30
0.0
 10
5.0906361839
 20
4.7395002936
 30
0.0
 10
5.0881206717
 20
4.737881704
 30
0.0
 10
5.085029699
 20
4.7353971666
 30
0.0
 10
5.0829953189
 20
4.7332110559
 30
0.0
 10
5.0817744542
 20
4.7316613468
 30
0.0
  0
SPLINE
  5
337
100
AcDbEntity
  8
0
100
AcDbSpline
 62
7
  6
CONTINUOUS
 70
0
 71
3
 72
15
 73
11
 74
0
 42
0.0000001
 43
0.0000001
 44
0.0000000001
 40
0.0
 40
0.0
 40
0.0
 40
0.0
 40
0.1004791334
 40
0.2193388219
 40
0.3546573543
 40
0.4998933439
 40
0.6450497401
 40
0.780675453
 40
0.8999533642
 40
1.0
 40
1.0
 40
1.0
 40
1.0
 10
5.0817744542
 20
4.7449903448
 30
0.0
 10
5.0831155673
 20
4.7446926336
 30
0.0
 10
5.0860683196
 20
4.7441551819
 30
0.0
 10
5.0908828366
 20
4.7435607702
 30
0.0
 10
5.0963328851
 20
4.7431804725
 30
0.0
 10
5.1021539245
 20
4.7430547044
 30
0.0
 10
5.107978869
 20
4.7431885868
 30
0.0
 10
5.1134378108
 20
4.7435639658
 30
0.0
 10
5.1182579847
 20
4.7441468833
 30
0.0
 10
5.1212096594
 20
4.7446904814
 30
0.0
 10
5.122544233
 20
4.7449903448
 30
0.0
  0
SPLINE
  5
338
100
AcDbEntity
  8
0
100
AcDbSpline
 62
7
  6
CONTINUOUS
 70
0
 71
3
 72
22
 73
18
 74
0
 42
0.0000001
 43
0.0000001
 44
0.0000000001
 40
0.0
 40
0.0
 40
0.0
 40
0.0
 40
0.0621570509
 40
0.1244665081
 40
0.1868686701
 40
0.2493668168
 40
0.3119322211
 40
0.3745999985
 40
0.4373230243
 40
0.5000849828
 40
0.5628396364
 40
0.6255680664
 40
0.6882323261
 40
0.7507630037
 40
0.8132585233
 40
0.8756801441
 40
1.0
 40
1.0
 40
1.0
 40
1.0
 10
5.122544233
 20
4.7449903448
 30
0.0
 10
5.1219391708
 20
4.7457788416
 30
0.0
 10
5.1206625499
 20
4.7473093717
 30
0.0
 10
5.1185447623
 20
4.7494237282
 30
0.0
 10
5.1162148809
 20
4.7513126994
 30
0.0
 10
5.1136841196
 20
4.7529314252
 30
0.0
 10
5.1109764392
 20
4.7542443786
 30
0.0
 10
5.108122948
 20
4.7552126919
 30
0.0
 10
5.1051668034
 20
4.7558150454
 30
0.0
 10
5.1021555893
 20
4.7560263392
 30
0.0
 10
5.0991422064
 20
4.7558402469
 30
0.0
 10
5.0961833774
 20
4.7552480989
 30
0.0
 10
5.0933313385
 20
4.7542746661
 30
0.0
 10
5.0906343013
 20
4.752940301
 30
0.0
 10
5.0881189399
 20
4.7512983772
 30
0.0
 10
5.0850262123
 20
4.7487764979
 30
0.0
 10
5.0829938378
 20
4.7465603063
 30
0.0
 10
5.0817744542
 20
4.7449903448
 30
0.0
  0
SPLINE
  5
339
100
AcDbEntity
  8
0
100
AcDbSpline
 62
7
  6
CONTINUOUS
 70
0
 71
3
 72
15
 73
11
 74
0
 42
0.0000001
 43
0.0000001
 44
0.0000000001
 40
0.0
 40
0.0
 40
0.0
 40
0.0
 40
0.0997810803
 40
0.2185052306
 40
0.3541227471
 40
0.4998928019
 40
0.6455809264
 40
0.7815118629
 40
0.9006669685
 40
1.0
 40
1.0
 40
1.0
 40
1.0
 10
5.0817744542
 20
4.7576916613
 30
0.0
 10
5.0831214836
 20
4.7575116871
 30
0.0
 10
5.086080746
 20
4.7571879355
 30
0.0
 10
5.0908913756
 20
4.7568307774
 30
0.0
 10
5.0963369299
 20
4.7566022762
 30
0.0
 10
5.1021538647
 20
4.7565266768
 30
0.0
 10
5.1079749623
 20
4.7566071558
 30
0.0
 10
5.1134295593
 20
4.7568327378
 30
0.0
 10
5.1182448296
 20
4.7571828846
 30
0.0
 10
5.12120354
 20
4.7575103546
 30
0.0
 10
5.122544233
 20
4.7576916613
 30
0.0
  0
SPLINE
  5
33A
100
AcDbEntity
  8
0
100
AcDbSpline
 62
7
  6
CONTINUOUS
 70
0
 71
3
 72
22
 73
18
 74
0
 42
0.0000001
 43
0.0000001
 44
0.0000000001
 40
0.0
 40
0.0
 40
0.0
 40
0.0
 40
0.0623474424
 40
0.124794429
 40
0.1872744035
 40
0.2497882519
 40
0.3123103185
 40
0.3748835568
 40
0.4374743012
 40
0.5000833222
 40
0.5626844642
 40
0.6252798157
 40
0.6878502361
 40
0.7503409197
 40
0.8128564069
 40
0.8753574829
 40
1.0
 40
1.0
 40
1.0
 40
1.0
 10
5.122544233
 20
4.7576916613
 30
0.0
 10
5.1219394046
 20
4.7584872899
 30
0.0
 10
5.120663407
 20
4.7600316126
 30
0.0
 10
5.1185458312
 20
4.7621658944
 30
0.0
 10
5.1162160983
 20
4.7640727785
 30
0.0
 10
5.1136853647
 20
4.7657069641
 30
0.0
 10
5.1109775881
 20
4.7670325373
 30
0.0
 10
5.1081238307
 20
4.7680102256
 30
0.0
 10
5.105167301
 20
4.7686184366
 30
0.0
 10
5.1021556055
 20
4.7688317952
 30
0.0
 10
5.0991417132
 20
4.7686438815
 30
0.0
 10
5.0961824591
 20
4.7680459597
 30
0.0
 10
5.0933301291
 20
4.767063079
 30
0.0
 10
5.0906330411
 20
4.7657158951
 30
0.0
 10
5.0881177863
 20
4.7640583556
 30
0.0
 10
5.0850239016
 20
4.7615114715
 30
0.0
 10
5.0829928629
 20
4.7592751682
 30
0.0
 10
5.0817744542
 20
4.7576916613
 30
0.0
  0
SPLINE
  5
33B
100
AcDbEntity
  8
0
100
AcDbSpline
 62
7
  6
CONTINUOUS
 70
0
 71
3
 72
15
 73
11
 74
0
 42
0.0000001
 43
0.0000001
 44
0.0000000001
 40
0.0
 40
0.0
 40
0.0
 40
0.0
 40
0.0994233852
 40
0.2180789868
 40
0.3538497151
 40
0.4998925682
 40
0.6458523036
 40
0.7819396292
 40
0.9010327003
 40
1.0
 40
1.0
 40
1.0
 40
1.0
 10
5.0817744542
 20
4.7697060767
 30
0.0
 10
5.0831246
 20
4.7696458529
 30
0.0
 10
5.0860871371
 20
4.7695377247
 30
0.0
 10
5.0908957216
 20
4.7694185899
 30
0.0
 10
5.0963389719
 20
4.7693423706
 30
0.0
 10
5.1021538347
 20
4.7693171477
 30
0.0
 10
5.1079729893
 20
4.7693439989
 30
0.0
 10
5.1134253621
 20
4.7694192507
 30
0.0
 10
5.1182380649
 20
4.7695360289
 30
0.0
 10
5.1212003134
 20
4.7696454014
 30
0.0
 10
5.122544233
 20
4.7697060767
 30
0.0
  0
SPLINE
  5
33C
100
AcDbEntity
  8
0
100
AcDbSpline
 62
7
  6
CONTINUOUS
 70
0
 71
3
 72
22
 73
18
 74
0
 42
0.0000001
 43
0.0000001
 44
0.0000000001
 40
0.0
 40
0.0
 40
0.0
 40
0.0
 40
0.0624426835
 40
0.124958535
 40
0.1874775369
 40
0.2499993336
 40
0.3124997632
 40
0.3750256732
 40
0.437550131
 40
0.5000824823
 40
0.5626066663
 40
0.6251353305
 40
0.6876587738
 40
0.7501294971
 40
0.8126550688
 40
0.8751959935
 40
1.0
 40
1.0
 40
1.0
 40
1.0
 10
5.122544233
 20
4.7697060767
 30
0.0
 10
5.1219395206
 20
4.770505279
 30
0.0
 10
5.1206638328
 20
4.772056512
 30
0.0
 10
5.1185463637
 20
4.7742007784
 30
0.0
 10
5.1162167067
 20
4.7761166388
 30
0.0
 10
5.1136859888
 20
4.7777585724
 30
0.0
 10
5.1109781656
 20
4.7790904713
 30
0.0
 10
5.1081242754
 20
4.7800728598
 30
0.0
 10
5.1051675521
 20
4.7806840082
 30
0.0
 10
5.1021556137
 20
4.7808984023
 30
0.0
 10
5.0991414644
 20
4.780709575
 30
0.0
 10
5.0961819965
 20
4.7801087579
 30
0.0
 10
5.0933295212
 20
4.7791211401
 30
0.0
 10
5.0906324096
 20
4.7777675309
 30
0.0
 10
5.0881172098
 20
4.7761021658
 30
0.0
 10
5.0850227504
 20
4.7735427461
 30
0.0
 10
5.0829923791
 20
4.7712963696
 30
0.0
 10
5.0817744542
 20
4.7697060767
 30
0.0
  0
SPLINE
  5
33D
100
AcDbEntity
  8
ALL_FEATURES
100
AcDbSpline
 62
7
  6
CONTINUOUS
 70
0
 71
3
 72
15
 73
11
 74
0
 42
0.0000001
 43
0.0000001
 44
0.0000000001
 40
0.0
 40
0.0
 40
0.0
 40
0.0
 40
0.12503928
 40
0.2500532427
 40
0.3750367392
 40
0.4999997757
 40
0.624962778
 40
0.7499462211
 40
0.8749604818
 40
1.0
 40
1.0
 40
1.0
 40
1.0
 10
5.6007745362
 20
4.4452045618
 30
0.0
 10
5.6005167943
 20
4.44865137
 30
0.0
 10
5.6000132571
 20
4.4555452417
 30
0.0
 10
5.5993916418
 20
4.4658941275
 30
0.0
 10
5.5989833376
 20
4.4762519859
 30
0.0
 10
5.598841053
 20
4.4866158173
 30
0.0
 10
5.5989833771
 20
4.4969796471
 30
0.0
 10
5.5993917588
 20
4.5073375078
 30
0.0
 10
5.6000133229
 20
4.5176864094
 30
0.0
 10
5.6005167938
 20
4.524580301
 30
0.0
 10
5.6007745362
 20
4.5280271157
 30
0.0
  0
SPLINE
  5
33E
100
AcDbEntity
  8
0
100
AcDbSpline
 62
7
  6
CONTINUOUS
 70
0
 71
3
 72
22
 73
18
 74
0
 42
0.0000001
 43
0.0000001
 44
0.0000000001
 40
0.0
 40
0.0
 40
0.0
 40
0.0
 40
0.0624426835
 40
0.124958535
 40
0.1874775369
 40
0.2499993336
 40
0.3124997632
 40
0.3750256732
 40
0.437550131
 40
0.5000824823
 40
0.5626066663
 40
0.6251353305
 40
0.6876587738
 40
0.7501294971
 40
0.8126550688
 40
0.8751959935
 40
1.0
 40
1.0
 40
1.0
 40
1.0
 10
5.122544233
 20
4.7809775745
 30
0.0
 10
5.1219395206
 20
4.7817767768
 30
0.0
 10
5.1206638328
 20
4.7833280097
 30
0.0
 10
5.1185463637
 20
4.7854722761
 30
0.0
 10
5.1162167067
 20
4.7873881365
 30
0.0
 10
5.1136859888
 20
4.7890300701
 30
0.0
 10
5.1109781656
 20
4.790361969
 30
0.0
 10
5.1081242754
 20
4.7913443575
 30
0.0
 10
5.1051675521
 20
4.7919555059
 30
0.0
 10
5.1021556137
 20
4.7921699
 30
0.0
 10
5.0991414644
 20
4.7919810727
 30
0.0
 10
5.0961819965
 20
4.7913802556
 30
0.0
 10
5.0933295212
 20
4.7903926378
 30
0.0
 10
5.0906324096
 20
4.7890390286
 30
0.0
 10
5.0881172098
 20
4.7873736635
 30
0.0
 10
5.0850227504
 20
4.7848142438
 30
0.0
 10
5.0829923791
 20
4.7825678674
 30
0.0
 10
5.0817744542
 20
4.7809775745
 30
0.0
  0
SPLINE
  5
33F
100
AcDbEntity
  8
0
100
AcDbSpline
 62
7
  6
CONTINUOUS
 70
0
 71
3
 72
22
 73
18
 74
0
 42
0.0000001
 43
0.0000001
 44
0.0000000001
 40
0.0
 40
0.0
 40
0.0
 40
0.0
 40
0.0623474424
 40
0.124794429
 40
0.1872744035
 40
0.2497882519
 40
0.3123103185
 40
0.3748835568
 40
0.4374743012
 40
0.5000833222
 40
0.5626844642
 40
0.6252798157
 40
0.6878502361
 40
0.7503409197
 40
0.8128564069
 40
0.8753574829
 40
1.0
 40
1.0
 40
1.0
 40
1.0
 10
5.122544233
 20
4.7914536015
 30
0.0
 10
5.1219394046
 20
4.7922492301
 30
0.0
 10
5.120663407
 20
4.7937935528
 30
0.0
 10
5.1185458312
 20
4.7959278347
 30
0.0
 10
5.1162160983
 20
4.7978347187
 30
0.0
 10
5.1136853647
 20
4.7994689043
 30
0.0
 10
5.1109775881
 20
4.8007944776
 30
0.0
 10
5.1081238307
 20
4.8017721658
 30
0.0
 10
5.105167301
 20
4.8023803769
 30
0.0
 10
5.1021556055
 20
4.8025937354
 30
0.0
 10
5.0991417132
 20
4.8024058217
 30
0.0
 10
5.0961824591
 20
4.8018079
 30
0.0
 10
5.0933301291
 20
4.8008250192
 30
0.0
 10
5.0906330411
 20
4.7994778353
 30
0.0
 10
5.0881177863
 20
4.7978202958
 30
0.0
 10
5.0850239016
 20
4.7952734117
 30
0.0
 10
5.0829928629
 20
4.7930371084
 30
0.0
 10
5.0817744542
 20
4.7914536015
 30
0.0
  0
SPLINE
  5
340
100
AcDbEntity
  8
0
100
AcDbSpline
 62
7
  6
CONTINUOUS
 70
0
 71
3
 72
22
 73
18
 74
0
 42
0.0000001
 43
0.0000001
 44
0.0000000001
 40
0.0
 40
0.0
 40
0.0
 40
0.0
 40
0.062157729
 40
0.124468659
 40
0.1868724095
 40
0.2493729669
 40
0.3119387776
 40
0.3746046136
 40
0.4373250936
 40
0.5000840831
 40
0.5628369783
 40
0.6255664043
 40
0.688232885
 40
0.7507648201
 40
0.8132606285
 40
0.8756822939
 40
1.0
 40
1.0
 40
1.0
 40
1.0
 10
5.122544233
 20
4.8010853138
 30
0.0
 10
5.1219391642
 20
4.8018738192
 30
0.0
 10
5.1206625189
 20
4.8034043744
 30
0.0
 10
5.1185446909
 20
4.8055187722
 30
0.0
 10
5.1162147579
 20
4.8074078257
 30
0.0
 10
5.1136838652
 20
4.8090264774
 30
0.0
 10
5.1109761869
 20
4.8103394582
 30
0.0
 10
5.1081227443
 20
4.8113077242
 30
0.0
 10
5.1051667108
 20
4.8119100058
 30
0.0
 10
5.1021556182
 20
4.812121351
 30
0.0
 10
5.0991422919
 20
4.8119352294
 30
0.0
 10
5.0961834559
 20
4.8113430136
 30
0.0
 10
5.093331333
 20
4.8103696163
 30
0.0
 10
5.0906342156
 20
4.8090352694
 30
0.0
 10
5.0881188511
 20
4.8073933001
 30
0.0
 10
5.0850261752
 20
4.804871406
 30
0.0
 10
5.0829938167
 20
4.8026552482
 30
0.0
 10
5.0817744542
 20
4.8010853138
 30
0.0
  0
SPLINE
  5
341
100
AcDbEntity
  8
0
100
AcDbSpline
 62
7
  6
CONTINUOUS
 70
0
 71
3
 72
21
 73
17
 74
0
 42
0.0000001
 43
0.0000001
 44
0.0000000001
 40
0.0
 40
0.0
 40
0.0
 40
0.0
 40
0.1238616666
 40
0.186155819
 40
0.248639014
 40
0.3112777053
 40
0.3740951324
 40
0.4370239957
 40
0.5000225095
 40
0.56301457
 40
0.6259500241
 40
0.6887628908
 40
0.7513618592
 40
0.8138360434
 40
0.8761471938
 40
1.0
 40
1.0
 40
1.0
 40
1.0
 10
5.122544233
 20
4.8098278039
 30
0.0
 10
5.1213323982
 20
4.8113847632
 30
0.0
 10
5.1193120923
 20
4.8135856733
 30
0.0
 10
5.1162132328
 20
4.8160621735
 30
0.0
 10
5.1136822123
 20
4.8176580003
 30
0.0
 10
5.1109747443
 20
4.8189520489
 30
0.0
 10
5.1081216372
 20
4.8199063782
 30
0.0
 10
5.1051660691
 20
4.8204999837
 30
0.0
 10
5.1021555651
 20
4.8207081973
 30
0.0
 10
5.099142935
 20
4.8205248228
 30
0.0
 10
5.0961847372
 20
4.8199412927
 30
0.0
 10
5.0933331365
 20
4.8189819669
 30
0.0
 10
5.0906361839
 20
4.8176667507
 30
0.0
 10
5.0881206717
 20
4.8160481611
 30
0.0
 10
5.085029699
 20
4.8135636238
 30
0.0
 10
5.0829953189
 20
4.811377513
 30
0.0
 10
5.0817744542
 20
4.8098278039
 30
0.0
  0
SPLINE
  5
342
100
AcDbEntity
  8
0
100
AcDbSpline
 62
7
  6
CONTINUOUS
 70
0
 71
3
 72
9
 73
5
 74
0
 42
0.0000001
 43
0.0000001
 44
0.0000000001
 40
0.0
 40
0.0
 40
0.0
 40
0.0
 40
0.2490837605
 40
1.0
 40
1.0
 40
1.0
 40
1.0
 10
5.122544233
 20
4.8176403102
 30
0.0
 10
5.1222783853
 20
4.8179753935
 30
0.0
 10
5.1211870153
 20
4.8193012413
 30
0.0
 10
5.1199944876
 20
4.8205449876
 30
0.0
 10
5.1190431384
 20
4.8214154635
 30
0.0
  0
SPLINE
  5
343
100
AcDbEntity
  8
0
100
AcDbSpline
 62
7
  6
CONTINUOUS
 70
0
 71
3
 72
20
 73
16
 74
0
 42
0.0000001
 43
0.0000001
 44
0.0000000001
 40
0.0
 40
0.0
 40
0.0
 40
0.0
 40
0.0617812094
 40
0.1238201535
 40
0.2484349074
 40
0.3111388636
 40
0.3740140988
 40
0.4370059489
 40
0.5000705881
 40
0.5631307567
 40
0.6261280066
 40
0.6890158496
 40
0.7517093661
 40
0.8762514277
 40
1.0
 40
1.0
 40
1.0
 40
1.0
 10
5.1190431384
 20
4.8214154635
 30
0.0
 10
5.1184776167
 20
4.8219329108
 30
0.0
 10
5.1173030422
 20
4.8229264792
 30
0.0
 10
5.1147880143
 20
4.8247128084
 30
0.0
 10
5.112035234
 20
4.8261691122
 30
0.0
 10
5.1091108379
 20
4.8272212394
 30
0.0
 10
5.1068406267
 20
4.8278022664
 30
0.0
 10
5.1045203919
 20
4.8281612754
 30
0.0
 10
5.1021736264
 20
4.8282891287
 30
0.0
 10
5.0998255542
 20
4.8281838931
 30
0.0
 10
5.0975024583
 20
4.8278404387
 30
0.0
 10
5.0952304874
 20
4.8272650857
 30
0.0
 10
5.0923075909
 20
4.8262085988
 30
0.0
 10
5.0888920072
 20
4.8243635666
 30
0.0
 10
5.086455881
 20
4.8224553823
 30
0.0
 10
5.0853198666
 20
4.8214225105
 30
0.0
  0
SPLINE
  5
344
100
AcDbEntity
  8
0
100
AcDbSpline
 62
7
  6
CONTINUOUS
 70
0
 71
3
 72
9
 73
5
 74
0
 42
0.0000001
 43
0.0000001
 44
0.0000000001
 40
0.0
 40
0.0
 40
0.0
 40
0.0
 40
0.2510030256
 40
1.0
 40
1.0
 40
1.0
 40
1.0
 10
5.0853198666
 20
4.8214225105
 30
0.0
 10
5.0849987536
 20
4.8211305525
 30
0.0
 10
5.0837438255
 20
4.8199407267
 30
0.0
 10
5.0825853308
 20
4.8186500827
 30
0.0
 10
5.0817744542
 20
4.8176403102
 30
0.0
  0
SPLINE
  5
345
100
AcDbEntity
  8
0
100
AcDbSpline
 62
7
  6
CONTINUOUS
 70
0
 71
3
 72
9
 73
5
 74
0
 42
0.0000001
 43
0.0000001
 44
0.0000000001
 40
0.0
 40
0.0
 40
0.0
 40
0.0
 40
0.2487303656
 40
1.0
 40
1.0
 40
1.0
 40
1.0
 10
5.122544233
 20
4.8244864073
 30
0.0
 10
5.1222782692
 20
4.8248135947
 30
0.0
 10
5.1211853176
 20
4.8261094728
 30
0.0
 10
5.1199930469
 20
4.8273226869
 30
0.0
 10
5.1190431384
 20
4.8281709931
 30
0.0
  0
SPLINE
  5
346
100
AcDbEntity
  8
0
100
AcDbSpline
 62
7
  6
CONTINUOUS
 70
0
 71
3
 72
20
 73
16
 74
0
 42
0.0000001
 43
0.0000001
 44
0.0000000001
 40
0.0
 40
0.0
 40
0.0
 40
0.0
 40
0.06142164
 40
0.1232203941
 40
0.2477050081
 40
0.3104966951
 40
0.3735398489
 40
0.4367569949
 40
0.5000777125
 40
0.5633953083
 40
0.6266207618
 40
0.6896783869
 40
0.7524580777
 40
0.8768545851
 40
1.0
 40
1.0
 40
1.0
 40
1.0
 10
5.1190431384
 20
4.8281709931
 30
0.0
 10
5.1184770735
 20
4.8286765117
 30
0.0
 10
5.117301259
 20
4.8296471147
 30
0.0
 10
5.1147837035
 20
4.8313920134
 30
0.0
 10
5.1120310987
 20
4.8328121874
 30
0.0
 10
5.1091094134
 20
4.8338379051
 30
0.0
 10
5.1068395827
 20
4.8344047732
 30
0.0
 10
5.1045198249
 20
4.8347550169
 30
0.0
 10
5.1021735995
 20
4.8348797444
 30
0.0
 10
5.099826092
 20
4.834777083
 30
0.0
 10
5.097503524
 20
4.834442028
 30
0.0
 10
5.0952319715
 20
4.8338807135
 30
0.0
 10
5.0923119064
 20
4.8328508203
 30
0.0
 10
5.088899308
 20
4.8310530678
 30
0.0
 10
5.0864579675
 20
4.8291878154
 30
0.0
 10
5.0853198666
 20
4.8281778711
 30
0.0
  0
SPLINE
  5
347
100
AcDbEntity
  8
0
100
AcDbSpline
 62
7
  6
CONTINUOUS
 70
0
 71
3
 72
9
 73
5
 74
0
 42
0.0000001
 43
0.0000001
 44
0.0000000001
 40
0.0
 40
0.0
 40
0.0
 40
0.0
 40
0.2513632767
 40
1.0
 40
1.0
 40
1.0
 40
1.0
 10
5.0853198666
 20
4.8281778711
 30
0.0
 10
5.084998914
 20
4.8278930596
 30
0.0
 10
5.0837457569
 20
4.8267334685
 30
0.0
 10
5.0825864371
 20
4.8254732994
 30
0.0
 10
5.0817744542
 20
4.8244864073
 30
0.0
  0
LINE
  5
348
100
AcDbEntity
  8
0
100
AcDbLine
 62
7
  6
CONTINUOUS
 10
5.122544233
 20
4.8303341754
 11
5.1190431384
 21
4.8339110145
  0
SPLINE
  5
349
100
AcDbEntity
  8
0
100
AcDbSpline
 62
7
  6
CONTINUOUS
 70
0
 71
3
 72
20
 73
16
 74
0
 42
0.0000001
 43
0.0000001
 44
0.0000000001
 40
0.0
 40
0.0
 40
0.0
 40
0.0
 40
0.0609958789
 40
0.1225111394
 40
0.2468439341
 40
0.3097397964
 40
0.372981252
 40
0.4364638941
 40
0.5000861036
 40
0.5637067675
 40
0.6272011188
 40
0.6904592303
 40
0.7533412667
 40
0.8775677364
 40
1.0
 40
1.0
 40
1.0
 40
1.0
 10
5.1190431384
 20
4.8339110145
 30
0.0
 10
5.1184764144
 20
4.8344023219
 30
0.0
 10
5.1172991109
 20
4.8353455555
 30
0.0
 10
5.1147785582
 20
4.8370410615
 30
0.0
 10
5.112026237
 20
4.8384182972
 30
0.0
 10
5.1091077494
 20
4.8394126869
 30
0.0
 10
5.1068383693
 20
4.8399627274
 30
0.0
 10
5.1045191678
 20
4.840302557
 30
0.0
 10
5.1021735684
 20
4.8404235714
 30
0.0
 10
5.0998267151
 20
4.8403239678
 30
0.0
 10
5.0975047624
 20
4.8399988909
 30
0.0
 10
5.095233705
 20
4.8394542589
 30
0.0
 10
5.0923169824
 20
4.8384559082
 30
0.0
 10
5.0889080327
 20
4.8367142477
 30
0.0
 10
5.0864604959
 20
4.8349002804
 30
0.0
 10
5.0853198666
 20
4.8339176914
 30
0.0
  0
LINE
  5
34A
100
AcDbEntity
  8
0
100
AcDbLine
 62
7
  6
CONTINUOUS
 10
5.0853198666
 20
4.8339176914
 11
5.0817744542
 21
4.8303341754
  0
SPLINE
  5
34B
100
AcDbEntity
  8
ALL_FEATURES
100
AcDbSpline
 62
7
  6
CONTINUOUS
 70
0
 71
3
 72
11
 73
7
 74
0
 42
0.0000001
 43
0.0000001
 44
0.0000000001
 40
0.0
 40
0.0
 40
0.0
 40
0.0
 40
0.2498865755
 40
0.4998982818
 40
0.7499663723
 40
1.0
 40
1.0
 40
1.0
 40
1.0
 10
5.6007745362
 20
4.7755271157
 30
0.0
 10
5.6012888913
 20
4.7824056364
 30
0.0
 10
5.6025313612
 20
4.7961504098
 30
0.0
 10
5.6048153476
 20
4.8167261567
 30
0.0
 10
5.6072645887
 20
4.8372863833
 30
0.0
 10
5.6088311789
 20
4.8510020895
 30
0.0
 10
5.609554759
 20
4.8578658388
 30
0.0
  0
LINE
  5
34C
100
AcDbEntity
  8
0
100
AcDbLine
 62
7
  6
CONTINUOUS
 10
5.122544233
 20
4.8351563496
 11
5.1190431384
 21
4.8386087652
  0
SPLINE
  5
34D
100
AcDbEntity
  8
0
100
AcDbSpline
 62
7
  6
CONTINUOUS
 70
0
 71
3
 72
20
 73
16
 74
0
 42
0.0000001
 43
0.0000001
 44
0.0000000001
 40
0.0
 40
0.0
 40
0.0
 40
0.0
 40
0.060507538
 40
0.1216988667
 40
0.2458605598
 40
0.3088762864
 40
0.3723444756
 40
0.4361299393
 40
0.5000956626
 40
0.5640616209
 40
0.6278626412
 40
0.691349963
 40
0.7543497827
 40
0.8783843016
 40
1.0
 40
1.0
 40
1.0
 40
1.0
 10
5.1190431384
 20
4.8386087652
 30
0.0
 10
5.1184756364
 20
4.839083633
 30
0.0
 10
5.1172965972
 20
4.8399951936
 30
0.0
 10
5.1147726028
 20
4.8416335205
 30
0.0
 10
5.1120207077
 20
4.8429612393
 30
0.0
 10
5.1091058707
 20
4.843919575
 30
0.0
 10
5.1068370071
 20
4.8444502066
 30
0.0
 10
5.1045184326
 20
4.8447780287
 30
0.0
 10
5.1021735336
 20
4.8448947624
 30
0.0
 10
5.099827412
 20
4.8447986837
 30
0.0
 10
5.0975061524
 20
4.84448511
 30
0.0
 10
5.0952356617
 20
4.8439597175
 30
0.0
 10
5.0923227581
 20
4.8429976614
 30
0.0
 10
5.0889181451
 20
4.8413205529
 30
0.0
 10
5.0864634757
 20
4.8395660962
 30
0.0
 10
5.0853198666
 20
4.8386152098
 30
0.0
  0
LINE
  5
34E
100
AcDbEntity
  8
0
100
AcDbLine
 62
7
  6
CONTINUOUS
 10
5.0853198666
 20
4.8386152098
 11
5.0817744542
 21
4.8351563496
  0
LINE
  5
34F
100
AcDbEntity
  8
0
100
AcDbLine
 62
7
  6
CONTINUOUS
 10
5.122544233
 20
4.8389304466
 11
5.1190431384
 21
4.8422423419
  0
SPLINE
  5
350
100
AcDbEntity
  8
0
100
AcDbSpline
 62
7
  6
CONTINUOUS
 70
0
 71
3
 72
20
 73
16
 74
0
 42
0.0000001
 43
0.0000001
 44
0.0000000001
 40
0.0
 40
0.0
 40
0.0
 40
0.0
 40
0.059961232
 40
0.1207917562
 40
0.2447658669
 40
0.3079161391
 40
0.3716370547
 40
0.4357591379
 40
0.5001062652
 40
0.5644555849
 40
0.6285974616
 40
0.692340244
 40
0.7554723039
 40
0.8792959787
 40
1.0
 40
1.0
 40
1.0
 40
1.0
 10
5.1190431384
 20
4.8422423419
 30
0.0
 10
5.1184747371
 20
4.8426986035
 30
0.0
 10
5.1172937207
 20
4.8435743029
 30
0.0
 10
5.1147658732
 20
4.8451478692
 30
0.0
 10
5.1120145825
 20
4.846419762
 30
0.0
 10
5.1091038063
 20
4.8473375373
 30
0.0
 10
5.1068355199
 20
4.8478462788
 30
0.0
 10
5.104517633
 20
4.8481605629
 30
0.0
 10
5.1021734958
 20
4.8482724711
 30
0.0
 10
5.0998281699
 20
4.8481803658
 30
0.0
 10
5.0975076696
 20
4.8478797593
 30
0.0
 10
5.0952378114
 20
4.847376063
 30
0.0
 10
5.0923291599
 20
4.8464548302
 30
0.0
 10
5.0889295893
 20
4.8448503218
 30
0.0
 10
5.0864669141
 20
4.8431634502
 30
0.0
 10
5.0853198666
 20
4.8422485242
 30
0.0
  0
LINE
  5
351
100
AcDbEntity
  8
0
100
AcDbLine
 62
7
  6
CONTINUOUS
 10
5.122544233
 20
4.84163887
 11
5.1190431384
 21
4.8447948034
  0
SPLINE
  5
352
100
AcDbEntity
  8
0
100
AcDbSpline
 62
7
  6
CONTINUOUS
 70
0
 71
3
 72
20
 73
16
 74
0
 42
0.0000001
 43
0.0000001
 44
0.0000000001
 40
0.0
 40
0.0
 40
0.0
 40
0.0
 40
0.0593627495
 40
0.119799948
 40
0.2435731853
 40
0.3068713722
 40
0.3708680166
 40
0.4353562724
 40
0.5001177582
 40
0.5648835408
 40
0.6293961513
 40
0.6934176146
 40
0.7566950907
 40
0.8802924881
 40
1.0
 40
1.0
 40
1.0
 40
1.0
 10
5.1190431384
 20
4.8447948034
 30
0.0
 10
5.1184737151
 20
4.8452303607
 30
0.0
 10
5.1172904895
 20
4.8460661403
 30
0.0
 10
5.1147584206
 20
4.8475675991
 30
0.0
 10
5.1120079469
 20
4.8487776653
 30
0.0
 10
5.1091015891
 20
4.849650618
 30
0.0
 10
5.1068339338
 20
4.8501351003
 30
0.0
 10
5.1045167836
 20
4.8504343866
 30
0.0
 10
5.1021734557
 20
4.8505409498
 30
0.0
 10
5.0998289746
 20
4.8504532453
 30
0.0
 10
5.0975092872
 20
4.850167002
 30
0.0
 10
5.0952401195
 20
4.8496873467
 30
0.0
 10
5.0923360997
 20
4.8488112165
 30
0.0
 10
5.0889422827
 20
4.8472868878
 30
0.0
 10
5.0864708133
 20
4.8456754991
 30
0.0
 10
5.0853198666
 20
4.8448006946
 30
0.0
  0
SPLINE
  5
353
100
AcDbEntity
  8
0
100
AcDbSpline
 62
7
  6
CONTINUOUS
 70
0
 71
3
 72
19
 73
15
 74
0
 42
0.0000001
 43
0.0000001
 44
0.0000000001
 40
0.0
 40
0.0
 40
0.0
 40
0.0
 40
0.1186387369
 40
0.242003803
 40
0.3054452124
 40
0.3697724754
 40
0.4346893834
 40
0.4999091007
 40
0.6299114746
 40
0.6942127711
 40
0.7576789919
 40
0.8812557656
 40
0.9412775826
 40
1.0
 40
1.0
 40
1.0
 40
1.0
 10
5.0853088281
 20
4.374479811
 30
0.0
 10
5.0864643836
 20
4.3736482008
 30
0.0
 10
5.0889460725
 20
4.3721179996
 30
0.0
 10
5.0923349761
 20
4.3706789297
 30
0.0
 10
5.0952356589
 20
4.3698506023
 30
0.0
 10
5.0975054524
 20
4.3693963087
 30
0.0
 10
5.0998259986
 20
4.3691252426
 30
0.0
 10
5.1029482464
 20
4.3690142041
 30
0.0
 10
5.1060672531
 20
4.3692707877
 30
0.0
 10
5.1091016745
 20
4.3698842479
 30
0.0
 10
5.112005385
 20
4.3707092609
 30
0.0
 10
5.1147563149
 20
4.3718531955
 30
0.0
 10
5.1172941748
 20
4.3732770693
 30
0.0
 10
5.1184803066
 20
4.3740698879
 30
0.0
 10
5.1190510759
 20
4.3744831627
 30
0.0
  0
SPLINE
  5
354
100
AcDbEntity
  8
0
100
AcDbSpline
 62
7
  6
CONTINUOUS
 70
0
 71
3
 72
19
 73
15
 74
0
 42
0.0000001
 43
0.0000001
 44
0.0000000001
 40
0.0
 40
0.0
 40
0.0
 40
0.0
 40
0.0587251079
 40
0.1187476853
 40
0.2423226736
 40
0.3057868223
 40
0.3700850306
 40
0.5000799312
 40
0.5652959744
 40
0.6302105973
 40
0.6945367512
 40
0.7579775321
 40
0.8813494424
 40
1.0
 40
1.0
 40
1.0
 40
1.0
 10
5.1190431384
 20
4.8462542488
 30
0.0
 10
5.1184725712
 20
4.8466670784
 30
0.0
 10
5.1172869214
 20
4.8474590235
 30
0.0
 10
5.1147503043
 20
4.8488812917
 30
0.0
 10
5.1120009711
 20
4.8500238877
 30
0.0
 10
5.1090991308
 20
4.8508479974
 30
0.0
 10
5.106066795
 20
4.8514608595
 30
0.0
 10
5.1029500077
 20
4.8517173157
 30
0.0
 10
5.0998299374
 20
4.8516066858
 30
0.0
 10
5.097510943
 20
4.8513361746
 30
0.0
 10
5.0952425562
 20
4.8508827691
 30
0.0
 10
5.0923434697
 20
4.8500557544
 30
0.0
 10
5.0889561106
 20
4.8486186598
 30
0.0
 10
5.0864751679
 20
4.8470904464
 30
0.0
 10
5.0853198666
 20
4.8462598214
 30
0.0
  0
SPLINE
  5
355
100
AcDbEntity
  8
0
100
AcDbSpline
 62
7
  6
CONTINUOUS
 70
0
 71
3
 72
20
 73
16
 74
0
 42
0.0000001
 43
0.0000001
 44
0.0000000001
 40
0.0
 40
0.0
 40
0.0
 40
0.0
 40
0.119697199
 40
0.2432884273
 40
0.3065665365
 40
0.370588913
 40
0.4351033942
 40
0.4998723059
 40
0.56463722
 40
0.6291285211
 40
0.6931277825
 40
0.756427731
 40
0.8802027437
 40
0.940639474
 40
1.0
 40
1.0
 40
1.0
 40
1.0
 10
5.0853088281
 20
4.3759393926
 30
0.0
 10
5.086460025
 20
4.3750635528
 30
0.0
 10
5.088932223
 20
4.3734500756
 30
0.0
 10
5.0923275931
 20
4.3719236462
 30
0.0
 10
5.0952332175
 20
4.3710461235
 30
0.0
 10
5.0975037916
 20
4.3705655287
 30
0.0
 10
5.099825033
 20
4.3702786971
 30
0.0
 10
5.1021711507
 20
4.3701906708
 30
0.0
 10
5.1045161453
 20
4.3702971841
 30
0.0
 10
5.1068349278
 20
4.370596709
 30
0.0
 10
5.1091041373
 20
4.3710816604
 30
0.0
 10
5.112012373
 20
4.3719555729
 30
0.0
 10
5.1147644431
 20
4.373167058
 30
0.0
 10
5.1172977476
 20
4.3746702096
 30
0.0
 10
5.1184814519
 20
4.3755069096
 30
0.0
 10
5.1190510759
 20
4.3759429359
 30
0.0
  0
LINE
  5
356
100
AcDbEntity
  8
0
100
AcDbLine
 62
7
  6
CONTINUOUS
 10
5.1190510759
 20
4.3759429359
 11
5.122544233
 21
4.3790928075
  0
SPLINE
  5
357
100
AcDbEntity
  8
ALL_FEATURES
100
AcDbSpline
 62
7
  6
CONTINUOUS
 70
0
 71
3
 72
11
 73
7
 74
0
 42
0.0000001
 43
0.0000001
 44
0.0000000001
 40
0.0
 40
0.0
 40
0.0
 40
0.0
 40
0.2500335001
 40
0.5001013113
 40
0.7501128796
 40
1.0
 40
1.0
 40
1.0
 40
1.0
 10
5.609554759
 20
4.6103658388
 30
0.0
 10
5.6088311793
 20
4.6172295845
 30
0.0
 10
5.6072645883
 20
4.6309452793
 30
0.0
 10
5.6048153694
 20
4.6515054933
 30
0.0
 10
5.6025313563
 20
4.6720812408
 30
0.0
 10
5.6012888924
 20
4.6858260261
 30
0.0
 10
5.6007745362
 20
4.6927045618
 30
0.0
  0
SPLINE
  5
358
100
AcDbEntity
  8
0
100
AcDbSpline
 62
7
  6
CONTINUOUS
 70
0
 71
3
 72
20
 73
16
 74
0
 42
0.0000001
 43
0.0000001
 44
0.0000000001
 40
0.0
 40
0.0
 40
0.0
 40
0.0
 40
0.1206950881
 40
0.2445132421
 40
0.3076459577
 40
0.3713894913
 40
0.4355328719
 40
0.4998848315
 40
0.5642348531
 40
0.6283594766
 40
0.6920825869
 40
0.7552343471
 40
0.8792102441
 40
0.9400405702
 40
1.0
 40
1.0
 40
1.0
 40
1.0
 10
5.0853088281
 20
4.3784919785
 30
0.0
 10
5.0864561226
 20
4.3775759716
 30
0.0
 10
5.0889195109
 20
4.3758869208
 30
0.0
 10
5.0923206413
 20
4.3742801964
 30
0.0
 10
5.0952309049
 20
4.3733574976
 30
0.0
 10
5.0975021692
 20
4.3728528147
 30
0.0
 10
5.0998242257
 20
4.37255159
 30
0.0
 10
5.10217119
 20
4.3724591467
 30
0.0
 10
5.1045169958
 20
4.3725710025
 30
0.0
 10
5.1068365163
 20
4.3728855375
 30
0.0
 10
5.1091063585
 20
4.3733947721
 30
0.0
 10
5.1120190202
 20
4.3743135584
 30
0.0
 10
5.1147719063
 20
4.375586944
 30
0.0
 10
5.1173009829
 20
4.3771622821
 30
0.0
 10
5.1184824749
 20
4.3780389446
 30
0.0
 10
5.1190510759
 20
4.3784956969
 30
0.0
  0
LINE
  5
359
100
AcDbEntity
  8
0
100
AcDbLine
 62
7
  6
CONTINUOUS
 10
5.1190510759
 20
4.3784956969
 11
5.122544233
 21
4.3818012309
  0
SPLINE
  5
35A
100
AcDbEntity
  8
ALL_FEATURES
100
AcDbSpline
 62
7
  6
CONTINUOUS
 70
0
 71
3
 72
11
 73
7
 74
0
 42
0.0000001
 43
0.0000001
 44
0.0000000001
 40
0.0
 40
0.0
 40
0.0
 40
0.0
 40
0.2498871174
 40
0.4998986862
 40
0.7499664982
 40
1.0
 40
1.0
 40
1.0
 40
1.0
 10
5.6007745362
 20
4.5280271157
 30
0.0
 10
5.6012888924
 20
4.5349056513
 30
0.0
 10
5.6025313564
 20
4.5486504365
 30
0.0
 10
5.6048153694
 20
4.569226184
 30
0.0
 10
5.6072645883
 20
4.5897863981
 30
0.0
 10
5.6088311793
 20
4.603502093
 30
0.0
 10
5.609554759
 20
4.6103658388
 30
0.0
  0
LINE
  5
35B
100
AcDbEntity
  8
0
100
AcDbLine
 62
7
  6
CONTINUOUS
 10
5.0817744542
 20
4.3855753279
 11
5.0853088281
 21
4.3821256674
  0
SPLINE
  5
35C
100
AcDbEntity
  8
0
100
AcDbSpline
 62
7
  6
CONTINUOUS
 70
0
 71
3
 72
21
 73
17
 74
0
 42
0.0000001
 43
0.0000001
 44
0.0000000001
 40
0.0
 40
0.0
 40
0.0
 40
0.0
 40
0.1215936362
 40
0.1833622679
 40
0.2457266398
 40
0.3087197064
 40
0.3722001456
 40
0.435994811
 40
0.4999554175
 40
0.5639160021
 40
0.6276960205
 40
0.6911585316
 40
0.754168062
 40
0.8783168953
 40
0.93950104
 40
1.0
 40
1.0
 40
1.0
 40
1.0
 10
5.0853088281
 20
4.3821256674
 30
0.0
 10
5.0864526817
 20
4.381173659
 30
0.0
 10
5.0882876616
 20
4.3798614561
 30
0.0
 10
5.0909299555
 20
4.3784195771
 30
0.0
 10
5.09303137
 20
4.3775005493
 30
0.0
 10
5.0952288013
 20
4.3767738718
 30
0.0
 10
5.097500634
 20
4.3762475176
 30
0.0
 10
5.0998234692
 20
4.3759332802
 30
0.0
 10
5.102171226
 20
4.3758368539
 30
0.0
 10
5.1045177966
 20
4.3759535318
 30
0.0
 10
5.1068380057
 20
4.3762816161
 30
0.0
 10
5.1091084266
 20
4.3768127624
 30
0.0
 10
5.1120251559
 20
4.3777721558
 30
0.0
 10
5.1147786452
 20
4.379101434
 30
0.0
 10
5.1173038629
 20
4.3807416035
 30
0.0
 10
5.1184833752
 20
4.3816541656
 30
0.0
 10
5.1190510759
 20
4.3821295436
 30
0.0
  0
LINE
  5
35D
100
AcDbEntity
  8
0
100
AcDbLine
 62
7
  6
CONTINUOUS
 10
5.1190510759
 20
4.3821295436
 11
5.122544233
 21
4.3855753279
  0
SPLINE
  5
35E
100
AcDbEntity
  8
ALL_FEATURES
100
AcDbSpline
 62
7
  6
CONTINUOUS
 70
0
 71
3
 72
11
 73
7
 74
0
 42
0.0000001
 43
0.0000001
 44
0.0000000001
 40
0.0
 40
0.0
 40
0.0
 40
0.0
 40
0.2500336232
 40
0.5001017136
 40
0.7501134202
 40
1.0
 40
1.0
 40
1.0
 40
1.0
 10
5.609554759
 20
4.3628658388
 30
0.0
 10
5.6088311789
 20
4.3697295879
 30
0.0
 10
5.6072645887
 20
4.383445294
 30
0.0
 10
5.6048153477
 20
4.4040055205
 30
0.0
 10
5.6025313613
 20
4.4245812675
 30
0.0
 10
5.6012888913
 20
4.438326041
 30
0.0
 10
5.6007745362
 20
4.4452045618
 30
0.0
  0
LINE
  5
35F
100
AcDbEntity
  8
0
100
AcDbLine
 62
7
  6
CONTINUOUS
 10
5.0817744542
 20
4.3903975021
 11
5.0853088281
 21
4.3868235173
  0
SPLINE
  5
360
100
AcDbEntity
  8
0
100
AcDbSpline
 62
7
  6
CONTINUOUS
 70
0
 71
3
 72
20
 73
16
 74
0
 42
0.0000001
 43
0.0000001
 44
0.0000000001
 40
0.0
 40
0.0
 40
0.0
 40
0.0
 40
0.1224256289
 40
0.2466477056
 40
0.3095304583
 40
0.3727890653
 40
0.4362843081
 40
0.4999067841
 40
0.5635309809
 40
0.6270153056
 40
0.6902582408
 40
0.7531551315
 40
0.8774897358
 40
0.9390052421
 40
1.0
 40
1.0
 40
1.0
 40
1.0
 10
5.0853088281
 20
4.3868235173
 30
0.0
 10
5.0864497
 20
4.3858397701
 30
0.0
 10
5.0888979244
 20
4.3840234721
 30
0.0
 10
5.0923084434
 20
4.3822793984
 30
0.0
 10
5.0952267906
 20
4.3812794561
 30
0.0
 10
5.0974992536
 20
4.3807337572
 30
0.0
 10
5.0998227665
 20
4.3804080107
 30
0.0
 10
5.1021712611
 20
4.3803080415
 30
0.0
 10
5.1045185324
 20
4.3804289995
 30
0.0
 10
5.10683937
 20
4.3807691009
 30
0.0
 10
5.1091103086
 20
4.3813196754
 30
0.0
 10
5.1120306946
 20
4.3823151644
 30
0.0
 10
5.1147846086
 20
4.3836940185
 30
0.0
 10
5.1173063795
 20
4.3853914295
 30
0.0
 10
5.1184841539
 20
4.3863356984
 30
0.0
 10
5.1190510759
 20
4.3868275332
 30
0.0
  0
LINE
  5
361
100
AcDbEntity
  8
0
100
AcDbLine
 62
7
  6
CONTINUOUS
 10
5.1190510759
 20
4.3868275332
 11
5.122544233
 21
4.3903975021
  0
LINE
  5
362
100
AcDbEntity
  8
0
100
AcDbLine
 62
7
  6
CONTINUOUS
 10
5.0817744542
 20
4.3962452702
 11
5.0853088281
 21
4.3925636248
  0
SPLINE
  5
363
100
AcDbEntity
  8
0
100
AcDbSpline
 62
7
  6
CONTINUOUS
 70
0
 71
3
 72
20
 73
16
 74
0
 42
0.0000001
 43
0.0000001
 44
0.0000000001
 40
0.0
 40
0.0
 40
0.0
 40
0.0
 40
0.1231396945
 40
0.2475322751
 40
0.3103127149
 40
0.3733707393
 40
0.4365968405
 40
0.4999159144
 40
0.5632382519
 40
0.6264567335
 40
0.689501078
 40
0.7522936091
 40
0.8767800438
 40
0.9385792178
 40
1.0
 40
1.0
 40
1.0
 40
1.0
 10
5.0853088281
 20
4.3925636248
 30
0.0
 10
5.08644717
 20
4.3915524909
 30
0.0
 10
5.0888891884
 20
4.3896848469
 30
0.0
 10
5.0923033592
 20
4.3878846007
 30
0.0
 10
5.0952250539
 20
4.3868530645
 30
0.0
 10
5.0974980115
 20
4.3862906503
 30
0.0
 10
5.0998221414
 20
4.3859549048
 30
0.0
 10
5.1021712917
 20
4.3858518665
 30
0.0
 10
5.1045191904
 20
4.3859765361
 30
0.0
 10
5.1068405853
 20
4.3863270601
 30
0.0
 10
5.1091119755
 20
4.3868944788
 30
0.0
 10
5.1120355646
 20
4.387921332
 30
0.0
 10
5.1147897606
 20
4.3893431755
 30
0.0
 10
5.11730853
 20
4.3910900331
 30
0.0
 10
5.1184848137
 20
4.3920617007
 30
0.0
 10
5.1190510759
 20
4.3925677616
 30
0.0
  0
SPLINE
  5
364
100
AcDbEntity
  8
0
100
AcDbSpline
 62
7
  6
CONTINUOUS
 70
0
 71
3
 72
9
 73
5
 74
0
 42
0.0000001
 43
0.0000001
 44
0.0000000001
 40
0.0
 40
0.0
 40
0.0
 40
0.0
 40
0.2513596019
 40
1.0
 40
1.0
 40
1.0
 40
1.0
 10
5.1190510759
 20
4.3925677616
 30
0.0
 10
5.119368143
 20
4.3928511202
 30
0.0
 10
5.1206049585
 20
4.3940058018
 30
0.0
 10
5.1217453629
 20
4.395262504
 30
0.0
 10
5.122544233
 20
4.3962452702
 30
0.0
  0
SPLINE
  5
365
100
AcDbEntity
  8
0
100
AcDbSpline
 62
7
  6
CONTINUOUS
 70
0
 71
3
 72
9
 73
5
 74
0
 42
0.0000001
 43
0.0000001
 44
0.0000000001
 40
0.0
 40
0.0
 40
0.0
 40
0.0
 40
0.249113725
 40
1.0
 40
1.0
 40
1.0
 40
1.0
 10
5.0817744542
 20
4.4030913673
 30
0.0
 10
5.0820433661
 20
4.4027564953
 30
0.0
 10
5.083147191
 20
4.401432074
 30
0.0
 10
5.0843514116
 20
4.4001905567
 30
0.0
 10
5.0853088281
 20
4.3993192266
 30
0.0
  0
SPLINE
  5
366
100
AcDbEntity
  8
0
100
AcDbSpline
 62
7
  6
CONTINUOUS
 70
0
 71
3
 72
20
 73
16
 74
0
 42
0.0000001
 43
0.0000001
 44
0.0000000001
 40
0.0
 40
0.0
 40
0.0
 40
0.0
 40
0.1237436098
 40
0.2482821392
 40
0.3109764357
 40
0.3738646011
 40
0.4368622963
 40
0.4999236642
 40
0.5629896158
 40
0.6259825107
 40
0.6888586953
 40
0.7515633421
 40
0.8761799266
 40
0.9382194337
 40
1.0
 40
1.0
 40
1.0
 40
1.0
 10
5.0853088281
 20
4.3993192266
 30
0.0
 10
5.0864450824
 20
4.3982851389
 30
0.0
 10
5.0888818784
 20
4.3963745123
 30
0.0
 10
5.0922990368
 20
4.3945269187
 30
0.0
 10
5.095223567
 20
4.3934687452
 30
0.0
 10
5.0974969427
 20
4.3928922652
 30
0.0
 10
5.0998216019
 20
4.3925481025
 30
0.0
 10
5.1021713181
 20
4.3924424805
 30
0.0
 10
5.1045197581
 20
4.3925702745
 30
0.0
 10
5.1068416308
 20
4.392929571
 30
0.0
 10
5.1091134025
 20
4.3935111628
 30
0.0
 10
5.1120397067
 20
4.3945644561
 30
0.0
 10
5.114794077
 20
4.3960224723
 30
0.0
 10
5.1173103152
 20
4.3978108055
 30
0.0
 10
5.1184853574
 20
4.3988054631
 30
0.0
 10
5.1190510759
 20
4.3993234652
 30
0.0
  0
SPLINE
  5
367
100
AcDbEntity
  8
0
100
AcDbSpline
 62
7
  6
CONTINUOUS
 70
0
 71
3
 72
9
 73
5
 74
0
 42
0.0000001
 43
0.0000001
 44
0.0000000001
 40
0.0
 40
0.0
 40
0.0
 40
0.0
 40
0.2509921737
 40
1.0
 40
1.0
 40
1.0
 40
1.0
 10
5.1190510759
 20
4.3993234652
 30
0.0
 10
5.1193683078
 20
4.3996139397
 30
0.0
 10
5.1206069005
 20
4.4007987614
 30
0.0
 10
5.1217464491
 20
4.4020858137
 30
0.0
 10
5.122544233
 20
4.4030913673
 30
0.0
  0
ENDSEC
  0
SECTION
  2
OBJECTS
  0
DICTIONARY
  5
C
100
AcDbDictionary
280
0
281
1
  3
ACAD_GROUP
350
D
  3
ACAD_MLINESTYLE
350
17
  3
ACAD_LAYOUT
350
1A
  3
ACAD_PLOTSETTINGS
350
19
  3
ACAD_PLOTSTYLENAME
350
E
  0
DICTIONARY
  5
D
102
{ACAD_REACTORS
330
C
102
}
100
AcDbDictionary
280
0
281
1
  0
ACDBDICTIONARYWDFLT
  5
E
102
{ACAD_REACTORS
330
C
102
}
100
AcDbDictionary
281
1
  3
Normal
350
F
100
AcDbDictionaryWithDefault
340
F
  0
DICTIONARY
  5
17
102
{ACAD_REACTORS
330
C
102
}
100
AcDbDictionary
280
0
281
1
  3
Standard
350
18
  0
DICTIONARY
  5
19
102
{ACAD_REACTORS
330
C
102
}
100
AcDbDictionary
281
1
  0
DICTIONARY
  5
1A
102
{ACAD_REACTORS
330
C
102
}
100
AcDbDictionary
281
1
  3
Model
350
368
  3
Layout1
350
369
  0
ACDBPLACEHOLDER
  5
F
102
{ACAD_REACTORS
330
E
102
}
  0
MLINESTYLE
  5
18
102
{ACAD_REACTORS
330
17
102
}
100
AcDbMlineStyle
  2
STANDARD
 70
0
  3

 62
256
 51
90.0
 52
90.0
 71
2
 49
0.5
 62
256
  6
BYLAYER
 49
-0.5
 62
256
  6
BYLAYER
  0
LAYOUT
  5
368
102
{ACAD_REACTORS
330
1A
102
}
100
AcDbPlotSettings
  1

  2
none_device
  4
ANSI_A_(11.00_x_8.50_Inches)
  6

 40
0.0
 41
0.0
 42
0.0
 43
0.0
 44
279.4
 45
215.9
 46
0.0
 47
0.0
 48
0.0
 49
0.0
140
0.0
141
0.0
142
1.0
143
1.0
 70
1024
 72
0
 73
0
 74
0
  7

 75
0
147
1.0
148
0.0
149
0.0
100
AcDbLayout
  1
Model
 70
0
 71
0
 10
0.0
 20
0.0
 11
11.0
 21
8.5
 12
0.0
 22
0.0
 32
0.0
 14
0.0
 24
0.0
 34
0.0
 15
0.0
 25
0.0
 35
0.0
146
0.0
 13
0.0
 23
0.0
 33
0.0
 16
1.0
 26
0.0
 36
0.0
 17
0.0
 27
1.0
 37
0.0
 76
0
330
22C
345
0
346
0
  0
LAYOUT
  5
369
102
{ACAD_REACTORS
330
1A
102
}
100
AcDbPlotSettings
  1

  2
none_device
  4
ANSI_A_(11.00_x_8.50_Inches)
  6

 40
0.0
 41
0.0
 42
0.0
 43
0.0
 44
279.4
 45
215.9
 46
0.0
 47
0.0
 48
0.0
 49
0.0
140
0.0
141
0.0
142
1.0
143
1.0
 70
0
 72
0
 73
0
 74
0
  7

 75
0
147
1.0
148
0.0
149
0.0
100
AcDbLayout
  1
Layout1
 70
0
 71
1
 10
0.0
 20
0.0
 11
11.0
 21
8.5
 12
0.0
 22
0.0
 32
0.0
 14
0.0
 24
0.0
 34
0.0
 15
0.0
 25
0.0
 35
0.0
146
0.0
 13
0.0
 23
0.0
 33
0.0
 16
1.0
 26
0.0
 36
0.0
 17
0.0
 27
1.0
 37
0.0
 76
0
330
22D
345
0
346
0
  0
ENDSEC
  0
EOF
