999
DXF file: C:\Prowork\plots\400x_right.dxf
999
Pro/ENGINEER 2018500 by Parametric Technology Corporation
  0
SECTION
  2
HEADER
  9
$ACADVER
  1
AC1032
  9
$DWGCODEPAGE
  3
ANSI_1252
  9
$EXTMAX
 10
11.0
 20
8.5
 30
0.0
  9
$EXTMIN
 10
0.0
 20
0.0
 30
0.0
  9
$LIMMIN
 10
0.0
 20
0.0
  9
$LIMMAX
 10
11.0
 20
8.5
  9
$VIEWCTR
 10
5.5
 20
4.25
  9
$VIEWSIZE
 40
8.5
  9
$CLAYER
  8
0
  9
$LTSCALE
 40
0.605
  9
$CELTYPE
  6
BYLAYER
  9
$DIMSCALE
 40
1.0
  9
$DIMASZ
 40
0.1
  9
$DIMEXO
 40
0.0625
  9
$DIMDLI
 40
0.418
  9
$DIMEXE
 40
0.125
  9
$DIMCEN
 40
0.099
  9
$DIMLFAC
 40
1.0
  9
$DIMBLK
  1
_FILLED
  9
$DIMALT
 70
1
  9
$DIMALTD
 70
2
  9
$DIMALTTD
 70
2
  9
$DIMALTF
 40
25.4
  9
$DIMTXT
 40
0.08
  9
$DIMTOL
 70
1
  9
$DIMLIM
 70
0
  9
$DIMTFAC
 40
1.0
  9
$DIMTP
 40
0.001
  9
$DIMTM
 40
0.001
  9
$DIMGAP
 40
0.09
  9
$DIMDSEP
 70
46
  9
$AUNITS
 70
0
  9
$PDMODE
 70
3
  9
$PDSIZE
 40
0.06
  9
$HANDSEED
  5
3AC
  9
$TILEMODE
 70
1
  9
$MEASUREMENT
 70
0
  9
$INSUNITS
 70
1
  0
ENDSEC
  0
SECTION
  2
CLASSES
  0
CLASS
  1
ACDBDICTIONARYWDFLT
  2
AcDbDictionaryWithDefault
  3
AutoCAD 2000
 90
0
 91
1
280
0
281
0
  0
CLASS
  1
ACDBPLACEHOLDER
  2
AcDbPlaceHolder
  3
AutoCAD 2000
 90
0
 91
1
280
0
281
0
  0
CLASS
  1
LAYOUT
  2
AcDbLayout
  3
AutoCAD 2000
 90
0
 91
0
280
0
281
0
  0
ENDSEC
  0
SECTION
  2
TABLES
  0
TABLE
  2
VPORT
  5
8
100
AcDbSymbolTable
 70
2
  0
VPORT
  5
1F4
100
AcDbSymbolTableRecord
100
AcDbViewportTableRecord
  2
*ACTIVE
 70
0
 10
0.0
 20
0.0
 11
1.0
 21
1.0
 12
5.5
 22
4.25
 13
0.0
 23
0.0
 14
1.0
 24
1.0
 15
0.0
 25
0.0
 16
0.0
 26
0.0
 36
1.0
 17
0.0
 27
0.0
 37
0.0
 40
8.5
 41
1.2941176471
 42
50.0
 43
0.0
 44
0.0
 50
0.0
 51
0.0
 71
0
 72
100
 73
1
 74
1
 75
0
 76
0
 77
0
 78
0
  0
ENDTAB
  0
TABLE
  2
LTYPE
  5
5
100
AcDbSymbolTable
 70
6
  0
LTYPE
  5
14
100
AcDbSymbolTableRecord
100
AcDbLinetypeTableRecord
  2
BYBLOCK
 70
0
  3

 72
65
 73
0
 40
0.0
  0
LTYPE
  5
15
100
AcDbSymbolTableRecord
100
AcDbLinetypeTableRecord
  2
BYLAYER
 70
0
  3

 72
65
 73
0
 40
0.0
  0
LTYPE
  5
16
100
AcDbSymbolTableRecord
100
AcDbLinetypeTableRecord
  2
CONTINUOUS
 70
64
  3
Solid line
 72
65
 73
0
 40
0.0
  0
LTYPE
  5
1F5
100
AcDbSymbolTableRecord
100
AcDbLinetypeTableRecord
  2
CENTER
 70
64
  3
____ _ ____ _ ____ _ ____ _ ____ _ ____ _ ____
 72
65
 73
4
 40
0.6
 49
0.375
 74
0
 49
-0.075
 74
0
 49
0.075
 74
0
 49
-0.075
 74
0
  0
LTYPE
  5
1F6
100
AcDbSymbolTableRecord
100
AcDbLinetypeTableRecord
  2
HIDDEN
 70
64
  3
- - - - - - - - - - - - - - - - - - - -
 72
65
 73
2
 40
0.2
 49
0.1
 74
0
 49
-0.1
 74
0
  0
LTYPE
  5
1F7
100
AcDbSymbolTableRecord
100
AcDbLinetypeTableRecord
  2
PHANTOM
 70
64
  3
_____ _ _ _____ _ _ _____ _ _ _____
 72
65
 73
6
 40
0.8
 49
0.45
 74
0
 49
-0.05
 74
0
 49
0.1
 74
0
 49
-0.05
 74
0
 49
0.1
 74
0
 49
-0.05
 74
0
  0
LTYPE
  5
1F8
100
AcDbSymbolTableRecord
100
AcDbLinetypeTableRecord
  2
DOT
 70
64
  3
. . . . . . . . . . . . . . . . . . . .
 72
65
 73
2
 40
0.2
 49
0.1
 74
0
 49
-0.1
 74
0
  0
LTYPE
  5
1F9
100
AcDbSymbolTableRecord
100
AcDbLinetypeTableRecord
  2
DASHED
 70
64
  3
- - - - - - - - - - - - - - - - - - - -
 72
65
 73
2
 40
0.2
 49
0.1
 74
0
 49
-0.1
 74
0
  0
ENDTAB
  0
TABLE
  2
LAYER
  5
2
100
AcDbSymbolTable
 70
36
  0
LAYER
  5
10
100
AcDbSymbolTableRecord
100
AcDbLayerTableRecord
  2
0
 70
0
 62
7
  6
CONTINUOUS
370
-3
390
F
  0
LAYER
  5
1FA
100
AcDbSymbolTableRecord
100
AcDbLayerTableRecord
  2
DEFAULT_1
 70
0
 62
7
  6
CENTER
370
-3
390
F
  0
LAYER
  5
1FB
100
AcDbSymbolTableRecord
100
AcDbLayerTableRecord
  2
DEFAULT_2
 70
0
 62
8
  6
HIDDEN
370
-3
390
F
  0
LAYER
  5
1FC
100
AcDbSymbolTableRecord
100
AcDbLayerTableRecord
  2
DEFAULT_3
 70
0
 62
7
  6
PHANTOM
370
-3
390
F
  0
LAYER
  5
1FD
100
AcDbSymbolTableRecord
100
AcDbLayerTableRecord
  2
50350
 70
0
 62
7
  6
CONTINUOUS
370
-3
390
F
  0
LAYER
  5
1FE
100
AcDbSymbolTableRecord
100
AcDbLayerTableRecord
  2
50353
 70
0
 62
7
  6
CONTINUOUS
370
-3
390
F
  0
LAYER
  5
1FF
100
AcDbSymbolTableRecord
100
AcDbLayerTableRecord
  2
50356
 70
0
 62
7
  6
CONTINUOUS
370
-3
390
F
  0
LAYER
  5
200
100
AcDbSymbolTableRecord
100
AcDbLayerTableRecord
  2
50663
 70
0
 62
7
  6
CONTINUOUS
370
-3
390
F
  0
LAYER
  5
201
100
AcDbSymbolTableRecord
100
AcDbLayerTableRecord
  2
50664
 70
0
 62
7
  6
CONTINUOUS
370
-3
390
F
  0
LAYER
  5
202
100
AcDbSymbolTableRecord
100
AcDbLayerTableRecord
  2
50665
 70
0
 62
7
  6
CONTINUOUS
370
-3
390
F
  0
LAYER
  5
203
100
AcDbSymbolTableRecord
100
AcDbLayerTableRecord
  2
50675
 70
0
 62
7
  6
CONTINUOUS
370
-3
390
F
  0
LAYER
  5
204
100
AcDbSymbolTableRecord
100
AcDbLayerTableRecord
  2
50676
 70
0
 62
7
  6
CONTINUOUS
370
-3
390
F
  0
LAYER
  5
205
100
AcDbSymbolTableRecord
100
AcDbLayerTableRecord
  2
6-400
 70
0
 62
7
  6
CONTINUOUS
370
-3
390
F
  0
LAYER
  5
206
100
AcDbSymbolTableRecord
100
AcDbLayerTableRecord
  2
92000
 70
0
 62
7
  6
CONTINUOUS
370
-3
390
F
  0
LAYER
  5
207
100
AcDbSymbolTableRecord
100
AcDbLayerTableRecord
  2
ALL_FEATURES_9
 70
0
 62
7
  6
CONTINUOUS
370
-3
390
F
  0
LAYER
  5
208
100
AcDbSymbolTableRecord
100
AcDbLayerTableRecord
  2
DEFAULT_COORDINATE_SYSTEM
 70
0
 62
7
  6
CONTINUOUS
370
-3
390
F
  0
LAYER
  5
209
100
AcDbSymbolTableRecord
100
AcDbLayerTableRecord
  2
DEFAULT_DATUM_AXES
 70
0
 62
7
  6
CONTINUOUS
370
-3
390
F
  0
LAYER
  5
20A
100
AcDbSymbolTableRecord
100
AcDbLayerTableRecord
  2
DEFAULT_DATUM_PLANES
 70
0
 62
7
  6
CONTINUOUS
370
-3
390
F
  0
LAYER
  5
20B
100
AcDbSymbolTableRecord
100
AcDbLayerTableRecord
  2
DEFAULT_SURFACES
 70
0
 62
7
  6
CONTINUOUS
370
-3
390
F
  0
LAYER
  5
20C
100
AcDbSymbolTableRecord
100
AcDbLayerTableRecord
  2
INTF_50350
 70
0
 62
7
  6
CONTINUOUS
370
-3
390
F
  0
LAYER
  5
20D
100
AcDbSymbolTableRecord
100
AcDbLayerTableRecord
  2
INTF_50353
 70
0
 62
7
  6
CONTINUOUS
370
-3
390
F
  0
LAYER
  5
20E
100
AcDbSymbolTableRecord
100
AcDbLayerTableRecord
  2
INTF_50356
 70
0
 62
7
  6
CONTINUOUS
370
-3
390
F
  0
LAYER
  5
20F
100
AcDbSymbolTableRecord
100
AcDbLayerTableRecord
  2
INTF_50663
 70
0
 62
7
  6
CONTINUOUS
370
-3
390
F
  0
LAYER
  5
210
100
AcDbSymbolTableRecord
100
AcDbLayerTableRecord
  2
INTF_50664
 70
0
 62
7
  6
CONTINUOUS
370
-3
390
F
  0
LAYER
  5
211
100
AcDbSymbolTableRecord
100
AcDbLayerTableRecord
  2
INTF_50665
 70
0
 62
7
  6
CONTINUOUS
370
-3
390
F
  0
LAYER
  5
212
100
AcDbSymbolTableRecord
100
AcDbLayerTableRecord
  2
INTF_50675
 70
0
 62
7
  6
CONTINUOUS
370
-3
390
F
  0
LAYER
  5
213
100
AcDbSymbolTableRecord
100
AcDbLayerTableRecord
  2
INTF_50676
 70
0
 62
7
  6
CONTINUOUS
370
-3
390
F
  0
LAYER
  5
214
100
AcDbSymbolTableRecord
100
AcDbLayerTableRecord
  2
INTF_92000
 70
0
 62
7
  6
CONTINUOUS
370
-3
390
F
  0
LAYER
  5
215
100
AcDbSymbolTableRecord
100
AcDbLayerTableRecord
  2
INTF_BLANK
 70
0
 62
7
  6
CONTINUOUS
370
-3
390
F
  0
LAYER
  5
216
100
AcDbSymbolTableRecord
100
AcDbLayerTableRecord
  2
PLATED_SURFACE
 70
0
 62
7
  6
CONTINUOUS
370
-3
390
F
  0
LAYER
  5
217
100
AcDbSymbolTableRecord
100
AcDbLayerTableRecord
  2
_BLACK_HOLE
 70
0
 62
7
  6
CONTINUOUS
370
-3
390
F
  0
ENDTAB
  0
TABLE
  2
STYLE
  5
3
100
AcDbSymbolTable
 70
1
  0
STYLE
  5
11
100
AcDbSymbolTableRecord
100
AcDbTextStyleTableRecord
  2
STANDARD
 70
0
 40
0.0
 41
0.8
 50
0.0
 71
0
 42
0.2
  3
txt
  4

  0
STYLE
  5
218
100
AcDbSymbolTableRecord
100
AcDbTextStyleTableRecord
  2
TEXTSTYLE_1
 70
0
 40
0.0
 41
0.8
 50
0.0
 71
0
 42
0.2
  3
gdt
  4

  0
ENDTAB
  0
TABLE
  2
VIEW
  5
6
100
AcDbSymbolTable
 70
0
  0
ENDTAB
  0
TABLE
  2
UCS
  5
7
100
AcDbSymbolTable
 70
0
  0
ENDTAB
  0
TABLE
  2
APPID
  5
9
100
AcDbSymbolTable
 70
1
  0
APPID
  5
219
100
AcDbSymbolTableRecord
100
AcDbRegAppTableRecord
  2
ACAD
 70
0
  0
ENDTAB
  0
TABLE
  2
BLOCK_RECORD
  5
1
100
AcDbSymbolTable
 70
0
  0
BLOCK_RECORD
  5
21A
100
AcDbSymbolTableRecord
100
AcDbBlockTableRecord
  2
*Model_Space
  0
BLOCK_RECORD
  5
21B
100
AcDbSymbolTableRecord
100
AcDbBlockTableRecord
  2
*Paper_Space
  0
BLOCK_RECORD
  5
21C
100
AcDbSymbolTableRecord
100
AcDbBlockTableRecord
  2
_FILLED
  0
ENDTAB
  0
TABLE
  2
DIMSTYLE
  5
A
100
AcDbSymbolTable
 70
1
100
AcDbDimStyleTable
 71
0
  0
DIMSTYLE
105
21D
100
AcDbSymbolTableRecord
100
AcDbDimStyleTableRecord
  2
STANDARD
 70
0
  3

  4

 40
1.0
 41
0.1
 42
0.0625
 43
0.38
 44
0.125
 45
0.0
 46
0.0
 47
0.001
 48
0.001
140
0.08
141
0.09
142
0.0
143
25.4
144
1.0
145
0.0
146
1.0
147
0.09
 71
1.0
 72
0.0
 73
1
 74
1
 75
0
 76
0
 77
0
 78
4
 79
1
170
1
171
2
172
0
173
0
174
0
175
0
176
0
177
0
178
0
270
2
179
3
271
3
272
3
273
2
274
2
275
0
280
0
281
0
282
0
283
1
284
4
285
0
286
0
287
3
288
0
340
11
278
46
341
21C
342
21C
343
21C
344
21C
  0
ENDTAB
  0
ENDSEC
  0
SECTION
  2
BLOCKS
  0
BLOCK
  5
20
100
AcDbEntity
  8
0
100
AcDbBlockBegin
  2
*Model_Space
 70
0
 10
0.0
 20
0.0
 30
0.0
  3
*Model_Space
  1

  0
ENDBLK
  5
21
100
AcDbEntity
  8
0
100
AcDbBlockEnd
  0
BLOCK
  5
1C
100
AcDbEntity
  8
0
100
AcDbBlockBegin
  2
*Paper_Space
 70
0
 10
0.0
 20
0.0
 30
0.0
  3
*Paper_Space
  1

  0
ENDBLK
  5
1D
100
AcDbEntity
  8
0
100
AcDbBlockEnd
  0
BLOCK
  5
21E
100
AcDbEntity
  8
0
100
AcDbBlockBegin
  2
_FILLED
 70
64
 10
0.0
 20
0.0
  3
_FILLED
  1

  0
SOLID
  5
21F
100
AcDbEntity
  8
0
  6
BYBLOCK
 62
0
100
AcDbTrace
 10
0.0
 20
0.0
 11
-1.0
 21
0.2
 12
-1.0
 22
-0.2
 13
-1.0
 23
-0.2
  0
ENDBLK
  5
220
100
AcDbEntity
  8
0
  6
BYBLOCK
 62
0
100
AcDbBlockEnd
  0
ENDSEC
  0
SECTION
  2
ENTITIES
  0
MTEXT
  5
221
100
AcDbEntity
  8
0
100
AcDbMText
 62
7
  6
CONTINUOUS
  7
STANDARD
 71
1
 72
1
 10
9.5641498447
 20
0.410322205
 30
0.0
 11
1.0
 21
0.0
 31
0.0
 73
2
 44
0.9
  1
SCALE: 3.00
 40
0.08
 41
0.704
  0
LINE
  5
222
100
AcDbEntity
  8
0
100
AcDbLine
 62
7
  6
CONTINUOUS
 10
0.0
 20
0.0
 11
0.0
 21
8.5
  0
LINE
  5
223
100
AcDbEntity
  8
0
100
AcDbLine
 62
7
  6
CONTINUOUS
 10
0.0
 20
0.0
 11
11.0
 21
0.0
  0
LINE
  5
224
100
AcDbEntity
  8
0
100
AcDbLine
 62
7
  6
CONTINUOUS
 10
0.0
 20
8.5
 11
11.0
 21
8.5
  0
LINE
  5
225
100
AcDbEntity
  8
0
100
AcDbLine
 62
7
  6
CONTINUOUS
 10
11.0
 20
0.0
 11
11.0
 21
8.5
  0
LINE
  5
226
100
AcDbEntity
  8
0
100
AcDbLine
 62
9
  6
CONTINUOUS
 10
2.2799868016
 20
3.5110637216
 11
2.2799868013
 21
3.511079914
  0
LINE
  5
227
100
AcDbEntity
  8
0
100
AcDbLine
 62
9
  6
CONTINUOUS
 10
2.5086748477
 20
2.5925724292
 11
2.5087245498
 21
2.5924810368
  0
LINE
  5
228
100
AcDbEntity
  8
0
100
AcDbLine
 62
9
  6
CONTINUOUS
 10
2.5087309041
 20
4.4297327157
 11
2.5087245498
 21
4.4297210357
  0
LINE
  5
229
100
AcDbEntity
  8
0
100
AcDbLine
 62
9
  6
CONTINUOUS
 10
3.6682490527
 20
1.8218510474
 11
3.6682987548
 21
1.821759655
  0
LINE
  5
22A
100
AcDbEntity
  8
0
100
AcDbLine
 62
9
  6
CONTINUOUS
 10
3.6682490527
 20
5.2003510251
 11
3.6682426984
 21
5.2003393451
  0
LINE
  5
22B
100
AcDbEntity
  8
0
100
AcDbLine
 62
9
  6
CONTINUOUS
 10
2.5087245498
 20
5.2003510251
 11
2.5086748477
 21
5.2004424175
  0
LINE
  5
22C
100
AcDbEntity
  8
0
100
AcDbLine
 62
7
  6
CONTINUOUS
 10
4.1992027995
 20
2.0385168705
 11
3.9524868012
 21
2.5676010362
  0
LINE
  5
22D
100
AcDbEntity
  8
0
100
AcDbLine
 62
7
  6
CONTINUOUS
 10
3.8204868012
 20
2.9492697641
 11
3.8204868012
 21
2.9660683048
  0
LINE
  5
22E
100
AcDbEntity
  8
0
100
AcDbLine
 62
7
  6
CONTINUOUS
 10
3.8204868012
 20
3.2539320577
 11
3.8204868012
 21
3.3865363571
  0
LINE
  5
22F
100
AcDbEntity
  8
0
100
AcDbLine
 62
7
  6
CONTINUOUS
 10
3.8204868012
 20
3.4405437622
 11
3.8204868012
 21
3.5816583103
  0
LINE
  5
230
100
AcDbEntity
  8
0
100
AcDbLine
 62
7
  6
CONTINUOUS
 10
3.8204868012
 20
3.6356657154
 11
3.8204868012
 21
3.7682700148
  0
LINE
  5
231
100
AcDbEntity
  8
0
100
AcDbLine
 62
7
  6
CONTINUOUS
 10
3.8204868012
 20
4.0561337637
 11
3.8204868012
 21
4.0729323084
  0
LINE
  5
232
100
AcDbEntity
  8
0
100
AcDbLine
 62
7
  6
CONTINUOUS
 10
3.8774868012
 20
4.4546010362
 11
3.8774868012
 21
2.5676010362
  0
LINE
  5
233
100
AcDbEntity
  8
0
100
AcDbLine
 62
7
  6
CONTINUOUS
 10
4.7131344007
 20
2.0187616604
 11
4.2084148053
 21
2.0187616604
  0
LINE
  5
234
100
AcDbEntity
  8
0
100
AcDbLine
 62
9
  6
CONTINUOUS
 10
4.199934032
 20
2.0388578498
 11
4.721615174
 21
2.0388578498
  0
LINE
  5
235
100
AcDbEntity
  8
0
100
AcDbLine
 62
7
  6
CONTINUOUS
 10
3.9524868012
 20
2.5676010362
 11
3.9524868012
 21
4.4546010362
  0
LINE
  5
236
100
AcDbEntity
  8
0
100
AcDbLine
 62
7
  6
CONTINUOUS
 10
3.9524868012
 20
4.4546010362
 11
4.2084148053
 21
5.0034404121
  0
LINE
  5
237
100
AcDbEntity
  8
0
100
AcDbLine
 62
9
  6
CONTINUOUS
 10
2.5087245498
 20
1.8218510474
 11
2.5087309041
 21
1.8218627273
  0
LINE
  5
238
100
AcDbEntity
  8
0
100
AcDbLine
 62
7
  6
CONTINUOUS
 10
5.6504868012
 20
2.1611010362
 11
7.6004868012
 21
2.1611010362
  0
LINE
  5
239
100
AcDbEntity
  8
0
100
AcDbLine
 62
7
  6
CONTINUOUS
 10
8.1923280929
 20
2.1611010362
 11
9.0336469283
 21
2.1611010362
  0
LINE
  5
23A
100
AcDbEntity
  8
0
100
AcDbLine
 62
7
  6
CONTINUOUS
 10
7.6004868012
 20
2.1911010362
 11
8.1254868012
 21
2.1911010362
  0
LINE
  5
23B
100
AcDbEntity
  8
0
100
AcDbLine
 62
7
  6
CONTINUOUS
 10
4.8074868012
 20
2.2211010362
 11
4.8824868012
 21
2.2211010362
  0
LINE
  5
23C
100
AcDbEntity
  8
0
100
AcDbLine
 62
7
  6
CONTINUOUS
 10
5.3504868012
 20
2.2923510362
 11
5.1875161458
 21
2.2923510362
  0
LINE
  5
23D
100
AcDbEntity
  8
0
100
AcDbLine
 62
7
  6
CONTINUOUS
 10
5.0634574567
 20
2.2923510362
 11
5.0375833951
 21
2.2923510362
  0
LINE
  5
23E
100
AcDbEntity
  8
0
100
AcDbLine
 62
7
  6
CONTINUOUS
 10
4.9133915997
 20
2.2923510362
 11
4.8875263554
 21
2.2923510362
  0
LINE
  5
23F
100
AcDbEntity
  8
0
100
AcDbLine
 62
7
  6
CONTINUOUS
 10
5.1161118012
 20
2.3835510362
 11
5.1348618012
 21
2.3835510362
  0
LINE
  5
240
100
AcDbEntity
  8
0
100
AcDbLine
 62
7
  6
CONTINUOUS
 10
4.9660854381
 20
2.3836569503
 11
4.9848354381
 21
2.3836569503
  0
LINE
  5
241
100
AcDbEntity
  8
0
100
AcDbLine
 62
7
  6
CONTINUOUS
 10
5.6504868012
 20
2.3861010362
 11
5.3504868012
 21
2.3861010362
  0
LINE
  5
242
100
AcDbEntity
  8
0
100
AcDbLine
 62
7
  6
CONTINUOUS
 10
4.8875161497
 20
2.2923510362
 11
4.8867307795
 21
2.293010464
  0
LINE
  5
243
100
AcDbEntity
  8
0
100
AcDbLine
 62
7
  6
CONTINUOUS
 10
5.1875161458
 20
2.2923510362
 11
5.1867152147
 21
2.2930368582
  0
LINE
  5
244
100
AcDbEntity
  8
0
100
AcDbLine
 62
7
  6
CONTINUOUS
 10
5.133995797
 20
2.3843014344
 11
5.1348618012
 21
2.3835510362
  0
LINE
  5
245
100
AcDbEntity
  8
0
100
AcDbLine
 62
7
  6
CONTINUOUS
 10
5.0375161716
 20
2.2923510362
 11
5.0366806089
 21
2.293097397
  0
LINE
  5
246
100
AcDbEntity
  8
0
100
AcDbLine
 62
7
  6
CONTINUOUS
 10
4.8824868012
 20
2.3004095399
 11
4.8867611777
 21
2.2930104836
  0
LINE
  5
247
100
AcDbEntity
  8
0
100
AcDbLine
 62
9
  6
CONTINUOUS
 10
3.6682987548
 20
4.4296296433
 11
3.6682490527
 21
4.4297210357
  0
LINE
  5
248
100
AcDbEntity
  8
0
100
AcDbLine
 62
7
  6
CONTINUOUS
 10
5.6545281047
 20
5.4986010362
 11
5.5950479279
 21
5.4642310937
  0
LINE
  5
249
100
AcDbEntity
  8
0
100
AcDbLine
 62
7
  6
CONTINUOUS
 10
5.6852109351
 20
5.3663115334
 11
5.5950862197
 21
5.3142284908
  0
LINE
  5
24A
100
AcDbEntity
  8
0
100
AcDbLine
 62
7
  6
CONTINUOUS
 10
3.8774868012
 20
2.5676010362
 11
3.9524868012
 21
2.5676010362
  0
LINE
  5
24B
100
AcDbEntity
  8
0
100
AcDbLine
 62
9
  6
CONTINUOUS
 10
4.721615174
 20
2.7100275377
 11
4.199934032
 21
2.7100275377
  0
LINE
  5
24C
100
AcDbEntity
  8
0
100
AcDbLine
 62
7
  6
CONTINUOUS
 10
4.9839616638
 20
2.3844124447
 11
5.0367200815
 21
2.2930974241
  0
LINE
  5
24D
100
AcDbEntity
  8
0
100
AcDbLine
 62
7
  6
CONTINUOUS
 10
5.133995797
 20
2.3843014344
 11
5.1867198828
 21
2.2930368613
  0
LINE
  5
24E
100
AcDbEntity
  8
0
100
AcDbLine
 62
9
  6
CONTINUOUS
 10
3.6682426984
 20
2.5924693568
 11
3.6682490527
 21
2.5924810368
  0
LINE
  5
24F
100
AcDbEntity
  8
0
100
AcDbLine
 62
7
  6
CONTINUOUS
 10
4.9617036894
 20
4.7291448804
 11
4.9089850378
 21
4.6378905886
  0
LINE
  5
250
100
AcDbEntity
  8
0
100
AcDbLine
 62
7
  6
CONTINUOUS
 10
5.5942368012
 20
5.463289512
 11
5.5950479229
 21
5.4642364377
  0
LINE
  5
251
100
AcDbEntity
  8
0
100
AcDbLine
 62
7
  6
CONTINUOUS
 10
5.6843004154
 20
5.3652586972
 11
5.6852109351
 21
5.3663115334
  0
LINE
  5
252
100
AcDbEntity
  8
0
100
AcDbLine
 62
7
  6
CONTINUOUS
 10
5.5942368012
 20
5.313289512
 11
5.5950861915
 21
5.3142585211
  0
LINE
  5
253
100
AcDbEntity
  8
0
100
AcDbLine
 62
7
  6
CONTINUOUS
 10
5.1125161458
 20
4.7298510362
 11
5.1116847242
 21
4.7291120088
  0
LINE
  5
254
100
AcDbEntity
  8
0
100
AcDbLine
 62
7
  6
CONTINUOUS
 10
4.96251615
 20
4.7298510362
 11
4.9617034271
 21
4.7291448806
  0
LINE
  5
255
100
AcDbEntity
  8
0
100
AcDbLine
 62
7
  6
CONTINUOUS
 10
4.9098455945
 20
4.6386343963
 11
4.9089850378
 21
4.6378905886
  0
LINE
  5
256
100
AcDbEntity
  8
0
100
AcDbLine
 62
7
  6
CONTINUOUS
 10
5.6851837778
 20
5.2162888851
 11
5.5950458918
 21
5.1641997441
  0
LINE
  5
257
100
AcDbEntity
  8
0
100
AcDbLine
 62
7
  6
CONTINUOUS
 10
5.6851360752
 20
5.066288901
 11
5.5950479279
 21
5.0142310937
  0
LINE
  5
258
100
AcDbEntity
  8
0
100
AcDbLine
 62
9
  6
CONTINUOUS
 10
4.199934032
 20
2.8399313483
 11
4.721615174
 21
2.8399313483
  0
LINE
  5
259
100
AcDbEntity
  8
0
100
AcDbLine
 62
7
  6
CONTINUOUS
 10
3.8204868012
 20
2.9486010362
 11
3.8774868012
 21
2.9486010362
  0
LINE
  5
25A
100
AcDbEntity
  8
0
100
AcDbLine
 62
7
  6
CONTINUOUS
 10
3.8157191918
 20
2.9492697641
 11
3.8204868012
 21
2.9492697641
  0
LINE
  5
25B
100
AcDbEntity
  8
0
100
AcDbLine
 62
7
  6
CONTINUOUS
 10
5.6504868012
 20
2.951912727
 11
7.6004868012
 21
2.951912727
  0
LINE
  5
25C
100
AcDbEntity
  8
0
100
AcDbLine
 62
7
  6
CONTINUOUS
 10
8.4254867042
 20
2.951912727
 11
8.80048695
 21
2.951912727
  0
LINE
  5
25D
100
AcDbEntity
  8
0
100
AcDbLine
 62
7
  6
CONTINUOUS
 10
5.0594683328
 20
4.3213908126
 11
5.0594259987
 21
4.3227800278
  0
LINE
  5
25E
100
AcDbEntity
  8
0
100
AcDbLine
 62
7
  6
CONTINUOUS
 10
4.8074868012
 20
4.8011010362
 11
4.8074868012
 21
2.2211010362
  0
LINE
  5
25F
100
AcDbEntity
  8
0
100
AcDbLine
 62
7
  6
CONTINUOUS
 10
4.8824868012
 20
4.8010998614
 11
4.8824868012
 21
2.2211022111
  0
LINE
  5
260
100
AcDbEntity
  8
0
100
AcDbLine
 62
9
  6
CONTINUOUS
 10
5.0598618012
 20
4.6385908445
 11
5.1125161458
 21
4.729785976
  0
LINE
  5
261
100
AcDbEntity
  8
0
100
AcDbLine
 62
7
  6
CONTINUOUS
 10
5.0598618012
 20
4.6385908445
 11
5.0589654881
 21
4.6377069273
  0
LINE
  5
262
100
AcDbEntity
  8
0
100
AcDbLine
 62
7
  6
CONTINUOUS
 10
5.5942368012
 20
5.163289512
 11
5.5950458592
 21
5.1642352322
  0
LINE
  5
263
100
AcDbEntity
  8
0
100
AcDbLine
 62
7
  6
CONTINUOUS
 10
5.5942368012
 20
5.013289512
 11
5.5950479229
 21
5.0142364377
  0
LINE
  5
264
100
AcDbEntity
  8
0
100
AcDbLine
 62
7
  6
CONTINUOUS
 10
5.6852089439
 20
4.9163112002
 11
5.6842985033
 21
4.9152510362
  0
LINE
  5
265
100
AcDbEntity
  8
0
100
AcDbLine
 62
7
  6
CONTINUOUS
 10
5.6851360752
 20
5.066288901
 11
5.6842368012
 21
5.0652510362
  0
LINE
  5
266
100
AcDbEntity
  8
0
100
AcDbLine
 62
7
  6
CONTINUOUS
 10
5.5942368012
 20
4.863289512
 11
5.5950858666
 21
4.8642583358
  0
LINE
  5
267
100
AcDbEntity
  8
0
100
AcDbLine
 62
7
  6
CONTINUOUS
 10
5.6842736503
 20
5.2152510362
 11
5.6851837778
 21
5.2162888851
  0
LINE
  5
268
100
AcDbEntity
  8
0
100
AcDbLine
 62
7
  6
CONTINUOUS
 10
5.6852089439
 20
4.9163112002
 11
5.595085894
 21
4.8642292302
  0
LINE
  5
269
100
AcDbEntity
  8
0
100
AcDbLine
 62
7
  6
CONTINUOUS
 10
3.8204868012
 20
3.3251405249
 11
3.8017216642
 21
3.3251405249
  0
LINE
  5
26A
100
AcDbEntity
  8
0
100
AcDbLine
 62
7
  6
CONTINUOUS
 10
3.7937472777
 20
3.3533313035
 11
3.8204868012
 21
3.3533313035
  0
LINE
  5
26B
100
AcDbEntity
  8
0
100
AcDbLine
 62
7
  6
CONTINUOUS
 10
3.8204868012
 20
3.3865363571
 11
3.7847372157
 21
3.3865363571
  0
LINE
  5
26C
100
AcDbEntity
  8
0
100
AcDbLine
 62
7
  6
CONTINUOUS
 10
5.2190615455
 20
7.0886010362
 11
5.2190615455
 21
5.4986010362
  0
LINE
  5
26D
100
AcDbEntity
  8
0
100
AcDbLine
 62
7
  6
CONTINUOUS
 10
5.3504868012
 20
4.7297944303
 11
5.3504868012
 21
2.2924076422
  0
LINE
  5
26E
100
AcDbEntity
  8
0
100
AcDbLine
 62
7
  6
CONTINUOUS
 10
7.5657775563
 20
5.4808896042
 11
7.5964243616
 21
5.4986010362
  0
LINE
  5
26F
100
AcDbEntity
  8
0
100
AcDbLine
 62
7
  6
CONTINUOUS
 10
3.7742903151
 20
3.4405437622
 11
3.8204868012
 21
3.4405437622
  0
LINE
  5
270
100
AcDbEntity
  8
0
100
AcDbLine
 62
7
  6
CONTINUOUS
 10
3.8204868012
 20
3.4961010362
 11
3.7694972667
 21
3.4961010362
  0
LINE
  5
271
100
AcDbEntity
  8
0
100
AcDbLine
 62
7
  6
CONTINUOUS
 10
3.8204868012
 20
3.5261010362
 11
3.7694970353
 21
3.5261010362
  0
LINE
  5
272
100
AcDbEntity
  8
0
100
AcDbLine
 62
7
  6
CONTINUOUS
 10
3.8204868012
 20
3.5816583103
 11
3.7742902477
 21
3.5816583103
  0
LINE
  5
273
100
AcDbEntity
  8
0
100
AcDbLine
 62
7
  6
CONTINUOUS
 10
3.7847368709
 20
3.6356657154
 11
3.8204868012
 21
3.6356657154
  0
LINE
  5
274
100
AcDbEntity
  8
0
100
AcDbLine
 62
7
  6
CONTINUOUS
 10
3.8204868012
 20
3.668870769
 11
3.7937478154
 21
3.668870769
  0
LINE
  5
275
100
AcDbEntity
  8
0
100
AcDbLine
 62
7
  6
CONTINUOUS
 10
3.8204868012
 20
3.6970615476
 11
3.8017242048
 21
3.6970615476
  0
LINE
  5
276
100
AcDbEntity
  8
0
100
AcDbLine
 62
7
  6
CONTINUOUS
 10
4.8919628323
 20
4.6378828824
 11
4.8824868012
 21
4.6542848469
  0
LINE
  5
277
100
AcDbEntity
  8
0
100
AcDbLine
 62
7
  6
CONTINUOUS
 10
4.8074868012
 20
4.8011010362
 11
4.7223464065
 21
4.983685202
  0
LINE
  5
278
100
AcDbEntity
  8
0
100
AcDbLine
 62
7
  6
CONTINUOUS
 10
5.5942368012
 20
4.7298510362
 11
5.5942368012
 21
5.013289512
  0
LINE
  5
279
100
AcDbEntity
  8
0
100
AcDbLine
 62
7
  6
CONTINUOUS
 10
5.5942368012
 20
5.1589125605
 11
5.5942368012
 21
5.163289512
  0
LINE
  5
27A
100
AcDbEntity
  8
0
100
AcDbLine
 62
7
  6
CONTINUOUS
 10
5.5942368012
 20
5.3089125605
 11
5.5942368012
 21
5.313289512
  0
LINE
  5
27B
100
AcDbEntity
  8
0
100
AcDbLine
 62
7
  6
CONTINUOUS
 10
5.5942368012
 20
5.4589125605
 11
5.5942368012
 21
5.463289512
  0
LINE
  5
27C
100
AcDbEntity
  8
0
100
AcDbLine
 62
7
  6
CONTINUOUS
 10
5.6504868012
 20
4.8611010362
 11
5.6504868012
 21
2.1611010362
  0
LINE
  5
27D
100
AcDbEntity
  8
0
100
AcDbLine
 62
7
  6
CONTINUOUS
 10
5.6842368012
 20
5.1069510362
 11
5.6842368012
 21
5.0652510362
  0
LINE
  5
27E
100
AcDbEntity
  8
0
100
AcDbLine
 62
7
  6
CONTINUOUS
 10
5.6842368012
 20
4.9152510362
 11
5.6842368012
 21
4.9569510362
  0
LINE
  5
27F
100
AcDbEntity
  8
0
100
AcDbLine
 62
7
  6
CONTINUOUS
 10
5.6842985033
 20
5.2569510362
 11
5.6842985033
 21
5.2152510362
  0
LINE
  5
280
100
AcDbEntity
  8
0
100
AcDbLine
 62
7
  6
CONTINUOUS
 10
5.6843004154
 20
5.4069586972
 11
5.6843004154
 21
5.3652586972
  0
LINE
  5
281
100
AcDbEntity
  8
0
100
AcDbLine
 62
7
  6
CONTINUOUS
 10
4.7131344007
 20
2.0187616604
 11
4.8074868012
 21
2.2211010362
  0
LINE
  5
282
100
AcDbEntity
  8
0
100
AcDbLine
 62
7
  6
CONTINUOUS
 10
7.5658274375
 20
5.3309160267
 11
7.6559314146
 21
5.3829835193
  0
LINE
  5
283
100
AcDbEntity
  8
0
100
AcDbLine
 62
7
  6
CONTINUOUS
 10
7.5657733248
 20
5.1809088429
 11
7.6559203049
 21
5.2330041459
  0
LINE
  5
284
100
AcDbEntity
  8
0
100
AcDbLine
 62
7
  6
CONTINUOUS
 10
7.5657775563
 20
5.0308896042
 11
7.65588517
 21
5.0829619548
  0
LINE
  5
285
100
AcDbEntity
  8
0
100
AcDbLine
 62
7
  6
CONTINUOUS
 10
4.8919628323
 20
4.6378828824
 11
4.8910955945
 21
4.6386343963
  0
LINE
  5
286
100
AcDbEntity
  8
0
100
AcDbLine
 62
7
  6
CONTINUOUS
 10
5.0419798966
 20
4.6378295004
 11
4.9892128117
 21
4.7291628026
  0
LINE
  5
287
100
AcDbEntity
  8
0
100
AcDbLine
 62
7
  6
CONTINUOUS
 10
5.9222741734
 20
7.0886010362
 11
5.9222741734
 21
5.4986010362
  0
LINE
  5
288
100
AcDbEntity
  8
0
100
AcDbLine
 62
7
  6
CONTINUOUS
 10
4.9141517681
 20
2.2930103627
 11
4.9669636664
 21
2.3844175814
  0
LINE
  5
289
100
AcDbEntity
  8
0
100
AcDbLine
 62
7
  6
CONTINUOUS
 10
5.0642537197
 20
2.2930368613
 11
5.1169778055
 21
2.3843014344
  0
LINE
  5
28A
100
AcDbEntity
  8
0
100
AcDbLine
 62
7
  6
CONTINUOUS
 10
8.8004868012
 20
4.0702893454
 11
8.4254869236
 21
4.0702893454
  0
LINE
  5
28B
100
AcDbEntity
  8
0
100
AcDbLine
 62
7
  6
CONTINUOUS
 10
7.6004868012
 20
4.0702893454
 11
5.6504868012
 21
4.0702893454
  0
LINE
  5
28C
100
AcDbEntity
  8
0
100
AcDbLine
 62
7
  6
CONTINUOUS
 10
3.8204868012
 20
4.0729323084
 11
3.8157191901
 21
4.0729323084
  0
LINE
  5
28D
100
AcDbEntity
  8
0
100
AcDbLine
 62
7
  6
CONTINUOUS
 10
3.8204868012
 20
4.0736010362
 11
3.8774868012
 21
4.0736010362
  0
LINE
  5
28E
100
AcDbEntity
  8
0
100
AcDbLine
 62
9
  6
CONTINUOUS
 10
4.721615174
 20
4.1822707242
 11
4.199934032
 21
4.1822707242
  0
LINE
  5
28F
100
AcDbEntity
  8
0
100
AcDbLine
 62
9
  6
CONTINUOUS
 10
4.199934032
 20
4.3121745347
 11
4.721615174
 21
4.3121745347
  0
LINE
  5
290
100
AcDbEntity
  8
0
100
AcDbLine
 62
7
  6
CONTINUOUS
 10
4.9884574567
 20
4.7298510362
 11
4.9892597769
 21
4.7291628335
  0
LINE
  5
291
100
AcDbEntity
  8
0
100
AcDbLine
 62
7
  6
CONTINUOUS
 10
5.0419798966
 20
4.6378295004
 11
5.0411118012
 21
4.6385908445
  0
LINE
  5
292
100
AcDbEntity
  8
0
100
AcDbLine
 62
7
  6
CONTINUOUS
 10
7.6567368012
 20
5.3839125605
 11
7.6559314279
 21
5.3829689966
  0
LINE
  5
293
100
AcDbEntity
  8
0
100
AcDbLine
 62
7
  6
CONTINUOUS
 10
7.5657775563
 20
5.4808896042
 11
7.566685409
 21
5.4819395816
  0
LINE
  5
294
100
AcDbEntity
  8
0
100
AcDbLine
 62
7
  6
CONTINUOUS
 10
7.5658274375
 20
5.3309160267
 11
7.5667311797
 21
5.3319592783
  0
LINE
  5
295
100
AcDbEntity
  8
0
100
AcDbLine
 62
7
  6
CONTINUOUS
 10
3.9524868012
 20
4.4546010362
 11
3.8774868012
 21
4.4546010362
  0
LINE
  5
296
100
AcDbEntity
  8
0
100
AcDbLine
 62
7
  6
CONTINUOUS
 10
7.6567368012
 20
5.2339125605
 11
7.6559203432
 21
5.2329625246
  0
LINE
  5
297
100
AcDbEntity
  8
0
100
AcDbLine
 62
7
  6
CONTINUOUS
 10
7.5657775563
 20
5.0308896042
 11
7.5666854089
 21
5.0319395816
  0
LINE
  5
298
100
AcDbEntity
  8
0
100
AcDbLine
 62
7
  6
CONTINUOUS
 10
7.6567368012
 20
5.0839125605
 11
7.6558851885
 21
5.0829422843
  0
LINE
  5
299
100
AcDbEntity
  8
0
100
AcDbLine
 62
7
  6
CONTINUOUS
 10
5.1169778055
 20
2.3843014344
 11
5.1161118012
 21
2.3835510362
  0
LINE
  5
29A
100
AcDbEntity
  8
0
100
AcDbLine
 62
7
  6
CONTINUOUS
 10
4.9669636664
 20
2.3844175814
 11
4.9660854381
 21
2.3836569503
  0
LINE
  5
29B
100
AcDbEntity
  8
0
100
AcDbLine
 62
7
  6
CONTINUOUS
 10
5.0634574567
 20
2.2923510362
 11
5.0642583878
 21
2.2930368582
  0
LINE
  5
29C
100
AcDbEntity
  8
0
100
AcDbLine
 62
7
  6
CONTINUOUS
 10
4.9134574314
 20
2.2923510362
 11
4.9142427278
 21
2.2930103041
  0
LINE
  5
29D
100
AcDbEntity
  8
0
100
AcDbLine
 62
7
  6
CONTINUOUS
 10
5.3504868012
 20
4.6361010362
 11
5.6504868012
 21
4.6361010362
  0
LINE
  5
29E
100
AcDbEntity
  8
0
100
AcDbLine
 62
7
  6
CONTINUOUS
 10
5.0411118012
 20
4.6385908445
 11
5.0598618012
 21
4.6385908445
  0
LINE
  5
29F
100
AcDbEntity
  8
0
100
AcDbLine
 62
7
  6
CONTINUOUS
 10
4.9098455945
 20
4.6386343963
 11
4.8910955945
 21
4.6386343963
  0
LINE
  5
2A0
100
AcDbEntity
  8
0
100
AcDbLine
 62
7
  6
CONTINUOUS
 10
4.9883452178
 20
4.7298510362
 11
4.9625270473
 21
4.7298510362
  0
LINE
  5
2A1
100
AcDbEntity
  8
0
100
AcDbLine
 62
7
  6
CONTINUOUS
 10
5.1126304471
 20
4.7298510362
 11
5.3504868012
 21
4.7298510362
  0
LINE
  5
2A2
100
AcDbEntity
  8
0
100
AcDbLine
 62
7
  6
CONTINUOUS
 10
4.8074868012
 20
4.8011010362
 11
4.8824868012
 21
4.8011010362
  0
LINE
  5
2A3
100
AcDbEntity
  8
0
100
AcDbLine
 62
7
  6
CONTINUOUS
 10
8.1254868012
 20
4.8311010362
 11
7.6567368012
 21
4.8311010362
  0
LINE
  5
2A4
100
AcDbEntity
  8
0
100
AcDbLine
 62
7
  6
CONTINUOUS
 10
7.6004868012
 20
4.8611010362
 11
7.4919653049
 21
4.8611010362
  0
LINE
  5
2A5
100
AcDbEntity
  8
0
100
AcDbLine
 62
7
  6
CONTINUOUS
 10
5.7590082975
 20
4.8611010362
 11
5.6504868012
 21
4.8611010362
  0
LINE
  5
2A6
100
AcDbEntity
  8
0
100
AcDbLine
 62
7
  6
CONTINUOUS
 10
8.192322506
 20
4.8611010362
 11
9.0336469283
 21
4.8611010362
  0
LINE
  5
2A7
100
AcDbEntity
  8
0
100
AcDbLine
 62
7
  6
CONTINUOUS
 10
5.5942368012
 20
5.0089125605
 11
5.6842368012
 21
4.9569510362
  0
LINE
  5
2A8
100
AcDbEntity
  8
0
100
AcDbLine
 62
7
  6
CONTINUOUS
 10
5.5942368012
 20
5.3089125605
 11
5.5950858666
 21
5.3079437367
  0
LINE
  5
2A9
100
AcDbEntity
  8
0
100
AcDbLine
 62
7
  6
CONTINUOUS
 10
5.6851360752
 20
5.1059131715
 11
5.6842368012
 21
5.1069510362
  0
LINE
  5
2AA
100
AcDbEntity
  8
0
100
AcDbLine
 62
7
  6
CONTINUOUS
 10
5.6852134911
 20
5.4059036437
 11
5.6843004154
 21
5.4069586972
  0
LINE
  5
2AB
100
AcDbEntity
  8
0
100
AcDbLine
 62
7
  6
CONTINUOUS
 10
5.5942368012
 20
5.4589125605
 11
5.5950622661
 21
5.4579572981
  0
LINE
  5
2AC
100
AcDbEntity
  8
0
100
AcDbLine
 62
7
  6
CONTINUOUS
 10
5.5942368012
 20
5.1589125605
 11
5.5950479229
 21
5.1579656348
  0
LINE
  5
2AD
100
AcDbEntity
  8
0
100
AcDbLine
 62
9
  6
CONTINUOUS
 10
4.721615174
 20
4.9833442227
 11
4.199934032
 21
4.9833442227
  0
LINE
  5
2AE
100
AcDbEntity
  8
0
100
AcDbLine
 62
7
  6
CONTINUOUS
 10
4.7131344007
 20
5.0034404121
 11
4.2084148053
 21
5.0034404121
  0
LINE
  5
2AF
100
AcDbEntity
  8
0
100
AcDbLine
 62
9
  6
CONTINUOUS
 10
5.5943044031
 20
5.3089125605
 11
5.6842985033
 21
5.2569510362
  0
LINE
  5
2B0
100
AcDbEntity
  8
0
100
AcDbLine
 62
7
  6
CONTINUOUS
 10
5.5950479278
 20
5.1579709788
 11
5.6840123176
 21
5.1065625862
  0
LINE
  5
2B1
100
AcDbEntity
  8
0
100
AcDbLine
 62
7
  6
CONTINUOUS
 10
5.595085894
 20
5.3079728423
 11
5.6840671636
 21
5.2565507533
  0
LINE
  5
2B2
100
AcDbEntity
  8
0
100
AcDbLine
 62
7
  6
CONTINUOUS
 10
5.5950623076
 20
5.4580021047
 11
5.6840719501
 21
5.4065633896
  0
LINE
  5
2B3
100
AcDbEntity
  8
0
100
AcDbLine
 62
7
  6
CONTINUOUS
 10
8.031912057
 20
5.4986010362
 11
5.2190615455
 21
5.4986010362
  0
LINE
  5
2B4
100
AcDbEntity
  8
0
100
AcDbLine
 62
7
  6
CONTINUOUS
 10
7.3286994291
 20
7.0886010362
 11
7.3286994291
 21
5.4986010362
  0
LINE
  5
2B5
100
AcDbEntity
  8
0
100
AcDbLine
 62
7
  6
CONTINUOUS
 10
7.5666854089
 20
4.9902395816
 11
7.5666854089
 21
5.0319395816
  0
LINE
  5
2B6
100
AcDbEntity
  8
0
100
AcDbLine
 62
7
  6
CONTINUOUS
 10
7.5666854089
 20
5.1402624909
 11
7.5666854089
 21
5.1819624909
  0
LINE
  5
2B7
100
AcDbEntity
  8
0
100
AcDbLine
 62
7
  6
CONTINUOUS
 10
7.566685409
 20
5.4402395816
 11
7.566685409
 21
5.4819395816
  0
LINE
  5
2B8
100
AcDbEntity
  8
0
100
AcDbLine
 62
7
  6
CONTINUOUS
 10
7.5667311797
 20
5.2902592783
 11
7.5667311797
 21
5.3319592783
  0
LINE
  5
2B9
100
AcDbEntity
  8
0
100
AcDbLine
 62
7
  6
CONTINUOUS
 10
7.6559203049
 20
4.9391979266
 11
7.5669135151
 21
4.9906342727
  0
LINE
  5
2BA
100
AcDbEntity
  8
0
100
AcDbLine
 62
7
  6
CONTINUOUS
 10
7.6004868012
 20
2.1611010362
 11
7.6004868012
 21
4.8611010362
  0
LINE
  5
2BB
100
AcDbEntity
  8
0
100
AcDbLine
 62
7
  6
CONTINUOUS
 10
7.6567368012
 20
5.388289512
 11
7.6567368012
 21
5.3839125605
  0
LINE
  5
2BC
100
AcDbEntity
  8
0
100
AcDbLine
 62
7
  6
CONTINUOUS
 10
7.6567368012
 20
5.238289512
 11
7.6567368012
 21
5.2339125605
  0
LINE
  5
2BD
100
AcDbEntity
  8
0
100
AcDbLine
 62
7
  6
CONTINUOUS
 10
7.6567368012
 20
5.088289512
 11
7.6567368012
 21
5.0839125605
  0
LINE
  5
2BE
100
AcDbEntity
  8
0
100
AcDbLine
 62
7
  6
CONTINUOUS
 10
7.6567368012
 20
4.938289512
 11
7.6567368012
 21
4.8311010362
  0
LINE
  5
2BF
100
AcDbEntity
  8
0
100
AcDbLine
 62
7
  6
CONTINUOUS
 10
7.6559132843
 20
5.23924338
 11
7.5669557857
 21
5.2906479386
  0
LINE
  5
2C0
100
AcDbEntity
  8
0
100
AcDbLine
 62
7
  6
CONTINUOUS
 10
7.65588517
 20
5.0892401177
 11
7.5669129848
 21
5.1406562663
  0
LINE
  5
2C1
100
AcDbEntity
  8
0
100
AcDbLine
 62
7
  6
CONTINUOUS
 10
7.5657775563
 20
5.1413124683
 11
7.5666854089
 21
5.1402624909
  0
LINE
  5
2C2
100
AcDbEntity
  8
0
100
AcDbLine
 62
7
  6
CONTINUOUS
 10
7.6567368012
 20
4.938289512
 11
7.6559203432
 21
4.9392395479
  0
LINE
  5
2C3
100
AcDbEntity
  8
0
100
AcDbLine
 62
7
  6
CONTINUOUS
 10
8.031912057
 20
7.0886010362
 11
8.031912057
 21
5.4986010362
  0
LINE
  5
2C4
100
AcDbEntity
  8
0
100
AcDbLine
 62
7
  6
CONTINUOUS
 10
8.1254868012
 20
2.1911010362
 11
8.1254868012
 21
4.8311010362
  0
LINE
  5
2C5
100
AcDbEntity
  8
0
100
AcDbLine
 62
7
  6
CONTINUOUS
 10
7.6559203049
 20
5.3891979266
 11
7.5669135152
 21
5.4406342727
  0
LINE
  5
2C6
100
AcDbEntity
  8
0
100
AcDbLine
 62
7
  6
CONTINUOUS
 10
7.6567368012
 20
5.088289512
 11
7.6558851885
 21
5.0892597882
  0
LINE
  5
2C7
100
AcDbEntity
  8
0
100
AcDbLine
 62
7
  6
CONTINUOUS
 10
7.566685409
 20
5.4402395816
 11
7.5657733248
 21
5.4412932296
  0
LINE
  5
2C8
100
AcDbEntity
  8
0
100
AcDbLine
 62
7
  6
CONTINUOUS
 10
7.5667311797
 20
5.2902592783
 11
7.5658352443
 21
5.2912954972
  0
LINE
  5
2C9
100
AcDbEntity
  8
0
100
AcDbLine
 62
7
  6
CONTINUOUS
 10
7.6567368012
 20
5.238289512
 11
7.6559132845
 21
5.2392436464
  0
LINE
  5
2CA
100
AcDbEntity
  8
0
100
AcDbLine
 62
7
  6
CONTINUOUS
 10
7.6567368012
 20
5.388289512
 11
7.6559203432
 21
5.3892395479
  0
LINE
  5
2CB
100
AcDbEntity
  8
0
100
AcDbLine
 62
7
  6
CONTINUOUS
 10
5.2190615455
 20
7.0886010362
 11
8.031912057
 21
7.0886010362
  0
LINE
  5
2CC
100
AcDbEntity
  8
0
100
AcDbLine
 62
9
  6
CONTINUOUS
 10
9.1004868012
 20
4.6722842033
 11
9.1004868012
 21
2.3499178692
  0
ARC
  5
2CD
100
AcDbEntity
  8
0
100
AcDbCircle
 62
7
  6
CONTINUOUS
 10
-28.9024824516
 20
3.4337756864
 40
33.896759494
100
AcDbArc
 50
1.501147729
 51
1.6279105184
  0
ARC
  5
2CE
100
AcDbEntity
  8
0
100
AcDbCircle
 62
7
  6
CONTINUOUS
 10
-16.9217574553
 20
3.6529567318
 40
21.9913867068
100
AcDbArc
 50
1.7454099126
 51
1.8825040076
  0
ARC
  5
2CF
100
AcDbEntity
  8
0
100
AcDbCircle
 62
7
  6
CONTINUOUS
 10
-16.2257778251
 20
3.6793934544
 40
21.1449907579
100
AcDbArc
 50
1.7657271219
 51
1.9100252639
  0
ARC
  5
2D0
100
AcDbEntity
  8
0
100
AcDbCircle
 62
7
  6
CONTINUOUS
 10
-0.3310239878
 20
0.1149150939
 40
4.9225132103
100
AcDbArc
 50
22.7532405938
 51
23.0071269405
  0
ARC
  5
2D1
100
AcDbEntity
  8
0
100
AcDbCircle
 62
7
  6
CONTINUOUS
 10
9.234023754
 20
0.1227431249
 40
4.902379711
100
AcDbArc
 50
156.9923517178
 51
157.2472807477
  0
ARC
  5
2D2
100
AcDbEntity
  8
0
100
AcDbCircle
 62
7
  6
CONTINUOUS
 10
1.855908137
 20
2.7967586109
 40
2.0162489795
100
AcDbArc
 50
15.8148827421
 51
16.3123403694
  0
ARC
  5
2D3
100
AcDbEntity
  8
0
100
AcDbCircle
 62
7
  6
CONTINUOUS
 10
3.5601831541
 20
2.2168467471
 40
1.2618049094
100
AcDbArc
 50
22.6503661152
 51
23.0076134175
  0
ARC
  5
2D4
100
AcDbEntity
  8
0
100
AcDbCircle
 62
7
  6
CONTINUOUS
 10
3.5905827282
 20
2.2294933654
 40
1.228879695
100
AcDbArc
 50
22.1235995675
 51
22.6520385325
  0
ARC
  5
2D5
100
AcDbEntity
  8
0
100
AcDbCircle
 62
7
  6
CONTINUOUS
 10
3.7073549577
 20
2.2756525804
 40
1.1033218254
100
AcDbArc
 50
18.9477870317
 51
22.1867689972
  0
ARC
  5
2D6
100
AcDbEntity
  8
0
100
AcDbCircle
 62
7
  6
CONTINUOUS
 10
3.7828357351
 20
2.3019592457
 40
1.0233891094
100
AcDbArc
 50
18.543979622
 51
18.9269519896
  0
ARC
  5
2D7
100
AcDbEntity
  8
0
100
AcDbCircle
 62
7
  6
CONTINUOUS
 10
8.9829126223
 20
2.5546257901
 40
0.7905501103
100
AcDbArc
 50
183.3887260373
 51
185.2413818822
  0
ARC
  5
2D8
100
AcDbEntity
  8
0
100
AcDbCircle
 62
7
  6
CONTINUOUS
 10
3.0884868012
 20
1.5064533116
 40
0.66
100
AcDbArc
 50
151.4532700444
 51
28.5467299556
  0
ARC
  5
2D9
100
AcDbEntity
  8
0
100
AcDbCircle
 62
9
  6
CONTINUOUS
 10
3.3417422195
 20
1.6442182835
 40
0.3716987711
100
AcDbArc
 50
27.9255847512
 51
28.5319276157
  0
ARC
  5
2DA
100
AcDbEntity
  8
0
100
AcDbCircle
 62
7
  6
CONTINUOUS
 10
8.4254868012
 20
2.3498715659
 40
0.3
100
AcDbArc
 50
180.0
 51
218.9937120237
  0
ARC
  5
2DB
100
AcDbEntity
  8
0
100
AcDbCircle
 62
7
  6
CONTINUOUS
 10
8.8004868012
 20
2.3498715659
 40
0.3
100
AcDbArc
 50
321.0062879763
 51
360.0
  0
ARC
  5
2DC
100
AcDbEntity
  8
0
100
AcDbCircle
 62
7
  6
CONTINUOUS
 10
27.2029815851
 20
3.3731193684
 40
22.0967068623
100
AcDbArc
 50
181.7434731063
 51
181.8810761538
  0
ARC
  5
2DD
100
AcDbEntity
  8
0
100
AcDbCircle
 62
7
  6
CONTINUOUS
 10
24.1886619802
 20
3.2817901619
 40
19.2309339721
100
AcDbArc
 50
181.7327301606
 51
181.955217399
  0
ARC
  5
2DE
100
AcDbEntity
  8
0
100
AcDbCircle
 62
7
  6
CONTINUOUS
 10
1.8783261823
 20
4.2189897894
 40
1.9929205617
100
AcDbArc
 50
343.6847191566
 51
344.1880293166
  0
ARC
  5
2DF
100
AcDbEntity
  8
0
100
AcDbCircle
 62
7
  6
CONTINUOUS
 10
4.262829746
 20
3.5103567843
 40
1.9828358097
100
AcDbArc
 50
179.9791046077
 51
193.0564118077
  0
ARC
  5
2E0
100
AcDbEntity
  8
0
100
AcDbCircle
 62
7
  6
CONTINUOUS
 10
4.262829175
 20
3.5118453274
 40
1.9828352393
100
AcDbArc
 50
166.9435773958
 51
180.0215031116
  0
ARC
  5
2E1
100
AcDbEntity
  8
0
100
AcDbCircle
 62
7
  6
CONTINUOUS
 10
1.960773631
 20
3.5005490001
 40
1.9351858419
100
AcDbArc
 50
344.7187287568
 51
344.9866808908
  0
ARC
  5
2E2
100
AcDbEntity
  8
0
100
AcDbCircle
 62
7
  6
CONTINUOUS
 10
1.960773641
 20
3.521653075
 40
1.9351858316
100
AcDbArc
 50
15.0133191126
 51
15.2812712546
  0
ARC
  5
2E3
100
AcDbEntity
  8
0
100
AcDbCircle
 62
7
  6
CONTINUOUS
 10
1.9684981244
 20
3.5237903163
 40
1.9271711716
100
AcDbArc
 50
15.2805033518
 51
17.3348188897
  0
ARC
  5
2E4
100
AcDbEntity
  8
0
100
AcDbCircle
 62
7
  6
CONTINUOUS
 10
1.9684981267
 20
3.4984117554
 40
1.9271711692
100
AcDbArc
 50
342.6651801294
 51
344.7194966612
  0
ARC
  5
2E5
100
AcDbEntity
  8
0
100
AcDbCircle
 62
7
  6
CONTINUOUS
 10
2.0157122823
 20
3.5390984157
 40
1.8775404391
100
AcDbArc
 50
17.3181841474
 51
23.5402325891
  0
ARC
  5
2E6
100
AcDbEntity
  8
0
100
AcDbCircle
 62
7
  6
CONTINUOUS
 10
2.0203763387
 20
2.8433622163
 40
1.8453054652
100
AcDbArc
 50
14.9755369132
 51
15.8143554596
  0
ARC
  5
2E7
100
AcDbEntity
  8
0
100
AcDbCircle
 62
7
  6
CONTINUOUS
 10
2.0540422362
 20
4.1695735136
 40
1.8103884333
100
AcDbArc
 50
344.1774930512
 51
345.0343340981
  0
ARC
  5
2E8
100
AcDbEntity
  8
0
100
AcDbCircle
 62
7
  6
CONTINUOUS
 10
2.0842923269
 20
3.568792627
 40
1.8028079859
100
AcDbArc
 50
23.5455505683
 51
28.5254184812
  0
ARC
  5
2E9
100
AcDbEntity
  8
0
100
AcDbCircle
 62
9
  6
CONTINUOUS
 10
3.95482664
 20
3.5110778042
 40
1.6748398389
100
AcDbArc
 50
178.2484860115
 51
179.999200785
  0
ARC
  5
2EA
100
AcDbEntity
  8
0
100
AcDbCircle
 62
7
  6
CONTINUOUS
 10
2.2647798103
 20
2.9087393093
 40
1.5923089806
100
AcDbArc
 50
13.4390527508
 51
14.9754948432
  0
ARC
  5
2EB
100
AcDbEntity
  8
0
100
AcDbCircle
 62
7
  6
CONTINUOUS
 10
2.3142030892
 20
4.1009565629
 40
1.5413326479
100
AcDbArc
 50
345.001084109
 51
346.5834896121
  0
ARC
  5
2EC
100
AcDbEntity
  8
0
100
AcDbCircle
 62
7
  6
CONTINUOUS
 10
2.5053129595
 20
2.9670103553
 40
1.3448195802
100
AcDbArc
 50
12.3000985575
 51
13.4061223675
  0
ARC
  5
2ED
100
AcDbEntity
  8
0
100
AcDbCircle
 62
7
  6
CONTINUOUS
 10
2.5333395593
 20
4.0487983861
 40
1.316074455
100
AcDbArc
 50
346.5786523162
 51
347.7118959054
  0
ARC
  5
2EE
100
AcDbEntity
  8
0
100
AcDbCircle
 62
7
  6
CONTINUOUS
 10
2.7133116765
 20
3.0122941601
 40
1.1319485299
100
AcDbArc
 50
9.9446878584
 51
12.3034429247
  0
ARC
  5
2EF
100
AcDbEntity
  8
0
100
AcDbCircle
 62
7
  6
CONTINUOUS
 10
2.7501085958
 20
4.0026729895
 40
1.094455409
100
AcDbArc
 50
347.656102153
 51
350.0956238504
  0
ARC
  5
2F0
100
AcDbEntity
  8
0
100
AcDbCircle
 62
7
  6
CONTINUOUS
 10
3.7804624424
 20
4.7210467912
 40
1.0258948576
100
AcDbArc
 50
341.0724915908
 51
341.4778951472
  0
ARC
  5
2F1
100
AcDbEntity
  8
0
100
AcDbCircle
 62
7
  6
CONTINUOUS
 10
2.8483915665
 20
3.0370479856
 40
0.9946238621
100
AcDbArc
 50
9.542043624
 51
9.8839743377
  0
ARC
  5
2F2
100
AcDbEntity
  8
0
100
AcDbCircle
 62
7
  6
CONTINUOUS
 10
2.8527080709
 20
3.9844157362
 40
0.9902447876
100
AcDbArc
 50
350.1151572113
 51
350.4540406447
  0
ARC
  5
2F3
100
AcDbEntity
  8
0
100
AcDbCircle
 62
7
  6
CONTINUOUS
 10
3.0884868012
 20
5.5157487609
 40
0.66
100
AcDbArc
 50
331.4532700444
 51
208.5467299556
  0
ARC
  5
2F4
100
AcDbEntity
  8
0
100
AcDbCircle
 62
9
  6
CONTINUOUS
 10
2.835231383
 20
5.377983789
 40
0.3716987711
100
AcDbArc
 50
207.9255847511
 51
208.5319276157
  0
ARC
  5
2F5
100
AcDbEntity
  8
0
100
AcDbCircle
 62
7
  6
CONTINUOUS
 10
8.8004868012
 20
4.6723305066
 40
0.3
100
AcDbArc
 50
0.0
 51
38.9937120237
  0
ARC
  5
2F6
100
AcDbEntity
  8
0
100
AcDbCircle
 62
7
  6
CONTINUOUS
 10
8.4254868012
 20
4.6723305066
 40
0.3
100
AcDbArc
 50
141.0062879764
 51
180.0
  0
ARC
  5
2F7
100
AcDbEntity
  8
0
100
AcDbCircle
 62
7
  6
CONTINUOUS
 10
3.6107499319
 20
3.9642391189
 40
0.2268775698
100
AcDbArc
 50
14.9962718636
 51
15.6237687597
  0
ARC
  5
2F8
100
AcDbEntity
  8
0
100
AcDbCircle
 62
7
  6
CONTINUOUS
 10
3.6169824855
 20
3.0562569186
 40
0.2204157626
100
AcDbArc
 50
342.514145724
 51
345.0128773214
  0
ARC
  5
2F9
100
AcDbEntity
  8
0
100
AcDbCircle
 62
7
  6
CONTINUOUS
 10
11.4464642098
 20
11.6451999783
 40
9.0592834503
100
AcDbArc
 50
229.7598839892
 51
230.224344394
  0
ARC
  5
2FA
100
AcDbEntity
  8
0
100
AcDbCircle
 62
7
  6
CONTINUOUS
 10
3.6306351978
 20
9.9836486915
 40
6.5389786252
100
AcDbArc
 50
307.3805236694
 51
308.0033845495
  0
ARC
  5
2FB
100
AcDbEntity
  8
0
100
AcDbCircle
 62
7
  6
CONTINUOUS
 10
-0.3723064998
 20
6.9247085713
 40
4.9673211104
100
AcDbArc
 50
336.9940181569
 51
337.2456143088
  0
ARC
  5
2FC
100
AcDbEntity
  8
0
100
AcDbCircle
 62
7
  6
CONTINUOUS
 10
9.2889093749
 20
6.922621175
 40
4.9619523794
100
AcDbArc
 50
202.7542495801
 51
203.0061179544
  0
ARC
  5
2FD
100
AcDbEntity
  8
0
100
AcDbCircle
 62
7
  6
CONTINUOUS
 10
88.9679074111
 20
4.8290232129
 40
84.101530563
100
AcDbArc
 50
181.1222003811
 51
181.4502974969
  0
ARC
  5
2FE
100
AcDbEntity
  8
0
100
AcDbCircle
 62
7
  6
CONTINUOUS
 10
38.916787223
 20
3.5918670122
 40
34.035132368
100
AcDbArc
 50
181.500837671
 51
181.6270518932
  0
ARC
  5
2FF
100
AcDbEntity
  8
0
100
AcDbCircle
 62
7
  6
CONTINUOUS
 10
39.0326778139
 20
3.5910184636
 40
34.0010126695
100
AcDbArc
 50
181.5009137104
 51
181.627264634
  0
SPLINE
  5
300
100
AcDbEntity
  8
0
100
AcDbSpline
 62
7
  6
CONTINUOUS
 70
0
 71
3
 72
23
 73
19
 74
0
 42
0.0000001
 43
0.0000001
 44
0.0000000001
 40
0.0
 40
0.0
 40
0.0
 40
0.0
 40
0.1249869304
 40
0.1874882844
 40
0.2499903356
 40
0.3124904393
 40
0.3437414727
 40
0.3749934885
 40
0.4374969634
 40
0.4999999976
 40
0.5625030326
 40
0.6250065081
 40
0.6562585233
 40
0.6875095556
 40
0.7500096574
 40
0.8125117072
 40
0.8750130622
 40
1.0
 40
1.0
 40
1.0
 40
1.0
 10
4.199934032
 20
4.1822707242
 30
0.0
 10
4.1882253469
 20
4.1271207138
 30
0.0
 10
4.1723007131
 20
4.0440252511
 30
0.0
 10
4.1549826356
 20
3.9325882419
 30
0.0
 10
4.1441025107
 20
3.8487019109
 30
0.0
 10
4.1369024601
 20
3.7785781684
 30
0.0
 10
4.1323311562
 20
3.7223754909
 30
0.0
 10
4.1285720881
 20
3.6661111847
 30
0.0
 10
4.1254101297
 20
3.5956859139
 30
0.0
 10
4.1241280169
 20
3.5111010392
 30
0.0
 10
4.1254101317
 20
3.4265161643
 30
0.0
 10
4.128572085
 20
3.356090893
 30
0.0
 10
4.1323311538
 20
3.2998265873
 30
0.0
 10
4.1369024612
 20
3.2436239117
 30
0.0
 10
4.144102511
 20
3.1735001712
 30
0.0
 10
4.1549826359
 20
3.0896138412
 30
0.0
 10
4.1723007179
 20
2.9781768295
 30
0.0
 10
4.1882253462
 20
2.895081362
 30
0.0
 10
4.199934032
 20
2.8399313483
 30
0.0
  0
SPLINE
  5
301
100
AcDbEntity
  8
0
100
AcDbSpline
 62
7
  6
CONTINUOUS
 70
0
 71
3
 72
20
 73
16
 74
0
 42
0.0000001
 43
0.0000001
 44
0.0000000001
 40
0.0
 40
0.0
 40
0.0
 40
0.0
 40
0.1498881183
 40
0.2975737091
 40
0.4400952781
 40
0.5086346743
 40
0.5749622801
 40
0.6388016567
 40
0.6999259901
 40
0.7581276026
 40
0.8132111638
 40
0.865013077
 40
0.9134428488
 40
0.9584456172
 40
1.0
 40
1.0
 40
1.0
 40
1.0
 10
4.199934032
 20
2.8399313483
 30
0.0
 10
4.2012984329
 20
2.8335047747
 30
0.0
 10
4.2037087236
 20
2.820680548
 30
0.0
 10
4.2063763367
 20
2.8015688707
 30
0.0
 10
4.2077594272
 20
2.7858970966
 30
0.0
 10
4.2083183186
 20
2.7737501721
 30
0.0
 10
4.2084606271
 20
2.7650403246
 30
0.0
 10
4.2083286989
 20
2.756655255
 30
0.0
 10
4.2079254903
 20
2.7486352519
 30
0.0
 10
4.2072543274
 20
2.741018162
 30
0.0
 10
4.2063184551
 20
2.7338405283
 30
0.0
 10
4.2051203471
 20
2.7271362651
 30
0.0
 10
4.2036706817
 20
2.7209341652
 30
0.0
 10
4.2019801469
 20
2.7152602817
 30
0.0
 10
4.2006459004
 20
2.7117040519
 30
0.0
 10
4.199934032
 20
2.7100275377
 30
0.0
  0
SPLINE
  5
302
100
AcDbEntity
  8
0
100
AcDbSpline
 62
7
  6
CONTINUOUS
 70
0
 71
3
 72
27
 73
23
 74
0
 42
0.0000001
 43
0.0000001
 44
0.0000000001
 40
0.0
 40
0.0
 40
0.0
 40
0.0
 40
0.0645318297
 40
0.128376228
 40
0.1915510275
 40
0.2541026775
 40
0.2851691786
 40
0.3161099707
 40
0.3469392251
 40
0.3776730715
 40
0.4389179639
 40
0.4999999979
 40
0.5610820327
 40
0.6223269253
 40
0.6530607711
 40
0.6838900248
 40
0.7148308161
 40
0.7458973163
 40
0.8084489651
 40
0.871623766
 40
0.9354681682
 40
1.0
 40
1.0
 40
1.0
 40
1.0
 10
4.199934032
 20
2.7100275377
 30
0.0
 10
4.1941112458
 20
2.6963143533
 30
0.0
 10
4.1830033667
 20
2.6688284462
 30
0.0
 10
4.1680462085
 20
2.6271991381
 30
0.0
 10
4.1550420108
 20
2.5853949509
 30
0.0
 10
4.1459407267
 20
2.5503428171
 30
0.0
 10
4.1397912592
 20
2.5222487451
 30
0.0
 10
4.1357664215
 20
2.5011945349
 30
0.0
 10
4.1323360235
 20
2.4801128845
 30
0.0
 10
4.1285792719
 20
2.4520075465
 30
0.0
 10
4.1254127473
 20
2.4167913266
 30
0.0
 10
4.1241272773
 20
2.3744426952
 30
0.0
 10
4.1254127493
 20
2.332094064
 30
0.0
 10
4.1285792689
 20
2.2968778435
 30
0.0
 10
4.1323360211
 20
2.2687725058
 30
0.0
 10
4.1357664218
 20
2.2476908563
 30
0.0
 10
4.1397912598
 20
2.2266366468
 30
0.0
 10
4.1459407271
 20
2.1985425755
 30
0.0
 10
4.1550420112
 20
2.1634904417
 30
0.0
 10
4.1680462121
 20
2.1216862546
 30
0.0
 10
4.1830033675
 20
2.0800569437
 30
0.0
 10
4.1941112456
 20
2.0525710347
 30
0.0
 10
4.199934032
 20
2.0388578498
 30
0.0
  0
SPLINE
  5
303
100
AcDbEntity
  8
0
100
AcDbSpline
 62
7
  6
CONTINUOUS
 70
0
 71
3
 72
24
 73
20
 74
0
 42
0.0000001
 43
0.0000001
 44
0.0000000001
 40
0.0
 40
0.0
 40
0.0
 40
0.0
 40
0.0648242601
 40
0.1290437179
 40
0.19266787
 40
0.2557260776
 40
0.3182653391
 40
0.3493625036
 40
0.3803568013
 40
0.4420803684
 40
0.5035458161
 40
0.5648687259
 40
0.6261742119
 40
0.6875892469
 40
0.7492320915
 40
0.8112110809
 40
0.8736204188
 40
0.9365327586
 40
1.0
 40
1.0
 40
1.0
 40
1.0
 10
4.721615174
 20
2.0388578498
 30
0.0
 10
4.7267177393
 20
2.0508748493
 30
0.0
 10
4.7365096043
 20
2.0749544124
 30
0.0
 10
4.7499045939
 20
2.1113801517
 30
0.0
 10
4.7618329069
 20
2.1479403422
 30
0.0
 10
4.7721858448
 20
2.1846270202
 30
0.0
 10
4.7794374561
 20
2.215352336
 30
0.0
 10
4.7843521796
 20
2.2399688989
 30
0.0
 10
4.7886510898
 20
2.2645336289
 30
0.0
 10
4.7928745803
 20
2.2953113496
 30
0.0
 10
4.796053634
 20
2.3323513528
 30
0.0
 10
4.7973038252
 20
2.3694235435
 30
0.0
 10
4.7965843994
 20
2.4064997424
 30
0.0
 10
4.7939234182
 20
2.443551094
 30
0.0
 10
4.7893593383
 20
2.4805525027
 30
0.0
 10
4.7829244064
 20
2.5174768898
 30
0.0
 10
4.774705517
 20
2.5543059379
 30
0.0
 10
4.7647955231
 20
2.5910248075
 30
0.0
 10
4.7571553715
 20
2.6153117224
 30
0.0
 10
4.7530902938
 20
2.6274302282
 30
0.0
  0
SPLINE
  5
304
100
AcDbEntity
  8
0
100
AcDbSpline
 62
7
  6
CONTINUOUS
 70
0
 71
3
 72
20
 73
16
 74
0
 42
0.0000001
 43
0.0000001
 44
0.0000000001
 40
0.0
 40
0.0
 40
0.0
 40
0.0
 40
0.0415545006
 40
0.0865575542
 40
0.1349876656
 40
0.1867898519
 40
0.2418736315
 40
0.3000754812
 40
0.3612000112
 40
0.4250394777
 40
0.4913671136
 40
0.5599065157
 40
0.7024276517
 40
0.8501123314
 40
1.0
 40
1.0
 40
1.0
 40
1.0
 10
4.721615174
 20
2.7100275377
 30
0.0
 10
4.7209033036
 20
2.7117040566
 30
0.0
 10
4.7195690563
 20
2.7152603052
 30
0.0
 10
4.7178785228
 20
2.7209342229
 30
0.0
 10
4.7164288555
 20
2.7271363626
 30
0.0
 10
4.7152307357
 20
2.7338406604
 30
0.0
 10
4.7142948569
 20
2.7410183256
 30
0.0
 10
4.7136237024
 20
2.748635445
 30
0.0
 10
4.7132205042
 20
2.7566554715
 30
0.0
 10
4.713088579
 20
2.7650405548
 30
0.0
 10
4.7132308908
 20
2.7737504078
 30
0.0
 10
4.7137897969
 20
2.785897314
 30
0.0
 10
4.7151728828
 20
2.801569029
 30
0.0
 10
4.7178404846
 20
2.8206806287
 30
0.0
 10
4.7202507772
 20
2.8335047941
 30
0.0
 10
4.721615174
 20
2.8399313483
 30
0.0
  0
SPLINE
  5
305
100
AcDbEntity
  8
0
100
AcDbSpline
 62
7
  6
CONTINUOUS
 70
0
 71
3
 72
23
 73
19
 74
0
 42
0.0000001
 43
0.0000001
 44
0.0000000001
 40
0.0
 40
0.0
 40
0.0
 40
0.0
 40
0.1249869301
 40
0.1874882841
 40
0.2499903353
 40
0.312490439
 40
0.3437414724
 40
0.3749934882
 40
0.4374969632
 40
0.4999999974
 40
0.5625030324
 40
0.6250065079
 40
0.656258523
 40
0.6875095553
 40
0.7500096572
 40
0.8125117069
 40
0.8750130619
 40
1.0
 40
1.0
 40
1.0
 40
1.0
 10
4.721615174
 20
2.8399313483
 30
0.0
 10
4.7333238591
 20
2.8950813586
 30
0.0
 10
4.749248489
 20
2.9781768219
 30
0.0
 10
4.7665665647
 20
3.0896138312
 30
0.0
 10
4.7774466923
 20
3.1735001618
 30
0.0
 10
4.7846467457
 20
3.2436239041
 30
0.0
 10
4.7892180509
 20
3.2998265815
 30
0.0
 10
4.7929771196
 20
3.3560908877
 30
0.0
 10
4.7961390779
 20
3.4265161585
 30
0.0
 10
4.7974211891
 20
3.5111010332
 30
0.0
 10
4.7961390728
 20
3.5956859081
 30
0.0
 10
4.7929771193
 20
3.6661111794
 30
0.0
 10
4.7892180511
 20
3.7223754851
 30
0.0
 10
4.784646745
 20
3.7785781607
 30
0.0
 10
4.777446698
 20
3.8487019016
 30
0.0
 10
4.7665665758
 20
3.9325882319
 30
0.0
 10
4.7492484921
 20
4.0440252435
 30
0.0
 10
4.7333238599
 20
4.1271207104
 30
0.0
 10
4.721615174
 20
4.1822707242
 30
0.0
  0
SPLINE
  5
306
100
AcDbEntity
  8
0
100
AcDbSpline
 62
7
  6
CONTINUOUS
 70
0
 71
3
 72
20
 73
16
 74
0
 42
0.0000001
 43
0.0000001
 44
0.0000000001
 40
0.0
 40
0.0
 40
0.0
 40
0.0
 40
0.1498879932
 40
0.297573378
 40
0.4400949282
 40
0.5086343695
 40
0.5749620071
 40
0.6388013918
 40
0.6999257256
 40
0.758127337
 40
0.8132109043
 40
0.8650128661
 40
0.9134427258
 40
0.9584455792
 40
1.0
 40
1.0
 40
1.0
 40
1.0
 10
4.721615174
 20
4.1822707242
 30
0.0
 10
4.7202507742
 20
4.1886972925
 30
0.0
 10
4.7178404904
 20
4.201521506
 30
0.0
 10
4.7151728941
 20
4.2206331703
 30
0.0
 10
4.7137898016
 20
4.2363049361
 30
0.0
 10
4.7132308975
 20
4.2484518627
 30
0.0
 10
4.7130885792
 20
4.2571617139
 30
0.0
 10
4.7132204975
 20
4.2655467854
 30
0.0
 10
4.7136236968
 20
4.2735667894
 30
0.0
 10
4.7142948538
 20
4.2811838803
 30
0.0
 10
4.7152307277
 20
4.2883615163
 30
0.0
 10
4.7164288432
 20
4.2950657846
 30
0.0
 10
4.7178785157
 20
4.3012678929
 30
0.0
 10
4.7195690562
 20
4.3069417843
 30
0.0
 10
4.7209033049
 20
4.310498019
 30
0.0
 10
4.721615174
 20
4.3121745347
 30
0.0
  0
SPLINE
  5
307
100
AcDbEntity
  8
0
100
AcDbSpline
 62
7
  6
CONTINUOUS
 70
0
 71
3
 72
9
 73
5
 74
0
 42
0.0000001
 43
0.0000001
 44
0.0000000001
 40
0.0
 40
0.0
 40
0.0
 40
0.0
 40
0.2518581629
 40
1.0
 40
1.0
 40
1.0
 40
1.0
 10
4.721615174
 20
4.3121745347
 30
0.0
 10
4.7242908547
 20
4.318476003
 30
0.0
 10
4.7347131808
 20
4.3435805459
 30
0.0
 10
4.7442905797
 20
4.3690391858
 30
0.0
 10
4.7508868911
 20
4.3882756265
 30
0.0
  0
SPLINE
  5
308
100
AcDbEntity
  8
0
100
AcDbSpline
 62
7
  6
CONTINUOUS
 70
0
 71
3
 72
25
 73
21
 74
0
 42
0.0000001
 43
0.0000001
 44
0.0000000001
 40
0.0
 40
0.0
 40
0.0
 40
0.0
 40
0.0634619563
 40
0.1263697877
 40
0.1887754989
 40
0.2507518406
 40
0.31239305
 40
0.3738073999
 40
0.4351130677
 40
0.4657673551
 40
0.4964421645
 40
0.5579090664
 40
0.6196344223
 40
0.6506296796
 40
0.6817278169
 40
0.7442689815
 40
0.8073289084
 40
0.8709544987
 40
0.9351750426
 40
1.0
 40
1.0
 40
1.0
 40
1.0
 10
4.7532171443
 20
4.3951502605
 30
0.0
 10
4.7572744605
 20
4.4072614137
 30
0.0
 10
4.7648993418
 20
4.4315335801
 30
0.0
 10
4.7747874287
 20
4.4682297479
 30
0.0
 10
4.7829858122
 20
4.5050358208
 30
0.0
 10
4.789401693
 20
4.5419369472
 30
0.0
 10
4.7939487426
 20
4.5789149268
 30
0.0
 10
4.7965949154
 20
4.6159420967
 30
0.0
 10
4.7971840959
 20
4.6468210464
 30
0.0
 10
4.7966721647
 20
4.6715003496
 30
0.0
 10
4.7955125839
 20
4.6961902085
 30
0.0
 10
4.7928553834
 20
4.7270587188
 30
0.0
 10
4.7886281132
 20
4.7578158353
 30
0.0
 10
4.7843274606
 20
4.7823644789
 30
0.0
 10
4.7794118919
 20
4.8069648732
 30
0.0
 10
4.7721608446
 20
4.8376700071
 30
0.0
 10
4.7618109615
 20
4.8743326357
 30
0.0
 10
4.7498879353
 20
4.9108689313
 30
0.0
 10
4.7365002713
 20
4.947270951
 30
0.0
 10
4.7267144511
 20
4.9713349671
 30
0.0
 10
4.721615174
 20
4.9833442227
 30
0.0
  0
SPLINE
  5
309
100
AcDbEntity
  8
0
100
AcDbSpline
 62
7
  6
CONTINUOUS
 70
0
 71
3
 72
27
 73
23
 74
0
 42
0.0000001
 43
0.0000001
 44
0.0000000001
 40
0.0
 40
0.0
 40
0.0
 40
0.0
 40
0.0645318297
 40
0.128376228
 40
0.1915510275
 40
0.2541026775
 40
0.2851691786
 40
0.3161099707
 40
0.3469392251
 40
0.3776730715
 40
0.4389179639
 40
0.4999999979
 40
0.5610820327
 40
0.6223269253
 40
0.6530607711
 40
0.6838900248
 40
0.7148308161
 40
0.7458973163
 40
0.8084489651
 40
0.871623766
 40
0.9354681682
 40
1.0
 40
1.0
 40
1.0
 40
1.0
 10
4.199934032
 20
4.9833442227
 30
0.0
 10
4.1941112458
 20
4.9696310383
 30
0.0
 10
4.1830033667
 20
4.9421451311
 30
0.0
 10
4.1680462085
 20
4.900515823
 30
0.0
 10
4.1550420108
 20
4.8587116359
 30
0.0
 10
4.1459407267
 20
4.823659502
 30
0.0
 10
4.1397912592
 20
4.79556543
 30
0.0
 10
4.1357664215
 20
4.7745112199
 30
0.0
 10
4.1323360235
 20
4.7534295694
 30
0.0
 10
4.1285792719
 20
4.7253242315
 30
0.0
 10
4.1254127473
 20
4.6901080115
 30
0.0
 10
4.1241272773
 20
4.6477593801
 30
0.0
 10
4.1254127493
 20
4.6054107489
 30
0.0
 10
4.1285792689
 20
4.5701945284
 30
0.0
 10
4.1323360211
 20
4.5420891907
 30
0.0
 10
4.1357664218
 20
4.5210075412
 30
0.0
 10
4.1397912598
 20
4.4999533318
 30
0.0
 10
4.1459407271
 20
4.4718592604
 30
0.0
 10
4.1550420112
 20
4.4368071267
 30
0.0
 10
4.1680462121
 20
4.3950029395
 30
0.0
 10
4.1830033675
 20
4.3533736287
 30
0.0
 10
4.1941112456
 20
4.3258877196
 30
0.0
 10
4.199934032
 20
4.3121745347
 30
0.0
  0
SPLINE
  5
30A
100
AcDbEntity
  8
0
100
AcDbSpline
 62
7
  6
CONTINUOUS
 70
0
 71
3
 72
20
 73
16
 74
0
 42
0.0000001
 43
0.0000001
 44
0.0000000001
 40
0.0
 40
0.0
 40
0.0
 40
0.0
 40
0.041554539
 40
0.0865576785
 40
0.1349878789
 40
0.1867901144
 40
0.2418738999
 40
0.3000757478
 40
0.3612002773
 40
0.4250397507
 40
0.4913674169
 40
0.5599068628
 40
0.7024279795
 40
0.8501124553
 40
1.0
 40
1.0
 40
1.0
 40
1.0
 10
4.199934032
 20
4.3121745347
 30
0.0
 10
4.2006459031
 20
4.3104980143
 30
0.0
 10
4.2019801527
 20
4.3069417608
 30
0.0
 10
4.203670692
 20
4.301267835
 30
0.0
 10
4.2051203664
 20
4.2950656868
 30
0.0
 10
4.2063184937
 20
4.2883613838
 30
0.0
 10
4.2072543742
 20
4.2811837163
 30
0.0
 10
4.2079255228
 20
4.273566596
 30
0.0
 10
4.2083287116
 20
4.2655465688
 30
0.0
 10
4.2084606268
 20
4.2571614837
 30
0.0
 10
4.2083183053
 20
4.2484516272
 30
0.0
 10
4.2077593866
 20
4.2363047191
 30
0.0
 10
4.2063762986
 20
4.2206330123
 30
0.0
 10
4.2037087135
 20
4.2015214255
 30
0.0
 10
4.2012984277
 20
4.1886972732
 30
0.0
 10
4.199934032
 20
4.1822707242
 30
0.0
  0
SPLINE
  5
30B
100
AcDbEntity
  8
0
100
AcDbSpline
 62
7
  6
CONTINUOUS
 70
0
 71
3
 72
14
 73
10
 74
0
 42
0.0000001
 43
0.0000001
 44
0.0000000001
 40
0.0
 40
0.0
 40
0.0
 40
0.0
 40
0.1494203998
 40
0.2914607264
 40
0.4262498979
 40
0.5539920853
 40
0.6749423047
 40
0.7893898512
 40
1.0
 40
1.0
 40
1.0
 40
1.0
 10
2.3312659402
 20
3.9597848504
 30
0.0
 10
2.3319793052
 20
3.9628543316
 30
0.0
 10
2.3334945995
 20
3.9688139668
 30
0.0
 10
2.3361089606
 20
3.9774185263
 30
0.0
 10
2.338999306
 20
3.9854507995
 30
0.0
 10
2.3421507826
 20
3.9929035893
 30
0.0
 10
2.3455472886
 20
3.9997742927
 30
0.0
 10
2.3502490184
 20
4.0079245979
 30
0.0
 10
2.3542797966
 20
4.0135129719
 30
0.0
 10
2.3571825001
 20
4.0168750753
 30
0.0
  0
SPLINE
  5
30C
100
AcDbEntity
  8
0
100
AcDbSpline
 62
7
  6
CONTINUOUS
 70
0
 71
3
 72
11
 73
7
 74
0
 42
0.0000001
 43
0.0000001
 44
0.0000000001
 40
0.0
 40
0.0
 40
0.0
 40
0.0
 40
0.2852644534
 40
0.5461560468
 40
0.7838551703
 40
1.0
 40
1.0
 40
1.0
 40
1.0
 10
2.3312623898
 20
3.0624147573
 30
0.0
 10
2.332470223
 20
3.0572230861
 30
0.0
 10
2.3351305167
 20
3.0473584318
 30
0.0
 10
2.3401192038
 20
3.0335663711
 30
0.0
 10
2.3458703657
 20
3.0214881566
 30
0.0
 10
2.3503618853
 20
3.0142657074
 30
0.0
 10
2.352722626
 20
3.0109887166
 30
0.0
  0
LINE
  5
30D
100
AcDbEntity
  8
0
100
AcDbLine
 62
7
  6
CONTINUOUS
 10
2.352722626
 20
3.0109887166
 11
2.3573224805
 21
3.0051648375
  0
SPLINE
  5
30E
100
AcDbEntity
  8
0
100
AcDbSpline
 62
7
  6
CONTINUOUS
 70
0
 71
3
 72
22
 73
18
 74
0
 42
0.0000001
 43
0.0000001
 44
0.0000000001
 40
0.0
 40
0.0
 40
0.0
 40
0.0
 40
0.0506496324
 40
0.1038048212
 40
0.1592350716
 40
0.2167152939
 40
0.2461565765
 40
0.276029722
 40
0.3369771487
 40
0.3993780156
 40
0.46305327
 40
0.527826839
 40
0.5935269114
 40
0.6600025503
 40
0.7271375272
 40
0.8629201943
 40
1.0
 40
1.0
 40
1.0
 40
1.0
 10
3.6682507244
 20
5.2003522353
 30
0.0
 10
3.6650201453
 20
5.1944186036
 30
0.0
 10
3.6586038124
 20
5.1821453797
 30
0.0
 10
3.6493665215
 20
5.1630153471
 30
0.0
 10
3.640362918
 20
5.1427725208
 30
0.0
 10
3.6331920109
 20
5.1251868825
 30
0.0
 10
3.627650997
 20
5.1106259019
 30
0.0
 10
3.6221862534
 20
5.0955432194
 30
0.0
 10
3.615682621
 20
5.0761637888
 30
0.0
 10
3.6084800307
 20
5.0522753624
 30
0.0
 10
3.6018817053
 20
5.0276840275
 30
0.0
 10
3.5959408552
 20
5.0024731888
 30
0.0
 10
3.5907122137
 20
4.976723634
 30
0.0
 10
3.586241923
 20
4.9505118652
 30
0.0
 10
3.5812951478
 20
4.9149151282
 30
0.0
 10
3.5771206918
 20
4.8697266209
 30
0.0
 10
3.5759868012
 20
4.8333209062
 30
0.0
 10
3.5759868012
 20
4.8150360304
 30
0.0
  0
SPLINE
  5
30F
100
AcDbEntity
  8
0
100
AcDbSpline
 62
7
  6
CONTINUOUS
 70
0
 71
3
 72
21
 73
17
 74
0
 42
0.0000001
 43
0.0000001
 44
0.0000000001
 40
0.0
 40
0.0
 40
0.0
 40
0.0
 40
0.1371603317
 40
0.272961965
 40
0.3400811779
 40
0.4065221113
 40
0.4721704961
 40
0.5369051889
 40
0.6005628805
 40
0.6629611754
 40
0.7239126584
 40
0.7832261413
 40
0.8407079326
 40
0.8961571441
 40
0.9493389544
 40
1.0
 40
1.0
 40
1.0
 40
1.0
 10
2.6009868012
 20
4.8150360304
 30
0.0
 10
2.6009868012
 20
4.8333312565
 30
0.0
 10
2.5998466212
 20
4.8697494896
 30
0.0
 10
2.5956619146
 20
4.9149471268
 30
0.0
 10
2.5907155538
 20
4.9505388635
 30
0.0
 10
2.5862521698
 20
4.9767372895
 30
0.0
 10
2.5810414344
 20
5.0024728751
 30
0.0
 10
2.5751027132
 20
5.0276690299
 30
0.0
 10
2.5684947503
 20
5.0522490883
 30
0.0
 10
2.5612805145
 20
5.0761312753
 30
0.0
 10
2.5535226018
 20
5.099231893
 30
0.0
 10
2.5452836267
 20
5.1214672309
 30
0.0
 10
2.5366272372
 20
5.142753281
 30
0.0
 10
2.5276166966
 20
5.1629997499
 30
0.0
 10
2.5183634802
 20
5.1821300008
 30
0.0
 10
2.5119433176
 20
5.1944064135
 30
0.0
 10
2.5087155369
 20
5.2003431365
 30
0.0
  0
SPLINE
  5
310
100
AcDbEntity
  8
0
100
AcDbSpline
 62
7
  6
CONTINUOUS
 70
0
 71
3
 72
22
 73
18
 74
0
 42
0.0000001
 43
0.0000001
 44
0.0000000001
 40
0.0
 40
0.0
 40
0.0
 40
0.0
 40
0.0506496324
 40
0.1038048212
 40
0.1592350716
 40
0.2167152939
 40
0.2461565765
 40
0.276029722
 40
0.3369771487
 40
0.3993780156
 40
0.46305327
 40
0.527826839
 40
0.5935269114
 40
0.6600025503
 40
0.7271375272
 40
0.8629201943
 40
1.0
 40
1.0
 40
1.0
 40
1.0
 10
2.508722878
 20
1.8218498371
 30
0.0
 10
2.5119534571
 20
1.8277834689
 30
0.0
 10
2.5183697901
 20
1.8400566928
 30
0.0
 10
2.5276070809
 20
1.8591867254
 30
0.0
 10
2.5366106845
 20
1.8794295517
 30
0.0
 10
2.5437815916
 20
1.89701519
 30
0.0
 10
2.5493226055
 20
1.9115761706
 30
0.0
 10
2.554787349
 20
1.9266588531
 30
0.0
 10
2.5612909815
 20
1.9460382837
 30
0.0
 10
2.5684935717
 20
1.9699267101
 30
0.0
 10
2.5750918972
 20
1.994518045
 30
0.0
 10
2.5810327472
 20
2.0197288837
 30
0.0
 10
2.5862613888
 20
2.0454784385
 30
0.0
 10
2.5907316795
 20
2.0716902073
 30
0.0
 10
2.5956784547
 20
2.1072869443
 30
0.0
 10
2.5998529106
 20
2.1524754516
 30
0.0
 10
2.6009868012
 20
2.1888811663
 30
0.0
 10
2.6009868012
 20
2.2071660421
 30
0.0
  0
SPLINE
  5
311
100
AcDbEntity
  8
0
100
AcDbSpline
 62
7
  6
CONTINUOUS
 70
0
 71
3
 72
21
 73
17
 74
0
 42
0.0000001
 43
0.0000001
 44
0.0000000001
 40
0.0
 40
0.0
 40
0.0
 40
0.0
 40
0.1371603317
 40
0.272961965
 40
0.3400811779
 40
0.4065221113
 40
0.4721704961
 40
0.5369051889
 40
0.6005628805
 40
0.6629611754
 40
0.7239126584
 40
0.7832261413
 40
0.8407079326
 40
0.8961571441
 40
0.9493389544
 40
1.0
 40
1.0
 40
1.0
 40
1.0
 10
3.5759868012
 20
2.2071660421
 30
0.0
 10
3.5759868012
 20
2.188870816
 30
0.0
 10
3.5771269813
 20
2.1524525829
 30
0.0
 10
3.5813116879
 20
2.1072549457
 30
0.0
 10
3.5862580487
 20
2.0716632089
 30
0.0
 10
3.5907214327
 20
2.045464783
 30
0.0
 10
3.5959321681
 20
2.0197291974
 30
0.0
 10
3.6018708893
 20
1.9945330426
 30
0.0
 10
3.6084788522
 20
1.9699529842
 30
0.0
 10
3.6156930879
 20
1.9460707972
 30
0.0
 10
3.6234510006
 20
1.9229701795
 30
0.0
 10
3.6316899758
 20
1.9007348416
 30
0.0
 10
3.6403463652
 20
1.8794487915
 30
0.0
 10
3.6493569058
 20
1.8592023226
 30
0.0
 10
3.6586101222
 20
1.8400720717
 30
0.0
 10
3.6650302848
 20
1.827795659
 30
0.0
 10
3.6682580655
 20
1.821858936
 30
0.0
  0
SPLINE
  5
312
100
AcDbEntity
  8
0
100
AcDbSpline
 62
7
  6
CONTINUOUS
 70
0
 71
3
 72
17
 73
13
 74
0
 42
0.0000001
 43
0.0000001
 44
0.0000000001
 40
0.0
 40
0.0
 40
0.0
 40
0.0
 40
0.0985703661
 40
0.1507553394
 40
0.204899818
 40
0.3191025317
 40
0.4410782937
 40
0.5705424228
 40
0.7071503151
 40
0.7780090447
 40
0.850484015
 40
1.0
 40
1.0
 40
1.0
 40
1.0
 10
3.8299006563
 20
4.0229450952
 30
0.0
 10
3.8316368276
 20
4.0164648924
 30
0.0
 10
3.8338628525
 20
4.0064345674
 30
0.0
 10
3.8361410577
 20
3.99267474
 30
0.0
 10
3.8380745968
 20
3.9777872255
 30
0.0
 10
3.839628317
 20
3.9580748843
 30
0.0
 10
3.8401559908
 20
3.9331832136
 30
0.0
 10
3.8393809996
 20
3.9067737982
 30
0.0
 10
3.8376672804
 20
3.8838986853
 30
0.0
 10
3.8356695192
 20
3.8649497687
 30
0.0
 10
3.8332029803
 20
3.8451705231
 30
0.0
 10
3.830928361
 20
3.8302300697
 30
0.0
 10
3.8292408325
 20
3.820194834
 30
0.0
  0
SPLINE
  5
313
100
AcDbEntity
  8
0
100
AcDbSpline
 62
7
  6
CONTINUOUS
 70
0
 71
3
 72
22
 73
18
 74
0
 42
0.0000001
 43
0.0000001
 44
0.0000000001
 40
0.0
 40
0.0
 40
0.0
 40
0.0
 40
0.0506496324
 40
0.1038048212
 40
0.1592350716
 40
0.2167152939
 40
0.2461565765
 40
0.276029722
 40
0.3369771487
 40
0.3993780156
 40
0.46305327
 40
0.527826839
 40
0.5935269114
 40
0.6600025503
 40
0.7271375272
 40
0.8629201943
 40
1.0
 40
1.0
 40
1.0
 40
1.0
 10
2.508722878
 20
4.4297198255
 30
0.0
 10
2.5119534571
 20
4.4356534572
 30
0.0
 10
2.5183697901
 20
4.4479266811
 30
0.0
 10
2.5276070809
 20
4.4670567137
 30
0.0
 10
2.5366106845
 20
4.48729954
 30
0.0
 10
2.5437815916
 20
4.5048851783
 30
0.0
 10
2.5493226055
 20
4.5194461589
 30
0.0
 10
2.554787349
 20
4.5345288414
 30
0.0
 10
2.5612909815
 20
4.553908272
 30
0.0
 10
2.5684935717
 20
4.5777966984
 30
0.0
 10
2.5750918972
 20
4.6023880333
 30
0.0
 10
2.5810327472
 20
4.627598872
 30
0.0
 10
2.5862613888
 20
4.6533484268
 30
0.0
 10
2.5907316795
 20
4.6795601956
 30
0.0
 10
2.5956784547
 20
4.7151569326
 30
0.0
 10
2.5998529106
 20
4.7603454399
 30
0.0
 10
2.6009868012
 20
4.7967511546
 30
0.0
 10
2.6009868012
 20
4.8150360304
 30
0.0
  0
SPLINE
  5
314
100
AcDbEntity
  8
0
100
AcDbSpline
 62
7
  6
CONTINUOUS
 70
0
 71
3
 72
21
 73
17
 74
0
 42
0.0000001
 43
0.0000001
 44
0.0000000001
 40
0.0
 40
0.0
 40
0.0
 40
0.0
 40
0.1371603317
 40
0.272961965
 40
0.3400811779
 40
0.4065221113
 40
0.4721704961
 40
0.5369051889
 40
0.6005628805
 40
0.6629611754
 40
0.7239126584
 40
0.7832261413
 40
0.8407079326
 40
0.8961571441
 40
0.9493389544
 40
1.0
 40
1.0
 40
1.0
 40
1.0
 10
3.5759868012
 20
4.8150360304
 30
0.0
 10
3.5759868012
 20
4.7967408043
 30
0.0
 10
3.5771269813
 20
4.7603225712
 30
0.0
 10
3.5813116879
 20
4.715124934
 30
0.0
 10
3.5862580487
 20
4.6795331973
 30
0.0
 10
3.5907214327
 20
4.6533347714
 30
0.0
 10
3.5959321681
 20
4.6275991858
 30
0.0
 10
3.6018708893
 20
4.602403031
 30
0.0
 10
3.6084788522
 20
4.5778229725
 30
0.0
 10
3.6156930879
 20
4.5539407855
 30
0.0
 10
3.6234510006
 20
4.5308401678
 30
0.0
 10
3.6316899758
 20
4.5086048299
 30
0.0
 10
3.6403463652
 20
4.4873187798
 30
0.0
 10
3.6493569058
 20
4.4670723109
 30
0.0
 10
3.6586101222
 20
4.44794206
 30
0.0
 10
3.6650302848
 20
4.4356656473
 30
0.0
 10
3.6682580655
 20
4.4297289243
 30
0.0
  0
SPLINE
  5
315
100
AcDbEntity
  8
0
100
AcDbSpline
 62
7
  6
CONTINUOUS
 70
0
 71
3
 72
11
 73
7
 74
0
 42
0.0000001
 43
0.0000001
 44
0.0000000001
 40
0.0
 40
0.0
 40
0.0
 40
0.0
 40
0.2465117016
 40
0.4956281755
 40
0.7468830994
 40
1.0
 40
1.0
 40
1.0
 40
1.0
 10
2.5087245498
 20
4.4297210357
 30
0.0
 10
2.4947832497
 20
4.4040942204
 30
0.0
 10
2.468031464
 20
4.351863545
 30
0.0
 10
2.4315963729
 20
4.2712958558
 30
0.0
 10
2.3987907636
 20
4.1883423711
 30
0.0
 10
2.3794972299
 20
4.1318286986
 30
0.0
 10
2.3704870315
 20
4.1032607022
 30
0.0
  0
SPLINE
  5
316
100
AcDbEntity
  8
0
100
AcDbSpline
 62
7
  6
CONTINUOUS
 70
0
 71
3
 72
13
 73
9
 74
0
 42
0.0000001
 43
0.0000001
 44
0.0000000001
 40
0.0
 40
0.0
 40
0.0
 40
0.0
 40
0.2254098702
 40
0.3442094151
 40
0.4671441755
 40
0.5942148631
 40
0.7254068404
 40
1.0
 40
1.0
 40
1.0
 40
1.0
 10
2.3704860773
 20
2.9189427549
 30
0.0
 10
2.3681964772
 20
2.9262008929
 30
0.0
 10
2.3652419474
 20
2.9374622877
 30
0.0
 10
2.3622087627
 20
2.9529429157
 30
0.0
 10
2.360305858
 20
2.9652525216
 30
0.0
 10
2.3588190418
 20
2.9780399563
 30
0.0
 10
2.3573757657
 20
2.9959759955
 30
0.0
 10
2.3569733618
 20
3.0096833939
 30
0.0
 10
2.3569733618
 20
3.0189547165
 30
0.0
  0
SPLINE
  5
317
100
AcDbEntity
  8
0
100
AcDbSpline
 62
7
  6
CONTINUOUS
 70
0
 71
3
 72
11
 73
7
 74
0
 42
0.0000001
 43
0.0000001
 44
0.0000000001
 40
0.0
 40
0.0
 40
0.0
 40
0.0
 40
0.2465117017
 40
0.4956281755
 40
0.7468830995
 40
1.0
 40
1.0
 40
1.0
 40
1.0
 10
2.5087245498
 20
2.5924810368
 30
0.0
 10
2.4947832497
 20
2.6181078521
 30
0.0
 10
2.468031464
 20
2.6703385275
 30
0.0
 10
2.4315963729
 20
2.7509062167
 30
0.0
 10
2.3987907636
 20
2.8338597014
 30
0.0
 10
2.3794972299
 20
2.8903733739
 30
0.0
 10
2.3704870315
 20
2.9189413703
 30
0.0
  0
SPLINE
  5
318
100
AcDbEntity
  8
0
100
AcDbSpline
 62
7
  6
CONTINUOUS
 70
0
 71
3
 72
22
 73
18
 74
0
 42
0.0000001
 43
0.0000001
 44
0.0000000001
 40
0.0
 40
0.0
 40
0.0
 40
0.0
 40
0.0506496324
 40
0.1038048212
 40
0.1592350716
 40
0.2167152939
 40
0.2461565765
 40
0.276029722
 40
0.3369771487
 40
0.3993780156
 40
0.46305327
 40
0.527826839
 40
0.5935269114
 40
0.6600025503
 40
0.7271375272
 40
0.8629201943
 40
1.0
 40
1.0
 40
1.0
 40
1.0
 10
3.6682507244
 20
2.592482247
 30
0.0
 10
3.6650201453
 20
2.5865486153
 30
0.0
 10
3.6586038124
 20
2.5742753914
 30
0.0
 10
3.6493665215
 20
2.5551453588
 30
0.0
 10
3.640362918
 20
2.5349025325
 30
0.0
 10
3.6331920109
 20
2.5173168942
 30
0.0
 10
3.627650997
 20
2.5027559135
 30
0.0
 10
3.6221862534
 20
2.4876732311
 30
0.0
 10
3.615682621
 20
2.4682938005
 30
0.0
 10
3.6084800307
 20
2.4444053741
 30
0.0
 10
3.6018817053
 20
2.4198140392
 30
0.0
 10
3.5959408552
 20
2.3946032005
 30
0.0
 10
3.5907122137
 20
2.3688536457
 30
0.0
 10
3.586241923
 20
2.3426418768
 30
0.0
 10
3.5812951478
 20
2.3070451399
 30
0.0
 10
3.5771206918
 20
2.2618566326
 30
0.0
 10
3.5759868012
 20
2.2254509179
 30
0.0
 10
3.5759868012
 20
2.2071660421
 30
0.0
  0
SPLINE
  5
319
100
AcDbEntity
  8
0
100
AcDbSpline
 62
7
  6
CONTINUOUS
 70
0
 71
3
 72
21
 73
17
 74
0
 42
0.0000001
 43
0.0000001
 44
0.0000000001
 40
0.0
 40
0.0
 40
0.0
 40
0.0
 40
0.1371603317
 40
0.272961965
 40
0.3400811779
 40
0.4065221113
 40
0.4721704961
 40
0.5369051889
 40
0.6005628805
 40
0.6629611754
 40
0.7239126584
 40
0.7832261413
 40
0.8407079326
 40
0.8961571441
 40
0.9493389544
 40
1.0
 40
1.0
 40
1.0
 40
1.0
 10
2.6009868012
 20
2.2071660421
 30
0.0
 10
2.6009868012
 20
2.2254612682
 30
0.0
 10
2.5998466212
 20
2.2618795013
 30
0.0
 10
2.5956619146
 20
2.3070771385
 30
0.0
 10
2.5907155538
 20
2.3426688752
 30
0.0
 10
2.5862521698
 20
2.3688673011
 30
0.0
 10
2.5810414344
 20
2.3946028867
 30
0.0
 10
2.5751027132
 20
2.4197990415
 30
0.0
 10
2.5684947503
 20
2.4443790999
 30
0.0
 10
2.5612805145
 20
2.468261287
 30
0.0
 10
2.5535226018
 20
2.4913619047
 30
0.0
 10
2.5452836267
 20
2.5135972426
 30
0.0
 10
2.5366272372
 20
2.5348832927
 30
0.0
 10
2.5276166966
 20
2.5551297616
 30
0.0
 10
2.5183634802
 20
2.5742600124
 30
0.0
 10
2.5119433176
 20
2.5865364251
 30
0.0
 10
2.5087155369
 20
2.5924731482
 30
0.0
  0
SPLINE
  5
31A
100
AcDbEntity
  8
0
100
AcDbSpline
 62
7
  6
CONTINUOUS
 70
0
 71
3
 72
10
 73
6
 74
0
 42
0.0000001
 43
0.0000001
 44
0.0000000001
 40
0.0
 40
0.0
 40
0.0
 40
0.0
 40
0.5043331599
 40
0.7535054155
 40
1.0
 40
1.0
 40
1.0
 40
1.0
 10
3.8081369928
 20
2.9242013778
 30
0.0
 10
3.7900771942
 20
2.8663518038
 30
0.0
 10
3.7589568204
 20
2.781122774
 30
0.0
 10
3.7095486518
 20
2.6715519836
 30
0.0
 10
3.6824036973
 20
2.6185000206
 30
0.0
 10
3.6682490527
 20
2.5924810368
 30
0.0
  0
SPLINE
  5
31B
100
AcDbEntity
  8
0
100
AcDbSpline
 62
7
  6
CONTINUOUS
 70
0
 71
3
 72
11
 73
7
 74
0
 42
0.0000001
 43
0.0000001
 44
0.0000000001
 40
0.0
 40
0.0
 40
0.0
 40
0.0
 40
0.1857831996
 40
0.4022193824
 40
0.6698818498
 40
1.0
 40
1.0
 40
1.0
 40
1.0
 10
4.9848355513
 20
2.383643503
 30
0.0
 10
4.9847610891
 20
2.3836432999
 30
0.0
 10
4.9845987395
 20
2.3836812908
 30
0.0
 10
4.9843751152
 20
2.383836837
 30
0.0
 10
4.9841574521
 20
2.3840824157
 30
0.0
 10
4.9840278124
 20
2.3842847839
 30
0.0
 10
4.9839617376
 20
2.3843994168
 30
0.0
  0
SPLINE
  5
31C
100
AcDbEntity
  8
0
100
AcDbSpline
 62
7
  6
CONTINUOUS
 70
0
 71
3
 72
24
 73
20
 74
0
 42
0.0000001
 43
0.0000001
 44
0.0000000001
 40
0.0
 40
0.0
 40
0.0
 40
0.0
 40
0.076180485
 40
0.1514487372
 40
0.2255674392
 40
0.2983068611
 40
0.3694465905
 40
0.4387799608
 40
0.5061153957
 40
0.5712725477
 40
0.6340847106
 40
0.6944068498
 40
0.7521331031
 40
0.8071793458
 40
0.8336786967
 40
0.8594856177
 40
0.9090073878
 40
0.9558067894
 40
1.0
 40
1.0
 40
1.0
 40
1.0
 10
2.42522077
 20
3.6851848612
 30
0.0
 10
2.4215369426
 20
3.6954127218
 30
0.0
 10
2.4143920193
 20
3.7158109306
 30
0.0
 10
2.4043354096
 20
3.7463905596
 30
0.0
 10
2.3950657188
 20
3.7767052438
 30
0.0
 10
2.386655632
 20
3.8066585653
 30
0.0
 10
2.3791796922
 20
3.8361552721
 30
0.0
 10
2.372704413
 20
3.8650985344
 30
0.0
 10
2.3672716425
 20
3.8933872162
 30
0.0
 10
2.3629264941
 20
3.9209223278
 30
0.0
 10
2.3597121561
 20
3.9476055531
 30
0.0
 10
2.3576753227
 20
3.9733420372
 30
0.0
 10
2.3568201036
 20
3.9980365043
 30
0.0
 10
2.3570942862
 20
4.017918394
 30
0.0
 10
2.3579284886
 20
4.0332168586
 30
0.0
 10
2.3591300266
 20
4.0476996259
 30
0.0
 10
2.3613429774
 20
4.0649990814
 30
0.0
 10
2.3651933961
 20
4.0846922269
 30
0.0
 10
2.3685961093
 20
4.0972384364
 30
0.0
 10
2.370491737
 20
4.1032532184
 30
0.0
  0
SPLINE
  5
31D
100
AcDbEntity
  8
0
100
AcDbSpline
 62
7
  6
CONTINUOUS
 70
0
 71
3
 72
18
 73
14
 74
0
 42
0.0000001
 43
0.0000001
 44
0.0000000001
 40
0.0
 40
0.0
 40
0.0
 40
0.0
 40
0.1233613908
 40
0.1856078191
 40
0.2481412485
 40
0.310915906
 40
0.3738695204
 40
0.5000160744
 40
0.6261625809
 40
0.7518588798
 40
0.8143922608
 40
0.8766386355
 40
1.0
 40
1.0
 40
1.0
 40
1.0
 10
2.4252202575
 20
3.337015753
 30
0.0
 10
2.4301743611
 20
3.3507704303
 30
0.0
 10
2.4368574488
 20
3.3717578049
 30
0.0
 10
2.4440742769
 20
3.4002721935
 30
0.0
 10
2.4486146055
 20
3.4220382539
 30
0.0
 10
2.4521982918
 20
3.4440675318
 30
0.0
 10
2.4556603609
 20
3.4737239837
 30
0.0
 10
2.4574444173
 20
3.5111018039
 30
0.0
 10
2.4553065377
 20
3.555909964
 30
0.0
 10
2.450138227
 20
3.5928616814
 30
0.0
 10
2.4440748298
 20
3.6219281897
 30
0.0
 10
2.4368579855
 20
3.6504429921
 30
0.0
 10
2.4301748797
 20
3.6714301894
 30
0.0
 10
2.42522077
 20
3.6851848612
 30
0.0
  0
SPLINE
  5
31E
100
AcDbEntity
  8
0
100
AcDbSpline
 62
7
  6
CONTINUOUS
 70
0
 71
3
 72
14
 73
10
 74
0
 42
0.0000001
 43
0.0000001
 44
0.0000000001
 40
0.0
 40
0.0
 40
0.0
 40
0.0
 40
0.2467830363
 40
0.3712517922
 40
0.4962806382
 40
0.6217779288
 40
0.7476608949
 40
0.8737959149
 40
1.0
 40
1.0
 40
1.0
 40
1.0
 10
3.7909926375
 20
3.6591332042
 30
0.0
 10
3.7875245773
 20
3.6472817191
 30
0.0
 10
3.7828785233
 20
3.6292769966
 30
0.0
 10
3.7779068708
 20
3.6049433189
 30
0.0
 10
3.7748006149
 20
3.5864339686
 30
0.0
 10
3.7723513049
 20
3.5677551219
 30
0.0
 10
3.7705858921
 20
3.5489433134
 30
0.0
 10
3.769519933
 20
3.5300437783
 30
0.0
 10
3.7692806365
 20
3.5174160147
 30
0.0
 10
3.7692806433
 20
3.5111010362
 30
0.0
  0
SPLINE
  5
31F
100
AcDbEntity
  8
0
100
AcDbSpline
 62
7
  6
CONTINUOUS
 70
0
 71
3
 72
14
 73
10
 74
0
 42
0.0000001
 43
0.0000001
 44
0.0000000001
 40
0.0
 40
0.0
 40
0.0
 40
0.0
 40
0.1262041272
 40
0.2523391826
 40
0.3782221214
 40
0.5037193721
 40
0.6287482411
 40
0.7532170327
 40
1.0
 40
1.0
 40
1.0
 40
1.0
 10
3.7692806433
 20
3.5111010362
 30
0.0
 10
3.7692806501
 20
3.5047860778
 30
0.0
 10
3.7695199151
 20
3.4921583552
 30
0.0
 10
3.7705857962
 20
3.4732588786
 30
0.0
 10
3.7723512922
 20
3.4544471433
 30
0.0
 10
3.7748008549
 20
3.4357683976
 30
0.0
 10
3.7779073054
 20
3.4172591479
 30
0.0
 10
3.7828788416
 20
3.3929255412
 30
0.0
 10
3.7875246009
 20
3.3749208078
 30
0.0
 10
3.7909926503
 20
3.3630693681
 30
0.0
  0
SPLINE
  5
320
100
AcDbEntity
  8
0
100
AcDbSpline
 62
7
  6
CONTINUOUS
 70
0
 71
3
 72
17
 73
13
 74
0
 42
0.0000001
 43
0.0000001
 44
0.0000000001
 40
0.0
 40
0.0
 40
0.0
 40
0.0
 40
0.1495123584
 40
0.2219855406
 40
0.2928425985
 40
0.4294477787
 40
0.5589103884
 40
0.6808861625
 40
0.7950907034
 40
0.8492368223
 40
0.9014239233
 40
1.0
 40
1.0
 40
1.0
 40
1.0
 10
3.8292540358
 20
3.2019280736
 30
0.0
 10
3.8309400333
 20
3.1918968873
 30
0.0
 10
3.8332124792
 20
3.1769624858
 30
0.0
 10
3.8356763973
 20
3.1571912961
 30
0.0
 10
3.8376718293
 20
3.1382500883
 30
0.0
 10
3.8393830933
 20
3.1153842392
 30
0.0
 10
3.8401558962
 20
3.0889854409
 30
0.0
 10
3.8396268625
 20
3.0641035713
 30
0.0
 10
3.838072733
 20
3.0443988291
 30
0.0
 10
3.8361393478
 20
3.0295168638
 30
0.0
 10
3.8338615483
 20
3.0157618738
 30
0.0
 10
3.8316361568
 20
3.0057350073
 30
0.0
 10
3.8299005793
 20
2.9992569736
 30
0.0
  0
SPLINE
  5
321
100
AcDbEntity
  8
0
100
AcDbSpline
 62
7
  6
CONTINUOUS
 70
0
 71
3
 72
20
 73
16
 74
0
 42
0.0000001
 43
0.0000001
 44
0.0000000001
 40
0.0
 40
0.0
 40
0.0
 40
0.0
 40
0.0520220809
 40
0.1058028084
 40
0.1612731164
 40
0.2183579252
 40
0.2769773126
 40
0.3370500685
 40
0.3985030466
 40
0.4612618481
 40
0.5252478678
 40
0.5903789157
 40
0.7237216927
 40
0.8605356054
 40
1.0
 40
1.0
 40
1.0
 40
1.0
 10
2.3569733618
 20
3.0189547165
 30
0.0
 10
2.3569733618
 20
3.0246219801
 30
0.0
 10
2.3571807395
 20
3.0361488818
 30
0.0
 10
2.3580697821
 20
3.0536981048
 30
0.0
 10
2.3595349189
 20
3.0717619825
 30
0.0
 10
2.3615689834
 20
3.0903007338
 30
0.0
 10
2.364164764
 20
3.1092752286
 30
0.0
 10
2.3673156645
 20
3.1286475373
 30
0.0
 10
2.3710038438
 20
3.1483834785
 30
0.0
 10
2.3752112415
 20
3.1684508688
 30
0.0
 10
2.3799200267
 20
3.188817918
 30
0.0
 10
2.3868973198
 20
3.2165473248
 30
0.0
 10
2.3967848338
 20
3.2517179925
 30
0.0
 10
2.4102181112
 20
3.2942782529
 30
0.0
 10
2.4200718038
 20
3.3227214703
 30
0.0
 10
2.4252202575
 20
3.337015753
 30
0.0
  0
SPLINE
  5
322
100
AcDbEntity
  8
0
100
AcDbSpline
 62
7
  6
CONTINUOUS
 70
0
 71
3
 72
11
 73
7
 74
0
 42
0.0000001
 43
0.0000001
 44
0.0000000001
 40
0.0
 40
0.0
 40
0.0
 40
0.0
 40
0.3298003047
 40
0.597123648
 40
0.8134445724
 40
1.0
 40
1.0
 40
1.0
 40
1.0
 10
7.5657876574
 20
4.991293258
 30
0.0
 10
7.5659242409
 20
4.9912136
 30
0.0
 10
7.5661651764
 20
4.9910573087
 30
0.0
 10
7.5664565736
 20
4.9907947696
 30
0.0
 10
7.5666393544
 20
4.9905245521
 30
0.0
 10
7.5666808868
 20
4.990328982
 30
0.0
 10
7.5666787555
 20
4.9902395676
 30
0.0
  0
SPLINE
  5
323
100
AcDbEntity
  8
0
100
AcDbSpline
 62
7
  6
CONTINUOUS
 70
0
 71
3
 72
11
 73
7
 74
0
 42
0.0000001
 43
0.0000001
 44
0.0000000001
 40
0.0
 40
0.0
 40
0.0
 40
0.0
 40
0.3298003048
 40
0.5971236482
 40
0.8134445725
 40
1.0
 40
1.0
 40
1.0
 40
1.0
 10
7.5657876574
 20
5.1809088145
 30
0.0
 10
7.5659242409
 20
5.1809884724
 30
0.0
 10
7.5661651764
 20
5.1811447638
 30
0.0
 10
7.5664565736
 20
5.1814073029
 30
0.0
 10
7.5666393544
 20
5.1816775204
 30
0.0
 10
7.5666808868
 20
5.1818730905
 30
0.0
 10
7.5666787555
 20
5.1819625049
 30
0.0
  0
SPLINE
  5
324
100
AcDbEntity
  8
0
100
AcDbSpline
 62
7
  6
CONTINUOUS
 70
0
 71
3
 72
15
 73
11
 74
0
 42
0.0000001
 43
0.0000001
 44
0.0000000001
 40
0.0
 40
0.0
 40
0.0
 40
0.0
 40
0.1362221739
 40
0.2714878309
 40
0.4045214463
 40
0.5342368523
 40
0.6596292359
 40
0.7797023058
 40
0.8934677471
 40
1.0
 40
1.0
 40
1.0
 40
1.0
 10
5.1500161458
 20
3.5111010362
 30
0.0
 10
5.1492902576
 20
3.5475919462
 30
0.0
 10
5.1478609555
 20
3.6203178808
 30
0.0
 10
5.145736874
 20
3.7286808587
 30
0.0
 10
5.1436018516
 20
3.8352999183
 30
0.0
 10
5.141458937
 20
3.9392729185
 30
0.0
 10
5.1393185397
 20
4.0397726817
 30
0.0
 10
5.1371821323
 20
4.1359980419
 30
0.0
 10
5.1350468164
 20
4.2271689088
 30
0.0
 10
5.1335715018
 20
4.2861750659
 30
0.0
 10
5.132828021
 20
4.3147086633
 30
0.0
  0
LINE
  5
325
100
AcDbEntity
  8
0
100
AcDbLine
 62
7
  6
CONTINUOUS
 10
5.132828021
 20
4.3147086633
 11
5.1326513912
 21
4.3214653611
  0
LINE
  5
326
100
AcDbEntity
  8
0
100
AcDbLine
 62
7
  6
CONTINUOUS
 10
5.1326513912
 20
4.3214653611
 11
5.1312653314
 21
4.372916825
  0
LINE
  5
327
100
AcDbEntity
  8
0
100
AcDbLine
 62
7
  6
CONTINUOUS
 10
5.1312653314
 20
4.372916825
 11
5.1305976077
 21
4.3966752908
  0
SPLINE
  5
328
100
AcDbEntity
  8
0
100
AcDbSpline
 62
7
  6
CONTINUOUS
 70
0
 71
3
 72
33
 73
29
 74
0
 42
0.0000001
 43
0.0000001
 44
0.0000000001
 40
0.0
 40
0.0
 40
0.0
 40
0.0
 40
0.1149643672
 40
0.2238182389
 40
0.3263202435
 40
0.4222299058
 40
0.5113337184
 40
0.5934512662
 40
0.6684044434
 40
0.7360157621
 40
0.7961299856
 40
0.8486348359
 40
0.8934245252
 40
0.9128940872
 40
0.9303968192
 40
0.9459233373
 40
0.9594711901
 40
0.9710404886
 40
0.9806343239
 40
0.9846932403
 40
0.988262678
 40
0.9913461653
 40
0.9939495451
 40
0.9960830218
 40
0.9977658963
 40
0.9984506618
 40
0.9990416484
 40
1.0
 40
1.0
 40
1.0
 40
1.0
 10
5.1305976077
 20
4.3966752908
 30
0.0
 10
5.1302325252
 20
4.4094775719
 30
0.0
 10
5.1295046251
 20
4.4344011938
 30
0.0
 10
5.128384202
 20
4.4707373085
 30
0.0
 10
5.1272643838
 20
4.504949608
 30
0.0
 10
5.126145187
 20
4.5369604424
 30
0.0
 10
5.1250265974
 20
4.566698907
 30
0.0
 10
5.1239087412
 20
4.5941009881
 30
0.0
 10
5.1227917162
 20
4.619106598
 30
0.0
 10
5.1216754515
 20
4.6416583046
 30
0.0
 10
5.1205603253
 20
4.6617058648
 30
0.0
 10
5.1194481974
 20
4.6792067187
 30
0.0
 10
5.1184871048
 20
4.6921795684
 30
0.0
 10
5.1177062932
 20
4.7012547537
 30
0.0
 10
5.1171497455
 20
4.7070769001
 30
0.0
 10
5.1165947902
 20
4.7122361555
 30
0.0
 10
5.1160415363
 20
4.7167303567
 30
0.0
 10
5.1154898573
 20
4.720558027
 30
0.0
 10
5.1150096159
 20
4.7233272685
 30
0.0
 10
5.1146161508
 20
4.7252053081
 30
0.0
 10
5.1143379158
 20
4.7263659873
 30
0.0
 10
5.1140600015
 20
4.7273593145
 30
0.0
 10
5.1137826625
 20
4.7281858515
 30
0.0
 10
5.1135057447
 20
4.7288459695
 30
0.0
 10
5.1132616279
 20
4.7292862883
 30
0.0
 10
5.1130593355
 20
4.7295479119
 30
0.0
 10
5.1128834763
 20
4.7297234851
 30
0.0
 10
5.1127279333
 20
4.7298154049
 30
0.0
 10
5.1126237863
 20
4.7298388996
 30
0.0
  0
SPLINE
  5
329
100
AcDbEntity
  8
0
100
AcDbSpline
 62
7
  6
CONTINUOUS
 70
0
 71
3
 72
19
 73
15
 74
0
 42
0.0000001
 43
0.0000001
 44
0.0000000001
 40
0.0
 40
0.0
 40
0.0
 40
0.0
 40
0.0181919669
 40
0.0392194247
 40
0.0648822954
 40
0.0961902219
 40
0.1336990975
 40
0.1777300315
 40
0.2284800094
 40
0.2860767007
 40
0.4221181998
 40
0.5863102099
 40
0.7788900036
 40
1.0
 40
1.0
 40
1.0
 40
1.0
 10
5.0598618012
 20
4.6385908445
 30
0.0
 10
5.0599327867
 20
4.6385892516
 30
0.0
 10
5.0600859337
 20
4.6385516028
 30
0.0
 10
5.0602982955
 20
4.6384076597
 30
0.0
 10
5.0605056928
 20
4.6381824921
 30
0.0
 10
5.0607115803
 20
4.6378754181
 30
0.0
 10
5.0609174104
 20
4.6374853996
 30
0.0
 10
5.0611234973
 20
4.6370115992
 30
0.0
 10
5.0613299415
 20
4.6364535997
 30
0.0
 10
5.0616220126
 20
4.6355453314
 30
0.0
 10
5.0619793307
 20
4.634194335
 30
0.0
 10
5.0623900521
 20
4.6323149068
 30
0.0
 10
5.0628020646
 20
4.6300970796
 30
0.0
 10
5.0630596502
 20
4.6285030004
 30
0.0
 10
5.0631900249
 20
4.6276499113
 30
0.0
  0
SPLINE
  5
32A
100
AcDbEntity
  8
0
100
AcDbSpline
 62
7
  6
CONTINUOUS
 70
0
 71
3
 72
19
 73
15
 74
0
 42
0.0000001
 43
0.0000001
 44
0.0000000001
 40
0.0
 40
0.0
 40
0.0
 40
0.0
 40
0.0251733913
 40
0.055548302
 40
0.0911264955
 40
0.1318658874
 40
0.1777079308
 40
0.2285925324
 40
0.2844586462
 40
0.3452446025
 40
0.4813176212
 40
0.6362235596
 40
0.8093323319
 40
1.0
 40
1.0
 40
1.0
 40
1.0
 10
5.0631900249
 20
4.6276499113
 30
0.0
 10
5.0634823041
 20
4.6257374226
 30
0.0
 10
5.0640488318
 20
4.6215053284
 30
0.0
 10
5.0648244209
 20
4.6145446102
 30
0.0
 10
5.0656020874
 20
4.6063814603
 30
0.0
 10
5.0663816774
 20
4.5970251864
 30
0.0
 10
5.0671625552
 20
4.5864890519
 30
0.0
 10
5.067944357
 20
4.5747875857
 30
0.0
 10
5.0687268839
 20
4.5619353409
 30
0.0
 10
5.0698121998
 20
4.5425425101
 30
0.0
 10
5.071152129
 20
4.5155406861
 30
0.0
 10
5.0727100072
 20
4.4799072593
 30
0.0
 10
5.0742707853
 20
4.4400745301
 30
0.0
 10
5.0752658542
 20
4.4121342563
 30
0.0
 10
5.0757674728
 20
4.397489135
 30
0.0
  0
SPLINE
  5
32B
100
AcDbEntity
  8
0
100
AcDbSpline
 62
7
  6
CONTINUOUS
 70
0
 71
3
 72
15
 73
11
 74
0
 42
0.0000001
 43
0.0000001
 44
0.0000000001
 40
0.0
 40
0.0
 40
0.0
 40
0.0
 40
0.0460473839
 40
0.0951380434
 40
0.20179565
 40
0.3186101321
 40
0.4441460955
 40
0.5767966888
 40
0.7148337432
 40
1.0
 40
1.0
 40
1.0
 40
1.0
 10
5.0757674728
 20
4.397489135
 30
0.0
 10
5.0762332389
 20
4.3838907545
 30
0.0
 10
5.0771600039
 20
4.3557940516
 30
0.0
 10
5.0790045969
 20
4.2961947816
 30
0.0
 10
5.0812865086
 20
4.2156885218
 30
0.0
 10
5.0839600868
 20
4.1125961479
 30
0.0
 10
5.0866363328
 20
4.0018208905
 30
0.0
 10
5.089315004
 20
3.8847730086
 30
0.0
 10
5.0929275733
 20
3.7205657116
 30
0.0
 10
5.0955738879
 20
3.5955430734
 30
0.0
 10
5.0973577618
 20
3.5112993373
 30
0.0
  0
SPLINE
  5
32C
100
AcDbEntity
  8
0
100
AcDbSpline
 62
7
  6
CONTINUOUS
 70
0
 71
3
 72
13
 73
9
 74
0
 42
0.0000001
 43
0.0000001
 44
0.0000000001
 40
0.0
 40
0.0
 40
0.0
 40
0.0
 40
0.2770769767
 40
0.5430296573
 40
0.6684851881
 40
0.7872712539
 40
0.8981721968
 40
1.0
 40
1.0
 40
1.0
 40
1.0
 10
5.0973577618
 20
3.5112993373
 30
0.0
 10
5.0989428919
 20
3.4364413147
 30
0.0
 10
5.1020485442
 20
3.2897307108
 30
0.0
 10
5.1060241387
 20
3.1091289353
 30
0.0
 10
5.1092594294
 20
2.9712965354
 30
0.0
 10
5.1116361713
 20
2.8753553901
 30
0.0
 10
5.1140095124
 20
2.7858011861
 30
0.0
 10
5.115666134
 20
2.7283390605
 30
0.0
 10
5.1165041023
 20
2.7008347881
 30
0.0
  0
LINE
  5
32D
100
AcDbEntity
  8
0
100
AcDbLine
 62
7
  6
CONTINUOUS
 10
5.1181823723
 20
2.647793314
 11
5.1189353014
 21
2.625362084
  0
SPLINE
  5
32E
100
AcDbEntity
  8
0
100
AcDbSpline
 62
7
  6
CONTINUOUS
 70
0
 71
3
 72
24
 73
20
 74
0
 42
0.0000001
 43
0.0000001
 44
0.0000000001
 40
0.0
 40
0.0
 40
0.0
 40
0.0
 40
0.2070208662
 40
0.3924199252
 40
0.4766569967
 40
0.5550639081
 40
0.627500281
 40
0.6938601619
 40
0.7540874587
 40
0.8081306222
 40
0.8559391345
 40
0.8974641526
 40
0.9326601242
 40
0.9478731214
 40
0.9614911415
 40
0.9735117806
 40
0.98393435
 40
0.9927611296
 40
1.0
 40
1.0
 40
1.0
 40
1.0
 10
5.1189353014
 20
2.625362084
 30
0.0
 10
5.1195009289
 20
2.6088370705
 30
0.0
 10
5.1206204367
 20
2.5775145479
 30
0.0
 10
5.1221352399
 20
2.5394740888
 30
0.0
 10
5.1233591742
 20
2.5117029191
 30
0.0
 10
5.124247025
 20
2.4929480899
 30
0.0
 10
5.1251344299
 20
2.4756228018
 30
0.0
 10
5.1260215073
 20
2.4597515569
 30
0.0
 10
5.1269076873
 20
2.445351817
 30
0.0
 10
5.1277926887
 20
2.4324367845
 30
0.0
 10
5.1286758641
 20
2.4210192355
 30
0.0
 10
5.1295568002
 20
2.4111119589
 30
0.0
 10
5.1303198767
 20
2.4038084546
 30
0.0
 10
5.1309413436
 20
2.39873241
 30
0.0
 10
5.131383906
 20
2.3954996118
 30
0.0
 10
5.131825617
 20
2.3926533047
 30
0.0
 10
5.132266119
 20
2.3901945833
 30
0.0
 10
5.1327049828
 20
2.3881246535
 30
0.0
 10
5.1330270946
 20
2.3868816651
 30
0.0
 10
5.1331937488
 20
2.3863280383
 30
0.0
  0
LINE
  5
32F
100
AcDbEntity
  8
0
100
AcDbLine
 62
7
  6
CONTINUOUS
 10
5.1331937488
 20
2.3863280383
 11
5.1339958068
 21
2.3843011759
  0
SPLINE
  5
330
100
AcDbEntity
  8
0
100
AcDbSpline
 62
7
  6
CONTINUOUS
 70
0
 71
3
 72
16
 73
12
 74
0
 42
0.0000001
 43
0.0000001
 44
0.0000000001
 40
0.0
 40
0.0
 40
0.0
 40
0.0
 40
0.1364645678
 40
0.2719700622
 40
0.3389470805
 40
0.4052012883
 40
0.5350257358
 40
0.6604198054
 40
0.780372224
 40
0.8938861328
 40
1.0
 40
1.0
 40
1.0
 40
1.0
 10
5.0000161458
 20
3.5111010362
 30
0.0
 10
4.9992715546
 20
3.547977828
 30
0.0
 10
4.9978207772
 20
3.6214729086
 30
0.0
 10
4.9960357789
 20
3.7130677844
 30
0.0
 10
4.99459687
 20
3.7856890018
 30
0.0
 10
4.9931645291
 20
3.8567745426
 30
0.0
 10
4.9913708923
 20
3.9436452493
 30
0.0
 10
4.989203618
 20
4.0450251239
 30
0.0
 10
4.9870443608
 20
4.1419956411
 30
0.0
 10
4.984887958
 20
4.2337537222
 30
0.0
 10
4.9833958967
 20
4.2930970755
 30
0.0
 10
4.9826436883
 20
4.3217681827
 30
0.0
  0
SPLINE
  5
331
100
AcDbEntity
  8
0
100
AcDbSpline
 62
7
  6
CONTINUOUS
 70
0
 71
3
 72
35
 73
31
 74
0
 42
0.0000001
 43
0.0000001
 44
0.0000000001
 40
0.0
 40
0.0
 40
0.0
 40
0.0
 40
0.1155982688
 40
0.2249979169
 40
0.3279700412
 40
0.424287178
 40
0.5137220244
 40
0.5960615336
 40
0.671139731
 40
0.7388008069
 40
0.798889623
 40
0.8512554333
 40
0.874507251
 40
0.8957924801
 40
0.9151022532
 40
0.9324281258
 40
0.9477623006
 40
0.9610980221
 40
0.9724303257
 40
0.9817577229
 40
0.9856722479
 40
0.9890909371
 40
0.992018531
 40
0.9944626292
 40
0.9964364236
 40
0.9979653287
 40
0.9985796771
 40
0.999108855
 40
0.999572643
 40
1.0
 40
1.0
 40
1.0
 40
1.0
 10
4.9805961394
 20
4.3967343516
 30
0.0
 10
4.9802289871
 20
4.4096087932
 30
0.0
 10
4.9794970178
 20
4.4346668325
 30
0.0
 10
4.9783700111
 20
4.4711910855
 30
0.0
 10
4.9772435475
 20
4.5055660196
 30
0.0
 10
4.9761177081
 20
4.537715277
 30
0.0
 10
4.9749925666
 20
4.5675642179
 30
0.0
 10
4.9738679644
 20
4.5950449806
 30
0.0
 10
4.972744449
 20
4.6200976026
 30
0.0
 10
4.971622573
 20
4.6426684642
 30
0.0
 10
4.9705028093
 20
4.6627053902
 30
0.0
 10
4.9695378738
 20
4.677794916
 30
0.0
 10
4.9687559717
 20
4.6885633087
 30
0.0
 10
4.9681934604
 20
4.6956547535
 30
0.0
 10
4.9676315204
 20
4.7020837258
 30
0.0
 10
4.9670703164
 20
4.7078469368
 30
0.0
 10
4.9665100998
 20
4.7129411159
 30
0.0
 10
4.9659514836
 20
4.7173632084
 30
0.0
 10
4.9653947926
 20
4.7211100662
 30
0.0
 10
4.9649100301
 20
4.7238056645
 30
0.0
 10
4.9645126119
 20
4.7256191321
 30
0.0
 10
4.9642327667
 20
4.7267278598
 30
0.0
 10
4.9639537335
 20
4.7276669938
 30
0.0
 10
4.9636757135
 20
4.7284376038
 30
0.0
 10
4.9633988779
 20
4.7290402751
 30
0.0
 10
4.9631534735
 20
4.72943147
 30
0.0
 10
4.9629505368
 20
4.7296506479
 30
0.0
 10
4.962808178
 20
4.7297610684
 30
0.0
 10
4.9626635665
 20
4.7298291454
 30
0.0
 10
4.9625637674
 20
4.7298448768
 30
0.0
 10
4.9625161523
 20
4.729844877
 30
0.0
  0
SPLINE
  5
332
100
AcDbEntity
  8
0
100
AcDbSpline
 62
7
  6
CONTINUOUS
 70
0
 71
3
 72
15
 73
11
 74
0
 42
0.0000001
 43
0.0000001
 44
0.0000000001
 40
0.0
 40
0.0
 40
0.0
 40
0.0
 40
0.1364645791
 40
0.2719700884
 40
0.4052013372
 40
0.5350257855
 40
0.6604198362
 40
0.7803722428
 40
0.8938861482
 40
1.0
 40
1.0
 40
1.0
 40
1.0
 10
5.0259574567
 20
3.5111010362
 30
0.0
 10
5.0266687545
 20
3.4742235737
 30
0.0
 10
5.0281027839
 20
3.4007281388
 30
0.0
 10
5.0302800609
 20
3.2912299594
 30
0.0
 10
5.0324499186
 20
3.1835267184
 30
0.0
 10
5.0346085054
 20
3.0785567852
 30
0.0
 10
5.0367662402
 20
2.9771766838
 30
0.0
 10
5.0389266529
 20
2.8802061712
 30
0.0
 10
5.04108623
 20
2.7884481476
 30
0.0
 10
5.0425785309
 20
2.7291047895
 30
0.0
 10
5.0433306403
 20
2.7004336757
 30
0.0
  0
SPLINE
  5
333
100
AcDbEntity
  8
0
100
AcDbSpline
 62
7
  6
CONTINUOUS
 70
0
 71
3
 72
35
 73
31
 74
0
 42
0.0000001
 43
0.0000001
 44
0.0000000001
 40
0.0
 40
0.0
 40
0.0
 40
0.0
 40
0.1155980826
 40
0.2249976066
 40
0.327969661
 40
0.4242867768
 40
0.5137216454
 40
0.5960611989
 40
0.6711394492
 40
0.7388005856
 40
0.7988894691
 40
0.8512553495
 40
0.8745071981
 40
0.8957924548
 40
0.9151022523
 40
0.9324281459
 40
0.9477623382
 40
0.9610980737
 40
0.9724303873
 40
0.9817577901
 40
0.9856723151
 40
0.9890910024
 40
0.9920185921
 40
0.9944626838
 40
0.996436469
 40
0.9979653618
 40
0.9985797028
 40
0.9991088725
 40
0.9995726516
 40
1.0
 40
1.0
 40
1.0
 40
1.0
 10
5.045377238
 20
2.6254812465
 30
0.0
 10
5.0457442859
 20
2.612606301
 30
0.0
 10
5.0464760886
 20
2.587547276
 30
0.0
 10
5.0476030357
 20
2.5510215832
 30
0.0
 10
5.0487295574
 20
2.5166452817
 30
0.0
 10
5.0498555177
 20
2.4844947329
 30
0.0
 10
5.0509807821
 20
2.4546445813
 30
0.0
 10
5.052105451
 20
2.4271626936
 30
0.0
 10
5.0532289939
 20
2.4021090389
 30
0.0
 10
5.0543508739
 20
2.3795372413
 30
0.0
 10
5.0554706333
 20
2.3594994793
 30
0.0
 10
5.0564355732
 20
2.3444093214
 30
0.0
 10
5.0572174868
 20
2.3336404769
 30
0.0
 10
5.0577800088
 20
2.3265487347
 30
0.0
 10
5.0583419616
 20
2.3201194931
 30
0.0
 10
5.0589031798
 20
2.314356041
 30
0.0
 10
5.0594634117
 20
2.3092616489
 30
0.0
 10
5.0600220435
 20
2.3048393719
 30
0.0
 10
5.0605787499
 20
2.3010923579
 30
0.0
 10
5.0610635254
 20
2.2983966476
 30
0.0
 10
5.0614609538
 20
2.2965831049
 30
0.0
 10
5.0617408059
 20
2.2954743318
 30
0.0
 10
5.0620198457
 20
2.2945351599
 30
0.0
 10
5.0622978721
 20
2.2937645193
 30
0.0
 10
5.0625747139
 20
2.2931618248
 30
0.0
 10
5.0628201237
 20
2.292770615
 30
0.0
 10
5.0630230652
 20
2.2925514292
 30
0.0
 10
5.0631654271
 20
2.2924410052
 30
0.0
 10
5.0633100418
 20
2.2923729265
 30
0.0
 10
5.0634098431
 20
2.2923571954
 30
0.0
 10
5.0634574591
 20
2.2923571956
 30
0.0
  0
SPLINE
  5
334
100
AcDbEntity
  8
0
100
AcDbSpline
 62
7
  6
CONTINUOUS
 70
0
 71
3
 72
35
 73
31
 74
0
 42
0.0000001
 43
0.0000001
 44
0.0000000001
 40
0.0
 40
0.0
 40
0.0
 40
0.0
 40
0.1155978413
 40
0.2249971699
 40
0.3279690723
 40
0.4242860778
 40
0.5137208754
 40
0.5960603909
 40
0.6711386311
 40
0.7387997846
 40
0.7988887116
 40
0.8512546601
 40
0.87450655
 40
0.8957918526
 40
0.9151017006
 40
0.9324276492
 40
0.9477619008
 40
0.9610976998
 40
0.9724300808
 40
0.9817575543
 40
0.9856721154
 40
0.9890908389
 40
0.992018465
 40
0.9944625924
 40
0.9964364119
 40
0.9979653356
 40
0.9985796893
 40
0.9991088686
 40
0.9995726528
 40
1.0
 40
1.0
 40
1.0
 40
1.0
 10
4.8953771202
 20
2.62548721
 30
0.0
 10
4.8957441345
 20
2.6126120614
 30
0.0
 10
4.8964758839
 20
2.5875526379
 30
0.0
 10
4.8976028128
 20
2.5510263607
 30
0.0
 10
4.8987293545
 20
2.5166494995
 30
0.0
 10
4.8998553553
 20
2.4844984174
 30
0.0
 10
4.9009806606
 20
2.4546477608
 30
0.0
 10
4.9021053522
 20
2.4271653982
 30
0.0
 10
4.9032289051
 20
2.4021113015
 30
0.0
 10
4.9043507875
 20
2.3795390964
 30
0.0
 10
4.9054705468
 20
2.3595009629
 30
0.0
 10
4.9064354894
 20
2.344410519
 30
0.0
 10
4.9072174079
 20
2.3336414651
 30
0.0
 10
4.9077799342
 20
2.3265495812
 30
0.0
 10
4.9083418919
 20
2.320120208
 30
0.0
 10
4.9089031155
 20
2.3143566345
 30
0.0
 10
4.9094633528
 20
2.3092621316
 30
0.0
 10
4.9100219901
 20
2.304839754
 30
0.0
 10
4.9105787019
 20
2.3010926501
 30
0.0
 10
4.9110634814
 20
2.2983968715
 30
0.0
 10
4.9114609128
 20
2.2965832793
 30
0.0
 10
4.911740767
 20
2.2954744733
 30
0.0
 10
4.9120198088
 20
2.2945352713
 30
0.0
 10
4.9122978372
 20
2.2937646035
 30
0.0
 10
4.9125746809
 20
2.2931618845
 30
0.0
 10
4.912820092
 20
2.2927706559
 30
0.0
 10
4.9130230345
 20
2.2925514559
 30
0.0
 10
4.9131653971
 20
2.2924410227
 30
0.0
 10
4.9133100123
 20
2.2923729351
 30
0.0
 10
4.9134098149
 20
2.292357198
 30
0.0
 10
4.9134574316
 20
2.2923571956
 30
0.0
  0
SPLINE
  5
335
100
AcDbEntity
  8
0
100
AcDbSpline
 62
7
  6
CONTINUOUS
 70
0
 71
3
 72
76
 73
72
 74
0
 42
0.0000001
 43
0.0000001
 44
0.0000000001
 40
0.0
 40
0.0
 40
0.0
 40
0.0
 40
0.0078143574
 40
0.0156546288
 40
0.0235117282
 40
0.031369909
 40
0.0392122364
 40
0.0470449551
 40
0.0548791131
 40
0.0627169627
 40
0.070552939
 40
0.0783784476
 40
0.0940141833
 40
0.1096581066
 40
0.1174785344
 40
0.1252934031
 40
0.1409166389
 40
0.1565420021
 40
0.1643542283
 40
0.1721640344
 40
0.1877803019
 40
0.2033978568
 40
0.2190152103
 40
0.2346286699
 40
0.2502413297
 40
0.2658547195
 40
0.2814674258
 40
0.2970782654
 40
0.3126888736
 40
0.3439096721
 40
0.3751280631
 40
0.4063467991
 40
0.4219565783
 40
0.4375659042
 40
0.4687837505
 40
0.5000023905
 40
0.5312211803
 40
0.5624393548
 40
0.5780488561
 40
0.5936588143
 40
0.6248779629
 40
0.656096414
 40
0.6717073926
 40
0.6873186493
 40
0.7029294021
 40
0.7185401445
 40
0.734152555
 40
0.7497660215
 40
0.765378786
 40
0.7809919849
 40
0.7966089866
 40
0.8122267704
 40
0.8278430168
 40
0.8356524872
 40
0.8434642533
 40
0.8590895729
 40
0.8747128016
 40
0.8825272536
 40
0.8903469901
 40
0.905991011
 40
0.9216266391
 40
0.9294511706
 40
0.9372861936
 40
0.9451236679
 40
0.9529576976
 40
0.9607901602
 40
0.9686317166
 40
0.9764890921
 40
0.9843456809
 40
0.9921857025
 40
1.0
 40
1.0
 40
1.0
 40
1.0
 10
8.4254869236
 20
4.0702893454
 30
0.0
 10
8.4220788421
 20
4.0702893454
 30
0.0
 10
8.4152476427
 20
4.0699690048
 30
0.0
 10
8.4050754821
 20
4.0685822902
 30
0.0
 10
8.3950383152
 20
4.0663370937
 30
0.0
 10
8.3852170185
 20
4.0632824347
 30
0.0
 10
8.3756821151
 20
4.0594558902
 30
0.0
 10
8.3664743303
 20
4.0549251454
 30
0.0
 10
8.35760811
 20
4.0497643374
 30
0.0
 10
8.3490931984
 20
4.0440419983
 30
0.0
 10
8.3409375637
 20
4.037825875
 30
0.0
 10
8.330548217
 20
4.0289641006
 30
0.0
 10
8.3184416688
 20
4.0169108762
 30
0.0
 10
8.30744876
 20
4.0038499781
 30
0.0
 10
8.299252791
 20
3.9929419272
 30
0.0
 10
8.2914385363
 20
3.9817680477
 30
0.0
 10
8.2823565564
 20
3.9673402881
 30
0.0
 10
8.2741111283
 20
3.9524237761
 30
0.0
 10
8.2679624894
 20
3.9402606005
 30
0.0
 10
8.2620959662
 20
3.9279632202
 30
0.0
 10
8.2552712601
 20
3.9123566135
 30
0.0
 10
8.2478295016
 20
3.8933217783
 30
0.0
 10
8.2410640053
 20
3.8740383891
 30
0.0
 10
8.2349067177
 20
3.8545552525
 30
0.0
 10
8.2293185316
 20
3.8349035394
 30
0.0
 10
8.2242557145
 20
3.8151107812
 30
0.0
 10
8.2196732697
 20
3.7952025451
 30
0.0
 10
8.2155322608
 20
3.7751992635
 30
0.0
 10
8.2105678222
 20
3.7484209352
 30
0.0
 10
8.2053384624
 20
3.7147768022
 30
0.0
 10
8.2004149233
 20
3.6742210563
 30
0.0
 10
8.1973444563
 20
3.6403159481
 30
0.0
 10
8.1954487844
 20
3.613150311
 30
0.0
 10
8.193910904
 20
3.5859624018
 30
0.0
 10
8.1926502676
 20
3.5519435446
 30
0.0
 10
8.1921581082
 20
3.5110966118
 30
0.0
 10
8.1926497057
 20
3.4702495265
 30
0.0
 10
8.1939105964
 20
3.4362303824
 30
0.0
 10
8.1954490822
 20
3.4090422168
 30
0.0
 10
8.1973455932
 20
3.3818762686
 30
0.0
 10
8.200415579
 20
3.3479711209
 30
0.0
 10
8.2045191555
 20
3.314173612
 30
0.0
 10
8.2084783073
 20
3.2872294568
 30
0.0
 10
8.2118107927
 20
3.2670765999
 30
0.0
 10
8.2155338777
 20
3.2469921874
 30
0.0
 10
8.2196749498
 20
3.2269890595
 30
0.0
 10
8.2242586377
 20
3.2070812427
 30
0.0
 10
8.229321153
 20
3.1872884738
 30
0.0
 10
8.2349088119
 20
3.1676366426
 30
0.0
 10
8.2410662437
 20
3.1481537698
 30
0.0
 10
8.2478326242
 20
3.12887088
 30
0.0
 10
8.2552733018
 20
3.1098357082
 30
0.0
 10
8.2620975454
 20
3.094228937
 30
0.0
 10
8.267964538
 20
3.0819321669
 30
0.0
 10
8.2741144627
 20
3.0697700514
 30
0.0
 10
8.2823603752
 20
3.0548540898
 30
0.0
 10
8.2914426426
 20
3.0404267418
 30
0.0
 10
8.299257307
 20
3.0292537311
 30
0.0
 10
8.307454323
 20
3.0183470214
 30
0.0
 10
8.3184466279
 20
3.0052861242
 30
0.0
 10
8.3305518176
 20
2.9932321061
 30
0.0
 10
8.3409405035
 20
2.9843708934
 30
0.0
 10
8.3490958666
 20
2.9781560567
 30
0.0
 10
8.3576108022
 20
2.9724348969
 30
0.0
 10
8.3664771541
 20
2.9672749818
 30
0.0
 10
8.3756846742
 20
2.9627448825
 30
0.0
 10
8.3852187112
 20
2.9589183465
 30
0.0
 10
8.3950391572
 20
2.955863974
 30
0.0
 10
8.4050757333
 20
2.9536192502
 30
0.0
 10
8.4152475855
 20
2.9522329374
 30
0.0
 10
8.4220786489
 20
2.951912727
 30
0.0
 10
8.4254867042
 20
2.951912727
 30
0.0
  0
SPLINE
  5
336
100
AcDbEntity
  8
0
100
AcDbSpline
 62
7
  6
CONTINUOUS
 70
0
 71
3
 72
36
 73
32
 74
0
 42
0.0000001
 43
0.0000001
 44
0.0000000001
 40
0.0
 40
0.0
 40
0.0
 40
0.0
 40
0.0398441795
 40
0.0596975496
 40
0.0793993236
 40
0.0988694666
 40
0.1180569374
 40
0.136968357
 40
0.1556102111
 40
0.1920655834
 40
0.2273930398
 40
0.2617165044
 40
0.2951759674
 40
0.3278538887
 40
0.3598579295
 40
0.39129797
 40
0.4222530317
 40
0.4527868614
 40
0.4829663029
 40
0.5128456759
 40
0.542465489
 40
0.5718603789
 40
0.6010650492
 40
0.6590055234
 40
0.7164610191
 40
0.7735631136
 40
0.8020135534
 40
0.8304075669
 40
0.8870582996
 40
0.9435756961
 40
1.0
 40
1.0
 40
1.0
 40
1.0
 10
8.4254869309
 20
4.8611010362
 30
0.0
 10
8.419441919
 20
4.8611010362
 30
0.0
 10
8.4103750938
 20
4.860570273
 30
0.0
 10
8.3984428561
 20
4.8588923971
 30
0.0
 10
8.3896492019
 20
4.857175298
 30
0.0
 10
8.3810572676
 20
4.855019992
 30
0.0
 10
8.3727062925
 20
4.8524478601
 30
0.0
 10
8.3646152496
 20
4.8494974761
 30
0.0
 10
8.35426382
 20
4.8451379859
 30
0.0
 10
8.3420049503
 20
4.838933976
 30
0.0
 10
8.3283075989
 20
4.8304420111
 30
0.0
 10
8.3157089285
 20
4.8211418139
 30
0.0
 10
8.3041423905
 20
4.8111970791
 30
0.0
 10
8.2935122581
 20
4.800756758
 30
0.0
 10
8.2837525024
 20
4.7899090532
 30
0.0
 10
8.2747972634
 20
4.7787230405
 30
0.0
 10
8.2665700002
 20
4.7672664919
 30
0.0
 10
8.2590024145
 20
4.7555921596
 30
0.0
 10
8.2520509054
 20
4.7437302893
 30
0.0
 10
8.2456664855
 20
4.7317114208
 30
0.0
 10
8.2397982954
 20
4.7195650022
 30
0.0
 10
8.234404118
 20
4.7073128527
 30
0.0
 10
8.2278248462
 20
4.6908985535
 30
0.0
 10
8.2206224934
 20
4.6701616417
 30
0.0
 10
8.2133797627
 20
4.6450019096
 30
0.0
 10
8.2084010801
 20
4.6238756381
 30
0.0
 10
8.2049842251
 20
4.6069281355
 30
0.0
 10
8.2019254486
 20
4.5899818514
 30
0.0
 10
8.1987356141
 20
4.5687369757
 30
0.0
 10
8.1958431765
 20
4.5431653452
 30
0.0
 10
8.1944846864
 20
4.5260805804
 30
0.0
 10
8.1939438858
 20
4.5175371926
 30
0.0
  0
SPLINE
  5
337
100
AcDbEntity
  8
0
100
AcDbSpline
 62
7
  6
CONTINUOUS
 70
0
 71
3
 72
43
 73
39
 74
0
 42
0.0000001
 43
0.0000001
 44
0.0000000001
 40
0.0
 40
0.0
 40
0.0
 40
0.0
 40
0.0575022903
 40
0.0862426971
 40
0.1149820515
 40
0.1724750073
 40
0.2300302487
 40
0.2877029647
 40
0.3166051856
 40
0.3455647891
 40
0.37459578
 40
0.4037124109
 40
0.4329318719
 40
0.4622772009
 40
0.5214502917
 40
0.5513562858
 40
0.566409193
 40
0.5815380126
 40
0.6120487066
 40
0.6429569627
 40
0.6585902121
 40
0.6743605365
 40
0.7063590515
 40
0.7226210436
 40
0.7390825553
 40
0.7557680422
 40
0.7727016665
 40
0.7898967727
 40
0.8073708988
 40
0.825150284
 40
0.8432701495
 40
0.8805833874
 40
0.8997690746
 40
0.9193037851
 40
0.9391943151
 40
0.9593567578
 40
0.9796646194
 40
1.0
 40
1.0
 40
1.0
 40
1.0
 10
8.1939438858
 20
4.5175371926
 30
0.0
 10
8.1932671221
 20
4.5068459032
 30
0.0
 10
8.1925759126
 20
4.490788204
 30
0.0
 10
8.192279076
 20
4.4693681883
 30
0.0
 10
8.192388496
 20
4.4479478992
 30
0.0
 10
8.1932986985
 20
4.4211681825
 30
0.0
 10
8.195681019
 20
4.3890702229
 30
0.0
 10
8.198780996
 20
4.3623886958
 30
0.0
 10
8.2020075395
 20
4.3411059923
 30
0.0
 10
8.2048247641
 20
4.3251631221
 30
0.0
 10
8.2080556191
 20
4.3092579814
 30
0.0
 10
8.2117312896
 20
4.2933997672
 30
0.0
 10
8.2158904101
 20
4.2776000657
 30
0.0
 10
8.2221464812
 20
4.2565741349
 30
0.0
 10
8.2295099945
 20
4.2357512171
 30
0.0
 10
8.2370756124
 20
4.2178816242
 30
0.0
 10
8.2417760191
 20
4.2077208922
 30
0.0
 10
8.2467543206
 20
4.197567905
 30
0.0
 10
8.2534912394
 20
4.1849915164
 30
0.0
 10
8.2609381282
 20
4.1727099541
 30
0.0
 10
8.2673842693
 20
4.1630535153
 30
0.0
 10
8.2742357957
 20
4.1534303104
 30
0.0
 10
8.2816198154
 20
4.1440474841
 30
0.0
 10
8.2895755378
 20
4.1349838791
 30
0.0
 10
8.295905815
 20
4.1282979399
 30
0.0
 10
8.3025838567
 20
4.1217788161
 30
0.0
 10
8.3096242673
 20
4.1154460266
 30
0.0
 10
8.3170498375
 20
4.1093348272
 30
0.0
 10
8.3248799928
 20
4.1034835998
 30
0.0
 10
8.3331343638
 20
4.0979310335
 30
0.0
 10
8.3448358039
 20
4.0909145046
 30
0.0
 10
8.3573361868
 20
4.0847501285
 30
0.0
 10
8.3705545877
 20
4.0796388811
 30
0.0
 10
8.3809744452
 20
4.0763476111
 30
0.0
 10
8.3917664003
 20
4.0737113218
 30
0.0
 10
8.4028514467
 20
4.071770579
 30
0.0
 10
8.4141238238
 20
4.0705679411
 30
0.0
 10
8.4216982242
 20
4.0702893454
 30
0.0
 10
8.4254867095
 20
4.0702893454
 30
0.0
  0
SPLINE
  5
338
100
AcDbEntity
  8
0
100
AcDbSpline
 62
7
  6
CONTINUOUS
 70
0
 71
3
 72
76
 73
72
 74
0
 42
0.0000001
 43
0.0000001
 44
0.0000000001
 40
0.0
 40
0.0
 40
0.0
 40
0.0
 40
0.0100769315
 40
0.0201467101
 40
0.0301630166
 40
0.0400759007
 40
0.0498384106
 40
0.0594416716
 40
0.0781796041
 40
0.0873160158
 40
0.096288419
 40
0.1051084722
 40
0.1137907449
 40
0.1223465606
 40
0.1307840815
 40
0.139108578
 40
0.1473270679
 40
0.1634845027
 40
0.1793276508
 40
0.1871475119
 40
0.194905499
 40
0.2102573137
 40
0.2254242653
 40
0.2404358912
 40
0.255314848
 40
0.2700835405
 40
0.2847604456
 40
0.2993594798
 40
0.3138920953
 40
0.3283694991
 40
0.3571912165
 40
0.3858805754
 40
0.4144793969
 40
0.4287552446
 40
0.4430188246
 40
0.4715195776
 40
0.5000035211
 40
0.5284875226
 40
0.5569887303
 40
0.5712526954
 40
0.5855289327
 40
0.6141282571
 40
0.6428180296
 40
0.6716401278
 40
0.6861176368
 40
0.70065028
 40
0.7152493069
 40
0.7299262587
 40
0.7446949589
 40
0.7595738002
 40
0.7897446721
 40
0.8050963649
 40
0.8128542714
 40
0.8206741002
 40
0.8365175675
 40
0.8526753746
 40
0.8608938762
 40
0.8692182189
 40
0.8776556263
 40
0.8862113158
 40
0.8948933746
 40
0.9037130761
 40
0.9126849678
 40
0.9218210381
 40
0.9405590546
 40
0.9501623579
 40
0.9599246422
 40
0.9698372473
 40
0.9798533806
 40
0.9899230819
 40
1.0
 40
1.0
 40
1.0
 40
1.0
 10
8.8004868012
 20
2.1611010362
 30
0.0
 10
8.8038930241
 20
2.1611010362
 30
0.0
 10
8.8107049354
 20
2.1613267236
 30
0.0
 10
8.8208598185
 20
2.1623045395
 30
0.0
 10
8.8308819836
 20
2.1638879642
 30
0.0
 10
8.8406905303
 20
2.1660421636
 30
0.0
 10
8.8502184405
 20
2.1687416694
 30
0.0
 10
8.8623905854
 20
2.1729692582
 30
0.0
 10
8.8739994606
 20
2.1781117437
 30
0.0
 10
8.8849696839
 20
2.1840167453
 30
0.0
 10
8.8927695393
 20
2.1887164007
 30
0.0
 10
8.9002126481
 20
2.1936903557
 30
0.0
 10
8.9073115772
 20
2.1989095381
 30
0.0
 10
8.9140802281
 20
2.2043457473
 30
0.0
 10
8.9205324157
 20
2.2099711621
 30
0.0
 10
8.9266841687
 20
2.2157581655
 30
0.0
 10
8.9344597539
 20
2.2236170891
 30
0.0
 10
8.9435139753
 20
2.2337730674
 30
0.0
 10
8.9518150639
 20
2.2443796196
 30
0.0
 10
8.9579936799
 20
2.2530198727
 30
0.0
 10
8.9638425202
 20
2.2616870242
 30
0.0
 10
8.9706547249
 20
2.2726940299
 30
0.0
 10
8.9781075063
 20
2.2861656133
 30
0.0
 10
8.9848816721
 20
2.2998116968
 30
0.0
 10
8.9910450484
 20
2.3135961534
 30
0.0
 10
8.9966382153
 20
2.327499312
 30
0.0
 10
9.0017050525
 20
2.3415016567
 30
0.0
 10
9.0062906421
 20
2.3555844967
 30
0.0
 10
9.0104338336
 20
2.3697332962
 30
0.0
 10
9.0153929276
 20
2.3886444692
 30
0.0
 10
9.0206228587
 20
2.4124209021
 30
0.0
 10
9.025551964
 20
2.4411165993
 30
0.0
 10
9.0286268887
 20
2.4651179004
 30
0.0
 10
9.0305244435
 20
2.4843393394
 30
0.0
 10
9.0320620866
 20
2.50355974
 30
0.0
 10
9.0333223854
 20
2.5276158971
 30
0.0
 10
9.0338162641
 20
2.5565075389
 30
0.0
 10
9.0333248427
 20
2.5853994288
 30
0.0
 10
9.0320623511
 20
2.6094557921
 30
0.0
 10
9.0305244123
 20
2.628676572
 30
0.0
 10
9.0286277341
 20
2.6478985335
 30
0.0
 10
9.0255519106
 20
2.6719001908
 30
0.0
 10
9.0206216502
 20
2.7005961148
 30
0.0
 10
9.0153919345
 20
2.7243728937
 30
0.0
 10
9.0104329853
 20
2.7432842888
 30
0.0
 10
9.0062897546
 20
2.757433117
 30
0.0
 10
9.0017038122
 20
2.7715158942
 30
0.0
 10
8.9966372068
 20
2.7855182198
 30
0.0
 10
8.991044169
 20
2.7994218465
 30
0.0
 10
8.9827899127
 20
2.8178835886
 30
0.0
 10
8.9733250694
 20
2.8360104377
 30
0.0
 10
8.9638436316
 20
2.851331109
 30
0.0
 10
8.9579944504
 20
2.8599980885
 30
0.0
 10
8.9518149935
 20
2.8686377916
 30
0.0
 10
8.9435128212
 20
2.879243794
 30
0.0
 10
8.934457675
 20
2.8893992508
 30
0.0
 10
8.9266816078
 20
2.8972578068
 30
0.0
 10
8.92052968
 20
2.9030444912
 30
0.0
 10
8.9140777607
 20
2.9086700006
 30
0.0
 10
8.9073095843
 20
2.9141065515
 30
0.0
 10
8.9002112604
 20
2.919326161
 30
0.0
 10
8.8927688036
 20
2.9243004417
 30
0.0
 10
8.8849694591
 20
2.9290001687
 30
0.0
 10
8.8739993866
 20
2.9349049179
 30
0.0
 10
8.8623903427
 20
2.9400468694
 30
0.0
 10
8.8502180549
 20
2.9442739323
 30
0.0
 10
8.8406902109
 20
2.9469730993
 30
0.0
 10
8.8308817911
 20
2.9491268199
 30
0.0
 10
8.8208597278
 20
2.9507097365
 30
0.0
 10
8.8107048991
 20
2.9516871551
 30
0.0
 10
8.8038930196
 20
2.951912727
 30
0.0
 10
8.8004868012
 20
2.951912727
 30
0.0
  0
SPLINE
  5
339
100
AcDbEntity
  8
0
100
AcDbSpline
 62
7
  6
CONTINUOUS
 70
0
 71
3
 72
42
 73
38
 74
0
 42
0.0000001
 43
0.0000001
 44
0.0000000001
 40
0.0
 40
0.0
 40
0.0
 40
0.0
 40
0.0203249315
 40
0.0406233608
 40
0.0607795802
 40
0.0806690497
 40
0.1002054622
 40
0.1193943662
 40
0.1567223534
 40
0.1748537242
 40
0.1926436038
 40
0.2101277934
 40
0.2273333478
 40
0.2442787499
 40
0.2609767298
 40
0.2774495336
 40
0.2937217662
 40
0.3257389077
 40
0.3415184418
 40
0.3571601081
 40
0.3880821473
 40
0.4186036867
 40
0.4337374429
 40
0.448794693
 40
0.4787068166
 40
0.5083938002
 40
0.5378951129
 40
0.5964499988
 40
0.654582808
 40
0.7124258623
 40
0.7700791822
 40
0.8276113807
 40
0.8563511322
 40
0.8850807753
 40
0.9138057575
 40
0.9425309451
 40
1.0
 40
1.0
 40
1.0
 40
1.0
 10
8.425486925
 20
2.951912727
 30
0.0
 10
8.4217223337
 20
2.951912727
 30
0.0
 10
8.414195547
 20
2.9516372313
 30
0.0
 10
8.4029927563
 20
2.9504481872
 30
0.0
 10
8.3919733214
 20
2.9485295817
 30
0.0
 10
8.3812412624
 20
2.9459243744
 30
0.0
 10
8.3708750013
 20
2.9426717038
 30
0.0
 10
8.3577185878
 20
2.9376181036
 30
0.0
 10
8.3452700196
 20
2.9315196485
 30
0.0
 10
8.3336105733
 20
2.9245737805
 30
0.0
 10
8.325382319
 20
2.9190751842
 30
0.0
 10
8.3175746266
 20
2.9132790496
 30
0.0
 10
8.3101679296
 20
2.9072233043
 30
0.0
 10
8.3031433618
 20
2.9009454264
 30
0.0
 10
8.2964781136
 20
2.8944813046
 30
0.0
 10
8.2901569497
 20
2.8878516531
 30
0.0
 10
8.2822100055
 20
2.8788635797
 30
0.0
 10
8.2748299603
 20
2.8695567874
 30
0.0
 10
8.2679804688
 20
2.8600080243
 30
0.0
 10
8.2615335983
 20
2.8504260981
 30
0.0
 10
8.2540810501
 20
2.8382383055
 30
0.0
 10
8.2473340689
 20
2.8257549784
 30
0.0
 10
8.2423473355
 20
2.8156750169
 30
0.0
 10
8.2376372328
 20
2.8055873005
 30
0.0
 10
8.2321981704
 20
2.7928691831
 30
0.0
 10
8.2263283324
 20
2.7774406949
 30
0.0
 10
8.2193355801
 20
2.7567795352
 30
0.0
 10
8.2119571391
 20
2.730705982
 30
0.0
 10
8.20501399
 20
2.6991179331
 30
0.0
 10
8.199717867
 20
2.667384408
 30
0.0
 10
8.1959169724
 20
2.6355520635
 30
0.0
 10
8.1938590095
 20
2.6089658667
 30
0.0
 10
8.1928518569
 20
2.5876879188
 30
0.0
 10
8.1924091315
 20
2.5717280817
 30
0.0
 10
8.1922713663
 20
2.5557653896
 30
0.0
 10
8.1924893415
 20
2.5344803071
 30
0.0
 10
8.1931152437
 20
2.5185222174
 30
0.0
 10
8.1937448061
 20
2.5078964118
 30
0.0
  0
SPLINE
  5
33A
100
AcDbEntity
  8
0
100
AcDbSpline
 62
7
  6
CONTINUOUS
 70
0
 71
3
 72
38
 73
34
 74
0
 42
0.0000001
 43
0.0000001
 44
0.0000000001
 40
0.0
 40
0.0
 40
0.0
 40
0.0
 40
0.0561863755
 40
0.1124897652
 40
0.1689579833
 40
0.225651277
 40
0.2541053978
 40
0.2826454627
 40
0.3112861027
 40
0.3400435411
 40
0.397970138
 40
0.4271909919
 40
0.4566206215
 40
0.4862902117
 40
0.5162338239
 40
0.546496908
 40
0.5771370763
 40
0.6082134199
 40
0.639787023
 40
0.6719429124
 40
0.6882748676
 40
0.7047914985
 40
0.7384017579
 40
0.7728655525
 40
0.8083262476
 40
0.8448496749
 40
0.8634981778
 40
0.8824013401
 40
0.9015666098
 40
0.9209917338
 40
0.9406180073
 40
0.9603746528
 40
1.0
 40
1.0
 40
1.0
 40
1.0
 10
8.1956680554
 20
2.4824075876
 30
0.0
 10
8.1964094259
 20
2.4743351001
 30
0.0
 10
8.1981461305
 20
2.4581951343
 30
0.0
 10
8.2015755968
 20
2.4340556731
 30
0.0
 10
8.2058983659
 20
2.4099850796
 30
0.0
 10
8.210299
 20
2.3900258678
 30
0.0
 10
8.2143616904
 20
2.3741330613
 30
0.0
 10
8.2177010291
 20
2.3622364396
 30
0.0
 10
8.2213445873
 20
2.350383389
 30
0.0
 10
8.2266411584
 20
2.3346087875
 30
0.0
 10
8.2326254213
 20
2.3189810116
 30
0.0
 10
8.2393777273
 20
2.3035737385
 30
0.0
 10
8.2448791939
 20
2.2920769954
 30
0.0
 10
8.2508354263
 20
2.2806909405
 30
0.0
 10
8.2572905278
 20
2.2694405472
 30
0.0
 10
8.2642862057
 20
2.2583515371
 30
0.0
 10
8.2718613476
 20
2.247449723
 30
0.0
 10
8.2800629936
 20
2.2367703511
 30
0.0
 10
8.2889566773
 20
2.2263692676
 30
0.0
 10
8.2969537539
 20
2.2180241396
 30
0.0
 10
8.303741119
 20
2.2115498433
 30
0.0
 10
8.3108827647
 20
2.2051496421
 30
0.0
 10
8.320374024
 20
2.1974604486
 30
0.0
 10
8.3326454666
 20
2.1889179902
 30
0.0
 10
8.3459134768
 20
2.181150633
 30
0.0
 10
8.3577271801
 20
2.1755025672
 30
0.0
 10
8.3676605592
 20
2.1715507142
 30
0.0
 10
8.3754004473
 20
2.1688845474
 30
0.0
 10
8.3833686432
 20
2.1665667096
 30
0.0
 10
8.3915447153
 20
2.1646278206
 30
0.0
 10
8.3998917159
 20
2.1630836611
 30
0.0
 10
8.4111938331
 20
2.1615769068
 30
0.0
 10
8.4197696501
 20
2.1611010362
 30
0.0
 10
8.425486717
 20
2.1611010362
 30
0.0
  0
SPLINE
  5
33B
100
AcDbEntity
  8
0
100
AcDbSpline
 62
7
  6
CONTINUOUS
 70
0
 71
3
 72
75
 73
71
 74
0
 42
0.0000001
 43
0.0000001
 44
0.0000000001
 40
0.0
 40
0.0
 40
0.0
 40
0.0
 40
0.0078142718
 40
0.0156543336
 40
0.0235111282
 40
0.031368887
 40
0.0392108285
 40
0.0470434717
 40
0.0548776121
 40
0.0627152866
 40
0.070550769
 40
0.0783757704
 40
0.0940115501
 40
0.109655802
 40
0.1174760556
 40
0.1252908082
 40
0.14091409
 40
0.1565395092
 40
0.1643516181
 40
0.1721613364
 40
0.187777635
 40
0.2033952965
 40
0.2190125786
 40
0.2346259669
 40
0.2502386571
 40
0.2658520628
 40
0.2814646561
 40
0.2970754251
 40
0.3126860275
 40
0.3439067109
 40
0.3751249794
 40
0.4063436379
 40
0.4219532332
 40
0.4375623872
 40
0.4687800605
 40
0.4999986407
 40
0.5312173243
 40
0.5624355972
 40
0.5780452772
 40
0.5936554211
 40
0.6248745933
 40
0.6560932605
 40
0.6873143949
 40
0.7029251245
 40
0.7185359848
 40
0.734148654
 40
0.7497621326
 40
0.7653748686
 40
0.7809882476
 40
0.7966055134
 40
0.8122232168
 40
0.827839496
 40
0.8356491535
 40
0.8434611831
 40
0.8590865609
 40
0.8747098395
 40
0.8825245522
 40
0.8903447339
 40
0.9059889874
 40
0.921624731
 40
0.9294496284
 40
0.9372850232
 40
0.9451226782
 40
0.9529568258
 40
0.960789456
 40
0.9686313143
 40
0.9764889705
 40
0.9843456968
 40
0.9921857301
 40
1.0
 40
1.0
 40
1.0
 40
1.0
 10
8.80048695
 20
2.951912727
 30
0.0
 10
8.8038949815
 20
2.951912727
 30
0.0
 10
8.8107260305
 20
2.9522332954
 30
0.0
 10
8.8208977898
 20
2.9536207965
 30
0.0
 10
8.8309342938
 20
2.9558669253
 30
0.0
 10
8.8407547652
 20
2.9589224644
 30
0.0
 10
8.8502889924
 20
2.9627494987
 30
0.0
 10
8.8594966838
 20
2.967279823
 30
0.0
 10
8.8683632241
 20
2.9724397564
 30
0.0
 10
8.8768785224
 20
2.9781609084
 30
0.0
 10
8.8850344145
 20
2.9843757968
 30
0.0
 10
8.895423855
 20
2.993236764
 30
0.0
 10
8.9075300357
 20
3.0052902345
 30
0.0
 10
8.9185226103
 20
3.0183514068
 30
0.0
 10
8.9267188858
 20
3.0292591836
 30
0.0
 10
8.9345331029
 20
3.0404329027
 30
0.0
 10
8.9436148828
 20
3.0548607096
 30
0.0
 10
8.9518602942
 20
3.0697771347
 30
0.0
 10
8.9580094491
 20
3.0819399181
 30
0.0
 10
8.9638764063
 20
3.0942369527
 30
0.0
 10
8.970701494
 20
3.1098433517
 30
0.0
 10
8.9781436132
 20
3.1288779915
 30
0.0
 10
8.9849098436
 20
3.148161026
 30
0.0
 10
8.9910673553
 20
3.1676439681
 30
0.0
 10
8.9966553115
 20
3.1872956595
 30
0.0
 10
9.0017177983
 20
3.2070883912
 30
0.0
 10
9.0063003111
 20
3.226996458
 30
0.0
 10
9.0104410466
 20
3.2469996378
 30
0.0
 10
9.0154048845
 20
3.2737778878
 30
0.0
 10
9.0206344601
 20
3.3074217379
 30
0.0
 10
9.0255585836
 20
3.3479771306
 30
0.0
 10
9.0286289393
 20
3.3818819474
 30
0.0
 10
9.0305255149
 20
3.4090472299
 30
0.0
 10
9.0320631488
 20
3.4362348291
 30
0.0
 10
9.0333220441
 20
3.4702534379
 30
0.0
 10
9.0338157691
 20
3.5111000308
 30
0.0
 10
9.0333249548
 20
3.5519469701
 30
0.0
 10
9.0320629363
 20
3.5859660124
 30
0.0
 10
9.0305251378
 20
3.6131543186
 30
0.0
 10
9.028630402
 20
3.640320425
 30
0.0
 10
9.0255598658
 20
3.6742258854
 30
0.0
 10
9.0206357361
 20
3.714781864
 30
0.0
 10
9.0154062781
 20
3.7484261751
 30
0.0
 10
9.0104416858
 20
3.7752045853
 30
0.0
 10
9.0063003263
 20
3.795207767
 30
0.0
 10
9.0017171972
 20
3.8151157988
 30
0.0
 10
8.9966542502
 20
3.8349084989
 30
0.0
 10
8.9910659853
 20
3.854560151
 30
0.0
 10
8.9849082875
 20
3.874043042
 30
0.0
 10
8.978142137
 20
3.8933261067
 30
0.0
 10
8.9707005466
 20
3.9123609522
 30
0.0
 10
8.9638758366
 20
3.9279675029
 30
0.0
 10
8.9580089824
 20
3.9402645114
 30
0.0
 10
8.9518597313
 20
3.9524271584
 30
0.0
 10
8.9436141834
 20
3.9673434459
 30
0.0
 10
8.934532291
 20
3.9817711364
 30
0.0
 10
8.9267180591
 20
3.9929447836
 30
0.0
 10
8.9185218055
 20
4.0038525144
 30
0.0
 10
8.9075296463
 20
4.0169139565
 30
0.0
 10
8.8954239213
 20
4.0289678125
 30
0.0
 10
8.8850346608
 20
4.0378288457
 30
0.0
 10
8.876878779
 20
4.0440436014
 30
0.0
 10
8.868363389
 20
4.0497645421
 30
0.0
 10
8.8594967037
 20
4.0549242074
 30
0.0
 10
8.8502888958
 20
4.0594542066
 30
0.0
 10
8.8407546253
 20
4.0632809026
 30
0.0
 10
8.8309341349
 20
4.0663360136
 30
0.0
 10
8.8208976243
 20
4.0685817085
 30
0.0
 10
8.8107258663
 20
4.0699688734
 30
0.0
 10
8.8038948319
 20
4.0702893454
 30
0.0
 10
8.8004868012
 20
4.0702893454
 30
0.0
  0
SPLINE
  5
33C
100
AcDbEntity
  8
0
100
AcDbSpline
 62
7
  6
CONTINUOUS
 70
0
 71
3
 72
76
 73
72
 74
0
 42
0.0000001
 43
0.0000001
 44
0.0000000001
 40
0.0
 40
0.0
 40
0.0
 40
0.0
 40
0.0100769365
 40
0.0201467381
 40
0.0301630801
 40
0.0400760103
 40
0.0498385533
 40
0.0594417996
 40
0.0781796814
 40
0.0873161119
 40
0.0962885459
 40
0.1051085967
 40
0.1137908468
 40
0.122346636
 40
0.1307841445
 40
0.1391086566
 40
0.1473271545
 40
0.1634845773
 40
0.1793277267
 40
0.187147615
 40
0.1949056328
 40
0.2102574907
 40
0.2254244717
 40
0.2404361424
 40
0.2553151399
 40
0.2700838451
 40
0.2847607422
 40
0.2993597609
 40
0.3138923448
 40
0.3283697068
 40
0.3571913593
 40
0.3858806908
 40
0.4144794877
 40
0.4287553268
 40
0.4430188994
 40
0.4715196255
 40
0.5000035124
 40
0.5284874424
 40
0.5569886155
 40
0.5712525817
 40
0.5855288233
 40
0.6141281396
 40
0.6428178994
 40
0.6716399691
 40
0.6861174651
 40
0.7006501064
 40
0.715249139
 40
0.729926086
 40
0.7446947818
 40
0.759573627
 40
0.7897444703
 40
0.805096145
 40
0.8128540517
 40
0.8206738832
 40
0.8365173281
 40
0.8526751205
 40
0.8608936329
 40
0.8692179973
 40
0.8776554054
 40
0.8862110863
 40
0.8948931441
 40
0.9037128661
 40
0.9126848105
 40
0.9218209176
 40
0.9405589049
 40
0.9501622022
 40
0.9599245298
 40
0.969837188
 40
0.9798533577
 40
0.9899230792
 40
1.0
 40
1.0
 40
1.0
 40
1.0
 10
8.8004868012
 20
4.0702893454
 30
0.0
 10
8.8038930256
 20
4.0702893454
 30
0.0
 10
8.8107049458
 20
4.0705150181
 30
0.0
 10
8.820859854
 20
4.0714927857
 30
0.0
 10
8.8308820625
 20
4.073076158
 30
0.0
 10
8.8406906576
 20
4.0752303166
 30
0.0
 10
8.8502185923
 20
4.0779298183
 30
0.0
 10
8.8623906983
 20
4.0821574886
 30
0.0
 10
8.8739994855
 20
4.0873001383
 30
0.0
 10
8.8849696218
 20
4.0932052971
 30
0.0
 10
8.8927694467
 20
4.0979050312
 30
0.0
 10
8.9002125336
 20
4.1028790208
 30
0.0
 10
8.9073114338
 20
4.1080982118
 30
0.0
 10
8.9140800516
 20
4.1135344282
 30
0.0
 10
8.9205322059
 20
4.1191598692
 30
0.0
 10
8.926683903
 20
4.1249469368
 30
0.0
 10
8.9344594481
 20
4.1328059036
 30
0.0
 10
8.9435136575
 20
4.142961888
 30
0.0
 10
8.9518147648
 20
4.1535684323
 30
0.0
 10
8.9579933747
 20
4.1622087133
 30
0.0
 10
8.963842274
 20
4.1708758646
 30
0.0
 10
8.970654649
 20
4.1818828021
 30
0.0
 10
8.9781076991
 20
4.1953542822
 30
0.0
 10
8.9848820266
 20
4.2090003289
 30
0.0
 10
8.9910455706
 20
4.2227847451
 30
0.0
 10
8.9966389099
 20
4.2366878501
 30
0.0
 10
9.001705839
 20
4.2506901586
 30
0.0
 10
9.0062913315
 20
4.2647730112
 30
0.0
 10
9.0104343588
 20
4.2789218265
 30
0.0
 10
9.0153932103
 20
4.2978330141
 30
0.0
 10
9.0206227866
 20
4.3216094747
 30
0.0
 10
9.0255518413
 20
4.3503051318
 30
0.0
 10
9.028626981
 20
4.3743063818
 30
0.0
 10
9.0305246915
 20
4.3935277905
 30
0.0
 10
9.0320625067
 20
4.4127481614
 30
0.0
 10
9.0333229926
 20
4.436804277
 30
0.0
 10
9.0338169234
 20
4.4656958679
 30
0.0
 10
9.0333250667
 20
4.494587698
 30
0.0
 10
9.0320621631
 20
4.5186439994
 30
0.0
 10
9.0305241443
 20
4.5378647603
 30
0.0
 10
9.0286275649
 20
4.5570867292
 30
0.0
 10
9.0255517855
 20
4.5810883848
 30
0.0
 10
9.0206216977
 20
4.6097843188
 30
0.0
 10
9.0153920157
 20
4.633561088
 30
0.0
 10
9.0104330025
 20
4.65247245
 30
0.0
 10
9.0062897472
 20
4.6666212659
 30
0.0
 10
9.001703833
 20
4.6807040512
 30
0.0
 10
8.9966371764
 20
4.6947063568
 30
0.0
 10
8.9910440851
 20
4.7086099582
 30
0.0
 10
8.9827898511
 20
4.7270716968
 30
0.0
 10
8.9733250658
 20
4.7451985595
 30
0.0
 10
8.963843643
 20
4.7605192195
 30
0.0
 10
8.957994512
 20
4.7691862252
 30
0.0
 10
8.9518151326
 20
4.777825975
 30
0.0
 10
8.9435129946
 20
4.7884319904
 30
0.0
 10
8.9344578608
 20
4.7985874451
 30
0.0
 10
8.9266818018
 20
4.8064460161
 30
0.0
 10
8.9205298888
 20
4.8122327321
 30
0.0
 10
8.9140779522
 20
4.8178582289
 30
0.0
 10
8.9073097502
 20
4.8232947425
 30
0.0
 10
8.9002113935
 20
4.8285143125
 30
0.0
 10
8.8927688981
 20
4.8334885773
 30
0.0
 10
8.8849695284
 20
4.8381883316
 30
0.0
 10
8.8739994834
 20
4.8440931709
 30
0.0
 10
8.8623904867
 20
4.8492352311
 30
0.0
 10
8.8502182126
 20
4.8534623439
 30
0.0
 10
8.8406903333
 20
4.8561614988
 30
0.0
 10
8.8308818621
 20
4.8583151919
 30
0.0
 10
8.8208597574
 20
4.8598980792
 30
0.0
 10
8.810704907
 20
4.8608754718
 30
0.0
 10
8.8038930203
 20
4.8611010362
 30
0.0
 10
8.8004868012
 20
4.8611010362
 30
0.0
  0
SPLINE
  5
33D
100
AcDbEntity
  8
0
100
AcDbSpline
 62
9
  6
CONTINUOUS
 70
0
 71
3
 72
15
 73
11
 74
0
 42
0.0000001
 43
0.0000001
 44
0.0000000001
 40
0.0
 40
0.0
 40
0.0
 40
0.0
 40
0.1291558682
 40
0.2567364189
 40
0.382937278
 40
0.5079581345
 40
0.631983389
 40
0.7552008051
 40
0.8778052027
 40
1.0
 40
1.0
 40
1.0
 40
1.0
 10
2.5087239093
 20
4.42972121
 30
0.0
 10
2.5053346577
 20
4.423491362
 30
0.0
 10
2.4989492825
 20
4.4109121157
 30
0.0
 10
2.4905497568
 20
4.3916219243
 30
0.0
 10
2.48341359
 20
4.3720697434
 30
0.0
 10
2.4775591522
 20
4.3522997172
 30
0.0
 10
2.4729916848
 20
4.3323612159
 30
0.0
 10
2.4697192114
 20
4.3123036834
 30
0.0
 10
2.4677491956
 20
4.2921783125
 30
0.0
 10
2.46730878
 20
4.2787320372
 30
0.0
 10
2.46730878
 20
4.2720221678
 30
0.0
  0
SPLINE
  5
33E
100
AcDbEntity
  8
0
100
AcDbSpline
 62
7
  6
CONTINUOUS
 70
0
 71
3
 72
72
 73
68
 74
0
 42
0.0000001
 43
0.0000001
 44
0.0000000001
 40
0.0
 40
0.0
 40
0.0
 40
0.0
 40
0.0000769281
 40
0.0001579262
 40
0.0002466757
 40
0.0003459931
 40
0.0005834919
 40
0.0008807482
 40
0.0012426452
 40
0.0016718168
 40
0.0021697884
 40
0.0027374942
 40
0.004084182
 40
0.0057147237
 40
0.0076302374
 40
0.0098311049
 40
0.0123173103
 40
0.0150885191
 40
0.0181432845
 40
0.0214794475
 40
0.0289869331
 40
0.0375926189
 40
0.0472776609
 40
0.0580224317
 40
0.069801058
 40
0.0825837021
 40
0.096340395
 40
0.1110411197
 40
0.1431414772
 40
0.178580324
 40
0.2170365659
 40
0.2581454388
 40
0.3015144466
 40
0.3467393122
 40
0.3933988066
 40
0.4410648934
 40
0.4892890442
 40
0.5376178221
 40
0.5855974083
 40
0.6327740445
 40
0.6787080303
 40
0.7229798654
 40
0.7651762648
 40
0.804900587
 40
0.8417651255
 40
0.8754332632
 40
0.8909726611
 40
0.9055984578
 40
0.9192780516
 40
0.9319813323
 40
0.9436782554
 40
0.9543388525
 40
0.9639360428
 40
0.9724505532
 40
0.9798646696
 40
0.9831536834
 40
0.9861611832
 40
0.9888851498
 40
0.9913239357
 40
0.9934772343
 40
0.9953453216
 40
0.9969289106
 40
0.9982295329
 40
0.9987747272
 40
0.9992506774
 40
0.999658495
 40
1.0
 40
1.0
 40
1.0
 40
1.0
 10
5.6842985033
 20
4.9569510362
 30
0.0
 10
5.6842979181
 20
4.9569993505
 30
0.0
 10
5.684308994
 20
4.9570990535
 30
0.0
 10
5.6843615409
 20
4.9572460188
 30
0.0
 10
5.684448987
 20
4.9573916862
 30
0.0
 10
5.6846217699
 20
4.9575967628
 30
0.0
 10
5.6849345371
 20
4.9578482361
 30
0.0
 10
5.6854216868
 20
4.9581326645
 30
0.0
 10
5.6860439504
 20
4.9584177126
 30
0.0
 10
5.6868019442
 20
4.9587033907
 30
0.0
 10
5.6876964272
 20
4.9589897858
 30
0.0
 10
5.6891564951
 20
4.9593957643
 30
0.0
 10
5.6913281426
 20
4.9598918248
 30
0.0
 10
5.6943482953
 20
4.9604618524
 30
0.0
 10
5.6979126599
 20
4.9610337595
 30
0.0
 10
5.7020200464
 20
4.961607192
 30
0.0
 10
5.7066693387
 20
4.962181515
 30
0.0
 10
5.7118585081
 20
4.9627563068
 30
0.0
 10
5.7175844213
 20
4.9633314972
 30
0.0
 10
5.7262773039
 20
4.9641306525
 30
0.0
 10
5.7384537147
 20
4.9651167883
 30
0.0
 10
5.7546170089
 20
4.96626157
 30
0.0
 10
5.7728179769
 20
4.9674083888
 30
0.0
 10
5.7930152586
 20
4.9685567387
 30
0.0
 10
5.8151608895
 20
4.9697063622
 30
0.0
 10
5.8392005545
 20
4.9708570549
 30
0.0
 10
5.8650774656
 20
4.9720085399
 30
0.0
 10
5.9030803097
 20
4.9735911713
 30
0.0
 10
5.9546974508
 20
4.9755490969
 30
0.0
 10
6.0212328051
 20
4.9778400961
 30
0.0
 10
6.0934293131
 20
4.9801334693
 30
0.0
 10
6.1706089246
 20
4.9824292975
 30
0.0
 10
6.2520415654
 20
4.984726723
 30
0.0
 10
6.3369617977
 20
4.9870248322
 30
0.0
 10
6.4245819088
 20
4.9893239112
 30
0.0
 10
6.5140864638
 20
4.9916233069
 30
0.0
 10
6.6046398088
 20
4.9939231081
 30
0.0
 10
6.695390122
 20
4.9962229382
 30
0.0
 10
6.7854822988
 20
4.9985224278
 30
0.0
 10
6.8740698434
 20
5.0008216046
 30
0.0
 10
6.9603277959
 20
5.0031204044
 30
0.0
 10
7.0434565982
 20
5.0054180824
 30
0.0
 10
7.1226836485
 20
5.0077148015
 30
0.0
 10
7.1972562729
 20
5.0100090191
 30
0.0
 10
7.2664697291
 20
5.0123014306
 30
0.0
 10
7.3204954926
 20
5.0142573612
 30
0.0
 10
7.3605575325
 20
5.0158357305
 30
0.0
 10
7.3880719494
 20
5.0169874864
 30
0.0
 10
7.4138033902
 20
5.018138791
 30
0.0
 10
7.4376932999
 20
5.0192893774
 30
0.0
 10
7.4596846935
 20
5.0204389487
 30
0.0
 10
7.4797223569
 20
5.0215872558
 30
0.0
 10
7.4977576791
 20
5.0227341802
 30
0.0
 10
7.5137494536
 20
5.0238790062
 30
0.0
 10
7.5257798498
 20
5.0248653999
 30
0.0
 10
7.5343542633
 20
5.0256648034
 30
0.0
 10
7.5399907804
 20
5.0262397131
 30
0.0
 10
7.5450903105
 20
5.0268140269
 30
0.0
 10
7.549649663
 20
5.0273877407
 30
0.0
 10
7.5536668196
 20
5.0279605061
 30
0.0
 10
7.5571410123
 20
5.0285316727
 30
0.0
 10
7.5600715167
 20
5.0291009494
 30
0.0
 10
7.562168807
 20
5.0295969497
 30
0.0
 10
7.5635695735
 20
5.0300035343
 30
0.0
 10
7.564420611
 20
5.0302898066
 30
0.0
 10
7.5651356746
 20
5.0305754056
 30
0.0
 10
7.5655588997
 20
5.0307832807
 30
0.0
 10
7.5657452213
 20
5.030889548
 30
0.0
  0
SPLINE
  5
33F
100
AcDbEntity
  8
0
100
AcDbSpline
 62
7
  6
CONTINUOUS
 70
0
 71
3
 72
19
 73
15
 74
0
 42
0.0000001
 43
0.0000001
 44
0.0000000001
 40
0.0
 40
0.0
 40
0.0
 40
0.0
 40
0.0198339357
 40
0.0422539961
 40
0.0689872681
 40
0.1010694107
 40
0.1390996616
 40
0.1834350759
 40
0.2342986555
 40
0.2918362713
 40
0.4272859923
 40
0.5903048159
 40
0.7811583048
 40
1.0
 40
1.0
 40
1.0
 40
1.0
 10
5.6842736503
 20
5.2569510362
 30
0.0
 10
5.6842753433
 20
5.2570272973
 30
0.0
 10
5.6843113004
 20
5.2571899738
 30
0.0
 10
5.6844508624
 20
5.2574193601
 30
0.0
 10
5.6846706737
 20
5.2576439238
 30
0.0
 10
5.6849704664
 20
5.2578666724
 30
0.0
 10
5.6853509958
 20
5.2580891251
 30
0.0
 10
5.6858129555
 20
5.2583117104
 30
0.0
 10
5.6863567322
 20
5.2585345935
 30
0.0
 10
5.6872403999
 20
5.2588494693
 30
0.0
 10
5.6885551758
 20
5.2592350338
 30
0.0
 10
5.6903845061
 20
5.2596783754
 30
0.0
 10
5.6925421214
 20
5.2601230525
 30
0.0
 10
5.694093181
 20
5.2604011989
 30
0.0
 10
5.6949229772
 20
5.2605419493
 30
0.0
  0
SPLINE
  5
340
100
AcDbEntity
  8
0
100
AcDbSpline
 62
7
  6
CONTINUOUS
 70
0
 71
3
 72
60
 73
56
 74
0
 42
0.0000001
 43
0.0000001
 44
0.0000000001
 40
0.0
 40
0.0
 40
0.0
 40
0.0
 40
0.0018861881
 40
0.0040322674
 40
0.0064385387
 40
0.0091049887
 40
0.015212429
 40
0.02233899
 40
0.0304676577
 40
0.039581047
 40
0.0496614163
 40
0.060687845
 40
0.0726363603
 40
0.0854828037
 40
0.1137720349
 40
0.1453250886
 40
0.1798545701
 40
0.2170646094
 40
0.2566411871
 40
0.2982631971
 40
0.341582623
 40
0.3862204555
 40
0.4317948471
 40
0.4779195526
 40
0.52420714
 40
0.5702687541
 40
0.6157143467
 40
0.6601575729
 40
0.7032221329
 40
0.744536081
 40
0.7837537877
 40
0.8205448923
 40
0.8545974343
 40
0.8856307143
 40
0.8999289688
 40
0.9133740687
 40
0.9259388742
 40
0.9375963007
 40
0.9483193154
 40
0.9580824936
 40
0.966868759
 40
0.9746639477
 40
0.9814541474
 40
0.9844681649
 40
0.9872259401
 40
0.9897260837
 40
0.9919678301
 40
0.9939506728
 40
0.9956743518
 40
0.9971390308
 40
0.9983456624
 40
0.998853003
 40
0.9992970697
 40
0.9996788526
 40
1.0
 40
1.0
 40
1.0
 40
1.0
 10
5.6949229772
 20
5.2605419493
 30
0.0
 10
5.6960839073
 20
5.2607388669
 30
0.0
 10
5.6985712768
 20
5.2611272574
 30
0.0
 10
5.7025536001
 20
5.2616735104
 30
0.0
 10
5.7070269793
 20
5.2622205297
 30
0.0
 10
5.7139646362
 20
5.262985404
 30
0.0
 10
5.7238468509
 20
5.2639258706
 30
0.0
 10
5.7371389645
 20
5.2650137219
 30
0.0
 10
5.7523129307
 20
5.266103945
 30
0.0
 10
5.7693349366
 20
5.2671961421
 30
0.0
 10
5.788169225
 20
5.2682895236
 30
0.0
 10
5.8087760754
 20
5.2693838616
 30
0.0
 10
5.8311119195
 20
5.2704791078
 30
0.0
 10
5.8642170187
 20
5.2719893368
 30
0.0
 10
5.9095570231
 20
5.2738567063
 30
0.0
 10
5.968431379
 20
5.2760354975
 30
0.0
 10
6.0328781535
 20
5.2782182265
 30
0.0
 10
6.1023364272
 20
5.2804031473
 30
0.0
 10
6.1762244176
 20
5.282590083
 30
0.0
 10
6.2539279372
 20
5.2847778505
 30
0.0
 10
6.3347922876
 20
5.2869660436
 30
0.0
 10
6.4181248813
 20
5.2891552256
 30
0.0
 10
6.503209334
 20
5.2913449303
 30
0.0
 10
6.5893240259
 20
5.293534917
 30
0.0
 10
6.6757429831
 20
5.2957247578
 30
0.0
 10
6.7617378542
 20
5.2979142994
 30
0.0
 10
6.8465809531
 20
5.3001036731
 30
0.0
 10
6.9295524146
 20
5.3022930089
 30
0.0
 10
7.0099436721
 20
5.3044813899
 30
0.0
 10
7.0870715099
 20
5.3066688722
 30
0.0
 10
7.1602813444
 20
5.3088548166
 30
0.0
 10
7.2289559421
 20
5.3110390751
 30
0.0
 10
7.2925184272
 20
5.3132219658
 30
0.0
 10
7.3420415571
 20
5.3150847067
 30
0.0
 10
7.3787039443
 20
5.3165880974
 30
0.0
 10
7.4038437311
 20
5.3176842138
 30
0.0
 10
7.4273332611
 20
5.3187796869
 30
0.0
 10
7.4491215006
 20
5.3198744679
 30
0.0
 10
7.4691584068
 20
5.3209683638
 30
0.0
 10
7.4874000273
 20
5.3220616975
 30
0.0
 10
7.5038103595
 20
5.3231536695
 30
0.0
 10
7.5183602596
 20
5.3242437382
 30
0.0
 10
7.5293073829
 20
5.3251828954
 30
0.0
 10
7.537112684
 20
5.3259438166
 30
0.0
 10
7.542247697
 20
5.3264911575
 30
0.0
 10
7.5468976671
 20
5.3270379795
 30
0.0
 10
7.5510602834
 20
5.3275840898
 30
0.0
 10
7.5547336504
 20
5.3281292487
 30
0.0
 10
7.557916219
 20
5.328672902
 30
0.0
 10
7.5606062967
 20
5.3292147811
 30
0.0
 10
7.5625348856
 20
5.3296866839
 30
0.0
 10
7.5638257568
 20
5.3300732555
 30
0.0
 10
7.5646125396
 20
5.3303457721
 30
0.0
 10
7.5652753644
 20
5.3306176979
 30
0.0
 10
7.5656681314
 20
5.3308152173
 30
0.0
 10
7.5658414114
 20
5.3309160579
 30
0.0
  0
SPLINE
  5
341
100
AcDbEntity
  8
0
100
AcDbSpline
 62
7
  6
CONTINUOUS
 70
0
 71
3
 72
14
 73
10
 74
0
 42
0.0000001
 43
0.0000001
 44
0.0000000001
 40
0.0
 40
0.0
 40
0.0
 40
0.0
 40
0.0691997121
 40
0.153796387
 40
0.254229842
 40
0.3707511367
 40
0.5035117019
 40
0.6526060319
 40
1.0
 40
1.0
 40
1.0
 40
1.0
 10
7.6559274202
 20
5.3829746238
 30
0.0
 10
7.6557363679
 20
5.3828635312
 30
0.0
 10
7.6552939136
 20
5.3826475155
 30
0.0
 10
7.6545365946
 20
5.3823534988
 30
0.0
 10
7.6536194435
 20
5.3820581898
 30
0.0
 10
7.6525423397
 20
5.3817618708
 30
0.0
 10
7.6513050421
 20
5.3814647124
 30
0.0
 10
7.64933935
 20
5.3810460138
 30
0.0
 10
7.6477782476
 20
5.3807656156
 30
0.0
 10
7.6466839066
 20
5.3805829976
 30
0.0
  0
SPLINE
  5
342
100
AcDbEntity
  8
0
100
AcDbSpline
 62
7
  6
CONTINUOUS
 70
0
 71
3
 72
47
 73
43
 74
0
 42
0.0000001
 43
0.0000001
 44
0.0000000001
 40
0.0
 40
0.0
 40
0.0
 40
0.0
 40
0.0016810095
 40
0.0035979869
 40
0.0057509107
 40
0.0081395102
 40
0.0136191565
 40
0.0200258148
 40
0.0273473774
 40
0.0355714069
 40
0.0446849817
 40
0.054670708
 40
0.0655077657
 40
0.0771751953
 40
0.102916524
 40
0.1317021611
 40
0.1633085238
 40
0.1975019292
 40
0.2340170814
 40
0.2725794675
 40
0.3128955022
 40
0.3546568968
 40
0.3975487912
 40
0.4854070161
 40
0.5738028903
 40
0.6600521399
 40
0.7015472825
 40
0.7415348724
 40
0.7797075657
 40
0.8157770829
 40
0.849469906
 40
0.8805263291
 40
0.9087165602
 40
0.9338198961
 40
0.9451553613
 40
0.9556520191
 40
0.9652889436
 40
0.9740459602
 40
0.9819080535
 40
0.9888626136
 40
0.9948972602
 40
1.0
 40
1.0
 40
1.0
 40
1.0
 10
7.6466839066
 20
5.3805829976
 30
0.0
 10
7.6455612334
 20
5.3803956516
 30
0.0
 10
7.6431529959
 20
5.3800262865
 30
0.0
 10
7.6392936868
 20
5.3795073617
 30
0.0
 10
7.6349515241
 20
5.3789878608
 30
0.0
 10
7.6282051393
 20
5.378261535
 30
0.0
 10
7.6185804677
 20
5.3773696628
 30
0.0
 10
7.6056156243
 20
5.3763394379
 30
0.0
 10
7.5907876074
 20
5.3753075316
 30
0.0
 10
7.5741230013
 20
5.3742738577
 30
0.0
 10
7.5556514939
 20
5.373238735
 30
0.0
 10
7.5354082907
 20
5.3722022246
 30
0.0
 10
7.5134338763
 20
5.3711645517
 30
0.0
 10
7.4807983904
 20
5.3697325449
 30
0.0
 10
7.4360134956
 20
5.367962073
 30
0.0
 10
7.3777297893
 20
5.365897398
 30
0.0
 10
7.3137201146
 20
5.3638293972
 30
0.0
 10
7.2444744131
 20
5.3617595688
 30
0.0
 10
7.1705169512
 20
5.3596876575
 30
0.0
 10
7.092412406
 20
5.3576147719
 30
0.0
 10
7.0107545064
 20
5.3555410746
 30
0.0
 10
6.926164246
 20
5.3534665669
 30
0.0
 10
6.809391426
 20
5.3506779351
 30
0.0
 10
6.6610495122
 20
5.3472319802
 30
0.0
 10
6.483358074
 20
5.343128125
 30
0.0
 10
6.3370521789
 20
5.3396682563
 30
0.0
 10
6.2235168102
 20
5.3368663155
 30
0.0
 10
6.1425256434
 20
5.3347927889
 30
0.0
 10
6.0652093521
 20
5.3327200935
 30
0.0
 10
5.9921567663
 20
5.3306486639
 30
0.0
 10
5.9239245482
 20
5.3285790507
 30
0.0
 10
5.8610298969
 20
5.3265111912
 30
0.0
 10
5.8039544114
 20
5.3244472864
 30
0.0
 10
5.7602302413
 20
5.3226767451
 30
0.0
 10
5.728482896
 20
5.3212439144
 30
0.0
 10
5.7072006754
 20
5.3202066149
 30
0.0
 10
5.687666512
 20
5.3191698544
 30
0.0
 10
5.6699189124
 20
5.3181332557
 30
0.0
 10
5.6539908624
 20
5.3170978255
 30
0.0
 10
5.6399102129
 20
5.3160650937
 30
0.0
 10
5.6277033256
 20
5.3150364598
 30
0.0
 10
5.6201985246
 20
5.3142928873
 30
0.0
 10
5.6167645915
 20
5.3139117257
 30
0.0
  0
SPLINE
  5
343
100
AcDbEntity
  8
0
100
AcDbSpline
 62
7
  6
CONTINUOUS
 70
0
 71
3
 72
14
 73
10
 74
0
 42
0.0000001
 43
0.0000001
 44
0.0000000001
 40
0.0
 40
0.0
 40
0.0
 40
0.0
 40
0.3403594277
 40
0.4879045195
 40
0.6203603014
 40
0.737742731
 40
0.8400874594
 40
0.9274633868
 40
1.0
 40
1.0
 40
1.0
 40
1.0
 10
5.6167645915
 20
5.3139117257
 30
0.0
 10
5.6144747827
 20
5.3136575603
 30
0.0
 10
5.6111949227
 20
5.3132676978
 30
0.0
 10
5.6070355626
 20
5.312689898
 30
0.0
 10
5.6043772946
 20
5.3122778992
 30
0.0
 10
5.6020289957
 20
5.3118663752
 30
0.0
 10
5.5999909187
 20
5.3114554307
 30
0.0
 10
5.5982634025
 20
5.3110452475
 30
0.0
 10
5.5972225181
 20
5.3107452722
 30
0.0
 10
5.5967564941
 20
5.310590681
 30
0.0
  0
LINE
  5
344
100
AcDbEntity
  8
0
100
AcDbLine
 62
7
  6
CONTINUOUS
 10
5.5967564941
 20
5.310590681
 11
5.595863467
 21
5.3102619654
  0
SPLINE
  5
345
100
AcDbEntity
  8
0
100
AcDbSpline
 62
7
  6
CONTINUOUS
 70
0
 71
3
 72
13
 73
9
 74
0
 42
0.0000001
 43
0.0000001
 44
0.0000000001
 40
0.0
 40
0.0
 40
0.0
 40
0.0
 40
0.3485057618
 40
0.6244226233
 40
0.7374634326
 40
0.8358523899
 40
0.9221202482
 40
1.0
 40
1.0
 40
1.0
 40
1.0
 10
5.595863467
 20
5.3102619654
 30
0.0
 10
5.5956364669
 20
5.3101681303
 30
0.0
 10
5.5952355404
 20
5.3099855008
 30
0.0
 10
5.594788975
 20
5.3097143457
 30
0.0
 10
5.594527016
 20
5.3094909634
 30
0.0
 10
5.5943869425
 20
5.3093335704
 30
0.0
 10
5.594290113
 20
5.3091744594
 30
0.0
 10
5.594254244
 20
5.3090628746
 30
0.0
 10
5.5942450088
 20
5.3090087668
 30
0.0
  0
SPLINE
  5
346
100
AcDbEntity
  8
0
100
AcDbSpline
 62
7
  6
CONTINUOUS
 70
0
 71
3
 72
14
 73
10
 74
0
 42
0.0000001
 43
0.0000001
 44
0.0000000001
 40
0.0
 40
0.0
 40
0.0
 40
0.0
 40
0.0695849924
 40
0.1544718293
 40
0.2550871321
 40
0.3716756172
 40
0.5043854387
 40
0.6533093192
 40
1.0
 40
1.0
 40
1.0
 40
1.0
 10
5.5950663516
 20
5.4579626053
 30
0.0
 10
5.5952585653
 20
5.4578521703
 30
0.0
 10
5.5957025722
 20
5.4576373335
 30
0.0
 10
5.5964611565
 20
5.457344654
 30
0.0
 10
5.5973780217
 20
5.4570507316
 30
0.0
 10
5.5984532799
 20
5.4567558378
 30
0.0
 10
5.5996871569
 20
5.4564601371
 30
0.0
 10
5.6016451845
 20
5.4560436551
 30
0.0
 10
5.6031996689
 20
5.4557645583
 30
0.0
 10
5.6042890762
 20
5.4555827909
 30
0.0
  0
SPLINE
  5
347
100
AcDbEntity
  8
0
100
AcDbSpline
 62
7
  6
CONTINUOUS
 70
0
 71
3
 72
26
 73
22
 74
0
 42
0.0000001
 43
0.0000001
 44
0.0000000001
 40
0.0
 40
0.0
 40
0.0
 40
0.0
 40
0.1695107173
 40
0.3362602355
 40
0.4168771118
 40
0.4947654359
 40
0.5692843895
 40
0.639815875
 40
0.7057874524
 40
0.7666451806
 40
0.8219000766
 40
0.8710886759
 40
0.8932807168
 40
0.913812782
 40
0.932641417
 40
0.9497239322
 40
0.9650269605
 40
0.9785242341
 40
0.9901901295
 40
0.9953285699
 40
1.0
 40
1.0
 40
1.0
 40
1.0
 10
6.7198953151
 20
5.4986011618
 30
0.0
 10
6.6575448258
 20
5.4971516654
 30
0.0
 10
6.5338589435
 20
5.4942999529
 30
0.0
 10
6.3805212139
 20
5.4907082519
 30
0.0
 10
6.2608870538
 20
5.4877979249
 30
0.0
 10
6.1751786368
 20
5.4856403425
 30
0.0
 10
6.0931820837
 20
5.4834838818
 30
0.0
 10
6.015571569
 20
5.4813283639
 30
0.0
 10
5.9429893538
 20
5.479175201
 30
0.0
 10
5.8760303613
 20
5.4770241732
 30
0.0
 10
5.8152496061
 20
5.4748769125
 30
0.0
 10
5.7686933879
 20
5.4730337201
 30
0.0
 10
5.7349092301
 20
5.4715415259
 30
0.0
 10
5.7122880821
 20
5.4704621114
 30
0.0
 10
5.6915490996
 20
5.4693840863
 30
0.0
 10
5.6727367641
 20
5.4683075978
 30
0.0
 10
5.6558893774
 20
5.4672329376
 30
0.0
 10
5.6410393399
 20
5.4661600977
 30
0.0
 10
5.6299287756
 20
5.4652335562
 30
0.0
 10
5.6220631391
 20
5.464480841
 30
0.0
 10
5.6184736314
 20
5.4641025469
 30
0.0
 10
5.6167655069
 20
5.4639118276
 30
0.0
  0
SPLINE
  5
348
100
AcDbEntity
  8
0
100
AcDbSpline
 62
7
  6
CONTINUOUS
 70
0
 71
3
 72
14
 73
10
 74
0
 42
0.0000001
 43
0.0000001
 44
0.0000000001
 40
0.0
 40
0.0
 40
0.0
 40
0.0
 40
0.3403470024
 40
0.4878943195
 40
0.6203560969
 40
0.7377462959
 40
0.8400976833
 40
0.9274747807
 40
1.0
 40
1.0
 40
1.0
 40
1.0
 10
5.6167655069
 20
5.4639118276
 30
0.0
 10
5.6144755375
 20
5.463656143
 30
0.0
 10
5.6111954896
 20
5.4632633489
 30
0.0
 10
5.6070360589
 20
5.4626808156
 30
0.0
 10
5.6043777021
 20
5.4622655522
 30
0.0
 10
5.6020293356
 20
5.4618511576
 30
0.0
 10
5.5999912225
 20
5.461438012
 30
0.0
 10
5.5982637112
 20
5.4610265708
 30
0.0
 10
5.597222744
 20
5.4607265226
 30
0.0
 10
5.5967566185
 20
5.4605722038
 30
0.0
  0
LINE
  5
349
100
AcDbEntity
  8
0
100
AcDbLine
 62
7
  6
CONTINUOUS
 10
5.5967566185
 20
5.4605722038
 11
5.5958633566
 21
5.4602445407
  0
SPLINE
  5
34A
100
AcDbEntity
  8
0
100
AcDbSpline
 62
7
  6
CONTINUOUS
 70
0
 71
3
 72
14
 73
10
 74
0
 42
0.0000001
 43
0.0000001
 44
0.0000000001
 40
0.0
 40
0.0
 40
0.0
 40
0.0
 40
0.3574574018
 40
0.5055525858
 40
0.634324223
 40
0.7452061377
 40
0.8404559603
 40
0.9236285361
 40
1.0
 40
1.0
 40
1.0
 40
1.0
 10
5.5958633566
 20
5.4602445407
 30
0.0
 10
5.5956211563
 20
5.4601449238
 30
0.0
 10
5.5952828554
 20
5.4599915219
 30
0.0
 10
5.5948820498
 20
5.4597554648
 30
0.0
 10
5.5946507529
 20
5.4595896737
 30
0.0
 10
5.5944691592
 20
5.4594235409
 30
0.0
 10
5.5943371829
 20
5.4592560698
 30
0.0
 10
5.5942557077
 20
5.4590860066
 30
0.0
 10
5.5942368012
 20
5.458968513
 30
0.0
 10
5.5942368012
 20
5.4589125605
 30
0.0
  0
SPLINE
  5
34B
100
AcDbEntity
  8
0
100
AcDbSpline
 62
7
  6
CONTINUOUS
 70
0
 71
3
 72
14
 73
10
 74
0
 42
0.0000001
 43
0.0000001
 44
0.0000000001
 40
0.0
 40
0.0
 40
0.0
 40
0.0
 40
0.0692446103
 40
0.1538827079
 40
0.2543466154
 40
0.3708831222
 40
0.503641048
 40
0.6527131966
 40
1.0
 40
1.0
 40
1.0
 40
1.0
 10
5.5950498814
 20
5.1642260054
 30
0.0
 10
5.5952411903
 20
5.1643367395
 30
0.0
 10
5.5956839731
 20
5.164552154
 30
0.0
 10
5.5964415075
 20
5.1648456013
 30
0.0
 10
5.5973586008
 20
5.1651405385
 30
0.0
 10
5.5984353686
 20
5.1654366593
 30
0.0
 10
5.5996720459
 20
5.1657337674
 30
0.0
 10
5.601636348
 20
5.1661525466
 30
0.0
 10
5.6031962471
 20
5.1664331878
 30
0.0
 10
5.6042896961
 20
5.1666159864
 30
0.0
  0
SPLINE
  5
34C
100
AcDbEntity
  8
0
100
AcDbSpline
 62
7
  6
CONTINUOUS
 70
0
 71
3
 72
47
 73
43
 74
0
 42
0.0000001
 43
0.0000001
 44
0.0000000001
 40
0.0
 40
0.0
 40
0.0
 40
0.0
 40
0.0016810845
 40
0.0035981291
 40
0.005751106
 40
0.008139741
 40
0.0136194164
 40
0.020026072
 40
0.0273476181
 40
0.0355716291
 40
0.0446851913
 40
0.0546709118
 40
0.0655079678
 40
0.0771753974
 40
0.1029167243
 40
0.1317023547
 40
0.1633087086
 40
0.1975021055
 40
0.2340172491
 40
0.2725796261
 40
0.3128956511
 40
0.3546570355
 40
0.3975489195
 40
0.4854071232
 40
0.5738029761
 40
0.6600522048
 40
0.7015473373
 40
0.7415349175
 40
0.7797076018
 40
0.8157771104
 40
0.8494699248
 40
0.8805263393
 40
0.9087165643
 40
0.9338198992
 40
0.9451553638
 40
0.9556520186
 40
0.9652889351
 40
0.9740459364
 40
0.9819080113
 40
0.9888625589
 40
0.9948972127
 40
1.0
 40
1.0
 40
1.0
 40
1.0
 10
5.6042896961
 20
5.1666159864
 30
0.0
 10
5.6054123647
 20
5.1668036697
 30
0.0
 10
5.6078205893
 20
5.1671737597
 30
0.0
 10
5.6116798946
 20
5.1676937178
 30
0.0
 10
5.6160220558
 20
5.1682141383
 30
0.0
 10
5.6227684251
 20
5.1689413836
 30
0.0
 10
5.6323931037
 20
5.169833715
 30
0.0
 10
5.6453579669
 20
5.1708638309
 30
0.0
 10
5.6601859964
 20
5.17189525
 30
0.0
 10
5.6768506101
 20
5.1729283368
 30
0.0
 10
5.6953221173
 20
5.1739630886
 30
0.0
 10
5.7155653168
 20
5.1749994933
 30
0.0
 10
5.7375397288
 20
5.1760372165
 30
0.0
 10
5.7701752114
 20
5.1774694242
 30
0.0
 10
5.8149601027
 20
5.1792401209
 30
0.0
 10
5.8732438133
 20
5.1813047523
 30
0.0
 10
5.93725349
 20
5.18337266
 30
0.0
 10
6.0064991911
 20
5.1854424736
 30
0.0
 10
6.0804566524
 20
5.1875144098
 30
0.0
 10
6.1585611975
 20
5.1895873096
 30
0.0
 10
6.2402190973
 20
5.1916610024
 30
0.0
 10
6.3248093577
 20
5.1937355038
 30
0.0
 10
6.4415821776
 20
5.1965241359
 30
0.0
 10
6.5899240913
 20
5.1999700933
 30
0.0
 10
6.7676155294
 20
5.2040739468
 30
0.0
 10
6.9139214242
 20
5.2075338196
 30
0.0
 10
7.027456793
 20
5.2103357513
 30
0.0
 10
7.1084479599
 20
5.2124092755
 30
0.0
 10
7.1857642509
 20
5.2144819894
 30
0.0
 10
7.2588168358
 20
5.2165534407
 30
0.0
 10
7.3270490538
 20
5.2186230216
 30
0.0
 10
7.3899437074
 20
5.2206907894
 30
0.0
 10
7.4470191967
 20
5.2227546861
 30
0.0
 10
7.4907433614
 20
5.224525499
 30
0.0
 10
7.522490704
 20
5.2259584883
 30
0.0
 10
7.5437729219
 20
5.2269957814
 30
0.0
 10
7.5633070816
 20
5.228032356
 30
0.0
 10
7.5810546845
 20
5.2290684767
 30
0.0
 10
7.5969827436
 20
5.2301033437
 30
0.0
 10
7.6110634079
 20
5.2311357161
 30
0.0
 10
7.6232703188
 20
5.2321644643
 30
0.0
 10
7.6307751044
 20
5.2329086482
 30
0.0
 10
7.634209011
 20
5.2332903468
 30
0.0
  0
SPLINE
  5
34D
100
AcDbEntity
  8
0
100
AcDbSpline
 62
7
  6
CONTINUOUS
 70
0
 71
3
 72
14
 73
10
 74
0
 42
0.0000001
 43
0.0000001
 44
0.0000000001
 40
0.0
 40
0.0
 40
0.0
 40
0.0
 40
0.3403565158
 40
0.4879021464
 40
0.6203593574
 40
0.7377436328
 40
0.8400899379
 40
0.9274661287
 40
1.0
 40
1.0
 40
1.0
 40
1.0
 10
7.634209011
 20
5.2332903468
 30
0.0
 10
7.636498837
 20
5.2335448742
 30
0.0
 10
7.6397787116
 20
5.2339354356
 30
0.0
 10
7.6439380501
 20
5.2345143642
 30
0.0
 10
7.6465963143
 20
5.2349271414
 30
0.0
 10
7.6489446071
 20
5.2353393497
 30
0.0
 10
7.6509826731
 20
5.2357508185
 30
0.0
 10
7.6527101712
 20
5.2361613006
 30
0.0
 10
7.6537510649
 20
5.236461292
 30
0.0
 10
7.6542171084
 20
5.2366158174
 30
0.0
  0
LINE
  5
34E
100
AcDbEntity
  8
0
100
AcDbLine
 62
7
  6
CONTINUOUS
 10
7.6542171084
 20
5.2366158174
 11
7.6551101355
 21
5.2369442608
  0
SPLINE
  5
34F
100
AcDbEntity
  8
0
100
AcDbSpline
 62
7
  6
CONTINUOUS
 70
0
 71
3
 72
14
 73
10
 74
0
 42
0.0000001
 43
0.0000001
 44
0.0000000001
 40
0.0
 40
0.0
 40
0.0
 40
0.0
 40
0.3562064283
 40
0.5039293637
 40
0.6325254362
 40
0.7434582754
 40
0.839018889
 40
0.9227833808
 40
1.0
 40
1.0
 40
1.0
 40
1.0
 10
7.6551101355
 20
5.2369442608
 30
0.0
 10
7.6553524447
 20
5.2370443035
 30
0.0
 10
7.6556909234
 20
5.2371985424
 30
0.0
 10
7.6560916538
 20
5.2374362745
 30
0.0
 10
7.656323007
 20
5.2376035798
 30
0.0
 10
7.6565046462
 20
5.2377715269
 30
0.0
 10
7.6566366233
 20
5.2379411281
 30
0.0
 10
7.6567179988
 20
5.2381135997
 30
0.0
 10
7.6567368012
 20
5.2382326846
 30
0.0
 10
7.6567368012
 20
5.238289512
 30
0.0
  0
SPLINE
  5
350
100
AcDbEntity
  8
0
100
AcDbSpline
 62
7
  6
CONTINUOUS
 70
0
 71
3
 72
14
 73
10
 74
0
 42
0.0000001
 43
0.0000001
 44
0.0000000001
 40
0.0
 40
0.0
 40
0.0
 40
0.0
 40
0.0702916559
 40
0.1556572048
 40
0.2565348779
 40
0.3731834499
 40
0.5057651958
 40
0.6543864761
 40
1.0
 40
1.0
 40
1.0
 40
1.0
 10
5.6851830036
 20
5.2162888593
 30
0.0
 10
5.6853879235
 20
5.2164074023
 30
0.0
 10
5.6858599406
 20
5.2166382285
 30
0.0
 10
5.6866650772
 20
5.2169529864
 30
0.0
 10
5.687635604
 20
5.2172687073
 30
0.0
 10
5.6887717437
 20
5.2175851584
 30
0.0
 10
5.6900738298
 20
5.2179022195
 30
0.0
 10
5.6921374018
 20
5.2183483194
 30
0.0
 10
5.6937753665
 20
5.2186472911
 30
0.0
 10
5.6949229772
 20
5.2188419493
 30
0.0
  0
SPLINE
  5
351
100
AcDbEntity
  8
0
100
AcDbSpline
 62
7
  6
CONTINUOUS
 70
0
 71
3
 72
64
 73
60
 74
0
 42
0.0000001
 43
0.0000001
 44
0.0000000001
 40
0.0
 40
0.0
 40
0.0
 40
0.0
 40
0.0019146429
 40
0.004096742
 40
0.0065466061
 40
0.0092641879
 40
0.0154960257
 40
0.0227758566
 40
0.0310858872
 40
0.0404079426
 40
0.050723384
 40
0.0620098899
 40
0.074242355
 40
0.0873955429
 40
0.1163617278
 40
0.1486615268
 40
0.1839930853
 40
0.2220458432
 40
0.2624900108
 40
0.3049888914
 40
0.3491717592
 40
0.3946416682
 40
0.440999076
 40
0.4878400731
 40
0.5347598982
 40
0.581351993
 40
0.6272091409
 40
0.6719307688
 40
0.7151250465
 40
0.7564086523
 40
0.7954290068
 40
0.8318433289
 40
0.8653393247
 40
0.8956267896
 40
0.9094808292
 40
0.9224357771
 40
0.9344633376
 40
0.9455352655
 40
0.9556241597
 40
0.9647104919
 40
0.972779383
 40
0.9798162524
 40
0.9829432545
 40
0.9858069981
 40
0.9884059196
 40
0.9907390779
 40
0.9928059003
 40
0.9946060493
 40
0.996139587
 40
0.9974073134
 40
0.9979422061
 40
0.9984117572
 40
0.9988168608
 40
0.9991589991
 40
0.9994407494
 40
0.9996668891
 40
0.9998468409
 40
0.9999252245
 40
1.0
 40
1.0
 40
1.0
 40
1.0
 10
5.6949229772
 20
5.2188419493
 30
0.0
 10
5.6961023197
 20
5.21904199
 30
0.0
 10
5.6986314735
 20
5.2194363873
 30
0.0
 10
5.7026839456
 20
5.2199906435
 30
0.0
 10
5.7072421002
 20
5.2205456985
 30
0.0
 10
5.7143215656
 20
5.2213221469
 30
0.0
 10
5.7244164109
 20
5.2222766082
 30
0.0
 10
5.7380051653
 20
5.2233804124
 30
0.0
 10
5.7535299159
 20
5.2244866735
 30
0.0
 10
5.7709552606
 20
5.2255949752
 30
0.0
 10
5.7902434762
 20
5.2267044804
 30
0.0
 10
5.8113526573
 20
5.227815001
 30
0.0
 10
5.8342369425
 20
5.2289264518
 30
0.0
 10
5.8681591108
 20
5.2304590666
 30
0.0
 10
5.9146146438
 20
5.2323537583
 30
0.0
 10
5.9749242837
 20
5.2345647092
 30
0.0
 10
6.0409141549
 20
5.2367796274
 30
0.0
 10
6.1119948381
 20
5.2389967638
 30
0.0
 10
6.1875553301
 20
5.241216
 30
0.0
 10
6.2669471963
 20
5.2434358596
 30
0.0
 10
6.349480087
 20
5.2456563533
 30
0.0
 10
6.4344244384
 20
5.2478778138
 30
0.0
 10
6.5210300168
 20
5.250099772
 30
0.0
 10
6.6085417289
 20
5.2523219548
 30
0.0
 10
6.6962001162
 20
5.2545439051
 30
0.0
 10
6.7832436465
 20
5.2567655498
 30
0.0
 10
6.868913387
 20
5.2589871129
 30
0.0
 10
6.9524595952
 20
5.2612084147
 30
0.0
 10
7.0331474411
 20
5.263428595
 30
0.0
 10
7.1102720014
 20
5.2656478235
 30
0.0
 10
7.1831589526
 20
5.2678650916
 30
0.0
 10
7.2511781993
 20
5.2700809725
 30
0.0
 10
7.3137384659
 20
5.2722944603
 30
0.0
 10
7.3622063283
 20
5.2741867723
 30
0.0
 10
7.3978450254
 20
5.2757157742
 30
0.0
 10
7.4220830084
 20
5.276827564
 30
0.0
 10
7.4445809265
 20
5.2779386069
 30
0.0
 10
7.4652859556
 20
5.2790487305
 30
0.0
 10
7.4841505959
 20
5.2801582137
 30
0.0
 10
7.5011355999
 20
5.2812664607
 30
0.0
 10
7.5162094283
 20
5.2823728092
 30
0.0
 10
7.5275608964
 20
5.2833257664
 30
0.0
 10
7.535663389
 20
5.2840977178
 30
0.0
 10
7.5410011027
 20
5.2846532147
 30
0.0
 10
7.545839987
 20
5.2852081935
 30
0.0
 10
7.5501774855
 20
5.2857624833
 30
0.0
 10
7.5540115375
 20
5.2863158342
 30
0.0
 10
7.5573404749
 20
5.2868677101
 30
0.0
 10
7.5601625106
 20
5.2874178447
 30
0.0
 10
7.5621921206
 20
5.2878966382
 30
0.0
 10
7.563556799
 20
5.2882885465
 30
0.0
 10
7.5643931594
 20
5.2885651607
 30
0.0
 10
7.5651019543
 20
5.2888412453
 30
0.0
 10
7.5656835954
 20
5.2891166694
 30
0.0
 10
7.5661392532
 20
5.2893922353
 30
0.0
 10
7.5664708847
 20
5.2896686002
 30
0.0
 10
7.5666528755
 20
5.2899178541
 30
0.0
 10
7.5667203084
 20
5.2901163419
 30
0.0
 10
7.5667299698
 20
5.2902125654
 30
0.0
 10
7.5667291071
 20
5.290259274
 30
0.0
  0
SPLINE
  5
352
100
AcDbEntity
  8
0
100
AcDbSpline
 62
7
  6
CONTINUOUS
 70
0
 71
3
 72
14
 73
10
 74
0
 42
0.0000001
 43
0.0000001
 44
0.0000000001
 40
0.0
 40
0.0
 40
0.0
 40
0.0
 40
0.0696258935
 40
0.1545208075
 40
0.2551277183
 40
0.3717012369
 40
0.5043958546
 40
0.6533085585
 40
1.0
 40
1.0
 40
1.0
 40
1.0
 10
7.6559092065
 20
5.2392494958
 30
0.0
 10
7.6557172213
 20
5.2393607074
 30
0.0
 10
7.6552734698
 20
5.2395768117
 30
0.0
 10
7.6545149216
 20
5.239870591
 30
0.0
 10
7.6535979764
 20
5.2401649949
 30
0.0
 10
7.6525225114
 20
5.240459829
 30
0.0
 10
7.6512882893
 20
5.2407550095
 30
0.0
 10
7.6493295214
 20
5.2411702268
 30
0.0
 10
7.6477743946
 20
5.2414479904
 30
0.0
 10
7.6466845265
 20
5.2416288206
 30
0.0
  0
SPLINE
  5
353
100
AcDbEntity
  8
0
100
AcDbSpline
 62
7
  6
CONTINUOUS
 70
0
 71
3
 72
14
 73
10
 74
0
 42
0.0000001
 43
0.0000001
 44
0.0000000001
 40
0.0
 40
0.0
 40
0.0
 40
0.0
 40
0.0701033208
 40
0.1553601576
 40
0.2561953461
 40
0.3728545045
 40
0.5054873271
 40
0.6541881093
 40
1.0
 40
1.0
 40
1.0
 40
1.0
 10
5.5950903691
 20
5.3142638191
 30
0.0
 10
5.5952838253
 20
5.3143741202
 30
0.0
 10
5.5957295445
 20
5.3145886015
 30
0.0
 10
5.5964896825
 20
5.3148805701
 30
0.0
 10
5.5974062754
 20
5.315173171
 30
0.0
 10
5.5984794343
 20
5.3154662142
 30
0.0
 10
5.5997093765
 20
5.3157596144
 30
0.0
 10
5.6016585481
 20
5.3161721806
 30
0.0
 10
5.6032053862
 20
5.3164484479
 30
0.0
 10
5.6042890759
 20
5.3166283073
 30
0.0
  0
SPLINE
  5
354
100
AcDbEntity
  8
0
100
AcDbSpline
 62
7
  6
CONTINUOUS
 70
0
 71
3
 72
47
 73
43
 74
0
 42
0.0000001
 43
0.0000001
 44
0.0000000001
 40
0.0
 40
0.0
 40
0.0
 40
0.0
 40
0.0016807369
 40
0.0035974652
 40
0.0057501824
 40
0.0081386287
 40
0.0136180941
 40
0.0200246685
 40
0.0273461906
 40
0.0355701874
 40
0.0446837135
 40
0.054669372
 40
0.0655063519
 40
0.0771737005
 40
0.1029148797
 40
0.1317003924
 40
0.1633066484
 40
0.1974999591
 40
0.2340150297
 40
0.2725773505
 40
0.3128933363
 40
0.3546546988
 40
0.3975465778
 40
0.4854048224
 40
0.5738007831
 40
0.6600501831
 40
0.7015454233
 40
0.7415331253
 40
0.7797059447
 40
0.8157756003
 40
0.8494685693
 40
0.8805251457
 40
0.9087155482
 40
0.933819084
 40
0.9451546498
 40
0.9556513963
 40
0.9652883854
 40
0.9740454307
 40
0.981907537
 40
0.9888621394
 40
0.994896924
 40
1.0
 40
1.0
 40
1.0
 40
1.0
 10
5.6042890759
 20
5.3166283073
 30
0.0
 10
5.6054117308
 20
5.3168146338
 30
0.0
 10
5.6078199434
 20
5.3171818083
 30
0.0
 10
5.6116791678
 20
5.3176976096
 30
0.0
 10
5.6160212399
 20
5.3182143308
 30
0.0
 10
5.6227675452
 20
5.3189378779
 30
0.0
 10
5.6323920384
 20
5.3198283626
 30
0.0
 10
5.6453566352
 20
5.3208589164
 30
0.0
 10
5.66018443
 20
5.3218922954
 30
0.0
 10
5.6768488321
 20
5.3229277436
 30
0.0
 10
5.6953201637
 20
5.3239639871
 30
0.0
 10
5.7155632049
 20
5.325000817
 30
0.0
 10
5.7375374572
 20
5.3260383377
 30
0.0
 10
5.770172737
 20
5.3274697376
 30
0.0
 10
5.8149573844
 20
5.3292395307
 30
0.0
 10
5.8732407847
 20
5.3313043368
 30
0.0
 10
5.937250183
 20
5.3333726191
 30
0.0
 10
6.0064956409
 20
5.3354424923
 30
0.0
 10
6.0804528871
 20
5.3375143285
 30
0.0
 10
6.1585572435
 20
5.3395871708
 30
0.0
 10
6.240214984
 20
5.3416608818
 30
0.0
 10
6.3248051168
 20
5.3437354086
 30
0.0
 10
6.4415778325
 20
5.3465240422
 30
0.0
 10
6.5899196995
 20
5.3499699843
 30
0.0
 10
6.7676111813
 20
5.3540738473
 30
0.0
 10
6.9139171955
 20
5.3575337311
 30
0.0
 10
7.0274527261
 20
5.3603356267
 30
0.0
 10
7.1084440614
 20
5.3624091415
 30
0.0
 10
7.1857605487
 20
5.3644819283
 30
0.0
 10
7.2588133559
 20
5.3665534646
 30
0.0
 10
7.3270458251
 20
5.3686229191
 30
0.0
 10
7.3899407638
 20
5.3706903267
 30
0.0
 10
7.4470165662
 20
5.3727541922
 30
0.0
 10
7.4907409711
 20
5.3745260713
 30
0.0
 10
7.522488521
 20
5.3759596832
 30
0.0
 10
7.5437708988
 20
5.3769969511
 30
0.0
 10
7.5633052175
 20
5.3780327959
 30
0.0
 10
7.581053011
 20
5.3790670396
 30
0.0
 10
7.5969812858
 20
5.3800996948
 30
0.0
 10
7.6110621917
 20
5.3811306562
 30
0.0
 10
7.6232693812
 20
5.3821598537
 30
0.0
 10
7.6307742306
 20
5.382906438
 30
0.0
 10
7.6342080956
 20
5.3832902448
 30
0.0
  0
SPLINE
  5
355
100
AcDbEntity
  8
0
100
AcDbSpline
 62
7
  6
CONTINUOUS
 70
0
 71
3
 72
14
 73
10
 74
0
 42
0.0000001
 43
0.0000001
 44
0.0000000001
 40
0.0
 40
0.0
 40
0.0
 40
0.0
 40
0.3403448265
 40
0.4878925517
 40
0.6203554022
 40
0.737746982
 40
0.8400995432
 40
0.9274768292
 40
1.0
 40
1.0
 40
1.0
 40
1.0
 10
7.6342080956
 20
5.3832902448
 30
0.0
 10
7.6364980779
 20
5.3835461987
 30
0.0
 10
7.6397781367
 20
5.3839395124
 30
0.0
 10
7.6439375511
 20
5.3845228849
 30
0.0
 10
7.6465959051
 20
5.3849387271
 30
0.0
 10
7.6489442669
 20
5.3853536304
 30
0.0
 10
7.6509823718
 20
5.3857671658
 30
0.0
 10
7.6527098697
 20
5.3861788292
 30
0.0
 10
7.653750844
 20
5.3864788894
 30
0.0
 10
7.654216984
 20
5.3866331593
 30
0.0
  0
LINE
  5
356
100
AcDbEntity
  8
0
100
AcDbLine
 62
7
  6
CONTINUOUS
 10
7.654216984
 20
5.3866331593
 11
7.6551102459
 21
5.3869606199
  0
SPLINE
  5
357
100
AcDbEntity
  8
0
100
AcDbSpline
 62
7
  6
CONTINUOUS
 70
0
 71
3
 72
14
 73
10
 74
0
 42
0.0000001
 43
0.0000001
 44
0.0000000001
 40
0.0
 40
0.0
 40
0.0
 40
0.0
 40
0.3577512175
 40
0.5059338832
 40
0.6347468634
 40
0.7456169738
 40
0.8407939311
 40
0.9238274158
 40
1.0
 40
1.0
 40
1.0
 40
1.0
 10
7.6551102459
 20
5.3869606199
 30
0.0
 10
7.6553524246
 20
5.3870601382
 30
0.0
 10
7.6556906893
 20
5.3872133461
 30
0.0
 10
7.6560915188
 20
5.387449014
 30
0.0
 10
7.6563228061
 20
5.3876144529
 30
0.0
 10
7.6565043918
 20
5.3877801635
 30
0.0
 10
7.6566363697
 20
5.3879471383
 30
0.0
 10
7.6567178695
 20
5.38811664
 30
0.0
 10
7.6567368012
 20
5.3882337632
 30
0.0
 10
7.6567368012
 20
5.388289512
 30
0.0
  0
SPLINE
  5
358
100
AcDbEntity
  8
0
100
AcDbSpline
 62
7
  6
CONTINUOUS
 70
0
 71
3
 72
14
 73
10
 74
0
 42
0.0000001
 43
0.0000001
 44
0.0000000001
 40
0.0
 40
0.0
 40
0.0
 40
0.0
 40
0.0707795198
 40
0.1565164706
 40
0.2576318962
 40
0.3743742491
 40
0.5068985558
 40
0.6553054277
 40
1.0
 40
1.0
 40
1.0
 40
1.0
 10
5.6852311597
 20
5.3663115917
 30
0.0
 10
5.6854364371
 20
5.3664288968
 30
0.0
 10
5.6859079383
 20
5.3666574141
 30
0.0
 10
5.6867105199
 20
5.3669693174
 30
0.0
 10
5.6876756851
 20
5.3672820756
 30
0.0
 10
5.6888036048
 20
5.3675954736
 30
0.0
 10
5.690094553
 20
5.3679094035
 30
0.0
 10
5.6921373934
 20
5.3683508205
 30
0.0
 10
5.6937581866
 20
5.368646883
 30
0.0
 10
5.6948933472
 20
5.368839641
 30
0.0
  0
SPLINE
  5
359
100
AcDbEntity
  8
0
100
AcDbSpline
 62
7
  6
CONTINUOUS
 70
0
 71
3
 72
64
 73
60
 74
0
 42
0.0000001
 43
0.0000001
 44
0.0000000001
 40
0.0
 40
0.0
 40
0.0
 40
0.0
 40
0.0019115582
 40
0.0040906504
 40
0.0065374724
 40
0.0092518814
 40
0.0154771372
 40
0.0227505575
 40
0.0310549339
 40
0.0403726784
 40
0.0506857085
 40
0.0619711938
 40
0.0742023698
 40
0.0873522899
 40
0.1162997213
 40
0.1485685346
 40
0.1838744017
 40
0.2219197843
 40
0.2623621793
 40
0.3048457879
 40
0.3490005997
 40
0.3944445301
 40
0.4407878777
 40
0.4876231732
 40
0.5345401484
 40
0.5811276802
 40
0.6269745856
 40
0.6716832807
 40
0.7148740309
 40
0.7561714628
 40
0.7952121542
 40
0.8316389907
 40
0.8651403952
 40
0.8954374646
 40
0.9093005408
 40
0.9222673726
 40
0.9343094901
 40
0.9453984727
 40
0.9555065333
 40
0.9646127621
 40
0.9727008896
 40
0.9797549719
 40
0.9828893963
 40
0.985759547
 40
0.9883636964
 40
0.9907010523
 40
0.9927714616
 40
0.9945750086
 40
0.9961121703
 40
0.9973841457
 40
0.99792151
 40
0.9983938143
 40
0.9988019746
 40
0.9991474662
 40
0.9994327979
 40
0.9996625323
 40
0.9998455338
 40
0.9999248726
 40
1.0
 40
1.0
 40
1.0
 40
1.0
 10
5.6948933472
 20
5.368839641
 30
0.0
 10
5.6960707331
 20
5.3690395691
 30
0.0
 10
5.6985960369
 20
5.3694336776
 30
0.0
 10
5.7026427477
 20
5.369987428
 30
0.0
 10
5.7071950779
 20
5.3705419942
 30
0.0
 10
5.7142664363
 20
5.3713178967
 30
0.0
 10
5.7243510083
 20
5.3722718559
 30
0.0
 10
5.7379278731
 20
5.373375232
 30
0.0
 10
5.7534421165
 20
5.3744812239
 30
0.0
 10
5.7708594199
 20
5.3755893876
 30
0.0
 10
5.7901424613
 20
5.3766987953
 30
0.0
 10
5.811248327
 20
5.3778092355
 30
0.0
 10
5.834128729
 20
5.3789206378
 30
0.0
 10
5.8680357461
 20
5.3804529175
 30
0.0
 10
5.9144573424
 20
5.3823472894
 30
0.0
 10
5.9747187913
 20
5.3845579624
 30
0.0
 10
6.0406674979
 20
5.3867723882
 30
0.0
 10
6.1117252004
 20
5.3889886868
 30
0.0
 10
6.1872691426
 20
5.3912071864
 30
0.0
 10
6.2666314567
 20
5.3934266716
 30
0.0
 10
6.3491196127
 20
5.3956468284
 30
0.0
 10
6.4340199509
 20
5.3978677565
 30
0.0
 10
6.5205954637
 20
5.4000889649
 30
0.0
 10
6.6080915457
 20
5.4023105141
 30
0.0
 10
6.6957402314
 20
5.4045319968
 30
0.0
 10
6.7827712335
 20
5.4067531499
 30
0.0
 10
6.8684221713
 20
5.4089741054
 30
0.0
 10
6.9519502607
 20
5.4111948032
 30
0.0
 10
7.032635075
 20
5.4134145467
 30
0.0
 10
7.1097774581
 20
5.4156333882
 30
0.0
 10
7.1826923362
 20
5.4178501843
 30
0.0
 10
7.2507343415
 20
5.4200654121
 30
0.0
 10
7.313310757
 20
5.4222782235
 30
0.0
 10
7.361792833
 20
5.4241700891
 30
0.0
 10
7.397450009
 20
5.4256988861
 30
0.0
 10
7.4217097564
 20
5.4268107357
 30
0.0
 10
7.444234488
 20
5.4279218335
 30
0.0
 10
7.4649709275
 20
5.4290319231
 30
0.0
 10
7.4838703765
 20
5.4301411038
 30
0.0
 10
7.5008916153
 20
5.431248864
 30
0.0
 10
7.5160005191
 20
5.4323546318
 30
0.0
 10
7.5273793362
 20
5.433307079
 30
0.0
 10
7.5355011977
 20
5.4340787223
 30
0.0
 10
7.5408508102
 20
5.4346340083
 30
0.0
 10
7.5456995818
 20
5.4351888521
 30
0.0
 10
7.5500452063
 20
5.4357430908
 30
0.0
 10
7.5538862498
 20
5.4362964377
 30
0.0
 10
7.557221835
 20
5.4368483648
 30
0.0
 10
7.5600509728
 20
5.4373986026
 30
0.0
 10
7.5620871605
 20
5.4378774231
 30
0.0
 10
7.5634580011
 20
5.4382692017
 30
0.0
 10
7.5642997688
 20
5.4385458641
 30
0.0
 10
7.5650146522
 20
5.4388220082
 30
0.0
 10
7.5656031093
 20
5.439097512
 30
0.0
 10
7.5660663525
 20
5.4393730862
 30
0.0
 10
7.5664061997
 20
5.4396492894
 30
0.0
 10
7.5665965566
 20
5.4398977163
 30
0.0
 10
7.5666718907
 20
5.440096149
 30
0.0
 10
7.566685684
 20
5.4401926617
 30
0.0
 10
7.5666868132
 20
5.4402395837
 30
0.0
  0
SPLINE
  5
35A
100
AcDbEntity
  8
0
100
AcDbSpline
 62
7
  6
CONTINUOUS
 70
0
 71
3
 72
14
 73
10
 74
0
 42
0.0000001
 43
0.0000001
 44
0.0000000001
 40
0.0
 40
0.0
 40
0.0
 40
0.0
 40
0.0693964363
 40
0.1541462829
 40
0.2546786898
 40
0.3712391525
 40
0.5039759617
 40
0.6529817312
 40
1.0
 40
1.0
 40
1.0
 40
1.0
 10
7.6559162926
 20
5.3892316607
 30
0.0
 10
7.6557245732
 20
5.3893422299
 30
0.0
 10
7.6552812428
 20
5.3895573348
 30
0.0
 10
7.6545232566
 20
5.3898503926
 30
0.0
 10
7.6536062964
 20
5.3901448518
 30
0.0
 10
7.6525302485
 20
5.3904404189
 30
0.0
 10
7.6512948826
 20
5.390736909
 30
0.0
 10
7.6493334937
 20
5.3911546956
 30
0.0
 10
7.6477761045
 20
5.3914346874
 30
0.0
 10
7.6466845261
 20
5.3916170542
 30
0.0
  0
SPLINE
  5
35B
100
AcDbEntity
  8
0
100
AcDbSpline
 62
7
  6
CONTINUOUS
 70
0
 71
3
 72
14
 73
10
 74
0
 42
0.0000001
 43
0.0000001
 44
0.0000000001
 40
0.0
 40
0.0
 40
0.0
 40
0.0
 40
0.0693513886
 40
0.1540506322
 40
0.2545414672
 40
0.3710778775
 40
0.5038134319
 40
0.6528442102
 40
1.0
 40
1.0
 40
1.0
 40
1.0
 10
5.5950519528
 20
5.4642365412
 30
0.0
 10
5.5952432747
 20
5.4643478067
 30
0.0
 10
5.5956861082
 20
5.4645640691
 30
0.0
 10
5.5964438102
 20
5.4648581932
 30
0.0
 10
5.5973608715
 20
5.4651532771
 30
0.0
 10
5.5984374156
 20
5.4654490816
 30
0.0
 10
5.5996736842
 20
5.4657454794
 30
0.0
 10
5.6016370832
 20
5.4661627795
 30
0.0
 10
5.6031962125
 20
5.4664420554
 30
0.0
 10
5.604289076
 20
5.4666239065
 30
0.0
  0
SPLINE
  5
35C
100
AcDbEntity
  8
0
100
AcDbSpline
 62
7
  6
CONTINUOUS
 70
0
 71
3
 72
29
 73
25
 74
0
 42
0.0000001
 43
0.0000001
 44
0.0000000001
 40
0.0
 40
0.0
 40
0.0
 40
0.0
 40
0.0035212415
 40
0.0075180749
 40
0.0119905011
 40
0.0169381087
 40
0.0282506608
 40
0.0414345568
 40
0.0564664512
 40
0.0733223492
 40
0.0919777793
 40
0.1124023015
 40
0.1345563323
 40
0.1583993881
 40
0.2109901383
 40
0.2698207889
 40
0.3344660088
 40
0.4044849167
 40
0.4793842278
 40
0.5586362619
 40
0.641695109
 40
0.7279708553
 40
0.8168647687
 40
1.0
 40
1.0
 40
1.0
 40
1.0
 10
5.604289076
 20
5.4666239065
 30
0.0
 10
5.6053629578
 20
5.466802599
 30
0.0
 10
5.6076605974
 20
5.4671551955
 30
0.0
 10
5.6113343896
 20
5.4676516558
 30
0.0
 10
5.615452648
 20
5.4681487857
 30
0.0
 10
5.6218248023
 20
5.4688435248
 30
0.0
 10
5.6308881304
 20
5.4696982419
 30
0.0
 10
5.6430690794
 20
5.4706871343
 30
0.0
 10
5.6569686065
 20
5.4716780945
 30
0.0
 10
5.672563391
 20
5.4726708022
 30
0.0
 10
5.6898283511
 20
5.4736645886
 30
0.0
 10
5.7087337223
 20
5.4746591702
 30
0.0
 10
5.7292449183
 20
5.4756546069
 30
0.0
 10
5.7596939959
 20
5.4770279786
 30
0.0
 10
5.8014788241
 20
5.4787266807
 30
0.0
 10
5.855876645
 20
5.4807077616
 30
0.0
 10
5.9156657734
 20
5.4826921422
 30
0.0
 10
5.9804252213
 20
5.4846782888
 30
0.0
 10
6.0497025198
 20
5.4866660146
 30
0.0
 10
6.1230128406
 20
5.4886550843
 30
0.0
 10
6.1998415794
 20
5.4906446778
 30
0.0
 10
6.2796521909
 20
5.492635182
 30
0.0
 10
6.3903953654
 20
5.4953161677
 30
0.0
 10
6.4744744325
 20
5.497285008
 30
0.0
 10
6.5310782873
 20
5.4986009112
 30
0.0
  0
SPLINE
  5
35D
100
AcDbEntity
  8
0
100
AcDbSpline
 62
9
  6
CONTINUOUS
 70
0
 71
3
 72
41
 73
37
 74
0
 42
0.0000001
 43
0.0000001
 44
0.0000000001
 40
0.0
 40
0.0
 40
0.0
 40
0.0
 40
0.0263289305
 40
0.0397381603
 40
0.0533201081
 40
0.0810186031
 40
0.1094620379
 40
0.1386661341
 40
0.1686312493
 40
0.1993371976
 40
0.2307512274
 40
0.262830143
 40
0.2955144071
 40
0.3287348531
 40
0.3624167755
 40
0.3964762624
 40
0.4308226464
 40
0.4653629273
 40
0.5000016341
 40
0.5346403222
 40
0.5691805474
 40
0.6035268403
 40
0.6375862011
 40
0.6712679639
 40
0.7044882206
 40
0.7371722681
 40
0.7692509421
 40
0.8006647111
 40
0.8313703844
 40
0.861335214
 40
0.8905390207
 40
0.9189821695
 40
0.9466803871
 40
0.9602622015
 40
0.9736713034
 40
1.0
 40
1.0
 40
1.0
 40
1.0
 10
3.6682425191
 20
5.2003393939
 30
0.0
 10
3.6625876345
 20
5.1899459301
 30
0.0
 10
3.6532989643
 20
5.1746546149
 30
0.0
 10
3.6395108439
 20
5.1550506151
 30
0.0
 10
3.6244968269
 20
5.1355827348
 30
0.0
 10
3.6037757157
 20
5.1120259674
 30
0.0
 10
3.5761761729
 20
5.0853372998
 30
0.0
 10
3.5458263204
 20
5.0601962686
 30
0.0
 10
3.5128934553
 20
5.0367544238
 30
0.0
 10
3.4775757318
 20
5.015125441
 30
0.0
 10
3.4400686519
 20
4.9954324475
 30
0.0
 10
3.4005768585
 20
4.9777986498
 30
0.0
 10
3.3593303481
 20
4.9623069074
 30
0.0
 10
3.3165607708
 20
4.9490424018
 30
0.0
 10
3.2725039189
 20
4.938095926
 30
0.0
 10
3.2274113976
 20
4.9295173871
 30
0.0
 10
3.181537804
 20
4.9233479146
 30
0.0
 10
3.1351392332
 20
4.9196373988
 30
0.0
 10
3.0884779555
 20
4.9184025164
 30
0.0
 10
3.0418167273
 20
4.9196383349
 30
0.0
 10
2.9954183061
 20
4.9233497892
 30
0.0
 10
2.9495449601
 20
4.9295201834
 30
0.0
 10
2.9044527828
 20
4.9380996262
 30
0.0
 10
2.8603963718
 20
4.9490469926
 30
0.0
 10
2.8176273274
 20
4.9623123596
 30
0.0
 10
2.7763814378
 20
4.9778049289
 30
0.0
 10
2.7368903534
 20
4.9954395236
 30
0.0
 10
2.6993840657
 20
5.0151332756
 30
0.0
 10
2.6640672085
 20
5.0367629677
 30
0.0
 10
2.6311352844
 20
5.0602054777
 30
0.0
 10
2.600786445
 20
5.085347127
 30
0.0
 10
2.5731879716
 20
5.1120363505
 30
0.0
 10
2.5524678065
 20
5.1355935348
 30
0.0
 10
2.5374545774
 20
5.1550617173
 30
0.0
 10
2.523667246
 20
5.174666
 30
0.0
 10
2.5143791926
 20
5.1899575007
 30
0.0
 10
2.5087247289
 20
5.2003510738
 30
0.0
  0
SPLINE
  5
35E
100
AcDbEntity
  8
0
100
AcDbSpline
 62
7
  6
CONTINUOUS
 70
0
 71
3
 72
34
 73
30
 74
0
 42
0.0000001
 43
0.0000001
 44
0.0000000001
 40
0.0
 40
0.0
 40
0.0
 40
0.0
 40
0.0005166783
 40
0.0010639809
 40
0.0016678128
 40
0.0023475743
 40
0.0039831318
 40
0.0060391479
 40
0.0085472244
 40
0.0115240716
 40
0.0149791488
 40
0.0189180717
 40
0.0282591449
 40
0.0395622384
 40
0.0528311656
 40
0.0680649945
 40
0.0852602283
 40
0.1044118657
 40
0.1255138379
 40
0.1485588314
 40
0.2004456452
 40
0.2600060687
 40
0.3271708128
 40
0.4018690344
 40
0.4840126251
 40
0.5734328375
 40
0.6699359545
 40
0.7733279188
 40
1.0
 40
1.0
 40
1.0
 40
1.0
 10
5.1161118012
 20
2.3835510362
 30
0.0
 10
5.1160700641
 20
2.3835510363
 30
0.0
 10
5.1159837835
 20
2.3835621146
 30
0.0
 10
5.115857064
 20
2.3836108191
 30
0.0
 10
5.115731597
 20
2.3836906206
 30
0.0
 10
5.1155546387
 20
2.3838476131
 30
0.0
 10
5.1153381904
 20
2.3841299287
 30
0.0
 10
5.1150935157
 20
2.3845677574
 30
0.0
 10
5.1148482731
 20
2.3851261734
 30
0.0
 10
5.114602485
 20
2.3858055861
 30
0.0
 10
5.1143561137
 20
2.3866065668
 30
0.0
 10
5.1140069586
 20
2.3879127894
 30
0.0
 10
5.1135804753
 20
2.3898531491
 30
0.0
 10
5.1130904323
 20
2.3925487804
 30
0.0
 10
5.1125988199
 20
2.3957267894
 30
0.0
 10
5.1121058863
 20
2.3993853678
 30
0.0
 10
5.1116121234
 20
2.4035228123
 30
0.0
 10
5.1111177402
 20
2.4081371941
 30
0.0
 10
5.1106228757
 20
2.4132265033
 30
0.0
 10
5.1099350862
 20
2.4209536046
 30
0.0
 10
5.1090859545
 20
2.4317849049
 30
0.0
 10
5.1081003553
 20
2.4461795842
 30
0.0
 10
5.1071130884
 20
2.4624206615
 30
0.0
 10
5.1061245402
 20
2.4804889136
 30
0.0
 10
5.105135559
 20
2.5003573595
 30
0.0
 10
5.1041458106
 20
2.5219891482
 30
0.0
 10
5.1031553669
 20
2.5453389989
 30
0.0
 10
5.1017918785
 20
2.5797700236
 30
0.0
 10
5.100834566
 20
2.6064154212
 30
0.0
 10
5.1002074567
 20
2.624715188
 30
0.0
  0
SPLINE
  5
35F
100
AcDbEntity
  8
0
100
AcDbSpline
 62
7
  6
CONTINUOUS
 70
0
 71
3
 72
15
 73
11
 74
0
 42
0.0000001
 43
0.0000001
 44
0.0000000001
 40
0.0
 40
0.0
 40
0.0
 40
0.0
 40
0.046013617
 40
0.0950623796
 40
0.2017029729
 40
0.3185840903
 40
0.4441312728
 40
0.5767404069
 40
0.7147777596
 40
1.0
 40
1.0
 40
1.0
 40
1.0
 10
5.1002074567
 20
2.624715188
 30
0.0
 10
5.0997418012
 20
2.6383035462
 30
0.0
 10
5.0988150038
 20
2.6663777902
 30
0.0
 10
5.0969695161
 20
2.7259494487
 30
0.0
 10
5.0946872784
 20
2.8064577342
 30
0.0
 10
5.0920152845
 20
2.9095678104
 30
0.0
 10
5.0893386416
 20
3.0203534679
 30
0.0
 10
5.0866588727
 20
3.1373921095
 30
0.0
 10
5.0830462709
 20
3.3016032741
 30
0.0
 10
5.0804003899
 20
3.4266421649
 30
0.0
 10
5.0786161718
 20
3.5109021765
 30
0.0
  0
SPLINE
  5
360
100
AcDbEntity
  8
0
100
AcDbSpline
 62
7
  6
CONTINUOUS
 70
0
 71
3
 72
14
 73
10
 74
0
 42
0.0000001
 43
0.0000001
 44
0.0000000001
 40
0.0
 40
0.0
 40
0.0
 40
0.0
 40
0.2770518739
 40
0.4121079079
 40
0.5430457858
 40
0.6685392474
 40
0.7872885921
 40
0.8981363516
 40
1.0
 40
1.0
 40
1.0
 40
1.0
 10
5.0786161718
 20
3.5109021765
 30
0.0
 10
5.0770311386
 20
3.5857556448
 30
0.0
 10
5.0746740004
 20
3.6970983721
 30
0.0
 10
5.0714727952
 20
3.8438156629
 30
0.0
 10
5.0690927265
 20
3.949584093
 30
0.0
 10
5.0667142223
 20
4.0509446998
 30
0.0
 10
5.0643369031
 20
4.1468746394
 30
0.0
 10
5.0619621148
 20
4.2364168578
 30
0.0
 10
5.0603060343
 20
4.2938760215
 30
0.0
 10
5.0594683328
 20
4.3213908126
 30
0.0
  0
LINE
  5
361
100
AcDbEntity
  8
0
100
AcDbLine
 62
7
  6
CONTINUOUS
 10
5.0577603615
 20
4.3753733905
 11
5.057039703
 21
4.3968397286
  0
SPLINE
  5
362
100
AcDbEntity
  8
0
100
AcDbSpline
 62
7
  6
CONTINUOUS
 70
0
 71
3
 72
23
 73
19
 74
0
 42
0.0000001
 43
0.0000001
 44
0.0000000001
 40
0.0
 40
0.0
 40
0.0
 40
0.0
 40
0.2070966294
 40
0.3923632666
 40
0.5549008137
 40
0.6273701236
 40
0.6938347404
 40
0.7542063953
 40
0.8083986087
 40
0.8563259763
 40
0.8979048587
 40
0.9330602514
 40
0.9482217103
 40
0.9617746885
 40
0.9737223564
 40
0.9840696105
 40
0.9928243292
 40
1.0
 40
1.0
 40
1.0
 40
1.0
 10
5.057039703
 20
4.3968397286
 30
0.0
 10
5.0564742513
 20
4.4133681104
 30
0.0
 10
5.0553553018
 20
4.4446810414
 30
0.0
 10
5.053589209
 20
4.4889585108
 30
0.0
 10
5.0520699682
 20
4.5224860323
 30
0.0
 10
5.0508387599
 20
4.5465291103
 30
0.0
 10
5.0499516448
 20
4.5624203193
 30
0.0
 10
5.0490654817
 20
4.5768495619
 30
0.0
 10
5.0481804867
 20
4.5897954826
 30
0.0
 10
5.0472972951
 20
4.6012369357
 30
0.0
 10
5.0464164179
 20
4.6111531921
 30
0.0
 10
5.0456524609
 20
4.6184523524
 30
0.0
 10
5.0450298883
 20
4.6235147836
 30
0.0
 10
5.0445869071
 20
4.6267317137
 30
0.0
 10
5.0441448052
 20
4.6295602496
 30
0.0
 10
5.0437039584
 20
4.6320006244
 30
0.0
 10
5.0432648117
 20
4.6340529567
 30
0.0
 10
5.0429425061
 20
4.6352845269
 30
0.0
 10
5.0427758328
 20
4.6358327769
 30
0.0
  0
LINE
  5
363
100
AcDbEntity
  8
0
100
AcDbLine
 62
7
  6
CONTINUOUS
 10
5.0427758328
 20
4.6358327769
 11
5.0419798808
 21
4.6378302183
  0
SPLINE
  5
364
100
AcDbEntity
  8
0
100
AcDbSpline
 62
7
  6
CONTINUOUS
 70
0
 71
3
 72
38
 73
34
 74
0
 42
0.0000001
 43
0.0000001
 44
0.0000000001
 40
0.0
 40
0.0
 40
0.0
 40
0.0
 40
0.0005308993
 40
0.0011943237
 40
0.0019940713
 40
0.0029322076
 40
0.0040099348
 40
0.0052279818
 40
0.0080865601
 40
0.0115099073
 40
0.0154984621
 40
0.0200519846
 40
0.0251690843
 40
0.0308465148
 40
0.0370806672
 40
0.0512041524
 40
0.0675091207
 40
0.0859639498
 40
0.1065267248
 40
0.1291459914
 40
0.1537698005
 40
0.1803458616
 40
0.2088138365
 40
0.2391039197
 40
0.3048687264
 40
0.3770450944
 40
0.4549614035
 40
0.5379080264
 40
0.6251027747
 40
0.7157486827
 40
0.8090409353
 40
0.9041280441
 40
1.0
 40
1.0
 40
1.0
 40
1.0
 10
4.9892516258
 20
4.7291597038
 30
0.0
 10
4.9893594371
 20
4.7289728536
 30
0.0
 10
4.9895675572
 20
4.7285328935
 30
0.0
 10
4.9898483457
 20
4.7277723796
 30
0.0
 10
4.9901308689
 20
4.7268379317
 30
0.0
 10
4.9904147413
 20
4.7257293974
 30
0.0
 10
4.9906997046
 20
4.7244464319
 30
0.0
 10
4.991102533
 20
4.7223909795
 30
0.0
 10
4.9915965691
 20
4.719383148
 30
0.0
 10
4.992165862
 20
4.7152486425
 30
0.0
 10
4.9927367933
 20
4.710420072
 30
0.0
 10
4.9933084268
 20
4.7048992503
 30
0.0
 10
4.9938798114
 20
4.6986889288
 30
0.0
 10
4.9944511431
 20
4.6917931396
 30
0.0
 10
4.9952461556
 20
4.6812440316
 30
0.0
 10
4.9962249279
 20
4.666378627
 30
0.0
 10
4.9973590182
 20
4.6465479114
 30
0.0
 10
4.9984956713
 20
4.6240970686
 30
0.0
 10
4.9996349781
 20
4.599077729
 30
0.0
 10
5.000776148
 20
4.5715494561
 30
0.0
 10
5.0019185801
 20
4.5415759152
 30
0.0
 10
5.0030614648
 20
4.5092242705
 30
0.0
 10
5.0042045497
 20
4.4745688973
 30
0.0
 10
5.0057724859
 20
4.4239952392
 30
0.0
 10
5.0077145969
 20
4.3556645642
 30
0.0
 10
5.0099892454
 20
4.2679836706
 30
0.0
 10
5.0122674554
 20
4.1733191385
 30
0.0
 10
5.0145479798
 20
4.0725505316
 30
0.0
 10
5.0168279208
 20
3.9666081862
 30
0.0
 10
5.0191048507
 20
3.8564610651
 30
0.0
 10
5.0213900612
 20
3.7431065133
 30
0.0
 10
5.0236902142
 20
3.6276283121
 30
0.0
 10
5.0252062059
 20
3.5500498713
 30
0.0
 10
5.0259574567
 20
3.5111010362
 30
0.0
  0
SPLINE
  5
365
100
AcDbEntity
  8
0
100
AcDbSpline
 62
9
  6
CONTINUOUS
 70
0
 71
3
 72
15
 73
11
 74
0
 42
0.0000001
 43
0.0000001
 44
0.0000000001
 40
0.0
 40
0.0
 40
0.0
 40
0.0
 40
0.1291558682
 40
0.2567364189
 40
0.382937278
 40
0.5079581345
 40
0.631983389
 40
0.7552008051
 40
0.8778052027
 40
1.0
 40
1.0
 40
1.0
 40
1.0
 10
3.6682496932
 20
2.5924808625
 30
0.0
 10
3.6716389448
 20
2.5987107105
 30
0.0
 10
3.6780243199
 20
2.6112899568
 30
0.0
 10
3.6864238456
 20
2.6305801482
 30
0.0
 10
3.6935600125
 20
2.6501323291
 30
0.0
 10
3.6994144503
 20
2.6699023553
 30
0.0
 10
3.7039819176
 20
2.6898408566
 30
0.0
 10
3.7072543911
 20
2.7098983891
 30
0.0
 10
3.7092244069
 20
2.73002376
 30
0.0
 10
3.7096648225
 20
2.7434700352
 30
0.0
 10
3.7096648225
 20
2.7501799047
 30
0.0
  0
SPLINE
  5
366
100
AcDbEntity
  8
0
100
AcDbSpline
 62
7
  6
CONTINUOUS
 70
0
 71
3
 72
38
 73
34
 74
0
 42
0.0000001
 43
0.0000001
 44
0.0000000001
 40
0.0
 40
0.0
 40
0.0
 40
0.0
 40
0.0005292019
 40
0.0011904471
 40
0.0019878632
 40
0.0029237779
 40
0.0039996203
 40
0.0052163265
 40
0.0080741022
 40
0.0114981287
 40
0.015487398
 40
0.0200401934
 40
0.0251544055
 40
0.0308276897
 40
0.0370575526
 40
0.0511765125
 40
0.0674842483
 40
0.0859388683
 40
0.106495939
 40
0.1291108152
 40
0.1537370031
 40
0.1803151775
 40
0.2087802078
 40
0.2390668878
 40
0.3048358803
 40
0.3770113962
 40
0.4549341952
 40
0.5378820759
 40
0.6250763372
 40
0.7157281209
 40
0.8090366349
 40
0.9041346297
 40
1.0
 40
1.0
 40
1.0
 40
1.0
 10
5.186715219
 20
2.2930418147
 30
0.0
 10
5.1866066472
 20
2.2932274257
 30
0.0
 10
5.1863972584
 20
2.2936650954
 30
0.0
 10
5.1861154142
 20
2.2944225476
 30
0.0
 10
5.1858324276
 20
2.2953540155
 30
0.0
 10
5.1855486118
 20
2.2964598726
 30
0.0
 10
5.1852641437
 20
2.2977406877
 30
0.0
 10
5.1848624378
 20
2.2997946984
 30
0.0
 10
5.1843708034
 20
2.3028023345
 30
0.0
 10
5.1838048376
 20
2.3069375382
 30
0.0
 10
5.1832372056
 20
2.3117667703
 30
0.0
 10
5.1826681844
 20
2.3172866751
 30
0.0
 10
5.1820982955
 20
2.3234939683
 30
0.0
 10
5.1815277003
 20
2.3303852055
 30
0.0
 10
5.1807326943
 20
2.3409290399
 30
0.0
 10
5.1797526759
 20
2.3557919107
 30
0.0
 10
5.1786170545
 20
2.3756217567
 30
0.0
 10
5.1774790702
 20
2.398071272
 30
0.0
 10
5.1763392297
 20
2.4230864187
 30
0.0
 10
5.1751981361
 20
2.4506115811
 30
0.0
 10
5.1740563968
 20
2.4805852155
 30
0.0
 10
5.1729139555
 20
2.512937532
 30
0.0
 10
5.1717708173
 20
2.547591211
 30
0.0
 10
5.1702025052
 20
2.5981640215
 30
0.0
 10
5.1682600657
 20
2.6664947167
 30
0.0
 10
5.1659844388
 20
2.7541796527
 30
0.0
 10
5.163707536
 20
2.8488471006
 30
0.0
 10
5.1614289846
 20
2.9496187877
 30
0.0
 10
5.1591458252
 20
3.0555638524
 30
0.0
 10
5.1568597393
 20
3.1657196772
 30
0.0
 10
5.1545817955
 20
3.2790878973
 30
0.0
 10
5.1523155537
 20
3.3945752228
 30
0.0
 10
5.150790866
 20
3.4721553044
 30
0.0
 10
5.1500161458
 20
3.5111010362
 30
0.0
  0
SPLINE
  5
367
100
AcDbEntity
  8
0
100
AcDbSpline
 62
7
  6
CONTINUOUS
 70
0
 71
3
 72
39
 73
35
 74
0
 42
0.0000001
 43
0.0000001
 44
0.0000000001
 40
0.0
 40
0.0
 40
0.0
 40
0.0
 40
0.000544276
 40
0.0012209955
 40
0.0020339823
 40
0.0029854187
 40
0.0040766566
 40
0.0053085873
 40
0.0081961143
 40
0.0116488282
 40
0.0156656709
 40
0.0202449027
 40
0.0253844041
 40
0.0310818274
 40
0.0373346798
 40
0.0514961767
 40
0.0678415641
 40
0.0863288687
 40
0.106913774
 40
0.1295517545
 40
0.1541963074
 40
0.1807879988
 40
0.20926187
 40
0.2395528948
 40
0.3053175442
 40
0.3774721043
 40
0.4553590037
 40
0.5382574737
 40
0.6253908861
 40
0.7159725
 40
0.7623069524
 40
0.8092037162
 40
0.9042193663
 40
1.0
 40
1.0
 40
1.0
 40
1.0
 10
5.0366806146
 20
2.2931022534
 30
0.0
 10
5.0365724569
 20
2.2932951454
 30
0.0
 10
5.0363636348
 20
2.2937466238
 30
0.0
 10
5.0360818923
 20
2.2945240059
 30
0.0
 10
5.0357990545
 20
2.2954751812
 30
0.0
 10
5.0355154175
 20
2.2966004964
 30
0.0
 10
5.0352311551
 20
2.2979004684
 30
0.0
 10
5.034830067
 20
2.2999794587
 30
0.0
 10
5.0343389498
 20
2.3030173008
 30
0.0
 10
5.0337733809
 20
2.307187583
 30
0.0
 10
5.0332061868
 20
2.3120504106
 30
0.0
 10
5.0326376385
 20
2.3176024327
 30
0.0
 10
5.0320682404
 20
2.323840365
 30
0.0
 10
5.0314981495
 20
2.330760771
 30
0.0
 10
5.0307040464
 20
2.341340602
 30
0.0
 10
5.0297250217
 20
2.3562446948
 30
0.0
 10
5.0285903742
 20
2.376119396
 30
0.0
 10
5.0274533888
 20
2.398607615
 30
0.0
 10
5.0263145766
 20
2.4236553896
 30
0.0
 10
5.0251745401
 20
2.451207205
 30
0.0
 10
5.0240338885
 20
2.4812015253
 30
0.0
 10
5.022892535
 20
2.5135685879
 30
0.0
 10
5.021750471
 20
2.5482311779
 30
0.0
 10
5.0201837025
 20
2.5988047419
 30
0.0
 10
5.018242915
 20
2.6671230633
 30
0.0
 10
5.0159692155
 20
2.7547781684
 30
0.0
 10
5.0136952522
 20
2.8493970923
 30
0.0
 10
5.0114197724
 20
2.9501036931
 30
0.0
 10
5.0091363258
 20
3.0559693742
 30
0.0
 10
5.0072447127
 20
3.1469836339
 30
0.0
 10
5.0057327131
 20
3.2216536166
 30
0.0
 10
5.0042113844
 20
3.298125376
 30
0.0
 10
5.0023298559
 20
3.3946844924
 30
0.0
 10
5.000801767
 20
3.4721921826
 30
0.0
 10
5.0000161458
 20
3.5111010362
 30
0.0
  0
SPLINE
  5
368
100
AcDbEntity
  8
0
100
AcDbSpline
 62
7
  6
CONTINUOUS
 70
0
 71
3
 72
11
 73
7
 74
0
 42
0.0000001
 43
0.0000001
 44
0.0000000001
 40
0.0
 40
0.0
 40
0.0
 40
0.0
 40
0.1833120051
 40
0.4102235304
 40
0.6821620999
 40
1.0
 40
1.0
 40
1.0
 40
1.0
 10
4.9839617376
 20
2.3843994168
 30
0.0
 10
4.9838514776
 20
2.3845907067
 30
0.0
 10
4.9836380835
 20
2.3850378248
 30
0.0
 10
4.9833496328
 20
2.3858076573
 30
0.0
 10
4.9830601449
 20
2.3867482633
 30
0.0
 10
4.9828807324
 20
2.3874357699
 30
0.0
 10
4.9827896961
 20
2.387807611
 30
0.0
  0
SPLINE
  5
369
100
AcDbEntity
  8
0
100
AcDbSpline
 62
7
  6
CONTINUOUS
 70
0
 71
3
 72
23
 73
19
 74
0
 42
0.0000001
 43
0.0000001
 44
0.0000000001
 40
0.0
 40
0.0
 40
0.0
 40
0.0
 40
0.0085082611
 40
0.0185541078
 40
0.0301367467
 40
0.0432523347
 40
0.0578952712
 40
0.0740588745
 40
0.1109177626
 40
0.1537654705
 40
0.2025339064
 40
0.2571533931
 40
0.3175554746
 40
0.3836714989
 40
0.4554322574
 40
0.615609134
 40
0.7974493237
 40
1.0
 40
1.0
 40
1.0
 40
1.0
 10
4.9827896961
 20
2.387807611
 30
0.0
 10
4.9826337552
 20
2.3884445574
 30
0.0
 10
4.9823292654
 20
2.3898422637
 30
0.0
 10
4.9819084266
 20
2.3921267849
 30
0.0
 10
4.9814864967
 20
2.3947713818
 30
0.0
 10
4.9810637625
 20
2.3977740385
 30
0.0
 10
4.9806404323
 20
2.4011327758
 30
0.0
 10
4.9800492423
 20
2.4063144349
 30
0.0
 10
4.9793212922
 20
2.4136678829
 30
0.0
 10
4.9784785761
 20
2.4235341093
 30
0.0
 10
4.9776341737
 20
2.4347734218
 30
0.0
 10
4.9767884295
 20
2.4473689569
 30
0.0
 10
4.9759418049
 20
2.4613041679
 30
0.0
 10
4.9750944217
 20
2.4765626718
 30
0.0
 10
4.9739203235
 20
2.4995046133
 30
0.0
 10
4.9724695462
 20
2.5313629637
 30
0.0
 10
4.9707825193
 20
2.573300672
 30
0.0
 10
4.9697114843
 20
2.6029075627
 30
0.0
 10
4.969170598
 20
2.61850939
 30
0.0
  0
LINE
  5
36A
100
AcDbEntity
  8
0
100
AcDbLine
 62
7
  6
CONTINUOUS
 10
4.969170598
 20
2.61850939
 11
4.9689242707
 21
2.6256622639
  0
LINE
  5
36B
100
AcDbEntity
  8
0
100
AcDbLine
 62
7
  6
CONTINUOUS
 10
4.9665213485
 20
2.7002998565
 11
4.9657571806
 21
2.7258088014
  0
SPLINE
  5
36C
100
AcDbEntity
  8
0
100
AcDbSpline
 62
7
  6
CONTINUOUS
 70
0
 71
3
 72
14
 73
10
 74
0
 42
0.0000001
 43
0.0000001
 44
0.0000000001
 40
0.0
 40
0.0
 40
0.0
 40
0.0
 40
0.1037577762
 40
0.2157615238
 40
0.3349874939
 40
0.4604017799
 40
0.5908876235
 40
0.7251689883
 40
1.0
 40
1.0
 40
1.0
 40
1.0
 10
4.9657571806
 20
2.7258088014
 30
0.0
 10
4.9649562804
 20
2.7529714297
 30
0.0
 10
4.9633708162
 20
2.8094577562
 30
0.0
 10
4.9610869055
 20
2.8971621635
 30
0.0
 10
4.9587999327
 20
2.9905401902
 30
0.0
 10
4.9565119357
 20
3.0887600692
 30
0.0
 10
4.9542245332
 20
3.1909240298
 30
0.0
 10
4.9511498807
 20
3.3322127713
 30
0.0
 10
4.9488823459
 20
3.4393363821
 30
0.0
 10
4.9473582397
 20
3.5112992055
 30
0.0
  0
SPLINE
  5
36D
100
AcDbEntity
  8
0
100
AcDbSpline
 62
7
  6
CONTINUOUS
 70
0
 71
3
 72
14
 73
10
 74
0
 42
0.0000001
 43
0.0000001
 44
0.0000000001
 40
0.0
 40
0.0
 40
0.0
 40
0.0
 40
0.2851840679
 40
0.4232218589
 40
0.555881186
 40
0.6814650828
 40
0.7983152704
 40
0.9048904139
 40
1.0
 40
1.0
 40
1.0
 40
1.0
 10
4.9473582397
 20
3.5112992055
 30
0.0
 10
4.945574247
 20
3.5955329381
 30
0.0
 10
4.9429269339
 20
3.7205383831
 30
0.0
 10
4.9393150541
 20
3.884724002
 30
0.0
 10
4.9366374851
 20
4.0017676648
 30
0.0
 10
4.9339609569
 20
4.1125501334
 30
0.0
 10
4.9312883011
 20
4.215624214
 30
0.0
 10
4.9286184917
 20
4.3096919805
 30
0.0
 10
4.9267303127
 20
4.3692464647
 30
0.0
 10
4.9257691492
 20
4.3973284767
 30
0.0
  0
SPLINE
  5
36E
100
AcDbEntity
  8
0
100
AcDbSpline
 62
7
  6
CONTINUOUS
 70
0
 71
3
 72
34
 73
30
 74
0
 42
0.0000001
 43
0.0000001
 44
0.0000000001
 40
0.0
 40
0.0
 40
0.0
 40
0.0
 40
0.2271166579
 40
0.3306865879
 40
0.4272858514
 40
0.5166816554
 40
0.5986990648
 40
0.673264254
 40
0.7403141844
 40
0.7997867698
 40
0.8516214481
 40
0.8746554185
 40
0.8957543724
 40
0.914908526
 40
0.9321087185
 40
0.9473467403
 40
0.9606159099
 40
0.9719121609
 40
0.9812362894
 40
0.985162098
 40
0.9886005844
 40
0.9915572011
 40
0.9940414649
 40
0.9960708917
 40
0.9976801134
 40
0.9983484585
 40
0.9989431928
 40
0.9994847813
 40
1.0
 40
1.0
 40
1.0
 40
1.0
 10
4.9257691492
 20
4.3973284767
 30
0.0
 10
4.9251412508
 20
4.4156735858
 30
0.0
 10
4.9241830535
 20
4.442383012
 30
0.0
 10
4.9228179127
 20
4.4768898278
 30
0.0
 10
4.9218263762
 20
4.5002718559
 30
0.0
 10
4.9208352951
 20
4.521910323
 30
0.0
 10
4.9198443453
 20
4.5417659586
 30
0.0
 10
4.9188543465
 20
4.5598131713
 30
0.0
 10
4.9178657386
 20
4.576035365
 30
0.0
 10
4.9168788487
 20
4.5904167485
 30
0.0
 10
4.9160287828
 20
4.6012413334
 30
0.0
 10
4.9153404316
 20
4.6089670175
 30
0.0
 10
4.9148450975
 20
4.6140579853
 30
0.0
 10
4.9143502695
 20
4.6186750803
 30
0.0
 10
4.9138560773
 20
4.6228155801
 30
0.0
 10
4.9133627264
 20
4.6264767829
 30
0.0
 10
4.9128707172
 20
4.6296562091
 30
0.0
 10
4.9123802977
 20
4.6323512701
 30
0.0
 10
4.9119533906
 20
4.6342895465
 30
0.0
 10
4.9116037123
 20
4.635592451
 30
0.0
 10
4.9113571135
 20
4.6363895979
 30
0.0
 10
4.9111111126
 20
4.6370641262
 30
0.0
 10
4.9108656549
 20
4.6376165905
 30
0.0
 10
4.910620673
 20
4.6380474695
 30
0.0
 10
4.9104036001
 20
4.6383231606
 30
0.0
 10
4.9102261984
 20
4.6384741299
 30
0.0
 10
4.910100369
 20
4.6385495397
 30
0.0
 10
4.9099732617
 20
4.6385936833
 30
0.0
 10
4.909887167
 20
4.6386015768
 30
0.0
 10
4.9098455521
 20
4.6386001159
 30
0.0
  0
SPLINE
  5
36F
100
AcDbEntity
  8
0
100
AcDbSpline
 62
7
  6
CONTINUOUS
 70
0
 71
3
 72
18
 73
14
 74
0
 42
0.0000001
 43
0.0000001
 44
0.0000000001
 40
0.0
 40
0.0
 40
0.0
 40
0.0
 40
0.0218449227
 40
0.0488189096
 40
0.0810866773
 40
0.1187435377
 40
0.1618490689
 40
0.2104428112
 40
0.3241853905
 40
0.4600485714
 40
0.6180101912
 40
0.7980173313
 40
1.0
 40
1.0
 40
1.0
 40
1.0
 10
4.8867307884
 20
2.2930154645
 30
0.0
 10
4.8866311428
 20
2.2931825049
 30
0.0
 10
4.8864380865
 20
2.2935733212
 30
0.0
 10
4.8861768956
 20
2.2942468625
 30
0.0
 10
4.8859148012
 20
2.2950693285
 30
0.0
 10
4.8856520443
 20
2.2960410513
 30
0.0
 10
4.8853887456
 20
2.2971624968
 30
0.0
 10
4.885017436
 20
2.2989537982
 30
0.0
 10
4.8845626064
 20
2.3015702956
 30
0.0
 10
4.8840387882
 20
2.305161465
 30
0.0
 10
4.8835134883
 20
2.3093477934
 30
0.0
 10
4.8829869601
 20
2.3141266481
 30
0.0
 10
4.8826545108
 20
2.317511616
 30
0.0
 10
4.8824867807
 20
2.3193022001
 30
0.0
  0
SPLINE
  5
370
100
AcDbEntity
  8
0
100
AcDbSpline
 62
7
  6
CONTINUOUS
 70
0
 71
3
 72
72
 73
68
 74
0
 42
0.0000001
 43
0.0000001
 44
0.0000000001
 40
0.0
 40
0.0
 40
0.0
 40
0.0
 40
0.0000773417
 40
0.0001591615
 40
0.0002490036
 40
0.0003495635
 40
0.0005896923
 40
0.0008894775
 40
0.0012536715
 40
0.0016848713
 40
0.0021846037
 40
0.0027538212
 40
0.0041028918
 40
0.0057351682
 40
0.0076520337
 40
0.0098541428
 40
0.0123417548
 40
0.0151147822
 40
0.0181717992
 40
0.0215105711
 40
0.0290240471
 40
0.0376362564
 40
0.0473277614
 40
0.0580783438
 40
0.0698619179
 40
0.0826488345
 40
0.0964093271
 40
0.1111135804
 40
0.1432202503
 40
0.1786641621
 40
0.2171239078
 40
0.2582343073
 40
0.3016034982
 40
0.3468272504
 40
0.393484517
 40
0.4411469919
 40
0.489366072
 40
0.5376887368
 40
0.5856610383
 40
0.6328291057
 40
0.6787553415
 40
0.7230207627
 40
0.7652123942
 40
0.8049300579
 40
0.8417847759
 40
0.8754460092
 40
0.8909830294
 40
0.9056078322
 40
0.9192879802
 40
0.9319920207
 40
0.9436885516
 40
0.9543464032
 40
0.9639401132
 40
0.972451331
 40
0.9798623945
 40
0.9831499881
 40
0.9861561474
 40
0.9888789033
 40
0.9913171905
 40
0.993470802
 40
0.9953398071
 40
0.9969247112
 40
0.998226836
 40
0.9987727848
 40
0.999249455
 40
0.9996579301
 40
1.0
 40
1.0
 40
1.0
 40
1.0
 10
5.6843004843
 20
5.4069586974
 30
0.0
 10
5.6843013086
 20
5.4070072677
 30
0.0
 10
5.6843152998
 20
5.4071073602
 30
0.0
 10
5.6843717376
 20
5.4072543874
 30
0.0
 10
5.6844627515
 20
5.407400145
 30
0.0
 10
5.6846401642
 20
5.4076053147
 30
0.0
 10
5.684957838
 20
5.4078568782
 30
0.0
 10
5.6854502051
 20
5.4081416081
 30
0.0
 10
5.6860770774
 20
5.4084268617
 30
0.0
 10
5.6868390992
 20
5.4087126613
 30
0.0
 10
5.6877370565
 20
5.4089990906
 30
0.0
 10
5.6892008511
 20
5.4094048853
 30
0.0
 10
5.6913761597
 20
5.4099007016
 30
0.0
 10
5.6943998609
 20
5.4104703677
 30
0.0
 10
5.6979670343
 20
5.411041806
 30
0.0
 10
5.7020770079
 20
5.4116147323
 30
0.0
 10
5.7067291622
 20
5.4121885834
 30
0.0
 10
5.7119218099
 20
5.4127629903
 30
0.0
 10
5.7176519381
 20
5.4133379146
 30
0.0
 10
5.7263516432
 20
5.4141368482
 30
0.0
 10
5.7385375297
 20
5.4151229148
 30
0.0
 10
5.7547126878
 20
5.4162678061
 30
0.0
 10
5.772925389
 20
5.4174147882
 30
0.0
 10
5.7931334049
 20
5.4185632169
 30
0.0
 10
5.815288386
 20
5.4197128139
 30
0.0
 10
5.839336129
 20
5.4208633997
 30
0.0
 10
5.8652202176
 20
5.4220147345
 30
0.0
 10
5.9032314667
 20
5.423597116
 30
0.0
 10
5.95485774
 20
5.4255548228
 30
0.0
 10
6.021402137
 20
5.4278456544
 30
0.0
 10
6.0936046528
 20
5.4301388369
 30
0.0
 10
6.1707871804
 20
5.4324344715
 30
0.0
 10
6.2522198172
 20
5.4347316451
 30
0.0
 10
6.3371376699
 20
5.4370295053
 30
0.0
 10
6.4247530039
 20
5.4393283288
 30
0.0
 10
6.5142502862
 20
5.4416274851
 30
0.0
 10
6.6047939128
 20
5.4439270328
 30
0.0
 10
6.695532201
 20
5.4462265315
 30
0.0
 10
6.7856101589
 20
5.4485256564
 30
0.0
 10
6.8741824605
 20
5.4508245804
 30
0.0
 10
6.960425728
 20
5.45312313
 30
0.0
 10
7.0435422473
 20
5.4554205867
 30
0.0
 10
7.1227577241
 20
5.4577168931
 30
0.0
 10
7.1973166573
 20
5.460010689
 30
0.0
 10
7.2665150922
 20
5.4623030544
 30
0.0
 10
7.3205286008
 20
5.4642587866
 30
0.0
 10
7.3605839948
 20
5.465837071
 30
0.0
 10
7.3880965121
 20
5.4669887759
 30
0.0
 10
7.4138280389
 20
5.4681399285
 30
0.0
 10
7.4377184228
 20
5.4692903487
 30
0.0
 10
7.4597082283
 20
5.4704397003
 30
0.0
 10
7.4797416367
 20
5.4715879527
 30
0.0
 10
7.4977708875
 20
5.4727348027
 30
0.0
 10
7.5137564063
 20
5.4738795225
 30
0.0
 10
7.5257818576
 20
5.4748658439
 30
0.0
 10
7.5343525671
 20
5.4756652029
 30
0.0
 10
7.5399865543
 20
5.4762400709
 30
0.0
 10
7.545084127
 20
5.4768144318
 30
0.0
 10
7.5496425727
 20
5.477388143
 30
0.0
 10
7.5536601791
 20
5.4779608669
 30
0.0
 10
7.5571359803
 20
5.4785319902
 30
0.0
 10
7.5600688679
 20
5.4791012173
 30
0.0
 10
7.562168466
 20
5.4795971403
 30
0.0
 10
7.5635711919
 20
5.4800036526
 30
0.0
 10
7.564423646
 20
5.4802898951
 30
0.0
 10
7.5651400307
 20
5.4805754612
 30
0.0
 10
7.5655641195
 20
5.4807833085
 30
0.0
 10
7.5657508533
 20
5.4808895673
 30
0.0
  0
SPLINE
  5
371
100
AcDbEntity
  8
0
100
AcDbSpline
 62
9
  6
CONTINUOUS
 70
0
 71
3
 72
19
 73
15
 74
0
 42
0.0000001
 43
0.0000001
 44
0.0000000001
 40
0.0
 40
0.0
 40
0.0
 40
0.0
 40
0.1512587369
 40
0.2974090249
 40
0.4368756659
 40
0.5684713957
 40
0.6309794613
 40
0.6911616305
 40
0.7489449708
 40
0.8042576316
 40
0.8570377943
 40
0.907260536
 40
0.9549154357
 40
1.0
 40
1.0
 40
1.0
 40
1.0
 10
3.3003250461
 20
3.1630890449
 30
0.0
 10
3.3266586371
 20
3.1684544682
 30
0.0
 10
3.378104773
 20
3.1806906654
 30
0.0
 10
3.4525275299
 20
3.2028503815
 30
0.0
 10
3.5225249645
 20
3.227323864
 30
0.0
 10
3.5775747782
 20
3.249332229
 30
0.0
 10
3.6189732957
 20
3.2674327691
 30
0.0
 10
3.6480688903
 20
3.2809164365
 30
0.0
 10
3.6757015
 20
3.2944974543
 30
0.0
 10
3.7018321889
 20
3.3081338447
 30
0.0
 10
3.726428606
 20
3.3217872305
 30
0.0
 10
3.749458085
 20
3.3354393014
 30
0.0
 10
3.7708936714
 20
3.3490746467
 30
0.0
 10
3.7844817387
 20
3.3584029578
 30
0.0
 10
3.7909923426
 20
3.3630695709
 30
0.0
  0
SPLINE
  5
372
100
AcDbEntity
  8
0
100
AcDbSpline
 62
9
  6
CONTINUOUS
 70
0
 71
3
 72
15
 73
11
 74
0
 42
0.0000001
 43
0.0000001
 44
0.0000000001
 40
0.0
 40
0.0
 40
0.0
 40
0.0
 40
0.1221976654
 40
0.2448045666
 40
0.368023888
 40
0.4920502293
 40
0.6170711438
 40
0.7432707961
 40
0.8708485921
 40
1.0
 40
1.0
 40
1.0
 40
1.0
 10
2.46730878
 20
2.7501799047
 30
0.0
 10
2.46730878
 20
2.7434741134
 30
0.0
 10
2.4677486592
 20
2.7300360359
 30
0.0
 10
2.4697162836
 20
2.7099228712
 30
0.0
 10
2.4729847912
 20
2.6898774009
 30
0.0
 10
2.4775467326
 20
2.6699507247
 30
0.0
 10
2.4833940975
 20
2.6501921982
 30
0.0
 10
2.4905216555
 20
2.6306511053
 30
0.0
 10
2.4989111277
 20
2.6113715396
 30
0.0
 10
2.5052889475
 20
2.5987988999
 30
0.0
 10
2.5086742054
 20
2.5925722546
 30
0.0
  0
SPLINE
  5
373
100
AcDbEntity
  8
0
100
AcDbSpline
 62
9
  6
CONTINUOUS
 70
0
 71
3
 72
19
 73
15
 74
0
 42
0.0000001
 43
0.0000001
 44
0.0000000001
 40
0.0
 40
0.0
 40
0.0
 40
0.0
 40
0.0481691528
 40
0.0985404284
 40
0.1510657664
 40
0.205695268
 40
0.2623776948
 40
0.3210608654
 40
0.3816919787
 40
0.4442178783
 40
0.574637229
 40
0.7114354453
 40
0.8536227846
 40
1.0
 40
1.0
 40
1.0
 40
1.0
 10
2.425220345
 20
3.337016044
 30
0.0
 10
2.4318551781
 20
3.3329107287
 30
0.0
 10
2.4455453823
 20
3.3247006516
 30
0.0
 10
2.4668422881
 20
3.3126473721
 30
0.0
 10
2.4893398815
 20
3.3006054688
 30
0.0
 10
2.5130109598
 20
3.2886040607
 30
0.0
 10
2.5378285701
 20
3.2766721046
 30
0.0
 10
2.5637656031
 20
3.2648386212
 30
0.0
 10
2.5907951126
 20
3.2531325458
 30
0.0
 10
2.6287851839
 20
3.2375150117
 30
0.0
 10
2.6787372189
 20
3.2185699572
 30
0.0
 10
2.7416381544
 20
3.1975121428
 30
0.0
 10
2.8078766828
 20
3.1784708428
 30
0.0
 10
2.8534162532
 20
3.1678222299
 30
0.0
 10
2.8766484464
 20
3.1630887149
 30
0.0
  0
SPLINE
  5
374
100
AcDbEntity
  8
0
100
AcDbSpline
 62
9
  6
CONTINUOUS
 70
0
 71
3
 72
23
 73
19
 74
0
 42
0.0000001
 43
0.0000001
 44
0.0000000001
 40
0.0
 40
0.0
 40
0.0
 40
0.0
 40
0.0448780819
 40
0.0918717361
 40
0.1410404384
 40
0.1924369607
 40
0.2189858727
 40
0.2461089836
 40
0.3020976756
 40
0.3604451061
 40
0.4211950798
 40
0.484393799
 40
0.5500926536
 40
0.6183586002
 40
0.6892713795
 40
0.7629212012
 40
0.8393295949
 40
1.0
 40
1.0
 40
1.0
 40
1.0
 10
2.4252205805
 20
3.6851854331
 30
0.0
 10
2.4313724942
 20
3.6890580491
 30
0.0
 10
2.4440948076
 20
3.6967830555
 30
0.0
 10
2.4639489336
 20
3.7080901577
 30
0.0
 10
2.4850078453
 20
3.7193998969
 30
0.0
 10
2.5033588116
 20
3.7287406584
 30
0.0
 10
2.5186364959
 20
3.7362402541
 30
0.0
 10
2.5346528745
 20
3.7439214115
 30
0.0
 10
2.5554466543
 20
3.7535499444
 30
0.0
 10
2.5813936118
 20
3.7650020676
 30
0.0
 10
2.608619629
 20
3.7764369662
 30
0.0
 10
2.6371530525
 20
3.7878212529
 30
0.0
 10
2.6670266118
 20
3.7991186206
 30
0.0
 10
2.6983011965
 20
3.8102261534
 30
0.0
 10
2.7310364238
 20
3.8210453385
 30
0.0
 10
2.7652812625
 20
3.8314708965
 30
0.0
 10
2.8137824228
 20
3.8449342267
 30
0.0
 10
2.8511754753
 20
3.8537789129
 30
0.0
 10
2.8766481199
 20
3.8591138807
 30
0.0
  0
SPLINE
  5
375
100
AcDbEntity
  8
0
100
AcDbSpline
 62
9
  6
CONTINUOUS
 70
0
 71
3
 72
15
 73
11
 74
0
 42
0.0000001
 43
0.0000001
 44
0.0000000001
 40
0.0
 40
0.0
 40
0.0
 40
0.0
 40
0.1221976654
 40
0.2448045666
 40
0.368023888
 40
0.4920502293
 40
0.6170711438
 40
0.7432707961
 40
0.8708485921
 40
1.0
 40
1.0
 40
1.0
 40
1.0
 10
3.7096648225
 20
4.2720221678
 30
0.0
 10
3.7096648225
 20
4.2787279591
 30
0.0
 10
3.7092249433
 20
4.2921660365
 30
0.0
 10
3.7072573189
 20
4.3122792013
 30
0.0
 10
3.7039888112
 20
4.3323246716
 30
0.0
 10
3.6994268699
 20
4.3522513478
 30
0.0
 10
3.693579505
 20
4.3720098743
 30
0.0
 10
3.686451947
 20
4.3915509672
 30
0.0
 10
3.6780624747
 20
4.4108305329
 30
0.0
 10
3.671684655
 20
4.4234031726
 30
0.0
 10
3.6682993971
 20
4.4296298179
 30
0.0
  0
SPLINE
  5
376
100
AcDbEntity
  8
0
100
AcDbSpline
 62
7
  6
CONTINUOUS
 70
0
 71
3
 72
9
 73
5
 74
0
 42
0.0000001
 43
0.0000001
 44
0.0000000001
 40
0.0
 40
0.0
 40
0.0
 40
0.0
 40
0.4878542983
 40
1.0
 40
1.0
 40
1.0
 40
1.0
 10
3.8222455842
 20
4.0460553829
 30
0.0
 10
3.823577728
 20
4.0427573731
 30
0.0
 10
3.8260998764
 20
4.0359116293
 30
0.0
 10
3.8282389026
 20
4.0289376575
 30
0.0
 10
3.8292445852
 20
4.0253416405
 30
0.0
  0
SPLINE
  5
377
100
AcDbEntity
  8
0
100
AcDbSpline
 62
9
  6
CONTINUOUS
 70
0
 71
3
 72
26
 73
22
 74
0
 42
0.0000001
 43
0.0000001
 44
0.0000000001
 40
0.0
 40
0.0
 40
0.0
 40
0.0
 40
0.0420040778
 40
0.086416559
 40
0.1333268696
 40
0.1828112347
 40
0.2349340217
 40
0.2897514023
 40
0.3473200977
 40
0.4076985464
 40
0.4709482435
 40
0.537135066
 40
0.5713520229
 40
0.6063297852
 40
0.6420786842
 40
0.6786105021
 40
0.7540747631
 40
0.7930389664
 40
0.8328376785
 40
0.9148645928
 40
1.0
 40
1.0
 40
1.0
 40
1.0
 10
3.7909930115
 20
3.6591331362
 30
0.0
 10
3.7849545738
 20
3.6635194861
 30
0.0
 10
3.7723331947
 20
3.6722727364
 30
0.0
 10
3.7523804254
 20
3.6850516752
 30
0.0
 10
3.7308921209
 20
3.6978732581
 30
0.0
 10
3.7078690634
 20
3.7107754295
 30
0.0
 10
3.683307639
 20
3.7237901106
 30
0.0
 10
3.657169157
 20
3.7368801679
 30
0.0
 10
3.6294196197
 20
3.7500119524
 30
0.0
 10
3.6000250321
 20
3.7631527183
 30
0.0
 10
3.5689454367
 20
3.7762575755
 30
0.0
 10
3.5419136963
 20
3.786980696
 30
0.0
 10
3.5194158917
 20
3.795496095
 30
0.0
 10
3.5019074207
 20
3.8019123604
 30
0.0
 10
3.4839402235
 20
3.8082690175
 30
0.0
 10
3.4590878635
 20
3.8167273792
 30
0.0
 10
3.4335297529
 20
3.8248801413
 30
0.0
 10
3.407254951
 20
3.8326669916
 30
0.0
 10
3.3797477636
 20
3.8403893195
 30
0.0
 10
3.3441244297
 20
3.8495376032
 30
0.0
 10
3.3151365603
 20
3.8560377146
 30
0.0
 10
3.3003254826
 20
3.8591138807
 30
0.0
  0
SPLINE
  5
378
100
AcDbEntity
  8
0
100
AcDbSpline
 62
9
  6
CONTINUOUS
 70
0
 71
3
 72
23
 73
19
 74
0
 42
0.0000001
 43
0.0000001
 44
0.0000000001
 40
0.0
 40
0.0
 40
0.0
 40
0.0
 40
0.0577724632
 40
0.11706103
 40
0.177704781
 40
0.2395431979
 40
0.3024072424
 40
0.3660912907
 40
0.4303804647
 40
0.4950602308
 40
0.5599142482
 40
0.6247163914
 40
0.6892378724
 40
0.7532501496
 40
0.8165307856
 40
0.878879377
 40
0.9401007686
 40
1.0
 40
1.0
 40
1.0
 40
1.0
 10
2.8766481297
 20
3.1630882171
 30
0.0
 10
2.8785900389
 20
3.1763951728
 30
0.0
 10
2.8822633307
 20
3.203397091
 30
0.0
 10
2.8870781943
 20
3.2444830961
 30
0.0
 10
2.8912385273
 20
3.2865918296
 30
0.0
 10
2.8947081375
 20
3.3295981129
 30
0.0
 10
2.8974506822
 20
3.3733659829
 30
0.0
 10
2.8994495306
 20
3.4177451194
 30
0.0
 10
2.9006867595
 20
3.462574837
 30
0.0
 10
2.9011444237
 20
3.5076917024
 30
0.0
 10
2.9008047291
 20
3.5529290335
 30
0.0
 10
2.8996738811
 20
3.5981166165
 30
0.0
 10
2.8977579551
 20
3.64308164
 30
0.0
 10
2.8950630893
 20
3.6876519964
 30
0.0
 10
2.8915946603
 20
3.7316615292
 30
0.0
 10
2.8873813379
 20
3.7749533838
 30
0.0
 10
2.882451774
 20
3.8173771219
 30
0.0
 10
2.8786614253
 20
3.8453170015
 30
0.0
 10
2.876648025
 20
3.8591138235
 30
0.0
  0
SPLINE
  5
379
100
AcDbEntity
  8
0
100
AcDbSpline
 62
9
  6
CONTINUOUS
 70
0
 71
3
 72
38
 73
34
 74
0
 42
0.0000001
 43
0.0000001
 44
0.0000000001
 40
0.0
 40
0.0
 40
0.0
 40
0.0
 40
0.0586187584
 40
0.0882144346
 40
0.1180299571
 40
0.1480916134
 40
0.1784217916
 40
0.2090460588
 40
0.2399987357
 40
0.2713147015
 40
0.3029950717
 40
0.3350421063
 40
0.3674734397
 40
0.4002623098
 40
0.433328009
 40
0.4499444584
 40
0.4666055537
 40
0.5000039882
 40
0.5334026069
 40
0.5500638833
 40
0.5666801917
 40
0.5997448568
 40
0.6325330647
 40
0.6649649793
 40
0.6970118998
 40
0.7286916891
 40
0.7600073458
 40
0.7909598755
 40
0.8215838414
 40
0.8819700074
 40
0.9117855461
 40
0.9413812507
 40
1.0
 40
1.0
 40
1.0
 40
1.0
 10
2.8766481199
 20
3.8591138807
 30
0.0
 10
2.8840984501
 20
3.8640455879
 30
0.0
 10
2.8954275599
 20
3.8712939065
 30
0.0
 10
2.910861715
 20
3.8805390524
 30
0.0
 10
2.9227116084
 20
3.8872914506
 30
0.0
 10
2.9348160677
 20
3.8938159193
 30
0.0
 10
2.9471993558
 20
3.9000735247
 30
0.0
 10
2.9598856654
 20
3.9060199822
 30
0.0
 10
2.9728968403
 20
3.9116107772
 30
0.0
 10
2.9862469331
 20
3.916799631
 30
0.0
 10
2.9999474348
 20
3.9215191892
 30
0.0
 10
3.0140011352
 20
3.9256968037
 30
0.0
 10
3.0283994617
 20
3.9292545668
 30
0.0
 10
3.0431094051
 20
3.9321233863
 30
0.0
 10
3.0555623079
 20
3.9338849822
 30
0.0
 10
3.065625816
 20
3.9348869887
 30
0.0
 10
3.0757644215
 20
3.9356053331
 30
0.0
 10
3.0884873375
 20
3.9359629439
 30
0.0
 10
3.1012102556
 20
3.9356048946
 30
0.0
 10
3.1113489066
 20
3.9348867285
 30
0.0
 10
3.1214122683
 20
3.9338847523
 30
0.0
 10
3.1338648339
 20
3.9321227049
 30
0.0
 10
3.1485744712
 20
3.9292532565
 30
0.0
 10
3.1629728121
 20
3.9256957274
 30
0.0
 10
3.1770266758
 20
3.9215187367
 30
0.0
 10
3.1907272378
 20
3.9167997939
 30
0.0
 10
3.2040772139
 20
3.911611116
 30
0.0
 10
3.2170882171
 20
3.906020007
 30
0.0
 10
3.2339225801
 20
3.8981284778
 30
0.0
 10
3.2502456643
 20
3.8895786714
 30
0.0
 10
3.2661112934
 20
3.8805383177
 30
0.0
 10
3.2815458934
 20
3.8712935673
 30
0.0
 10
3.2928751852
 20
3.864045635
 30
0.0
 10
3.3003254826
 20
3.8591138807
 30
0.0
  0
SPLINE
  5
37A
100
AcDbEntity
  8
0
100
AcDbSpline
 62
9
  6
CONTINUOUS
 70
0
 71
3
 72
23
 73
19
 74
0
 42
0.0000001
 43
0.0000001
 44
0.0000000001
 40
0.0
 40
0.0
 40
0.0
 40
0.0
 40
0.0598992315
 40
0.1211206231
 40
0.1834692145
 40
0.2467498505
 40
0.3107621277
 40
0.3752836086
 40
0.4400857518
 40
0.5049397692
 40
0.5696195352
 40
0.6339087091
 40
0.6975927574
 40
0.7604568019
 40
0.8222952189
 40
0.8829389699
 40
0.9422275368
 40
1.0
 40
1.0
 40
1.0
 40
1.0
 10
3.3003255804
 20
3.8591138209
 30
0.0
 10
3.2983121801
 20
3.845316999
 30
0.0
 10
3.2945218314
 20
3.8173771196
 30
0.0
 10
3.2895922675
 20
3.7749533817
 30
0.0
 10
3.2853789451
 20
3.7316615273
 30
0.0
 10
3.2819105161
 20
3.6876519949
 30
0.0
 10
3.2792156503
 20
3.6430816388
 30
0.0
 10
3.2772997242
 20
3.5981166156
 30
0.0
 10
3.276168876
 20
3.5529290329
 30
0.0
 10
3.2758291813
 20
3.5076917022
 30
0.0
 10
3.2762868453
 20
3.4625748371
 30
0.0
 10
3.277524074
 20
3.4177451198
 30
0.0
 10
3.2795229221
 20
3.3733659836
 30
0.0
 10
3.2822654666
 20
3.3295981138
 30
0.0
 10
3.2857350764
 20
3.2865918308
 30
0.0
 10
3.2898954091
 20
3.2444830974
 30
0.0
 10
3.2947102724
 20
3.2033970926
 30
0.0
 10
3.298383564
 20
3.1763951745
 30
0.0
 10
3.300325473
 20
3.1630882188
 30
0.0
  0
SPLINE
  5
37B
100
AcDbEntity
  8
0
100
AcDbSpline
 62
9
  6
CONTINUOUS
 70
0
 71
3
 72
23
 73
19
 74
0
 42
0.0000001
 43
0.0000001
 44
0.0000000001
 40
0.0
 40
0.0
 40
0.0
 40
0.0
 40
0.0666652323
 40
0.1320085607
 40
0.1959975559
 40
0.2586960019
 40
0.3202563795
 40
0.3808288291
 40
0.4406340945
 40
0.5000015029
 40
0.5593692506
 40
0.6191752069
 40
0.679748198
 40
0.7413084734
 40
0.8040058861
 40
0.8679933739
 40
0.9333353513
 40
1.0
 40
1.0
 40
1.0
 40
1.0
 10
3.3003235471
 20
3.1630907639
 30
0.0
 10
3.2918504748
 20
3.1574864919
 30
0.0
 10
3.2748758151
 20
3.1466808438
 30
0.0
 10
3.2489844111
 20
3.1317686503
 30
0.0
 10
3.2228579617
 20
3.1185508493
 30
0.0
 10
3.1964538737
 20
3.1072774436
 30
0.0
 10
3.1697566114
 20
3.0982083248
 30
0.0
 10
3.1428177919
 20
3.0915062152
 30
0.0
 10
3.1157037577
 20
3.0873437877
 30
0.0
 10
3.0884860633
 20
3.0858979532
 30
0.0
 10
3.061268281
 20
3.0873440814
 30
0.0
 10
3.0341540419
 20
3.0915067311
 30
0.0
 10
3.0072150767
 20
3.0982089572
 30
0.0
 10
2.9805179037
 20
3.1072780558
 30
0.0
 10
2.9541142027
 20
3.1185513454
 30
0.0
 10
2.9279883326
 20
3.131768979
 30
0.0
 10
2.9020974496
 20
3.1466810253
 30
0.0
 10
2.8851230633
 20
3.1574865512
 30
0.0
 10
2.8766500603
 20
3.1630907667
 30
0.0
  0
SPLINE
  5
37C
100
AcDbEntity
  8
0
100
AcDbSpline
 62
9
  6
CONTINUOUS
 70
0
 71
3
 72
26
 73
22
 74
0
 42
0.0000001
 43
0.0000001
 44
0.0000000001
 40
0.0
 40
0.0
 40
0.0
 40
0.0
 40
0.053681466
 40
0.1077614075
 40
0.1624773275
 40
0.1901535809
 40
0.218075456
 40
0.2747590285
 40
0.3327604206
 40
0.3623198449
 40
0.3922713409
 40
0.4533789312
 40
0.5161529577
 40
0.5481784933
 40
0.5806265194
 40
0.646770835
 40
0.7145605149
 40
0.783934512
 40
0.8547790842
 40
0.9268812789
 40
1.0
 40
1.0
 40
1.0
 40
1.0
 10
3.7096648225
 20
2.7501799047
 30
0.0
 10
3.7096648225
 20
2.7613601227
 30
0.0
 10
3.7084375096
 20
2.7838221925
 30
0.0
 10
3.7029731696
 20
2.8172770993
 30
0.0
 10
3.6954532036
 20
2.8447459391
 30
0.0
 10
3.6876931171
 20
2.8663796256
 30
0.0
 10
3.6786876872
 20
2.8879706906
 30
0.0
 10
3.6652152345
 20
2.9144962355
 30
0.0
 10
3.6491112903
 20
2.9399102872
 30
0.0
 10
3.6346434393
 20
2.9596588134
 30
0.0
 10
3.6189118454
 20
2.9792536234
 30
0.0
 10
3.5972545479
 20
3.0029180537
 30
0.0
 10
3.5734423095
 20
3.0250451068
 30
0.0
 10
3.5530228748
 20
3.0419470825
 30
0.0
 10
3.5314242296
 20
3.0584955006
 30
0.0
 10
3.5027696653
 20
3.0780384626
 30
0.0
 10
3.4661927909
 20
3.0994326434
 30
0.0
 10
3.4274029666
 20
3.1187922557
 30
0.0
 10
3.3866338287
 20
3.1359917575
 30
0.0
 10
3.3441646053
 20
3.1509462904
 30
0.0
 10
3.3150763003
 20
3.1593043083
 30
0.0
 10
3.3003254826
 20
3.1630881918
 30
0.0
  0
SPLINE
  5
37D
100
AcDbEntity
  8
0
100
AcDbSpline
 62
9
  6
CONTINUOUS
 70
0
 71
3
 72
26
 73
22
 74
0
 42
0.0000001
 43
0.0000001
 44
0.0000000001
 40
0.0
 40
0.0
 40
0.0
 40
0.0
 40
0.0731187211
 40
0.1452209158
 40
0.216065488
 40
0.2854394851
 40
0.353229165
 40
0.4193734806
 40
0.4518215067
 40
0.4838470423
 40
0.5466210688
 40
0.6077286591
 40
0.6376801551
 40
0.6672395794
 40
0.7252409715
 40
0.781924544
 40
0.8098464191
 40
0.8375226725
 40
0.8922385925
 40
0.946318534
 40
1.0
 40
1.0
 40
1.0
 40
1.0
 10
2.8766481199
 20
3.1630881918
 30
0.0
 10
2.8618973022
 20
3.1593043083
 30
0.0
 10
2.8328089972
 20
3.1509462904
 30
0.0
 10
2.7903397738
 20
3.1359917575
 30
0.0
 10
2.7495706359
 20
3.1187922557
 30
0.0
 10
2.7107808116
 20
3.0994326434
 30
0.0
 10
2.6742039372
 20
3.0780384626
 30
0.0
 10
2.6455493729
 20
3.0584955006
 30
0.0
 10
2.6239507277
 20
3.0419470825
 30
0.0
 10
2.603531293
 20
3.0250451068
 30
0.0
 10
2.5797190546
 20
3.0029180537
 30
0.0
 10
2.5580617571
 20
2.9792536234
 30
0.0
 10
2.5423301632
 20
2.9596588134
 30
0.0
 10
2.5278623121
 20
2.9399102872
 30
0.0
 10
2.511758368
 20
2.9144962355
 30
0.0
 10
2.4982859153
 20
2.8879706906
 30
0.0
 10
2.4892804854
 20
2.8663796256
 30
0.0
 10
2.4815203988
 20
2.8447459391
 30
0.0
 10
2.4740004329
 20
2.8172770993
 30
0.0
 10
2.4685360929
 20
2.7838221925
 30
0.0
 10
2.46730878
 20
2.7613601227
 30
0.0
 10
2.46730878
 20
2.7501799047
 30
0.0
  0
SPLINE
  5
37E
100
AcDbEntity
  8
0
100
AcDbSpline
 62
9
  6
CONTINUOUS
 70
0
 71
3
 72
26
 73
22
 74
0
 42
0.0000001
 43
0.0000001
 44
0.0000000001
 40
0.0
 40
0.0
 40
0.0
 40
0.0
 40
0.053681466
 40
0.1077614075
 40
0.1624773275
 40
0.1901535809
 40
0.218075456
 40
0.2747590285
 40
0.3327604206
 40
0.3623198449
 40
0.3922713409
 40
0.4533789312
 40
0.5161529577
 40
0.5481784933
 40
0.5806265194
 40
0.646770835
 40
0.7145605149
 40
0.783934512
 40
0.8547790842
 40
0.9268812789
 40
1.0
 40
1.0
 40
1.0
 40
1.0
 10
2.46730878
 20
4.2720221678
 30
0.0
 10
2.46730878
 20
4.2608419498
 30
0.0
 10
2.4685360929
 20
4.23837988
 30
0.0
 10
2.4740004329
 20
4.2049249732
 30
0.0
 10
2.4815203988
 20
4.1774561334
 30
0.0
 10
2.4892804854
 20
4.1558224469
 30
0.0
 10
2.4982859153
 20
4.1342313819
 30
0.0
 10
2.511758368
 20
4.107705837
 30
0.0
 10
2.5278623121
 20
4.0822917853
 30
0.0
 10
2.5423301632
 20
4.0625432591
 30
0.0
 10
2.5580617571
 20
4.0429484491
 30
0.0
 10
2.5797190546
 20
4.0192840188
 30
0.0
 10
2.603531293
 20
3.9971569657
 30
0.0
 10
2.6239507277
 20
3.98025499
 30
0.0
 10
2.6455493729
 20
3.9637065719
 30
0.0
 10
2.6742039372
 20
3.9441636099
 30
0.0
 10
2.7107808116
 20
3.9227694291
 30
0.0
 10
2.7495706359
 20
3.9034098168
 30
0.0
 10
2.7903397738
 20
3.886210315
 30
0.0
 10
2.8328089972
 20
3.8712557821
 30
0.0
 10
2.8618973022
 20
3.8628977642
 30
0.0
 10
2.8766481199
 20
3.8591138807
 30
0.0
  0
SPLINE
  5
37F
100
AcDbEntity
  8
0
100
AcDbSpline
 62
9
  6
CONTINUOUS
 70
0
 71
3
 72
26
 73
22
 74
0
 42
0.0000001
 43
0.0000001
 44
0.0000000001
 40
0.0
 40
0.0
 40
0.0
 40
0.0
 40
0.0731187211
 40
0.1452209158
 40
0.216065488
 40
0.2854394851
 40
0.353229165
 40
0.4193734806
 40
0.4518215067
 40
0.4838470423
 40
0.5466210688
 40
0.6077286591
 40
0.6376801551
 40
0.6672395794
 40
0.7252409715
 40
0.781924544
 40
0.8098464191
 40
0.8375226725
 40
0.8922385925
 40
0.946318534
 40
1.0
 40
1.0
 40
1.0
 40
1.0
 10
3.3003254826
 20
3.8591138807
 30
0.0
 10
3.3150763003
 20
3.8628977642
 30
0.0
 10
3.3441646053
 20
3.8712557821
 30
0.0
 10
3.3866338287
 20
3.886210315
 30
0.0
 10
3.4274029666
 20
3.9034098168
 30
0.0
 10
3.4661927909
 20
3.9227694291
 30
0.0
 10
3.5027696653
 20
3.9441636099
 30
0.0
 10
3.5314242296
 20
3.9637065719
 30
0.0
 10
3.5530228748
 20
3.98025499
 30
0.0
 10
3.5734423095
 20
3.9971569657
 30
0.0
 10
3.5972545479
 20
4.0192840188
 30
0.0
 10
3.6189118454
 20
4.0429484491
 30
0.0
 10
3.6346434393
 20
4.0625432591
 30
0.0
 10
3.6491112903
 20
4.0822917853
 30
0.0
 10
3.6652152345
 20
4.107705837
 30
0.0
 10
3.6786876872
 20
4.1342313819
 30
0.0
 10
3.6876931171
 20
4.1558224469
 30
0.0
 10
3.6954532036
 20
4.1774561334
 30
0.0
 10
3.7029731696
 20
4.2049249732
 30
0.0
 10
3.7084375096
 20
4.23837988
 30
0.0
 10
3.7096648225
 20
4.2608419498
 30
0.0
 10
3.7096648225
 20
4.2720221678
 30
0.0
  0
SPLINE
  5
380
100
AcDbEntity
  8
0
100
AcDbSpline
 62
7
  6
CONTINUOUS
 70
0
 71
3
 72
21
 73
17
 74
0
 42
0.0000001
 43
0.0000001
 44
0.0000000001
 40
0.0
 40
0.0
 40
0.0
 40
0.0
 40
0.1233021611
 40
0.1855541662
 40
0.2481043089
 40
0.3108843067
 40
0.3738310941
 40
0.4368880117
 40
0.5000002232
 40
0.5631124272
 40
0.6261693195
 40
0.6891160547
 40
0.7518959746
 40
0.8144460264
 40
0.8766979423
 40
1.0
 40
1.0
 40
1.0
 40
1.0
 10
2.3602066164
 20
3.3827448509
 30
0.0
 10
2.3627588269
 20
3.3930912665
 30
0.0
 10
2.3661574227
 20
3.408775656
 30
0.0
 10
2.3697835736
 20
3.4299117125
 30
0.0
 10
2.3720492959
 20
3.4459672993
 30
0.0
 10
2.3738326156
 20
3.4621439197
 30
0.0
 10
2.3751113346
 20
3.4784123529
 30
0.0
 10
2.3758776179
 20
3.4947416594
 30
0.0
 10
2.3761332155
 20
3.5111012121
 30
0.0
 10
2.3758775538
 20
3.5274607616
 30
0.0
 10
2.3751112227
 20
3.543790058
 30
0.0
 10
2.3738324969
 20
3.560058477
 30
0.0
 10
2.3720491877
 20
3.5762350792
 30
0.0
 10
2.369783484
 20
3.5922906461
 30
0.0
 10
2.3661573595
 20
3.6134266822
 30
0.0
 10
2.3627587761
 20
3.6291110579
 30
0.0
 10
2.3602065632
 20
3.6394574637
 30
0.0
  0
SPLINE
  5
381
100
AcDbEntity
  8
0
100
AcDbSpline
 62
7
  6
CONTINUOUS
 70
0
 71
3
 72
22
 73
18
 74
0
 42
0.0000001
 43
0.0000001
 44
0.0000000001
 40
0.0
 40
0.0
 40
0.0
 40
0.0
 40
0.1520570584
 40
0.2263941957
 40
0.2993038215
 40
0.3705689242
 40
0.4399918559
 40
0.5073969243
 40
0.5726156743
 40
0.6354874284
 40
0.6958655853
 40
0.753627938
 40
0.8086635301
 40
0.860871661
 40
0.9101709008
 40
0.9565415941
 40
1.0
 40
1.0
 40
1.0
 40
1.0
 10
2.3602065632
 20
3.6394574637
 30
0.0
 10
2.3562713257
 20
3.6554105389
 30
0.0
 10
2.3506713116
 20
3.6792286829
 30
0.0
 10
2.3439388818
 20
3.7108639664
 30
0.0
 10
2.3393909014
 20
3.7340353905
 30
0.0
 10
2.3353528033
 20
3.7567621599
 30
0.0
 10
2.3318624299
 20
3.7789777941
 30
0.0
 10
2.3289435175
 20
3.8006168563
 30
0.0
 10
2.3266217938
 20
3.8216163606
 30
0.0
 10
2.3249223656
 20
3.8419139462
 30
0.0
 10
2.323870102
 20
3.8614489181
 30
0.0
 10
2.3234646542
 20
3.8801614296
 30
0.0
 10
2.3237060621
 20
3.8979943821
 30
0.0
 10
2.3245930844
 20
3.9148919014
 30
0.0
 10
2.3261292844
 20
3.9308033928
 30
0.0
 10
2.3282953152
 20
3.9456867377
 30
0.0
 10
2.3302028688
 20
3.9552106465
 30
0.0
 10
2.3312659402
 20
3.9597848504
 30
0.0
  0
SPLINE
  5
382
100
AcDbEntity
  8
0
100
AcDbSpline
 62
7
  6
CONTINUOUS
 70
0
 71
3
 72
11
 73
7
 74
0
 42
0.0000001
 43
0.0000001
 44
0.0000000001
 40
0.0
 40
0.0
 40
0.0
 40
0.0
 40
0.2766940124
 40
0.5359622931
 40
0.7771736605
 40
1.0
 40
1.0
 40
1.0
 40
1.0
 10
2.3235595436
 20
3.1398699761
 30
0.0
 10
2.3235595436
 20
3.1326766678
 30
0.0
 10
2.3238596744
 20
3.1187404444
 30
0.0
 10
2.325288953
 20
3.0985775474
 30
0.0
 10
2.3276611643
 20
3.0799132529
 30
0.0
 10
2.3299497393
 20
3.0680569686
 30
0.0
 10
2.3312623898
 20
3.0624147573
 30
0.0
  0
SPLINE
  5
383
100
AcDbEntity
  8
0
100
AcDbSpline
 62
9
  6
CONTINUOUS
 70
0
 71
3
 72
21
 73
17
 74
0
 42
0.0000001
 43
0.0000001
 44
0.0000000001
 40
0.0
 40
0.0
 40
0.0
 40
0.0
 40
0.0510036418
 40
0.1023092674
 40
0.1542436843
 40
0.2071213192
 40
0.2612394697
 40
0.316874891
 40
0.4336392903
 40
0.4952553765
 40
0.5592475736
 40
0.6257610035
 40
0.6949219541
 40
0.7668399291
 40
0.8416096011
 40
1.0
 40
1.0
 40
1.0
 40
1.0
 10
2.2799868017
 20
3.5110991501
 30
0.0
 10
2.2799881163
 20
3.5084412638
 30
0.0
 10
2.2802022839
 20
3.5031074736
 30
0.0
 10
2.2811571075
 20
3.4951186539
 30
0.0
 10
2.2827448206
 20
3.4871313858
 30
0.0
 10
2.2849642227
 20
3.4791445687
 30
0.0
 10
2.2878142095
 20
3.4711556068
 30
0.0
 10
2.2925281463
 20
3.4603254482
 30
0.0
 10
2.2984739109
 20
3.4496384609
 30
0.0
 10
2.3054931616
 20
3.4391340022
 30
0.0
 10
2.3114753636
 20
3.4311003107
 30
0.0
 10
2.3180772045
 20
3.4230536179
 30
0.0
 10
2.3252963437
 20
3.4149925793
 30
0.0
 10
2.3331300233
 20
3.4069166724
 30
0.0
 10
2.3446120649
 20
3.3959168198
 30
0.0
 10
2.3538146576
 20
3.3879668471
 30
0.0
 10
2.3602065081
 20
3.3827445245
 30
0.0
  0
SPLINE
  5
384
100
AcDbEntity
  8
0
100
AcDbSpline
 62
7
  6
CONTINUOUS
 70
0
 71
3
 72
14
 73
10
 74
0
 42
0.0000001
 43
0.0000001
 44
0.0000000001
 40
0.0
 40
0.0
 40
0.0
 40
0.0
 40
0.1395780643
 40
0.276397559
 40
0.5386552625
 40
0.6627794818
 40
0.7814477589
 40
0.8940598416
 40
1.0
 40
1.0
 40
1.0
 40
1.0
 10
2.3602066164
 20
3.3827448509
 30
0.0
 10
2.3574634943
 20
3.371624498
 30
0.0
 10
2.3521987465
 20
3.349561394
 30
0.0
 10
2.3427211524
 20
3.3063868123
 30
0.0
 10
2.334848385
 20
3.2641586453
 30
0.0
 10
2.3290462404
 20
3.223116633
 30
0.0
 10
2.3259320658
 20
3.1941125589
 30
0.0
 10
2.3240251376
 20
3.1664993989
 30
0.0
 10
2.3235595436
 20
3.1485633587
 30
0.0
 10
2.3235595436
 20
3.1398699761
 30
0.0
  0
SPLINE
  5
385
100
AcDbEntity
  8
0
100
AcDbSpline
 62
9
  6
CONTINUOUS
 70
0
 71
3
 72
22
 73
18
 74
0
 42
0.0000001
 43
0.0000001
 44
0.0000000001
 40
0.0
 40
0.0
 40
0.0
 40
0.0
 40
0.0512719867
 40
0.1024583227
 40
0.1540208899
 40
0.2064091959
 40
0.260050889
 40
0.3153392426
 40
0.4317898388
 40
0.4933315245
 40
0.55726085
 40
0.6237068811
 40
0.6928245727
 40
0.7648283707
 40
0.8399148064
 40
0.9182553238
 40
1.0
 40
1.0
 40
1.0
 40
1.0
 10
2.2799868012
 20
3.5111010001
 30
0.0
 10
2.2799868016
 20
3.5137729051
 30
0.0
 10
2.2801940271
 20
3.519114699
 30
0.0
 10
2.2811366831
 20
3.5270934783
 30
0.0
 10
2.2827094089
 20
3.5350318477
 30
0.0
 10
2.2849109524
 20
3.5429514461
 30
0.0
 10
2.2877403914
 20
3.5508750687
 30
0.0
 10
2.2924228084
 20
3.5616540019
 30
0.0
 10
2.2983213089
 20
3.5723226299
 30
0.0
 10
2.3053016861
 20
3.5828252119
 30
0.0
 10
2.3112655809
 20
3.5908596478
 30
0.0
 10
2.3178649151
 20
3.5988973475
 30
0.0
 10
2.325103743
 20
3.6069394714
 30
0.0
 10
2.3329721862
 20
3.6150075602
 30
0.0
 10
2.3414665018
 20
3.6231257955
 30
0.0
 10
2.3505825933
 20
3.6313190671
 30
0.0
 10
2.3569336218
 20
3.6367298577
 30
0.0
 10
2.3602068525
 20
3.6394561716
 30
0.0
  0
SPLINE
  5
386
100
AcDbEntity
  8
0
100
AcDbSpline
 62
9
  6
CONTINUOUS
 70
0
 71
3
 72
41
 73
37
 74
0
 42
0.0000001
 43
0.0000001
 44
0.0000000001
 40
0.0
 40
0.0
 40
0.0
 40
0.0
 40
0.0263289305
 40
0.0397381603
 40
0.0533201081
 40
0.0810186031
 40
0.1094620379
 40
0.1386661341
 40
0.1686312493
 40
0.1993371976
 40
0.2307512274
 40
0.262830143
 40
0.2955144071
 40
0.3287348531
 40
0.3624167755
 40
0.3964762624
 40
0.4308226464
 40
0.4653629273
 40
0.5000016341
 40
0.5346403222
 40
0.5691805474
 40
0.6035268403
 40
0.6375862011
 40
0.6712679639
 40
0.7044882206
 40
0.7371722681
 40
0.7692509421
 40
0.8006647111
 40
0.8313703844
 40
0.861335214
 40
0.8905390207
 40
0.9189821695
 40
0.9466803871
 40
0.9602622015
 40
0.9736713034
 40
1.0
 40
1.0
 40
1.0
 40
1.0
 10
2.5087310834
 20
1.8218626786
 30
0.0
 10
2.5143859679
 20
1.8322561424
 30
0.0
 10
2.5236746382
 20
1.8475474576
 30
0.0
 10
2.5374627586
 20
1.8671514574
 30
0.0
 10
2.5524767756
 20
1.8866193377
 30
0.0
 10
2.5731978867
 20
1.9101761051
 30
0.0
 10
2.6007974295
 20
1.9368647727
 30
0.0
 10
2.6311472821
 20
1.9620058039
 30
0.0
 10
2.6640801472
 20
1.9854476487
 30
0.0
 10
2.6993978707
 20
2.0070766315
 30
0.0
 10
2.7369049506
 20
2.026769625
 30
0.0
 10
2.776396744
 20
2.0444034226
 30
0.0
 10
2.8176432544
 20
2.059895165
 30
0.0
 10
2.8604128317
 20
2.0731596707
 30
0.0
 10
2.9044696835
 20
2.0841061465
 30
0.0
 10
2.9495622048
 20
2.0926846854
 30
0.0
 10
2.9954357985
 20
2.0988541579
 30
0.0
 10
3.0418343692
 20
2.1025646737
 30
0.0
 10
3.088495647
 20
2.1037995561
 30
0.0
 10
3.1351568752
 20
2.1025637376
 30
0.0
 10
3.1815552964
 20
2.0988522833
 30
0.0
 10
3.2274286424
 20
2.0926818891
 30
0.0
 10
3.2725208196
 20
2.0841024463
 30
0.0
 10
3.3165772307
 20
2.0731550799
 30
0.0
 10
3.3593462751
 20
2.0598897129
 30
0.0
 10
3.4005921646
 20
2.0443971436
 30
0.0
 10
3.440083249
 20
2.0267625489
 30
0.0
 10
3.4775895368
 20
2.0070687969
 30
0.0
 10
3.5129063939
 20
1.9854391048
 30
0.0
 10
3.5458383181
 20
1.9619965948
 30
0.0
 10
3.5761871575
 20
1.9368549455
 30
0.0
 10
3.6037856309
 20
1.910165722
 30
0.0
 10
3.6245057959
 20
1.8866085377
 30
0.0
 10
3.6395190251
 20
1.8671403552
 30
0.0
 10
3.6533063565
 20
1.8475360725
 30
0.0
 10
3.6625944099
 20
1.8322445718
 30
0.0
 10
3.6682488736
 20
1.8218509987
 30
0.0
  0
SPLINE
  5
387
100
AcDbEntity
  8
0
100
AcDbSpline
 62
7
  6
CONTINUOUS
 70
0
 71
3
 72
14
 73
10
 74
0
 42
0.0000001
 43
0.0000001
 44
0.0000000001
 40
0.0
 40
0.0
 40
0.0
 40
0.0
 40
0.0701609633
 40
0.1554560873
 40
0.2563122395
 40
0.3729764705
 40
0.5055994903
 40
0.654276332
 40
1.0
 40
1.0
 40
1.0
 40
1.0
 10
7.6558810021
 20
5.0892677711
 30
0.0
 10
7.6556874402
 20
5.0893781682
 30
0.0
 10
7.6552415568
 20
5.0895927924
 30
0.0
 10
7.6544812228
 20
5.0898848458
 30
0.0
 10
7.6535645926
 20
5.0901773845
 30
0.0
 10
7.6524915539
 20
5.0904702371
 30
0.0
 10
7.6512618886
 20
5.0907633376
 30
0.0
 10
7.6493133933
 20
5.0911753399
 30
0.0
 10
7.647767147
 20
5.0914511408
 30
0.0
 10
7.6466839069
 20
5.0916306803
 30
0.0
  0
SPLINE
  5
388
100
AcDbEntity
  8
0
100
AcDbSpline
 62
7
  6
CONTINUOUS
 70
0
 71
3
 72
14
 73
10
 74
0
 42
0.0000001
 43
0.0000001
 44
0.0000000001
 40
0.0
 40
0.0
 40
0.0
 40
0.0
 40
0.0693513886
 40
0.1540506322
 40
0.2545414672
 40
0.3710778775
 40
0.5038134319
 40
0.6528442102
 40
1.0
 40
1.0
 40
1.0
 40
1.0
 10
5.5950519528
 20
5.0142365412
 30
0.0
 10
5.5952432747
 20
5.0143478067
 30
0.0
 10
5.5956861082
 20
5.0145640691
 30
0.0
 10
5.5964438102
 20
5.0148581932
 30
0.0
 10
5.5973608715
 20
5.0151532771
 30
0.0
 10
5.5984374156
 20
5.0154490816
 30
0.0
 10
5.5996736842
 20
5.0157454794
 30
0.0
 10
5.6016370832
 20
5.0161627795
 30
0.0
 10
5.6031962125
 20
5.0164420554
 30
0.0
 10
5.604289076
 20
5.0166239065
 30
0.0
  0
SPLINE
  5
389
100
AcDbEntity
  8
0
100
AcDbSpline
 62
7
  6
CONTINUOUS
 70
0
 71
3
 72
47
 73
43
 74
0
 42
0.0000001
 43
0.0000001
 44
0.0000000001
 40
0.0
 40
0.0
 40
0.0
 40
0.0
 40
0.0016808434
 40
0.0035976671
 40
0.0057504598
 40
0.0081389566
 40
0.0136184641
 40
0.0200250353
 40
0.0273465345
 40
0.0355705057
 40
0.0446840148
 40
0.0546696661
 40
0.0655066446
 40
0.0771739943
 40
0.1029151738
 40
0.1317006799
 40
0.1633069267
 40
0.1975002288
 40
0.2340152911
 40
0.2725776029
 40
0.3128935791
 40
0.3546549316
 40
0.3975468003
 40
0.485405024
 40
0.5738009637
 40
0.6600503432
 40
0.7015455738
 40
0.7415332662
 40
0.7797060756
 40
0.8157757219
 40
0.8494686853
 40
0.8805252593
 40
0.9087156515
 40
0.9338191585
 40
0.9451547119
 40
0.9556514583
 40
0.9652884706
 40
0.9740455732
 40
0.9819077522
 40
0.9888624013
 40
0.9948971456
 40
1.0
 40
1.0
 40
1.0
 40
1.0
 10
5.604289076
 20
5.0166239065
 30
0.0
 10
5.6054117243
 20
5.0168107137
 30
0.0
 10
5.6078199185
 20
5.0171789212
 30
0.0
 10
5.6116791377
 20
5.0176961949
 30
0.0
 10
5.6160212075
 20
5.0182142264
 30
0.0
 10
5.6227674905
 20
5.0189390836
 30
0.0
 10
5.6323919935
 20
5.0198302224
 30
0.0
 10
5.6453566184
 20
5.020860621
 30
0.0
 10
5.660184431
 20
5.0218933056
 30
0.0
 10
5.676848844
 20
5.0229279173
 30
0.0
 10
5.695320175
 20
5.0239636323
 30
0.0
 10
5.715563211
 20
5.0250003116
 30
0.0
 10
5.7375374599
 20
5.0260379041
 30
0.0
 10
5.7701727349
 20
5.0274695903
 30
0.0
 10
5.8149573772
 20
5.0292397035
 30
0.0
 10
5.8732407835
 20
5.0313044477
 30
0.0
 10
5.9372501847
 20
5.0333725973
 30
0.0
 10
6.0064956419
 20
5.0354424494
 30
0.0
 10
6.0804528871
 20
5.037514321
 30
0.0
 10
6.1585572434
 20
5.0395871837
 30
0.0
 10
6.2402149841
 20
5.0416608883
 30
0.0
 10
6.324805117
 20
5.0437354061
 30
0.0
 10
6.4415778327
 20
5.0465240385
 30
0.0
 10
6.5899196995
 20
5.0499699886
 30
0.0
 10
6.7676111814
 20
5.0540738472
 30
0.0
 10
6.9139171961
 20
5.057533716
 30
0.0
 10
7.0274527259
 20
5.0603356525
 30
0.0
 10
7.1084440604
 20
5.0624091782
 30
0.0
 10
7.1857605487
 20
5.0644818814
 30
0.0
 10
7.2588133593
 20
5.0665533201
 30
0.0
 10
7.3270458288
 20
5.0686229201
 30
0.0
 10
7.3899407567
 20
5.0706907418
 30
0.0
 10
7.4470165416
 20
5.0727546435
 30
0.0
 10
7.4907409705
 20
5.0745252969
 30
0.0
 10
7.5224885329
 20
5.0759581929
 30
0.0
 10
7.5437709224
 20
5.0769954898
 30
0.0
 10
7.5633052579
 20
5.0780321735
 30
0.0
 10
7.581053036
 20
5.0790685747
 30
0.0
 10
7.5969812702
 20
5.0801037721
 30
0.0
 10
7.6110621089
 20
5.0811363555
 30
0.0
 10
7.6232691916
 20
5.082165037
 30
0.0
 10
7.6307741107
 20
5.0829088618
 30
0.0
 10
7.6342080956
 20
5.0832902448
 30
0.0
  0
SPLINE
  5
38A
100
AcDbEntity
  8
0
100
AcDbSpline
 62
7
  6
CONTINUOUS
 70
0
 71
3
 72
14
 73
10
 74
0
 42
0.0000001
 43
0.0000001
 44
0.0000000001
 40
0.0
 40
0.0
 40
0.0
 40
0.0
 40
0.340358006
 40
0.4879032746
 40
0.62035964
 40
0.7377428609
 40
0.8400883004
 40
0.9274644209
 40
1.0
 40
1.0
 40
1.0
 40
1.0
 10
7.6342080956
 20
5.0832902448
 30
0.0
 10
7.6364979997
 20
5.0835445647
 30
0.0
 10
7.6397779924
 20
5.0839347235
 30
0.0
 10
7.6439375053
 20
5.0845130007
 30
0.0
 10
7.6465958762
 20
5.0849253291
 30
0.0
 10
7.648944266
 20
5.0853371437
 30
0.0
 10
7.6509824207
 20
5.0857483126
 30
0.0
 10
7.6527100002
 20
5.0861586269
 30
0.0
 10
7.653750932
 20
5.0864586143
 30
0.0
 10
7.654216984
 20
5.0866131811
 30
0.0
  0
LINE
  5
38B
100
AcDbEntity
  8
0
100
AcDbLine
 62
7
  6
CONTINUOUS
 10
7.654216984
 20
5.0866131811
 11
7.6551102459
 21
5.086941871
  0
SPLINE
  5
38C
100
AcDbEntity
  8
0
100
AcDbSpline
 62
7
  6
CONTINUOUS
 70
0
 71
3
 72
14
 73
10
 74
0
 42
0.0000001
 43
0.0000001
 44
0.0000000001
 40
0.0
 40
0.0
 40
0.0
 40
0.0
 40
0.3559736663
 40
0.5036275125
 40
0.6321911834
 40
0.7431337949
 40
0.8387524242
 40
0.9226268793
 40
1.0
 40
1.0
 40
1.0
 40
1.0
 10
7.6551102459
 20
5.086941871
 30
0.0
 10
7.6553525561
 20
5.0870419883
 30
0.0
 10
7.6556910408
 20
5.0871963757
 30
0.0
 10
7.6560917247
 20
5.0874344064
 30
0.0
 10
7.6563230697
 20
5.0876019841
 30
0.0
 10
7.6565047025
 20
5.0877702587
 30
0.0
 10
7.6566366688
 20
5.0879402454
 30
0.0
 10
7.6567180192
 20
5.088113153
 30
0.0
 10
7.6567368012
 20
5.0882325258
 30
0.0
 10
7.6567368012
 20
5.088289512
 30
0.0
  0
SPLINE
  5
38D
100
AcDbEntity
  8
0
100
AcDbSpline
 62
7
  6
CONTINUOUS
 70
0
 71
3
 72
14
 73
10
 74
0
 42
0.0000001
 43
0.0000001
 44
0.0000000001
 40
0.0
 40
0.0
 40
0.0
 40
0.0
 40
0.0693964361
 40
0.1541462825
 40
0.2546786894
 40
0.3712391521
 40
0.5039759613
 40
0.6529817309
 40
1.0
 40
1.0
 40
1.0
 40
1.0
 10
7.6559162926
 20
4.9392316607
 30
0.0
 10
7.6557245732
 20
4.9393422299
 30
0.0
 10
7.6552812429
 20
4.9395573348
 30
0.0
 10
7.6545232566
 20
4.9398503926
 30
0.0
 10
7.6536062964
 20
4.9401448517
 30
0.0
 10
7.6525302485
 20
4.9404404189
 30
0.0
 10
7.6512948826
 20
4.940736909
 30
0.0
 10
7.6493334937
 20
4.9411546956
 30
0.0
 10
7.6477761045
 20
4.9414346874
 30
0.0
 10
7.6466845261
 20
4.9416170542
 30
0.0
  0
SPLINE
  5
38E
100
AcDbEntity
  8
0
100
AcDbSpline
 62
7
  6
CONTINUOUS
 70
0
 71
3
 72
14
 73
10
 74
0
 42
0.0000001
 43
0.0000001
 44
0.0000000001
 40
0.0
 40
0.0
 40
0.0
 40
0.0
 40
0.0700949856
 40
0.1553458988
 40
0.2561775839
 40
0.3728356324
 40
0.5054697057
 40
0.6541740681
 40
1.0
 40
1.0
 40
1.0
 40
1.0
 10
5.5950900433
 20
4.8642634677
 30
0.0
 10
5.5952834925
 20
4.8643737748
 30
0.0
 10
5.5957292131
 20
4.8645882688
 30
0.0
 10
5.5964893741
 20
4.864880258
 30
0.0
 10
5.5974060282
 20
4.8651728889
 30
0.0
 10
5.5984792865
 20
4.8654659702
 30
0.0
 10
5.5997093663
 20
4.8657594155
 30
0.0
 10
5.6016587969
 20
4.8661720555
 30
0.0
 10
5.6032058498
 20
4.8664483753
 30
0.0
 10
5.6042896955
 20
4.86662827
 30
0.0
  0
LINE
  5
38F
100
AcDbEntity
  8
0
100
AcDbLine
 62
7
  6
CONTINUOUS
 10
5.6042896955
 20
4.86662827
 11
5.6167849367
 21
4.8682909424
  0
SPLINE
  5
390
100
AcDbEntity
  8
0
100
AcDbSpline
 62
7
  6
CONTINUOUS
 70
0
 71
3
 72
11
 73
7
 74
0
 42
0.0000001
 43
0.0000001
 44
0.0000000001
 40
0.0
 40
0.0
 40
0.0
 40
0.0
 40
0.2045532786
 40
0.4396117897
 40
0.7048669988
 40
1.0
 40
1.0
 40
1.0
 40
1.0
 10
5.6167849367
 20
4.8682909424
 30
0.0
 10
5.6194827221
 20
4.868590776
 30
0.0
 10
5.6252867234
 20
4.8691803596
 30
0.0
 10
5.6346038642
 20
4.8700060774
 30
0.0
 10
5.6451269837
 20
4.8708337409
 30
0.0
 10
5.6525447832
 20
4.8713586593
 30
0.0
 10
5.656452211
 20
4.8716232742
 30
0.0
  0
SPLINE
  5
391
100
AcDbEntity
  8
0
100
AcDbSpline
 62
7
  6
CONTINUOUS
 70
0
 71
3
 72
59
 73
55
 74
0
 42
0.0000001
 43
0.0000001
 44
0.0000000001
 40
0.0
 40
0.0
 40
0.0
 40
0.0
 40
0.0081603234
 40
0.0172258329
 40
0.0271801236
 40
0.0380023047
 40
0.0496711299
 40
0.0621653107
 40
0.0895394806
 40
0.1199125459
 40
0.1530550872
 40
0.1887175994
 40
0.2266246597
 40
0.2664930886
 40
0.3080157808
 40
0.3947563797
 40
0.4842124036
 40
0.5291113072
 40
0.5736679422
 40
0.6175448913
 40
0.6604071014
 40
0.701928724
 40
0.7417958651
 40
0.7797014264
 40
0.8153622381
 40
0.8485028927
 40
0.8788738959
 40
0.9062458638
 40
0.9187388955
 40
0.9304065359
 40
0.9412274933
 40
0.9511805167
 40
0.960244708
 40
0.9684036695
 40
0.9756445424
 40
0.981954775
 40
0.9847570977
 40
0.9873222477
 40
0.9896488593
 40
0.9917362264
 40
0.9935842081
 40
0.9951928696
 40
0.996562607
 40
0.9976944278
 40
0.9981718147
 40
0.9985907712
 40
0.99895208
 40
0.9992570101
 40
0.9995077395
 40
0.9997082849
 40
0.9997921775
 40
0.9998671021
 40
0.999935366
 40
1.0
 40
1.0
 40
1.0
 40
1.0
 10
5.656452211
 20
4.8716232742
 30
0.0
 10
5.6618862774
 20
4.8719912746
 30
0.0
 10
5.6733604632
 20
4.8727199483
 30
0.0
 10
5.6914719893
 20
4.8737561029
 30
0.0
 10
5.7113627481
 20
4.8747927815
 30
0.0
 10
5.7329931727
 20
4.87583015
 30
0.0
 10
5.7563205885
 20
4.8768680873
 30
0.0
 10
5.790688846
 20
4.8782964825
 30
0.0
 10
5.8375374881
 20
4.8800642447
 30
0.0
 10
5.898165692
 20
4.8821307846
 30
0.0
 10
5.9643287018
 20
4.8841997705
 30
0.0
 10
6.0355223972
 20
4.8862704013
 30
0.0
 10
6.1112069317
 20
4.8883427979
 30
0.0
 10
6.1908041391
 20
4.8904159346
 30
0.0
 10
6.3029866169
 20
4.893222311
 30
0.0
 10
6.4482595725
 20
4.896686764
 30
0.0
 10
6.5957876806
 20
4.9001019884
 30
0.0
 10
6.7151681371
 20
4.9028655978
 30
0.0
 10
6.8041351534
 20
4.9049409001
 30
0.0
 10
6.8917424369
 20
4.9070158621
 30
0.0
 10
6.9773234674
 20
4.9090904535
 30
0.0
 10
7.0602274033
 20
4.9111645662
 30
0.0
 10
7.1398220366
 20
4.913237681
 30
0.0
 10
7.2155035723
 20
4.9153101771
 30
0.0
 10
7.2866938705
 20
4.9173808417
 30
0.0
 10
7.3528531156
 20
4.9194495722
 30
0.0
 10
7.4134772221
 20
4.9215158143
 30
0.0
 10
7.4603222371
 20
4.9232839224
 30
0.0
 10
7.4946874318
 20
4.9247131133
 30
0.0
 10
7.5180124495
 20
4.925751517
 30
0.0
 10
7.5396404141
 20
4.9267889704
 30
0.0
 10
7.5595286505
 20
4.9278251238
 30
0.0
 10
7.5776376337
 20
4.9288597093
 30
0.0
 10
7.5939333001
 20
4.9298926232
 30
0.0
 10
7.6083868391
 20
4.9309241173
 30
0.0
 10
7.6192657595
 20
4.9318136463
 30
0.0
 10
7.6270265013
 20
4.9325353402
 30
0.0
 10
7.632135535
 20
4.9330551053
 30
0.0
 10
7.6367646619
 20
4.9335750889
 30
0.0
 10
7.6409118171
 20
4.9340950033
 30
0.0
 10
7.6445756826
 20
4.9346142092
 30
0.0
 10
7.6477554657
 20
4.9351318792
 30
0.0
 10
7.6504502686
 20
4.935647422
 30
0.0
 10
7.6523883551
 20
4.9360954397
 30
0.0
 10
7.6536918601
 20
4.9364614664
 30
0.0
 10
7.6544909304
 20
4.9367194477
 30
0.0
 10
7.6551684785
 20
4.9369764754
 30
0.0
 10
7.6557251829
 20
4.9372325874
 30
0.0
 10
7.656161592
 20
4.9374877599
 30
0.0
 10
7.6564423459
 20
4.9377128806
 30
0.0
 10
7.6565981814
 20
4.9378962008
 30
0.0
 10
7.6566774993
 20
4.9380262712
 30
0.0
 10
7.6567258224
 20
4.9381573521
 30
0.0
 10
7.6567368012
 20
4.9382463728
 30
0.0
 10
7.6567368012
 20
4.938289512
 30
0.0
  0
SPLINE
  5
392
100
AcDbEntity
  8
0
100
AcDbSpline
 62
7
  6
CONTINUOUS
 70
0
 71
3
 72
14
 73
10
 74
0
 42
0.0000001
 43
0.0000001
 44
0.0000000001
 40
0.0
 40
0.0
 40
0.0
 40
0.0
 40
0.0700951141
 40
0.1553461195
 40
0.2561778598
 40
0.3728359262
 40
0.5054699804
 40
0.6541742872
 40
1.0
 40
1.0
 40
1.0
 40
1.0
 10
5.5950900432
 20
5.3079386048
 30
0.0
 10
5.5952834914
 20
5.3078282983
 30
0.0
 10
5.5957292096
 20
5.3076138053
 30
0.0
 10
5.5964893659
 20
5.3073218174
 30
0.0
 10
5.597406014
 20
5.3070291878
 30
0.0
 10
5.5984792648
 20
5.3067361078
 30
0.0
 10
5.5997093358
 20
5.3064426639
 30
0.0
 10
5.6016587518
 20
5.3060300258
 30
0.0
 10
5.6032057929
 20
5.3057537072
 30
0.0
 10
5.6042896305
 20
5.3055738133
 30
0.0
  0
SPLINE
  5
393
100
AcDbEntity
  8
0
100
AcDbSpline
 62
7
  6
CONTINUOUS
 70
0
 71
3
 72
14
 73
10
 74
0
 42
0.0000001
 43
0.0000001
 44
0.0000000001
 40
0.0
 40
0.0
 40
0.0
 40
0.0
 40
0.069396436
 40
0.1541462822
 40
0.254678689
 40
0.3712391516
 40
0.5039759609
 40
0.6529817305
 40
1.0
 40
1.0
 40
1.0
 40
1.0
 10
7.6559162926
 20
5.2329704118
 30
0.0
 10
7.6557245732
 20
5.2328598426
 30
0.0
 10
7.6552812429
 20
5.2326447377
 30
0.0
 10
7.6545232566
 20
5.2323516799
 30
0.0
 10
7.6536062964
 20
5.2320572207
 30
0.0
 10
7.6525302485
 20
5.2317616536
 30
0.0
 10
7.6512948826
 20
5.2314651635
 30
0.0
 10
7.6493334937
 20
5.2310473769
 30
0.0
 10
7.6477761045
 20
5.2307673851
 30
0.0
 10
7.6466845261
 20
5.2305850183
 30
0.0
  0
SPLINE
  5
394
100
AcDbEntity
  8
0
100
AcDbSpline
 62
7
  6
CONTINUOUS
 70
0
 71
3
 72
47
 73
43
 74
0
 42
0.0000001
 43
0.0000001
 44
0.0000000001
 40
0.0
 40
0.0
 40
0.0
 40
0.0
 40
0.0016810095
 40
0.0035979821
 40
0.0057508924
 40
0.0081394676
 40
0.0136190397
 40
0.020025605
 40
0.0273470675
 40
0.0355709975
 40
0.0446844787
 40
0.0546701172
 40
0.0655070918
 40
0.0771744415
 40
0.1029156172
 40
0.1317011083
 40
0.1633073357
 40
0.1975006188
 40
0.234015662
 40
0.2725779536
 40
0.3128939082
 40
0.3546552383
 40
0.3975470841
 40
0.4854052608
 40
0.5738011531
 40
0.6600504865
 40
0.7015456947
 40
0.7415333657
 40
0.7797061551
 40
0.8157757824
 40
0.8494687266
 40
0.8805252815
 40
0.9087156604
 40
0.9338191652
 40
0.9451547172
 40
0.9556514569
 40
0.9652884514
 40
0.97404552
 40
0.981907658
 40
0.9888622795
 40
0.9948970398
 40
1.0
 40
1.0
 40
1.0
 40
1.0
 10
7.6466845261
 20
5.2305850183
 30
0.0
 10
7.6455618879
 20
5.2303974625
 30
0.0
 10
7.6431537225
 20
5.2300276467
 30
0.0
 10
7.6392945114
 20
5.2295080805
 30
0.0
 10
7.6349524451
 20
5.2289880087
 30
0.0
 10
7.6282061967
 20
5.2282611115
 30
0.0
 10
7.6185816782
 20
5.2273689541
 30
0.0
 10
7.6056170096
 20
5.2263387973
 30
0.0
 10
7.5907891692
 20
5.2253071939
 30
0.0
 10
7.574124739
 20
5.2242738848
 30
0.0
 10
7.5556534088
 20
5.2232389925
 30
0.0
 10
7.535410381
 20
5.2222025477
 30
0.0
 10
7.5134361373
 20
5.2211648436
 30
0.0
 10
7.4808008697
 20
5.2197327115
 30
0.0
 10
7.4360162351
 20
5.2179620998
 30
0.0
 10
7.3777328195
 20
5.215897452
 30
0.0
 10
7.3137234138
 20
5.2138295091
 30
0.0
 10
7.2444779576
 20
5.2117596899
 30
0.0
 10
7.1705207138
 20
5.2096877631
 30
0.0
 10
7.0924163577
 20
5.2076148688
 30
0.0
 10
7.0107586166
 20
5.2055411743
 30
0.0
 10
6.9261684836
 20
5.2034666704
 30
0.0
 10
6.809395768
 20
5.2006780374
 30
0.0
 10
6.6610539015
 20
5.1972320818
 30
0.0
 10
6.4833624197
 20
5.1931282268
 30
0.0
 10
6.3370564055
 20
5.1896683489
 30
0.0
 10
6.2235208755
 20
5.1868664326
 30
0.0
 10
6.1425295407
 20
5.1847929123
 30
0.0
 10
6.065213053
 20
5.182720168
 30
0.0
 10
5.9921602442
 20
5.1806486811
 30
0.0
 10
5.9239277749
 20
5.1785791529
 30
0.0
 10
5.8610328419
 20
5.1765115354
 30
0.0
 10
5.8039570484
 20
5.1744476516
 30
0.0
 10
5.7602326315
 20
5.1726763936
 30
0.0
 10
5.7284850753
 20
5.1712431444
 30
0.0
 10
5.7072026916
 20
5.1702058618
 30
0.0
 10
5.6876683644
 20
5.1691695919
 30
0.0
 10
5.6699205787
 20
5.1681342551
 30
0.0
 10
5.6539923245
 20
5.1671003117
 30
0.0
 10
5.6399114527
 20
5.1660685284
 30
0.0
 10
5.6277043174
 20
5.1650395923
 30
0.0
 10
5.6201994327
 20
5.1642944063
 30
0.0
 10
5.6167655069
 20
5.1639118276
 30
0.0
  0
SPLINE
  5
395
100
AcDbEntity
  8
0
100
AcDbSpline
 62
7
  6
CONTINUOUS
 70
0
 71
3
 72
14
 73
10
 74
0
 42
0.0000001
 43
0.0000001
 44
0.0000000001
 40
0.0
 40
0.0
 40
0.0
 40
0.0
 40
0.340351514
 40
0.487897988
 40
0.6203575434
 40
0.7377448805
 40
0.8400938317
 40
0.9274705333
 40
1.0
 40
1.0
 40
1.0
 40
1.0
 10
5.6167655069
 20
5.1639118276
 30
0.0
 10
5.6144755643
 20
5.1636567018
 30
0.0
 10
5.611195539
 20
5.1632649867
 30
0.0
 10
5.6070360745
 20
5.162684196
 30
0.0
 10
5.6043777119
 20
5.1622701343
 30
0.0
 10
5.6020293359
 20
5.1618567961
 30
0.0
 10
5.5999912057
 20
5.1614444598
 30
0.0
 10
5.5982636665
 20
5.16103348
 30
0.0
 10
5.5972227138
 20
5.1607334567
 30
0.0
 10
5.5967566184
 20
5.1605790364
 30
0.0
  0
LINE
  5
396
100
AcDbEntity
  8
0
100
AcDbLine
 62
7
  6
CONTINUOUS
 10
5.5967566184
 20
5.1605790364
 11
5.5958633566
 21
5.1602509529
  0
SPLINE
  5
397
100
AcDbEntity
  8
0
100
AcDbSpline
 62
7
  6
CONTINUOUS
 70
0
 71
3
 72
14
 73
10
 74
0
 42
0.0000001
 43
0.0000001
 44
0.0000000001
 40
0.0
 40
0.0
 40
0.0
 40
0.0
 40
0.3568486297
 40
0.5047626461
 40
0.6334487915
 40
0.7443553908
 40
0.8397563639
 40
0.9232170234
 40
1.0
 40
1.0
 40
1.0
 40
1.0
 10
5.5958633566
 20
5.1602509529
 30
0.0
 10
5.5956211113
 20
5.1601511312
 30
0.0
 10
5.5952827353
 20
5.1599973261
 30
0.0
 10
5.5948819794
 20
5.1597604608
 30
0.0
 10
5.5946506627
 20
5.1595939383
 30
0.0
 10
5.5944690527
 20
5.1594269287
 30
0.0
 10
5.5943370801
 20
5.1592584275
 30
0.0
 10
5.5942556561
 20
5.159087199
 30
0.0
 10
5.5942368012
 20
5.1589689362
 30
0.0
 10
5.5942368012
 20
5.1589125605
 30
0.0
  0
SPLINE
  5
398
100
AcDbEntity
  8
0
100
AcDbSpline
 62
7
  6
CONTINUOUS
 70
0
 71
3
 72
14
 73
10
 74
0
 42
0.0000001
 43
0.0000001
 44
0.0000000001
 40
0.0
 40
0.0
 40
0.0
 40
0.0
 40
0.0693513885
 40
0.1540506319
 40
0.2545414669
 40
0.3710778771
 40
0.5038134315
 40
0.6528442099
 40
1.0
 40
1.0
 40
1.0
 40
1.0
 10
5.5950519528
 20
5.1579655313
 30
0.0
 10
5.5952432747
 20
5.1578542658
 30
0.0
 10
5.5956861082
 20
5.1576380034
 30
0.0
 10
5.5964438101
 20
5.1573438793
 30
0.0
 10
5.5973608715
 20
5.1570487954
 30
0.0
 10
5.5984374156
 20
5.1567529909
 30
0.0
 10
5.5996736842
 20
5.1564565931
 30
0.0
 10
5.6016370832
 20
5.156039293
 30
0.0
 10
5.6031962125
 20
5.1557600171
 30
0.0
 10
5.604289076
 20
5.155578166
 30
0.0
  0
SPLINE
  5
399
100
AcDbEntity
  8
0
100
AcDbSpline
 62
7
  6
CONTINUOUS
 70
0
 71
3
 72
34
 73
30
 74
0
 42
0.0000001
 43
0.0000001
 44
0.0000000001
 40
0.0
 40
0.0
 40
0.0
 40
0.0
 40
0.0005221004
 40
0.0010733771
 40
0.0016791679
 40
0.0023588101
 40
0.0039888618
 40
0.0060347738
 40
0.0085309751
 40
0.0114967706
 40
0.0149440311
 40
0.0188806662
 40
0.0282405661
 40
0.0395929253
 40
0.0529365673
 40
0.0682652619
 40
0.0855700849
 40
0.1048405425
 40
0.1260651663
 40
0.1492318513
 40
0.2013407185
 40
0.2610642674
 40
0.3282998464
 40
0.4029452326
 40
0.4848972498
 40
0.5740520823
 40
0.6703039514
 40
0.7735064157
 40
1.0
 40
1.0
 40
1.0
 40
1.0
 10
4.9660855513
 20
2.383643503
 30
0.0
 10
4.9660444731
 20
2.383643391
 30
0.0
 10
4.9659596763
 20
2.3836537334
 30
0.0
 10
4.9658349054
 20
2.3837000668
 30
0.0
 10
4.9657112864
 20
2.3837763875
 30
0.0
 10
4.9655371008
 20
2.3839267775
 30
0.0
 10
4.9653237337
 20
2.3841982697
 30
0.0
 10
4.9650825604
 20
2.3846206628
 30
0.0
 10
4.9648409015
 20
2.3851605018
 30
0.0
 10
4.9645987517
 20
2.3858186857
 30
0.0
 10
4.9643560422
 20
2.3865962554
 30
0.0
 10
4.9640117771
 20
2.3878681054
 30
0.0
 10
4.9635916737
 20
2.3897623117
 30
0.0
 10
4.9631091631
 20
2.3923983179
 30
0.0
 10
4.9626250224
 20
2.3955102894
 30
0.0
 10
4.9621395263
 20
2.3990951623
 30
0.0
 10
4.9616531887
 20
2.4031499785
 30
0.0
 10
4.9611662303
 20
2.4076715554
 30
0.0
 10
4.9606787954
 20
2.4126566902
 30
0.0
 10
4.9600015929
 20
2.4202190295
 30
0.0
 10
4.9591656204
 20
2.4308079509
 30
0.0
 10
4.958195128
 20
2.4448635192
 30
0.0
 10
4.957223081
 20
2.4606958664
 30
0.0
 10
4.9562497216
 20
2.4782799755
 30
0.0
 10
4.955275392
 20
2.4975910048
 30
0.0
 10
4.9543002277
 20
2.5186039418
 30
0.0
 10
4.9533244883
 20
2.5412904746
 30
0.0
 10
4.9519808146
 20
2.574776699
 30
0.0
 10
4.9510380229
 20
2.6006998101
 30
0.0
 10
4.950420598
 20
2.61850939
 30
0.0
  0
LINE
  5
39A
100
AcDbEntity
  8
0
100
AcDbLine
 62
7
  6
CONTINUOUS
 10
4.950420598
 20
2.61850939
 11
4.9501948162
 21
2.6250620328
  0
SPLINE
  5
39B
100
AcDbEntity
  8
0
100
AcDbSpline
 62
7
  6
CONTINUOUS
 70
0
 71
3
 72
15
 73
11
 74
0
 42
0.0000001
 43
0.0000001
 44
0.0000000001
 40
0.0
 40
0.0
 40
0.0
 40
0.0
 40
0.0951728144
 40
0.2018921036
 40
0.3187177322
 40
0.4441846088
 40
0.5096965711
 40
0.576799808
 40
0.714864585
 40
1.0
 40
1.0
 40
1.0
 40
1.0
 10
4.9501948162
 20
2.6250620328
 30
0.0
 10
4.9492326278
 20
2.6531566825
 30
0.0
 10
4.947345018
 20
2.7127597233
 30
0.0
 10
4.9446802789
 20
2.8068615122
 30
0.0
 10
4.9420084017
 20
2.9099143041
 30
0.0
 10
4.9398105643
 20
3.0008037381
 30
0.0
 10
4.9380405844
 20
3.0770126951
 30
0.0
 10
4.9362285341
 20
3.1569426992
 30
0.0
 10
4.933044675
 20
3.3017282605
 30
0.0
 10
4.9303999582
 20
3.4267006067
 30
0.0
 10
4.9286166531
 20
3.5109019541
 30
0.0
  0
SPLINE
  5
39C
100
AcDbEntity
  8
0
100
AcDbSpline
 62
7
  6
CONTINUOUS
 70
0
 71
3
 72
14
 73
10
 74
0
 42
0.0000001
 43
0.0000001
 44
0.0000000001
 40
0.0
 40
0.0
 40
0.0
 40
0.0
 40
0.2770991419
 40
0.4121715073
 40
0.5431158466
 40
0.6686289094
 40
0.7874284603
 40
0.898256688
 40
1.0
 40
1.0
 40
1.0
 40
1.0
 10
4.9286166531
 20
3.5109019541
 30
0.0
 10
4.9270305123
 20
3.5857939023
 30
0.0
 10
4.9246711153
 20
3.69719204
 30
0.0
 10
4.9214679703
 20
3.8439786512
 30
0.0
 10
4.919087489
 20
3.9497948835
 30
0.0
 10
4.916707607
 20
4.0512109165
 30
0.0
 10
4.9143289139
 20
4.147187388
 30
0.0
 10
4.9119526381
 20
4.2367360995
 30
0.0
 10
4.9102946649
 20
4.294177135
 30
0.0
 10
4.9094567294
 20
4.3216688328
 30
0.0
  0
LINE
  5
39D
100
AcDbEntity
  8
0
100
AcDbLine
 62
7
  6
CONTINUOUS
 10
4.9094567294
 20
4.3216688328
 11
4.9091726709
 21
4.3309313923
  0
LINE
  5
39E
100
AcDbEntity
  8
0
100
AcDbLine
 62
7
  6
CONTINUOUS
 10
4.9074647623
 20
4.3841571709
 11
4.9070420817
 21
4.3966580596
  0
SPLINE
  5
39F
100
AcDbEntity
  8
0
100
AcDbSpline
 62
7
  6
CONTINUOUS
 70
0
 71
3
 72
23
 73
19
 74
0
 42
0.0000001
 43
0.0000001
 44
0.0000000001
 40
0.0
 40
0.0
 40
0.0
 40
0.0
 40
0.2038638965
 40
0.3869243886
 40
0.5479097127
 40
0.6197965405
 40
0.6858702671
 40
0.7460878929
 40
0.8004069792
 40
0.8487859319
 40
0.8911834797
 40
0.9275498497
 40
0.9434550607
 40
0.9578335303
 40
0.9706801373
 40
0.981990914
 40
0.9917637851
 40
1.0
 40
1.0
 40
1.0
 40
1.0
 10
4.9070420817
 20
4.3966580596
 30
0.0
 10
4.9064882773
 20
4.4128579245
 30
0.0
 10
4.9053921437
 20
4.4436030345
 30
0.0
 10
4.9036665737
 20
4.487133567
 30
0.0
 10
4.9021819923
 20
4.5201715174
 30
0.0
 10
4.9009780329
 20
4.5439104176
 30
0.0
 10
4.9001100954
 20
4.5596438106
 30
0.0
 10
4.8992430028
 20
4.5739781247
 30
0.0
 10
4.8983769563
 20
4.586902761
 30
0.0
 10
4.8975124642
 20
4.5984071246
 30
0.0
 10
4.8966500084
 20
4.6084796641
 30
0.0
 10
4.8959047559
 20
4.6159702846
 30
0.0
 10
4.8952992672
 20
4.6212350635
 30
0.0
 10
4.8948661355
 20
4.6246370191
 30
0.0
 10
4.8944336406
 20
4.6276704837
 30
0.0
 10
4.8940020042
 20
4.6303337784
 30
0.0
 10
4.8935715293
 20
4.6326251797
 30
0.0
 10
4.8932593484
 20
4.6340231848
 30
0.0
 10
4.8930992374
 20
4.634658176
 30
0.0
  0
SPLINE
  5
3A0
100
AcDbEntity
  8
0
100
AcDbSpline
 62
7
  6
CONTINUOUS
 70
0
 71
3
 72
11
 73
7
 74
0
 42
0.0000001
 43
0.0000001
 44
0.0000000001
 40
0.0
 40
0.0
 40
0.0
 40
0.0
 40
0.3166455464
 40
0.5883431125
 40
0.8157251674
 40
1.0
 40
1.0
 40
1.0
 40
1.0
 10
4.8930992374
 20
4.634658176
 30
0.0
 10
4.8930108582
 20
4.635008683
 30
0.0
 10
4.8928366408
 20
4.6356575066
 30
0.0
 10
4.8925559534
 20
4.6365458981
 30
0.0
 10
4.8922762505
 20
4.6372746188
 30
0.0
 10
4.8920695496
 20
4.6376980928
 30
0.0
 10
4.8919628253
 20
4.6378793756
 30
0.0
  0
SPLINE
  5
3A1
100
AcDbEntity
  8
0
100
AcDbSpline
 62
7
  6
CONTINUOUS
 70
0
 71
3
 72
14
 73
10
 74
0
 42
0.0000001
 43
0.0000001
 44
0.0000000001
 40
0.0
 40
0.0
 40
0.0
 40
0.0
 40
0.0701609631
 40
0.1554560869
 40
0.256312239
 40
0.37297647
 40
0.5055994898
 40
0.6542763316
 40
1.0
 40
1.0
 40
1.0
 40
1.0
 10
7.6558810021
 20
5.0829343014
 30
0.0
 10
7.6556874402
 20
5.0828239043
 30
0.0
 10
7.6552415568
 20
5.0826092801
 30
0.0
 10
7.6544812229
 20
5.0823172267
 30
0.0
 10
7.6535645926
 20
5.082024688
 30
0.0
 10
7.6524915539
 20
5.0817318354
 30
0.0
 10
7.6512618887
 20
5.0814387349
 30
0.0
 10
7.6493133933
 20
5.0810267326
 30
0.0
 10
7.647767147
 20
5.0807509317
 30
0.0
 10
7.6466839069
 20
5.0805713922
 30
0.0
  0
SPLINE
  5
3A2
100
AcDbEntity
  8
0
100
AcDbSpline
 62
7
  6
CONTINUOUS
 70
0
 71
3
 72
47
 73
43
 74
0
 42
0.0000001
 43
0.0000001
 44
0.0000000001
 40
0.0
 40
0.0
 40
0.0
 40
0.0
 40
0.0016807286
 40
0.0035974545
 40
0.0057501793
 40
0.0081386459
 40
0.0136181821
 40
0.0200248496
 40
0.0273464734
 40
0.0355705716
 40
0.0446841926
 40
0.0546699391
 40
0.065507002
 40
0.0771744302
 40
0.1029157616
 40
0.1317014201
 40
0.1633078113
 40
0.1975012442
 40
0.2340164235
 40
0.2725788384
 40
0.312894904
 40
0.3546563307
 40
0.397548258
 40
0.48540655
 40
0.5738024919
 40
0.6600518075
 40
0.7015469816
 40
0.7415346022
 40
0.7797073256
 40
0.8157768711
 40
0.8494697177
 40
0.8805261601
 40
0.908716416
 40
0.933819792
 40
0.9451552747
 40
0.9556519384
 40
0.9652888469
 40
0.9740458161
 40
0.9819078473
 40
0.9888623685
 40
0.9948970553
 40
1.0
 40
1.0
 40
1.0
 40
1.0
 10
7.6466839069
 20
5.0805713922
 30
0.0
 10
7.6455612165
 20
5.0803853141
 30
0.0
 10
7.6431529303
 20
5.0800186728
 30
0.0
 10
7.6392936075
 20
5.0795036307
 30
0.0
 10
7.6349514388
 20
5.0789875853
 30
0.0
 10
7.6282049953
 20
5.0782647144
 30
0.0
 10
7.6185803497
 20
5.0773745673
 30
0.0
 10
7.6056155801
 20
5.0763439331
 30
0.0
 10
7.5907876102
 20
5.0753101957
 30
0.0
 10
7.5741230331
 20
5.0742743159
 30
0.0
 10
7.5556515242
 20
5.0732377996
 30
0.0
 10
7.5354083071
 20
5.072200892
 30
0.0
 10
7.5134338839
 20
5.0711634082
 30
0.0
 10
7.4807983852
 20
5.0697321564
 30
0.0
 10
7.4360134772
 20
5.0679625288
 30
0.0
 10
7.3777297867
 20
5.0658976907
 30
0.0
 10
7.3137201195
 20
5.0638293398
 30
0.0
 10
7.2444744163
 20
5.0617594556
 30
0.0
 10
7.1705169519
 20
5.0596876377
 30
0.0
 10
7.0924124063
 20
5.0576148058
 30
0.0
 10
7.0107545073
 20
5.0555410915
 30
0.0
 10
6.9261642473
 20
5.0534665601
 30
0.0
 10
6.8093914271
 20
5.0506779273
 30
0.0
 10
6.6610495129
 20
5.0472319877
 30
0.0
 10
6.4833580748
 20
5.0431281236
 30
0.0
 10
6.3370521801
 20
5.0396682426
 30
0.0
 10
6.2235168105
 20
5.0368663391
 30
0.0
 10
6.1425256429
 20
5.0347928224
 30
0.0
 10
6.0652093525
 20
5.0327200507
 30
0.0
 10
5.9921567697
 20
5.0306485319
 30
0.0
 10
5.9239245518
 20
5.0285790516
 30
0.0
 10
5.8610298907
 20
5.0265115701
 30
0.0
 10
5.8039543891
 20
5.0244476983
 30
0.0
 10
5.7602302409
 20
5.0226760383
 30
0.0
 10
5.7284829069
 20
5.0212425541
 30
0.0
 10
5.707200697
 20
5.0202052811
 30
0.0
 10
5.6876665489
 20
5.0191692863
 30
0.0
 10
5.6699189353
 20
5.0181346567
 30
0.0
 10
5.6539908481
 20
5.0171015469
 30
0.0
 10
5.6399101374
 20
5.0160702955
 30
0.0
 10
5.6277031525
 20
5.0150411908
 30
0.0
 10
5.6201984153
 20
5.0142950996
 30
0.0
 10
5.6167645915
 20
5.0139117257
 30
0.0
  0
SPLINE
  5
3A3
100
AcDbEntity
  8
0
100
AcDbSpline
 62
7
  6
CONTINUOUS
 70
0
 71
3
 72
14
 73
10
 74
0
 42
0.0000001
 43
0.0000001
 44
0.0000000001
 40
0.0
 40
0.0
 40
0.0
 40
0.0
 40
0.3403474076
 40
0.4878947354
 40
0.6203564277
 40
0.7377464799
 40
0.8400977073
 40
0.9274747044
 40
1.0
 40
1.0
 40
1.0
 40
1.0
 10
5.6167645915
 20
5.0139117257
 30
0.0
 10
5.6144747114
 20
5.013656069
 30
0.0
 10
5.6111947912
 20
5.013263327
 30
0.0
 10
5.6070355207
 20
5.0126808767
 30
0.0
 10
5.6043772682
 20
5.0122656709
 30
0.0
 10
5.6020289947
 20
5.0118513278
 30
0.0
 10
5.5999909631
 20
5.0114382234
 30
0.0
 10
5.5982635215
 20
5.0110268089
 30
0.0
 10
5.5972225984
 20
5.0107267672
 30
0.0
 10
5.5967564941
 20
5.0105724469
 30
0.0
  0
LINE
  5
3A4
100
AcDbEntity
  8
0
100
AcDbLine
 62
7
  6
CONTINUOUS
 10
5.5967564941
 20
5.0105724469
 11
5.595863467
 21
5.0102448529
  0
SPLINE
  5
3A5
100
AcDbEntity
  8
0
100
AcDbSpline
 62
7
  6
CONTINUOUS
 70
0
 71
3
 72
14
 73
10
 74
0
 42
0.0000001
 43
0.0000001
 44
0.0000000001
 40
0.0
 40
0.0
 40
0.0
 40
0.0
 40
0.3574347413
 40
0.5055230849
 40
0.6342914065
 40
0.7451741077
 40
0.8404294873
 40
0.9236128726
 40
1.0
 40
1.0
 40
1.0
 40
1.0
 10
5.595863467
 20
5.0102448529
 30
0.0
 10
5.5956212487
 20
5.0101452242
 30
0.0
 10
5.5952829221
 20
5.0099918005
 30
0.0
 10
5.594882091
 20
5.0097557016
 30
0.0
 10
5.5946507777
 20
5.0095898745
 30
0.0
 10
5.594469171
 20
5.0094236997
 30
0.0
 10
5.5943371858
 20
5.0092561802
 30
0.0
 10
5.594255707
 20
5.0090860626
 30
0.0
 10
5.5942368012
 20
5.0089685326
 30
0.0
 10
5.5942368012
 20
5.0089125605
 30
0.0
  0
SPLINE
  5
3A6
100
AcDbEntity
  8
0
100
AcDbSpline
 62
7
  6
CONTINUOUS
 70
0
 71
3
 72
72
 73
68
 74
0
 42
0.0000001
 43
0.0000001
 44
0.0000000001
 40
0.0
 40
0.0
 40
0.0
 40
0.0
 40
0.0000770246
 40
0.0001578615
 40
0.0002462119
 40
0.0003449313
 40
0.0005807792
 40
0.0008759669
 40
0.0012355107
 40
0.0016621264
 40
0.0021573963
 40
0.0027222987
 40
0.004063216
 40
0.0056879791
 40
0.0075979316
 40
0.0097936685
 40
0.0122753808
 40
0.0150430179
 40
0.018095714
 40
0.0214311173
 40
0.0289395857
 40
0.0375472078
 40
0.047232277
 40
0.0579727457
 40
0.0697440467
 40
0.0825190123
 40
0.0962702862
 40
0.1109704642
 40
0.1430910378
 40
0.178560276
 40
0.217030199
 40
0.258140131
 40
0.3015195882
 40
0.3467736605
 40
0.3934661275
 40
0.4411555481
 40
0.4893956713
 40
0.5377387212
 40
0.5857339551
 40
0.6329289985
 40
0.678882375
 40
0.7231680863
 40
0.7653682614
 40
0.8050881252
 40
0.8419439086
 40
0.8756041391
 40
0.8911406312
 40
0.9057646239
 40
0.9194423043
 40
0.9321410649
 40
0.9438283508
 40
0.9544717653
 40
0.9640452358
 40
0.9725332774
 40
0.9799216557
 40
0.9831991606
 40
0.9861966364
 40
0.9889125019
 40
0.9913455203
 40
0.9934949213
 40
0.995360211
 40
0.9969413392
 40
0.9982390915
 40
0.9987824774
 40
0.9992562645
 40
0.9996615058
 40
1.0
 40
1.0
 40
1.0
 40
1.0
 10
7.5666787719
 20
5.1402625048
 30
0.0
 10
7.566679925
 20
5.1402141373
 30
0.0
 10
7.566670142
 20
5.1401143445
 30
0.0
 10
7.5666195897
 20
5.1399669701
 30
0.0
 10
7.5665341733
 20
5.1398209179
 30
0.0
 10
7.5663644145
 20
5.1396154413
 30
0.0
 10
7.5660554496
 20
5.1393634397
 30
0.0
 10
7.5655728903
 20
5.1390786138
 30
0.0
 10
7.5649555158
 20
5.1387932875
 30
0.0
 10
7.5642026403
 20
5.1385074317
 30
0.0
 10
7.5633134444
 20
5.138220933
 30
0.0
 10
7.5618606728
 20
5.1378148046
 30
0.0
 10
7.5596981141
 20
5.1373187762
 30
0.0
 10
7.5566886623
 20
5.1367490012
 30
0.0
 10
7.5531345041
 20
5.1361774109
 30
0.0
 10
7.5490364564
 20
5.1356042823
 30
0.0
 10
7.5443952085
 20
5.1350301761
 30
0.0
 10
7.5392121305
 20
5.134455397
 30
0.0
 10
7.5334899208
 20
5.1338801487
 30
0.0
 10
7.5247977186
 20
5.1330806109
 30
0.0
 10
7.5126192681
 20
5.1320938898
 30
0.0
 10
7.4964532175
 20
5.1309482611
 30
0.0
 10
7.4782526958
 20
5.1298005567
 30
0.0
 10
7.4580615621
 20
5.1286513418
 30
0.0
 10
7.4359267913
 20
5.1275010998
 30
0.0
 10
7.4118985642
 20
5.1263499513
 30
0.0
 10
7.3860287141
 20
5.12519807
 30
0.0
 10
7.3480146978
 20
5.1236144594
 30
0.0
 10
7.2963630521
 20
5.1216558858
 30
0.0
 10
7.2297833702
 20
5.1193642986
 30
0.0
 10
7.1575542688
 20
5.1170694529
 30
0.0
 10
7.0803543026
 20
5.1147720156
 30
0.0
 10
6.9988912852
 20
5.1124734162
 30
0.0
 10
6.9139204013
 20
5.1101746954
 30
0.0
 10
6.8262413904
 20
5.1078747641
 30
0.0
 10
6.7366861547
 20
5.10557394
 30
0.0
 10
6.6460938163
 20
5.1032727286
 30
0.0
 10
6.5553093166
 20
5.1009719231
 30
0.0
 10
6.4651814577
 20
5.0986716463
 30
0.0
 10
6.3765551118
 20
5.0963713613
 30
0.0
 10
6.2902596179
 20
5.094071126
 30
0.0
 10
6.2071026485
 20
5.0917722054
 30
0.0
 10
6.1278626334
 20
5.0894747921
 30
0.0
 10
6.0532915403
 20
5.0871799252
 30
0.0
 10
5.9840873039
 20
5.0848860385
 30
0.0
 10
5.930070691
 20
5.0829286194
 30
0.0
 10
5.890014245
 20
5.0813492914
 30
0.0
 10
5.8625023794
 20
5.0801970855
 30
0.0
 10
5.8367746017
 20
5.0790455527
 30
0.0
 10
5.8128933878
 20
5.0778948089
 30
0.0
 10
5.7909204062
 20
5.0767451139
 30
0.0
 10
5.7709133701
 20
5.0755964134
 30
0.0
 10
5.7529194254
 20
5.0744487172
 30
0.0
 10
5.7369745738
 20
5.0733030084
 30
0.0
 10
5.7249836857
 20
5.0723157479
 30
0.0
 10
5.7164386359
 20
5.071515764
 30
0.0
 10
5.7108205332
 20
5.070940456
 30
0.0
 10
5.7057358463
 20
5.0703657402
 30
0.0
 10
5.7011875017
 20
5.069791765
 30
0.0
 10
5.6971780372
 20
5.0692188211
 30
0.0
 10
5.6937094802
 20
5.0686475367
 30
0.0
 10
5.6907840091
 20
5.0680782079
 30
0.0
 10
5.6886911946
 20
5.0675821418
 30
0.0
 10
5.6872948721
 20
5.0671753376
 30
0.0
 10
5.6864481141
 20
5.066889045
 30
0.0
 10
5.685738233
 20
5.0666034536
 30
0.0
 10
5.6853189685
 20
5.0663953257
 30
0.0
 10
5.6851349301
 20
5.0662888549
 30
0.0
  0
SPLINE
  5
3A7
100
AcDbEntity
  8
0
100
AcDbSpline
 62
7
  6
CONTINUOUS
 70
0
 71
3
 72
72
 73
68
 74
0
 42
0.0000001
 43
0.0000001
 44
0.0000000001
 40
0.0
 40
0.0
 40
0.0
 40
0.0
 40
0.0000772089
 40
0.0001587289
 40
0.0002482382
 40
0.0003485288
 40
0.0005885038
 40
0.0008887776
 40
0.0012540953
 40
0.0016869863
 40
0.0021888881
 40
0.002760656
 40
0.0041155693
 40
0.0057539973
 40
0.007676506
 40
0.0098829336
 40
0.0123727236
 40
0.0151450397
 40
0.0181985388
 40
0.0215316192
 40
0.0290297704
 40
0.0376257116
 40
0.0473051897
 40
0.0580522137
 40
0.0698394831
 40
0.0826345555
 40
0.0964048912
 40
0.1111178943
 40
0.1432319408
 40
0.1786776896
 40
0.2171435054
 40
0.2582642822
 40
0.3016497728
 40
0.3468931677
 40
0.3935706899
 40
0.4412502375
 40
0.4894820099
 40
0.5378142229
 40
0.5857984249
 40
0.6329875992
 40
0.6789384601
 40
0.7232110871
 40
0.7653876716
 40
0.8050930982
 40
0.8419603851
 40
0.8756379329
 40
0.8911722222
 40
0.9057840801
 40
0.9194449451
 40
0.9321274328
 40
0.943804208
 40
0.9544482006
 40
0.9640352121
 40
0.9725432669
 40
0.9799506989
 40
0.9832350526
 40
0.9862363594
 40
0.9889524342
 40
0.9913826802
 40
0.9935270852
 40
0.9953858963
 40
0.9969598083
 40
0.9982503588
 40
0.9987903889
 40
0.9992611129
 40
0.9996636832
 40
1.0
 40
1.0
 40
1.0
 40
1.0
 10
5.6842368012
 20
5.1069510362
 30
0.0
 10
5.684236802
 20
5.106999533
 30
0.0
 10
5.684249235
 20
5.1070996008
 30
0.0
 10
5.6843039947
 20
5.1072468086
 30
0.0
 10
5.6843938366
 20
5.1073926774
 30
0.0
 10
5.6845703316
 20
5.10759807
 30
0.0
 10
5.6848880952
 20
5.1078497516
 30
0.0
 10
5.6853815901
 20
5.1081344249
 30
0.0
 10
5.6860108064
 20
5.1084196577
 30
0.0
 10
5.6867762192
 20
5.1087054595
 30
0.0
 10
5.6876784533
 20
5.10899191
 30
0.0
 10
5.6891492151
 20
5.1093977288
 30
0.0
 10
5.6913340228
 20
5.1098935224
 30
0.0
 10
5.6943691614
 20
5.11046325
 30
0.0
 10
5.697946776
 20
5.1110347901
 30
0.0
 10
5.702064669
 20
5.1116078569
 30
0.0
 10
5.7067207345
 20
5.1121818856
 30
0.0
 10
5.7119123557
 20
5.112756601
 30
0.0
 10
5.717636521
 20
5.1133318861
 30
0.0
 10
5.7263212244
 20
5.1141312183
 30
0.0
 10
5.7384842668
 20
5.1151180596
 30
0.0
 10
5.7546328483
 20
5.1162637832
 30
0.0
 10
5.7728265305
 20
5.1174113935
 30
0.0
 10
5.7930282439
 20
5.1185599168
 30
0.0
 10
5.8151897367
 20
5.1197094938
 30
0.0
 10
5.8392525268
 20
5.1208600685
 30
0.0
 10
5.865154941
 20
5.1220114744
 30
0.0
 10
5.9031847272
 20
5.1235940179
 30
0.0
 10
5.9548252516
 20
5.1255530399
 30
0.0
 10
6.0213830787
 20
5.1278455523
 30
0.0
 10
6.0936012811
 20
5.1301392187
 30
0.0
 10
6.1708088805
 20
5.1324350791
 30
0.0
 10
6.2522753527
 20
5.1347328956
 30
0.0
 10
6.3372334311
 20
5.1370321163
 30
0.0
 10
6.4248896404
 20
5.1393320651
 30
0.0
 10
6.5144235559
 20
5.141631744
 30
0.0
 10
6.6049971493
 20
5.1439317909
 30
0.0
 10
6.6957621498
 20
5.1462324221
 30
0.0
 10
6.78587206
 20
5.1485330168
 30
0.0
 10
6.8744857119
 20
5.1508329125
 30
0.0
 10
6.9607672642
 20
5.1531316886
 30
0.0
 10
7.0438991607
 20
5.1554297018
 30
0.0
 10
7.123106596
 20
5.1577275205
 30
0.0
 10
7.1976605753
 20
5.160023056
 30
0.0
 10
7.2668734876
 20
5.1623159615
 30
0.0
 10
7.3209065836
 20
5.1642717531
 30
0.0
 10
7.3609646874
 20
5.1658507905
 30
0.0
 10
7.3884568154
 20
5.1670029192
 30
0.0
 10
7.4141560129
 20
5.1681544534
 30
0.0
 10
7.4380096687
 20
5.1693052978
 30
0.0
 10
7.4599660306
 20
5.1704552006
 30
0.0
 10
7.4799752099
 20
5.1716040733
 30
0.0
 10
7.4979905569
 20
5.1727513622
 30
0.0
 10
7.5139684834
 20
5.1738965073
 30
0.0
 10
7.525988288
 20
5.1748831989
 30
0.0
 10
7.534552065
 20
5.1756829956
 30
0.0
 10
7.5401770397
 20
5.1762580398
 30
0.0
 10
7.5452625181
 20
5.1768326085
 30
0.0
 10
7.5498060731
 20
5.1774064347
 30
0.0
 10
7.5538065
 20
5.1779792293
 30
0.0
 10
7.5572631686
 20
5.1785503718
 30
0.0
 10
7.5601752807
 20
5.1791195775
 30
0.0
 10
7.5622566247
 20
5.1796156461
 30
0.0
 10
7.5636440244
 20
5.1800224679
 30
0.0
 10
7.5644847655
 20
5.1803087204
 30
0.0
 10
7.5651892969
 20
5.18059429
 30
0.0
 10
7.5656051762
 20
5.1808023882
 30
0.0
 10
7.5657876574
 20
5.1809088145
 30
0.0
  0
SPLINE
  5
3A8
100
AcDbEntity
  8
0
100
AcDbSpline
 62
7
  6
CONTINUOUS
 70
0
 71
3
 72
72
 73
68
 74
0
 42
0.0000001
 43
0.0000001
 44
0.0000000001
 40
0.0
 40
0.0
 40
0.0
 40
0.0
 40
0.0000774093
 40
0.0001594158
 40
0.000249544
 40
0.0003504669
 40
0.0005914841
 40
0.000892294
 40
0.0012575993
 40
0.0016899702
 40
0.0021909173
 40
0.0027613815
 40
0.0041130095
 40
0.0057478835
 40
0.007667342
 40
0.0098719985
 40
0.0123620702
 40
0.0151370205
 40
0.0181950563
 40
0.0215341442
 40
0.0290469899
 40
0.037658302
 40
0.0473503456
 40
0.0581033927
 40
0.0698897578
 40
0.0826794778
 40
0.09644252
 40
0.1111487599
 40
0.1432536467
 40
0.1786940893
 40
0.2171549918
 40
0.2582662051
 40
0.3016345654
 40
0.3468547023
 40
0.3935093499
 40
0.4411709485
 40
0.4893889672
 40
0.537709639
 40
0.5856796135
 40
0.6328464509
 40
0.6787729296
 40
0.7230361065
 40
0.7652219689
 40
0.8049353697
 40
0.8417919796
 40
0.8754564768
 40
0.8909926226
 40
0.9056138525
 40
0.9192888595
 40
0.9319876439
 40
0.9436802556
 40
0.9543369366
 40
0.9639324721
 40
0.972447434
 40
0.9798630139
 40
0.9831527984
 40
0.9861609143
 40
0.9888852407
 40
0.9913245533
 40
0.9934785965
 40
0.995347405
 40
0.9969314501
 40
0.998232024
 40
0.998776932
 40
0.9992523848
 40
0.9996594716
 40
1.0
 40
1.0
 40
1.0
 40
1.0
 10
7.5666787555
 20
4.9902395676
 30
0.0
 10
7.5666775969
 20
4.9901909615
 30
0.0
 10
7.5666628819
 20
4.990090812
 30
0.0
 10
7.5666053939
 20
4.9899438358
 30
0.0
 10
7.5665133344
 20
4.9897981237
 30
0.0
 10
7.5663344182
 20
4.9895929912
 30
0.0
 10
7.5660149034
 20
4.9893414994
 30
0.0
 10
7.5655203376
 20
4.9890567925
 30
0.0
 10
7.5648911823
 20
4.9887715552
 30
0.0
 10
7.5641268112
 20
4.9884857678
 30
0.0
 10
7.5632264545
 20
4.9881993525
 30
0.0
 10
7.5617593686
 20
4.9877936223
 30
0.0
 10
7.5595799251
 20
4.9872978548
 30
0.0
 10
7.5565512598
 20
4.9867282162
 30
0.0
 10
7.5529791505
 20
4.9861568141
 30
0.0
 10
7.5488643411
 20
4.9855839279
 30
0.0
 10
7.5442077766
 20
4.9850101783
 30
0.0
 10
7.5390116938
 20
4.984435851
 30
0.0
 10
7.5332794924
 20
4.9838609447
 30
0.0
 10
7.5245793106
 20
4.9830621086
 30
0.0
 10
7.512394154
 20
4.9820760591
 30
0.0
 10
7.496219574
 20
4.9809311712
 30
0.0
 10
7.4780054924
 20
4.9797842718
 30
0.0
 10
7.4577937654
 20
4.9786360391
 30
0.0
 10
7.4356336511
 20
4.9774865372
 30
0.0
 10
7.4115807165
 20
4.9763360697
 30
0.0
 10
7.3856919386
 20
4.975184847
 30
0.0
 10
7.3476788423
 20
4.9736028055
 30
0.0
 10
7.2960544839
 20
4.9716450809
 30
0.0
 10
7.2295124835
 20
4.9693541741
 30
0.0
 10
7.1573107026
 20
4.9670613671
 30
0.0
 10
7.080127244
 20
4.9647659608
 30
0.0
 10
6.9986966635
 20
4.9624690156
 30
0.0
 10
6.9137830229
 20
4.9601710919
 30
0.0
 10
6.8261719187
 20
4.9578723286
 30
0.0
 10
6.7366772521
 20
4.9555734095
 30
0.0
 10
6.6461358463
 20
4.9532740506
 30
0.0
 10
6.5554006949
 20
4.9509745431
 30
0.0
 10
6.4653259839
 20
4.948675316
 30
0.0
 10
6.376755525
 20
4.9463764266
 30
0.0
 10
6.2905140477
 20
4.9440781676
 30
0.0
 10
6.2074021825
 20
4.9417808633
 30
0.0
 10
6.1281942109
 20
4.9394843834
 30
0.0
 10
6.0536401982
 20
4.9371903911
 30
0.0
 10
5.9844410069
 20
4.9348983069
 30
0.0
 10
5.9304246475
 20
4.9329429649
 30
0.0
 10
5.8903698869
 20
4.931364734
 30
0.0
 10
5.8628633239
 20
4.9302130001
 30
0.0
 10
5.8371405131
 20
4.9290617953
 30
0.0
 10
5.8132590684
 20
4.9279113465
 30
0.0
 10
5.7912757099
 20
4.9267620129
 30
0.0
 10
5.7712442915
 20
4.925613944
 30
0.0
 10
5.7532122008
 20
4.9244674631
 30
0.0
 10
5.737220265
 20
4.9233230687
 30
0.0
 10
5.7251881814
 20
4.9223369044
 30
0.0
 10
5.7166119912
 20
4.9215374597
 30
0.0
 10
5.7109743955
 20
4.920962422
 30
0.0
 10
5.7058739629
 20
4.9203877751
 30
0.0
 10
5.7013136374
 20
4.9198136629
 30
0.0
 10
5.6972952807
 20
4.9192405088
 30
0.0
 10
5.6938199289
 20
4.9186689953
 30
0.0
 10
5.690888755
 20
4.918099484
 30
0.0
 10
5.6887914095
 20
4.9176033933
 30
0.0
 10
5.6873911928
 20
4.9171967974
 30
0.0
 10
5.6865411193
 20
4.9169106408
 30
0.0
 10
5.6858274672
 20
4.9166252415
 30
0.0
 10
5.6854053779
 20
4.9164174625
 30
0.0
 10
5.6852197439
 20
4.9163112291
 30
0.0
  0
ELLIPSE
  5
3A9
100
AcDbEntity
  8
0
100
AcDbEllipse
 62
7
  6
CONTINUOUS
 10
6.6254868012
 20
5.4202893454
 30
0.0
 11
0.0
 21
1.03125
 31
0.0
 40
1.0
 41
-4.1392843813
 42
-2.1439009259
  0
ENDSEC
  0
SECTION
  2
OBJECTS
  0
DICTIONARY
  5
C
100
AcDbDictionary
280
0
281
1
  3
ACAD_GROUP
350
D
  3
ACAD_MLINESTYLE
350
17
  3
ACAD_LAYOUT
350
1A
  3
ACAD_PLOTSETTINGS
350
19
  3
ACAD_PLOTSTYLENAME
350
E
  0
DICTIONARY
  5
D
102
{ACAD_REACTORS
330
C
102
}
100
AcDbDictionary
280
0
281
1
  0
ACDBDICTIONARYWDFLT
  5
E
102
{ACAD_REACTORS
330
C
102
}
100
AcDbDictionary
281
1
  3
Normal
350
F
100
AcDbDictionaryWithDefault
340
F
  0
DICTIONARY
  5
17
102
{ACAD_REACTORS
330
C
102
}
100
AcDbDictionary
280
0
281
1
  3
Standard
350
18
  0
DICTIONARY
  5
19
102
{ACAD_REACTORS
330
C
102
}
100
AcDbDictionary
281
1
  0
DICTIONARY
  5
1A
102
{ACAD_REACTORS
330
C
102
}
100
AcDbDictionary
281
1
  3
Model
350
3AA
  3
Layout1
350
3AB
  0
ACDBPLACEHOLDER
  5
F
102
{ACAD_REACTORS
330
E
102
}
  0
MLINESTYLE
  5
18
102
{ACAD_REACTORS
330
17
102
}
100
AcDbMlineStyle
  2
STANDARD
 70
0
  3

 62
256
 51
90.0
 52
90.0
 71
2
 49
0.5
 62
256
  6
BYLAYER
 49
-0.5
 62
256
  6
BYLAYER
  0
LAYOUT
  5
3AA
102
{ACAD_REACTORS
330
1A
102
}
100
AcDbPlotSettings
  1

  2
none_device
  4
ANSI_A_(11.00_x_8.50_Inches)
  6

 40
0.0
 41
0.0
 42
0.0
 43
0.0
 44
279.4
 45
215.9
 46
0.0
 47
0.0
 48
0.0
 49
0.0
140
0.0
141
0.0
142
1.0
143
1.0
 70
1024
 72
0
 73
0
 74
0
  7

 75
0
147
1.0
148
0.0
149
0.0
100
AcDbLayout
  1
Model
 70
0
 71
0
 10
0.0
 20
0.0
 11
11.0
 21
8.5
 12
0.0
 22
0.0
 32
0.0
 14
0.0
 24
0.0
 34
0.0
 15
0.0
 25
0.0
 35
0.0
146
0.0
 13
0.0
 23
0.0
 33
0.0
 16
1.0
 26
0.0
 36
0.0
 17
0.0
 27
1.0
 37
0.0
 76
0
330
21A
345
0
346
0
  0
LAYOUT
  5
3AB
102
{ACAD_REACTORS
330
1A
102
}
100
AcDbPlotSettings
  1

  2
none_device
  4
ANSI_A_(11.00_x_8.50_Inches)
  6

 40
0.0
 41
0.0
 42
0.0
 43
0.0
 44
279.4
 45
215.9
 46
0.0
 47
0.0
 48
0.0
 49
0.0
140
0.0
141
0.0
142
1.0
143
1.0
 70
0
 72
0
 73
0
 74
0
  7

 75
0
147
1.0
148
0.0
149
0.0
100
AcDbLayout
  1
Layout1
 70
0
 71
1
 10
0.0
 20
0.0
 11
11.0
 21
8.5
 12
0.0
 22
0.0
 32
0.0
 14
0.0
 24
0.0
 34
0.0
 15
0.0
 25
0.0
 35
0.0
146
0.0
 13
0.0
 23
0.0
 33
0.0
 16
1.0
 26
0.0
 36
0.0
 17
0.0
 27
1.0
 37
0.0
 76
0
330
21B
345
0
346
0
  0
ENDSEC
  0
EOF
