999
DXF file: C:\Prowork\plots\401_front.dxf
999
Pro/ENGINEER 2018500 by Parametric Technology Corporation
  0
SECTION
  2
HEADER
  9
$ACADVER
  1
AC1032
  9
$DWGCODEPAGE
  3
ANSI_1252
  9
$EXTMAX
 10
11.0
 20
8.5
 30
0.0
  9
$EXTMIN
 10
0.0
 20
0.0
 30
0.0
  9
$LIMMIN
 10
0.0
 20
0.0
  9
$LIMMAX
 10
11.0
 20
8.5
  9
$VIEWCTR
 10
5.5
 20
4.25
  9
$VIEWSIZE
 40
8.5
  9
$CLAYER
  8
0
  9
$LTSCALE
 40
0.605
  9
$CELTYPE
  6
BYLAYER
  9
$DIMSCALE
 40
1.0
  9
$DIMASZ
 40
0.1
  9
$DIMEXO
 40
0.0625
  9
$DIMDLI
 40
0.418
  9
$DIMEXE
 40
0.125
  9
$DIMCEN
 40
0.099
  9
$DIMLFAC
 40
1.0
  9
$DIMBLK
  1
_FILLED
  9
$DIMALT
 70
1
  9
$DIMALTD
 70
2
  9
$DIMALTTD
 70
2
  9
$DIMALTF
 40
25.4
  9
$DIMTXT
 40
0.08
  9
$DIMTOL
 70
1
  9
$DIMLIM
 70
0
  9
$DIMTFAC
 40
1.0
  9
$DIMTP
 40
0.001
  9
$DIMTM
 40
0.001
  9
$DIMGAP
 40
0.09
  9
$DIMDSEP
 70
46
  9
$AUNITS
 70
0
  9
$PDMODE
 70
3
  9
$PDSIZE
 40
0.06
  9
$HANDSEED
  5
26A
  9
$TILEMODE
 70
1
  9
$MEASUREMENT
 70
0
  9
$INSUNITS
 70
1
  0
ENDSEC
  0
SECTION
  2
CLASSES
  0
CLASS
  1
ACDBDICTIONARYWDFLT
  2
AcDbDictionaryWithDefault
  3
AutoCAD 2000
 90
0
 91
1
280
0
281
0
  0
CLASS
  1
ACDBPLACEHOLDER
  2
AcDbPlaceHolder
  3
AutoCAD 2000
 90
0
 91
1
280
0
281
0
  0
CLASS
  1
LAYOUT
  2
AcDbLayout
  3
AutoCAD 2000
 90
0
 91
0
280
0
281
0
  0
ENDSEC
  0
SECTION
  2
TABLES
  0
TABLE
  2
VPORT
  5
8
100
AcDbSymbolTable
 70
2
  0
VPORT
  5
1F4
100
AcDbSymbolTableRecord
100
AcDbViewportTableRecord
  2
*ACTIVE
 70
0
 10
0.0
 20
0.0
 11
1.0
 21
1.0
 12
5.5
 22
4.25
 13
0.0
 23
0.0
 14
1.0
 24
1.0
 15
0.0
 25
0.0
 16
0.0
 26
0.0
 36
1.0
 17
0.0
 27
0.0
 37
0.0
 40
8.5
 41
1.2941176471
 42
50.0
 43
0.0
 44
0.0
 50
0.0
 51
0.0
 71
0
 72
100
 73
1
 74
1
 75
0
 76
0
 77
0
 78
0
  0
ENDTAB
  0
TABLE
  2
LTYPE
  5
5
100
AcDbSymbolTable
 70
6
  0
LTYPE
  5
14
100
AcDbSymbolTableRecord
100
AcDbLinetypeTableRecord
  2
BYBLOCK
 70
0
  3

 72
65
 73
0
 40
0.0
  0
LTYPE
  5
15
100
AcDbSymbolTableRecord
100
AcDbLinetypeTableRecord
  2
BYLAYER
 70
0
  3

 72
65
 73
0
 40
0.0
  0
LTYPE
  5
16
100
AcDbSymbolTableRecord
100
AcDbLinetypeTableRecord
  2
CONTINUOUS
 70
64
  3
Solid line
 72
65
 73
0
 40
0.0
  0
LTYPE
  5
1F5
100
AcDbSymbolTableRecord
100
AcDbLinetypeTableRecord
  2
CENTER
 70
64
  3
____ _ ____ _ ____ _ ____ _ ____ _ ____ _ ____
 72
65
 73
4
 40
0.6
 49
0.375
 74
0
 49
-0.075
 74
0
 49
0.075
 74
0
 49
-0.075
 74
0
  0
LTYPE
  5
1F6
100
AcDbSymbolTableRecord
100
AcDbLinetypeTableRecord
  2
HIDDEN
 70
64
  3
- - - - - - - - - - - - - - - - - - - -
 72
65
 73
2
 40
0.2
 49
0.1
 74
0
 49
-0.1
 74
0
  0
LTYPE
  5
1F7
100
AcDbSymbolTableRecord
100
AcDbLinetypeTableRecord
  2
PHANTOM
 70
64
  3
_____ _ _ _____ _ _ _____ _ _ _____
 72
65
 73
6
 40
0.8
 49
0.45
 74
0
 49
-0.05
 74
0
 49
0.1
 74
0
 49
-0.05
 74
0
 49
0.1
 74
0
 49
-0.05
 74
0
  0
LTYPE
  5
1F8
100
AcDbSymbolTableRecord
100
AcDbLinetypeTableRecord
  2
DOT
 70
64
  3
. . . . . . . . . . . . . . . . . . . .
 72
65
 73
2
 40
0.2
 49
0.1
 74
0
 49
-0.1
 74
0
  0
LTYPE
  5
1F9
100
AcDbSymbolTableRecord
100
AcDbLinetypeTableRecord
  2
DASHED
 70
64
  3
- - - - - - - - - - - - - - - - - - - -
 72
65
 73
2
 40
0.2
 49
0.1
 74
0
 49
-0.1
 74
0
  0
ENDTAB
  0
TABLE
  2
LAYER
  5
2
100
AcDbSymbolTable
 70
36
  0
LAYER
  5
10
100
AcDbSymbolTableRecord
100
AcDbLayerTableRecord
  2
0
 70
0
 62
7
  6
CONTINUOUS
370
-3
390
F
  0
LAYER
  5
1FA
100
AcDbSymbolTableRecord
100
AcDbLayerTableRecord
  2
DEFAULT_1
 70
0
 62
7
  6
CENTER
370
-3
390
F
  0
LAYER
  5
1FB
100
AcDbSymbolTableRecord
100
AcDbLayerTableRecord
  2
DEFAULT_2
 70
0
 62
8
  6
HIDDEN
370
-3
390
F
  0
LAYER
  5
1FC
100
AcDbSymbolTableRecord
100
AcDbLayerTableRecord
  2
DEFAULT_3
 70
0
 62
7
  6
PHANTOM
370
-3
390
F
  0
LAYER
  5
1FD
100
AcDbSymbolTableRecord
100
AcDbLayerTableRecord
  2
50350
 70
0
 62
7
  6
CONTINUOUS
370
-3
390
F
  0
LAYER
  5
1FE
100
AcDbSymbolTableRecord
100
AcDbLayerTableRecord
  2
50355
 70
0
 62
7
  6
CONTINUOUS
370
-3
390
F
  0
LAYER
  5
1FF
100
AcDbSymbolTableRecord
100
AcDbLayerTableRecord
  2
50359
 70
0
 62
7
  6
CONTINUOUS
370
-3
390
F
  0
LAYER
  5
200
100
AcDbSymbolTableRecord
100
AcDbLayerTableRecord
  2
50663
 70
0
 62
7
  6
CONTINUOUS
370
-3
390
F
  0
LAYER
  5
201
100
AcDbSymbolTableRecord
100
AcDbLayerTableRecord
  2
50664
 70
0
 62
7
  6
CONTINUOUS
370
-3
390
F
  0
LAYER
  5
202
100
AcDbSymbolTableRecord
100
AcDbLayerTableRecord
  2
50666
 70
0
 62
7
  6
CONTINUOUS
370
-3
390
F
  0
LAYER
  5
203
100
AcDbSymbolTableRecord
100
AcDbLayerTableRecord
  2
50675
 70
0
 62
7
  6
CONTINUOUS
370
-3
390
F
  0
LAYER
  5
204
100
AcDbSymbolTableRecord
100
AcDbLayerTableRecord
  2
50677
 70
0
 62
7
  6
CONTINUOUS
370
-3
390
F
  0
LAYER
  5
205
100
AcDbSymbolTableRecord
100
AcDbLayerTableRecord
  2
6-401
 70
0
 62
7
  6
CONTINUOUS
370
-3
390
F
  0
LAYER
  5
206
100
AcDbSymbolTableRecord
100
AcDbLayerTableRecord
  2
92073
 70
0
 62
7
  6
CONTINUOUS
370
-3
390
F
  0
LAYER
  5
207
100
AcDbSymbolTableRecord
100
AcDbLayerTableRecord
  2
DEFAULT_COORDINATE_SYSTEM
 70
0
 62
7
  6
CONTINUOUS
370
-3
390
F
  0
LAYER
  5
208
100
AcDbSymbolTableRecord
100
AcDbLayerTableRecord
  2
DEFAULT_DATUM_AXES
 70
0
 62
7
  6
CONTINUOUS
370
-3
390
F
  0
LAYER
  5
209
100
AcDbSymbolTableRecord
100
AcDbLayerTableRecord
  2
DEFAULT_DATUM_PLANES
 70
0
 62
7
  6
CONTINUOUS
370
-3
390
F
  0
LAYER
  5
20A
100
AcDbSymbolTableRecord
100
AcDbLayerTableRecord
  2
INTF_50350
 70
0
 62
7
  6
CONTINUOUS
370
-3
390
F
  0
LAYER
  5
20B
100
AcDbSymbolTableRecord
100
AcDbLayerTableRecord
  2
INTF_50355
 70
0
 62
7
  6
CONTINUOUS
370
-3
390
F
  0
LAYER
  5
20C
100
AcDbSymbolTableRecord
100
AcDbLayerTableRecord
  2
INTF_50359
 70
0
 62
7
  6
CONTINUOUS
370
-3
390
F
  0
LAYER
  5
20D
100
AcDbSymbolTableRecord
100
AcDbLayerTableRecord
  2
INTF_50663
 70
0
 62
7
  6
CONTINUOUS
370
-3
390
F
  0
LAYER
  5
20E
100
AcDbSymbolTableRecord
100
AcDbLayerTableRecord
  2
INTF_50664
 70
0
 62
7
  6
CONTINUOUS
370
-3
390
F
  0
LAYER
  5
20F
100
AcDbSymbolTableRecord
100
AcDbLayerTableRecord
  2
INTF_50666
 70
0
 62
7
  6
CONTINUOUS
370
-3
390
F
  0
LAYER
  5
210
100
AcDbSymbolTableRecord
100
AcDbLayerTableRecord
  2
INTF_50675
 70
0
 62
7
  6
CONTINUOUS
370
-3
390
F
  0
LAYER
  5
211
100
AcDbSymbolTableRecord
100
AcDbLayerTableRecord
  2
INTF_50677
 70
0
 62
7
  6
CONTINUOUS
370
-3
390
F
  0
LAYER
  5
212
100
AcDbSymbolTableRecord
100
AcDbLayerTableRecord
  2
INTF_92073
 70
0
 62
7
  6
CONTINUOUS
370
-3
390
F
  0
LAYER
  5
213
100
AcDbSymbolTableRecord
100
AcDbLayerTableRecord
  2
INTF_BLANK
 70
0
 62
7
  6
CONTINUOUS
370
-3
390
F
  0
LAYER
  5
214
100
AcDbSymbolTableRecord
100
AcDbLayerTableRecord
  2
NONE
 70
0
 62
7
  6
CONTINUOUS
370
-3
390
F
  0
LAYER
  5
215
100
AcDbSymbolTableRecord
100
AcDbLayerTableRecord
  2
PLATED_SURFACE
 70
0
 62
7
  6
CONTINUOUS
370
-3
390
F
  0
LAYER
  5
216
100
AcDbSymbolTableRecord
100
AcDbLayerTableRecord
  2
_BLACK_HOLE
 70
0
 62
7
  6
CONTINUOUS
370
-3
390
F
  0
ENDTAB
  0
TABLE
  2
STYLE
  5
3
100
AcDbSymbolTable
 70
1
  0
STYLE
  5
11
100
AcDbSymbolTableRecord
100
AcDbTextStyleTableRecord
  2
STANDARD
 70
0
 40
0.0
 41
0.8
 50
0.0
 71
0
 42
0.2
  3
txt
  4

  0
STYLE
  5
217
100
AcDbSymbolTableRecord
100
AcDbTextStyleTableRecord
  2
TEXTSTYLE_1
 70
0
 40
0.0
 41
0.8
 50
0.0
 71
0
 42
0.2
  3
gdt
  4

  0
ENDTAB
  0
TABLE
  2
VIEW
  5
6
100
AcDbSymbolTable
 70
0
  0
ENDTAB
  0
TABLE
  2
UCS
  5
7
100
AcDbSymbolTable
 70
0
  0
ENDTAB
  0
TABLE
  2
APPID
  5
9
100
AcDbSymbolTable
 70
1
  0
APPID
  5
218
100
AcDbSymbolTableRecord
100
AcDbRegAppTableRecord
  2
ACAD
 70
0
  0
ENDTAB
  0
TABLE
  2
BLOCK_RECORD
  5
1
100
AcDbSymbolTable
 70
0
  0
BLOCK_RECORD
  5
219
100
AcDbSymbolTableRecord
100
AcDbBlockTableRecord
  2
*Model_Space
  0
BLOCK_RECORD
  5
21A
100
AcDbSymbolTableRecord
100
AcDbBlockTableRecord
  2
*Paper_Space
  0
BLOCK_RECORD
  5
21B
100
AcDbSymbolTableRecord
100
AcDbBlockTableRecord
  2
_FILLED
  0
ENDTAB
  0
TABLE
  2
DIMSTYLE
  5
A
100
AcDbSymbolTable
 70
1
100
AcDbDimStyleTable
 71
0
  0
DIMSTYLE
105
21C
100
AcDbSymbolTableRecord
100
AcDbDimStyleTableRecord
  2
STANDARD
 70
0
  3

  4

 40
1.0
 41
0.1
 42
0.0625
 43
0.38
 44
0.125
 45
0.0
 46
0.0
 47
0.001
 48
0.001
140
0.08
141
0.09
142
0.0
143
25.4
144
1.0
145
0.0
146
1.0
147
0.09
 71
1.0
 72
0.0
 73
1
 74
1
 75
0
 76
0
 77
0
 78
4
 79
1
170
1
171
2
172
0
173
0
174
0
175
0
176
0
177
0
178
0
270
2
179
3
271
3
272
3
273
2
274
2
275
0
280
0
281
0
282
0
283
1
284
4
285
0
286
0
287
3
288
0
340
11
278
46
341
21B
342
21B
343
21B
344
21B
  0
ENDTAB
  0
ENDSEC
  0
SECTION
  2
BLOCKS
  0
BLOCK
  5
20
100
AcDbEntity
  8
0
100
AcDbBlockBegin
  2
*Model_Space
 70
0
 10
0.0
 20
0.0
 30
0.0
  3
*Model_Space
  1

  0
ENDBLK
  5
21
100
AcDbEntity
  8
0
100
AcDbBlockEnd
  0
BLOCK
  5
1C
100
AcDbEntity
  8
0
100
AcDbBlockBegin
  2
*Paper_Space
 70
0
 10
0.0
 20
0.0
 30
0.0
  3
*Paper_Space
  1

  0
ENDBLK
  5
1D
100
AcDbEntity
  8
0
100
AcDbBlockEnd
  0
BLOCK
  5
21D
100
AcDbEntity
  8
0
100
AcDbBlockBegin
  2
_FILLED
 70
64
 10
0.0
 20
0.0
  3
_FILLED
  1

  0
SOLID
  5
21E
100
AcDbEntity
  8
0
  6
BYBLOCK
 62
0
100
AcDbTrace
 10
0.0
 20
0.0
 11
-1.0
 21
0.2
 12
-1.0
 22
-0.2
 13
-1.0
 23
-0.2
  0
ENDBLK
  5
21F
100
AcDbEntity
  8
0
  6
BYBLOCK
 62
0
100
AcDbBlockEnd
  0
ENDSEC
  0
SECTION
  2
ENTITIES
  0
MTEXT
  5
220
100
AcDbEntity
  8
0
100
AcDbMText
 62
7
  6
CONTINUOUS
  7
STANDARD
 71
1
 72
1
 10
9.6909743789
 20
0.3180861801
 30
0.0
 11
1.0
 21
0.0
 31
0.0
 73
2
 44
0.9
  1
SCALE: 3.00
 40
0.08
 41
0.704
  0
LINE
  5
221
100
AcDbEntity
  8
0
100
AcDbLine
 62
7
  6
CONTINUOUS
 10
0.0
 20
0.0
 11
0.0
 21
8.5
  0
LINE
  5
222
100
AcDbEntity
  8
0
100
AcDbLine
 62
7
  6
CONTINUOUS
 10
0.0
 20
0.0
 11
11.0
 21
0.0
  0
LINE
  5
223
100
AcDbEntity
  8
0
100
AcDbLine
 62
7
  6
CONTINUOUS
 10
0.0
 20
8.5
 11
11.0
 21
8.5
  0
LINE
  5
224
100
AcDbEntity
  8
0
100
AcDbLine
 62
7
  6
CONTINUOUS
 10
11.0
 20
0.0
 11
11.0
 21
8.5
  0
LINE
  5
225
100
AcDbEntity
  8
0
100
AcDbLine
 62
9
  6
CONTINUOUS
 10
6.1210008276
 20
1.2623804746
 11
6.1065581735
 21
1.274240744
  0
LINE
  5
226
100
AcDbEntity
  8
0
100
AcDbLine
 62
9
  6
CONTINUOUS
 10
6.1065520345
 20
6.509675145
 11
6.1210008276
 21
6.5215279085
  0
LINE
  5
227
100
AcDbEntity
  8
0
100
AcDbLine
 62
7
  6
CONTINUOUS
 10
4.4990877329
 20
6.1779926378
 11
4.4990877329
 21
7.1349541915
  0
LINE
  5
228
100
AcDbEntity
  8
0
100
AcDbLine
 62
7
  6
CONTINUOUS
 10
5.3893377329
 20
4.2129284663
 11
5.3893377329
 21
3.5709799167
  0
LINE
  5
229
100
AcDbEntity
  8
0
100
AcDbLine
 62
7
  6
CONTINUOUS
 10
5.4365877329
 20
4.3644541915
 11
5.4365877329
 21
4.3450762704
  0
LINE
  5
22A
100
AcDbEntity
  8
0
100
AcDbLine
 62
7
  6
CONTINUOUS
 10
5.4365877329
 20
3.4388321127
 11
5.4365877329
 21
3.4194844859
  0
LINE
  5
22B
100
AcDbEntity
  8
0
100
AcDbLine
 62
7
  6
CONTINUOUS
 10
5.4365877329
 20
6.8454519414
 11
5.4365877329
 21
6.9899224368
  0
LINE
  5
22C
100
AcDbEntity
  8
0
100
AcDbLine
 62
7
  6
CONTINUOUS
 10
5.1156134581
 20
3.8447041915
 11
5.7575620077
 21
3.8447041915
  0
LINE
  5
22D
100
AcDbEntity
  8
0
100
AcDbLine
 62
7
  6
CONTINUOUS
 10
5.7575620077
 20
3.9392041915
 11
5.1156134581
 21
3.9392041915
  0
LINE
  5
22E
100
AcDbEntity
  8
0
100
AcDbLine
 62
7
  6
CONTINUOUS
 10
5.3893377329
 20
3.9392041915
 11
5.4838377329
 21
3.8447041915
  0
LINE
  5
22F
100
AcDbEntity
  8
0
100
AcDbLine
 62
7
  6
CONTINUOUS
 10
5.5155837039
 20
3.9159162439
 11
5.5156122307
 21
3.9155573278
  0
LINE
  5
230
100
AcDbEntity
  8
0
100
AcDbLine
 62
7
  6
CONTINUOUS
 10
5.4838377329
 20
4.2129284663
 11
5.4838377329
 21
3.5709799167
  0
LINE
  5
231
100
AcDbEntity
  8
0
100
AcDbLine
 62
7
  6
CONTINUOUS
 10
5.5155636718
 20
3.9158903464
 11
5.5155837039
 21
3.9159162439
  0
LINE
  5
232
100
AcDbEntity
  8
0
100
AcDbLine
 62
7
  6
CONTINUOUS
 10
5.4838377329
 20
3.9392041915
 11
5.3893377329
 21
3.8447041915
  0
LINE
  5
233
100
AcDbEntity
  8
0
100
AcDbLine
 62
7
  6
CONTINUOUS
 10
5.5112576988
 20
3.9162159342
 11
5.5155736311
 21
3.9176182656
  0
LINE
  5
234
100
AcDbEntity
  8
0
100
AcDbLine
 62
7
  6
CONTINUOUS
 10
6.3740877329
 20
6.1779925178
 11
6.3740877329
 21
7.1349541915
  0
LINE
  5
235
100
AcDbEntity
  8
0
100
AcDbLine
 62
9
  6
CONTINUOUS
 10
4.7521746383
 20
6.5215279085
 11
4.7666173007
 21
6.5096676493
  0
LINE
  5
236
100
AcDbEntity
  8
0
100
AcDbLine
 62
9
  6
CONTINUOUS
 10
4.7521746383
 20
1.2623804746
 11
4.7666234342
 21
1.2742332359
  0
LINE
  5
237
100
AcDbEntity
  8
0
100
AcDbLine
 62
7
  6
CONTINUOUS
 10
6.3740877332
 20
7.1349541915
 11
4.4990877327
 21
7.1349541915
  0
ARC
  5
238
100
AcDbEntity
  8
0
100
AcDbCircle
 62
7
  6
CONTINUOUS
 10
5.4365852217
 20
2.9445238863
 40
1.2692842486
100
AcDbArc
 50
89.9998866421
 51
92.1332552182
  0
ARC
  5
239
100
AcDbEntity
  8
0
100
AcDbCircle
 62
7
  6
CONTINUOUS
 10
4.489157669
 20
3.8919516758
 40
1.2692840073
100
AcDbArc
 50
357.866744579
 51
0.0001135606
  0
ARC
  5
23A
100
AcDbEntity
  8
0
100
AcDbCircle
 62
7
  6
CONTINUOUS
 10
4.4895968651
 20
3.8919434991
 40
1.2688448113
100
AcDbArc
 50
357.8663753157
 51
0.0004828239
  0
ARC
  5
23B
100
AcDbEntity
  8
0
100
AcDbCircle
 62
7
  6
CONTINUOUS
 10
5.4365770197
 20
2.9449644427
 40
1.2688436922
100
AcDbArc
 50
89.9995162349
 51
92.1336256255
  0
ARC
  5
23C
100
AcDbEntity
  8
0
100
AcDbCircle
 62
7
  6
CONTINUOUS
 10
2.9133747512
 20
3.8919541915
 40
4.1477129817
100
AcDbArc
 50
320.6555074171
 51
39.3444925829
  0
ARC
  5
23D
100
AcDbEntity
  8
0
100
AcDbCircle
 62
7
  6
CONTINUOUS
 10
5.4365852218
 20
4.8393845018
 40
1.2692842537
100
AcDbArc
 50
267.866744786
 51
270.0001133535
  0
ARC
  5
23E
100
AcDbEntity
  8
0
100
AcDbCircle
 62
7
  6
CONTINUOUS
 10
4.4891576694
 20
3.8919567073
 40
1.269284007
100
AcDbArc
 50
359.9998864391
 51
2.1332554213
  0
ARC
  5
23F
100
AcDbEntity
  8
0
100
AcDbCircle
 62
7
  6
CONTINUOUS
 10
4.4895968638
 20
3.8919648839
 40
1.2688448126
100
AcDbArc
 50
359.9995171772
 51
2.1336246832
  0
ARC
  5
240
100
AcDbEntity
  8
0
100
AcDbCircle
 62
7
  6
CONTINUOUS
 10
5.3183055164
 20
3.9186409716
 40
0.1972706131
100
AcDbArc
 50
357.3455894736
 51
359.6996413954
  0
ARC
  5
241
100
AcDbEntity
  8
0
100
AcDbCircle
 62
7
  6
CONTINUOUS
 10
5.436598446
 20
2.9449644374
 40
1.2688436976
100
AcDbArc
 50
87.866374379
 51
90.0004837606
  0
ARC
  5
242
100
AcDbEntity
  8
0
100
AcDbCircle
 62
7
  6
CONTINUOUS
 10
5.4365877329
 20
1.8234541915
 40
0.885
100
AcDbArc
 50
219.3444925829
 51
320.6555074171
  0
ARC
  5
243
100
AcDbEntity
  8
0
100
AcDbCircle
 62
9
  6
CONTINUOUS
 10
5.4365877311
 20
1.8223419853
 40
0.8656222773
100
AcDbArc
 50
219.2871600889
 51
320.7134821374
  0
ARC
  5
244
100
AcDbEntity
  8
0
100
AcDbCircle
 62
7
  6
CONTINUOUS
 10
5.4975878778
 20
3.8111275843
 40
0.1059738111
100
AcDbArc
 50
80.2073500632
 51
81.8718256047
  0
ARC
  5
245
100
AcDbEntity
  8
0
100
AcDbCircle
 62
7
  6
CONTINUOUS
 10
5.4977116047
 20
3.8119697633
 40
0.1051225989
100
AcDbArc
 50
81.8736841275
 51
82.5962811234
  0
ARC
  5
246
100
AcDbEntity
  8
0
100
AcDbCircle
 62
7
  6
CONTINUOUS
 10
5.4491898628
 20
3.8737246686
 40
0.0752284098
100
AcDbArc
 50
28.3999358669
 51
29.9801818138
  0
ARC
  5
247
100
AcDbEntity
  8
0
100
AcDbCircle
 62
7
  6
CONTINUOUS
 10
5.4517565048
 20
3.8751999033
 40
0.0722682978
100
AcDbArc
 50
29.8995927901
 51
33.6000733636
  0
ARC
  5
248
100
AcDbEntity
  8
0
100
AcDbCircle
 62
7
  6
CONTINUOUS
 10
7.9598007147
 20
3.8919541915
 40
4.1477129817
100
AcDbArc
 50
140.6555074171
 51
219.3444925829
  0
ARC
  5
249
100
AcDbEntity
  8
0
100
AcDbCircle
 62
7
  6
CONTINUOUS
 10
6.3840528054
 20
3.8919541915
 40
1.2693190853
100
AcDbArc
 50
177.866689923
 51
182.133310077
  0
ARC
  5
24A
100
AcDbEntity
  8
0
100
AcDbCircle
 62
7
  6
CONTINUOUS
 10
5.4365902441
 20
4.8393844973
 40
1.2692842492
100
AcDbArc
 50
269.9998866427
 51
272.1332552177
  0
ARC
  5
24B
100
AcDbEntity
  8
0
100
AcDbCircle
 62
7
  6
CONTINUOUS
 10
5.4365877329
 20
5.9604541915
 40
0.885
100
AcDbArc
 50
39.3444925829
 51
140.6555074171
  0
ARC
  5
24C
100
AcDbEntity
  8
0
100
AcDbCircle
 62
9
  6
CONTINUOUS
 10
5.4365877348
 20
5.961566284
 40
0.8656222773
100
AcDbArc
 50
39.2871656825
 51
140.7134754304
  0
CIRCLE
  5
24D
100
AcDbEntity
  8
0
100
AcDbCircle
 62
7
  6
CONTINUOUS
 10
5.4365877329
 20
3.8919541915
 40
0.495
  0
CIRCLE
  5
24E
100
AcDbEntity
  8
0
100
AcDbCircle
 62
7
  6
CONTINUOUS
 10
5.4365877329
 20
3.8919541915
 40
0.4725
  0
CIRCLE
  5
24F
100
AcDbEntity
  8
0
100
AcDbCircle
 62
9
  6
CONTINUOUS
 10
5.4365877329
 20
3.8919541915
 40
0.4531220788
  0
SPLINE
  5
250
100
AcDbEntity
  8
0
100
AcDbSpline
 62
7
  6
CONTINUOUS
 70
0
 71
3
 72
20
 73
16
 74
0
 42
0.0000001
 43
0.0000001
 44
0.0000000001
 40
0.0
 40
0.0
 40
0.0
 40
0.0
 40
0.1270372218
 40
0.2534885483
 40
0.3164860794
 40
0.3793237159
 40
0.5044790068
 40
0.5668256139
 40
0.6290290998
 40
0.6910955531
 40
0.7530414708
 40
0.7839793909
 40
0.8148976327
 40
0.8766742303
 40
1.0
 40
1.0
 40
1.0
 40
1.0
 10
6.3740877329
 20
6.9899224368
 30
0.0
 10
6.3558825615
 20
7.0004331974
 30
0.0
 10
6.319157825
 20
7.0207272239
 30
0.0
 10
6.2722290948
 20
7.0440207675
 30
0.0
 10
6.2341493489
 20
7.0611427957
 30
0.0
 10
6.1958164171
 20
7.0771380887
 30
0.0
 10
6.1568939823
 20
7.0914127546
 30
0.0
 10
6.1174304343
 20
7.1036820152
 30
0.0
 10
6.0876302207
 20
7.1118050904
 30
0.0
 10
6.0576144205
 20
7.1188049447
 30
0.0
 10
6.0324295533
 20
7.1236564307
 30
0.0
 10
6.012203274
 20
7.126916781
 30
0.0
 10
5.9919410555
 20
7.129753429
 30
0.0
 10
5.9563953915
 20
7.1336006479
 30
0.0
 10
5.9257451005
 20
7.1349541915
 30
0.0
 10
5.9053377329
 20
7.1349541915
 30
0.0
  0
SPLINE
  5
251
100
AcDbEntity
  8
0
100
AcDbSpline
 62
7
  6
CONTINUOUS
 70
0
 71
3
 72
20
 73
16
 74
0
 42
0.0000001
 43
0.0000001
 44
0.0000000001
 40
0.0
 40
0.0
 40
0.0
 40
0.0
 40
0.1270372218
 40
0.2534885483
 40
0.3164860794
 40
0.3793237159
 40
0.5044790068
 40
0.5668256139
 40
0.6290290998
 40
0.6910955531
 40
0.7530414708
 40
0.7839793909
 40
0.8148976327
 40
0.8766742303
 40
1.0
 40
1.0
 40
1.0
 40
1.0
 10
5.4365877329
 20
6.9899224368
 30
0.0
 10
5.4183825615
 20
7.0004331974
 30
0.0
 10
5.381657825
 20
7.0207272239
 30
0.0
 10
5.3347290948
 20
7.0440207675
 30
0.0
 10
5.2966493489
 20
7.0611427957
 30
0.0
 10
5.2583164171
 20
7.0771380887
 30
0.0
 10
5.2193939823
 20
7.0914127546
 30
0.0
 10
5.1799304343
 20
7.1036820152
 30
0.0
 10
5.1501302207
 20
7.1118050904
 30
0.0
 10
5.1201144205
 20
7.1188049447
 30
0.0
 10
5.0949295533
 20
7.1236564307
 30
0.0
 10
5.074703274
 20
7.126916781
 30
0.0
 10
5.0544410555
 20
7.129753429
 30
0.0
 10
5.0188953915
 20
7.1336006479
 30
0.0
 10
4.9882451005
 20
7.1349541915
 30
0.0
 10
4.9678377329
 20
7.1349541915
 30
0.0
  0
SPLINE
  5
252
100
AcDbEntity
  8
0
100
AcDbSpline
 62
7
  6
CONTINUOUS
 70
0
 71
3
 72
20
 73
16
 74
0
 42
0.0000001
 43
0.0000001
 44
0.0000000001
 40
0.0
 40
0.0
 40
0.0
 40
0.0
 40
0.1233257955
 40
0.1851024252
 40
0.216020686
 40
0.2469586224
 40
0.3089045495
 40
0.3709709963
 40
0.4331744764
 40
0.4955210857
 40
0.6206763567
 40
0.6835139844
 40
0.7465115134
 40
0.8729628069
 40
1.0
 40
1.0
 40
1.0
 40
1.0
 10
5.9053377329
 20
7.1349541915
 30
0.0
 10
5.8849303611
 20
7.1349541915
 30
0.0
 10
5.8542800609
 20
7.1336006356
 30
0.0
 10
5.818734385
 20
7.1297534127
 30
0.0
 10
5.7984721546
 20
7.1269167699
 30
0.0
 10
5.7782458663
 20
7.1236564289
 30
0.0
 10
5.7530609959
 20
7.1188049416
 30
0.0
 10
5.7230451982
 20
7.1118050793
 30
0.0
 10
5.6932449886
 20
7.1036819962
 30
0.0
 10
5.6537814433
 20
7.0914127408
 30
0.0
 10
5.6148590125
 20
7.0771380767
 30
0.0
 10
5.5765260868
 20
7.0611427823
 30
0.0
 10
5.5384463507
 20
7.0440207504
 30
0.0
 10
5.491517629
 20
7.0207272143
 30
0.0
 10
5.4547929001
 20
7.000433195
 30
0.0
 10
5.4365877329
 20
6.9899224368
 30
0.0
  0
SPLINE
  5
253
100
AcDbEntity
  8
0
100
AcDbSpline
 62
7
  6
CONTINUOUS
 70
0
 71
3
 72
20
 73
16
 74
0
 42
0.0000001
 43
0.0000001
 44
0.0000000001
 40
0.0
 40
0.0
 40
0.0
 40
0.0
 40
0.1233257955
 40
0.1851024252
 40
0.216020686
 40
0.2469586224
 40
0.3089045495
 40
0.3709709963
 40
0.4331744764
 40
0.4955210857
 40
0.6206763567
 40
0.6835139844
 40
0.7465115134
 40
0.8729628069
 40
1.0
 40
1.0
 40
1.0
 40
1.0
 10
4.9678377329
 20
7.1349541915
 30
0.0
 10
4.9474303611
 20
7.1349541915
 30
0.0
 10
4.9167800609
 20
7.1336006356
 30
0.0
 10
4.881234385
 20
7.1297534127
 30
0.0
 10
4.8609721546
 20
7.1269167699
 30
0.0
 10
4.8407458663
 20
7.1236564289
 30
0.0
 10
4.8155609959
 20
7.1188049416
 30
0.0
 10
4.7855451982
 20
7.1118050793
 30
0.0
 10
4.7557449886
 20
7.1036819962
 30
0.0
 10
4.7162814433
 20
7.0914127408
 30
0.0
 10
4.6773590125
 20
7.0771380767
 30
0.0
 10
4.6390260868
 20
7.0611427823
 30
0.0
 10
4.6009463507
 20
7.0440207504
 30
0.0
 10
4.554017629
 20
7.0207272143
 30
0.0
 10
4.5172929001
 20
7.000433195
 30
0.0
 10
4.4990877329
 20
6.9899224368
 30
0.0
  0
SPLINE
  5
254
100
AcDbEntity
  8
0
100
AcDbSpline
 62
7
  6
CONTINUOUS
 70
0
 71
3
 72
39
 73
35
 74
0
 42
0.0000001
 43
0.0000001
 44
0.0000000001
 40
0.0
 40
0.0
 40
0.0
 40
0.0
 40
0.0033395742
 40
0.0059671516
 40
0.0079139351
 40
0.0092179568
 40
0.0099460856
 40
0.0103676684
 40
0.0111065892
 40
0.0123483691
 40
0.0163519262
 40
0.0222538415
 40
0.0298587103
 40
0.038961478
 40
0.0493541117
 40
0.0608273905
 40
0.0861766317
 40
0.1133292752
 40
0.1406095343
 40
0.1920155022
 40
0.2391586689
 40
0.2823777326
 40
0.3220050312
 40
0.3917655398
 40
0.4509243726
 40
0.5017728238
 40
0.5464414237
 40
0.6258089594
 40
0.6657463967
 40
0.7100773616
 40
0.7623230106
 40
0.8259220898
 40
0.9041219844
 40
1.0
 40
1.0
 40
1.0
 40
1.0
 10
5.5155053352
 20
3.9114991618
 30
0.0
 10
5.515504597
 20
3.911494544
 30
0.0
 10
5.5155032031
 20
3.9114862825
 30
0.0
 10
5.5155009863
 20
3.9114754962
 30
0.0
 10
5.5154989799
 20
3.9114673352
 30
0.0
 10
5.5154970332
 20
3.9114624505
 30
0.0
 10
5.5154953804
 20
3.9114588026
 30
0.0
 10
5.515492263
 20
3.9114591169
 30
0.0
 10
5.515491005
 20
3.9114626953
 30
0.0
 10
5.5154885161
 20
3.9114703623
 30
0.0
 10
5.5154864341
 20
3.9114861917
 30
0.0
 10
5.51548391
 20
3.9115104035
 30
0.0
 10
5.5154817273
 20
3.9115420632
 30
0.0
 10
5.5154796149
 20
3.9115799271
 30
0.0
 10
5.5154776275
 20
3.9116232552
 30
0.0
 10
5.5154749489
 20
3.9116893122
 30
0.0
 10
5.5154717025
 20
3.9117788384
 30
0.0
 10
5.5154674791
 20
3.9118904756
 30
0.0
 10
5.5154607461
 20
3.9120385291
 30
0.0
 10
5.5154492586
 20
3.9122143747
 30
0.0
 10
5.5154308669
 20
3.9124120612
 30
0.0
 10
5.5154087886
 20
3.9125927672
 30
0.0
 10
5.515376648
 20
3.9128040517
 30
0.0
 10
5.5153312018
 20
3.913035802
 30
0.0
 10
5.5152691561
 20
3.913279842
 30
0.0
 10
5.5152073454
 20
3.9134875157
 30
0.0
 10
5.5151348965
 20
3.9137211662
 30
0.0
 10
5.5150785967
 20
3.9139454804
 30
0.0
 10
5.51507147
 20
3.9141754762
 30
0.0
 10
5.5150948151
 20
3.9143658583
 30
0.0
 10
5.5151512447
 20
3.914583444
 30
0.0
 10
5.5152449148
 20
3.9148388146
 30
0.0
 10
5.5153805139
 20
3.9151429323
 30
0.0
 10
5.5154898743
 20
3.9153608516
 30
0.0
 10
5.5155517176
 20
3.9154800158
 30
0.0
  0
LINE
  5
255
100
AcDbEntity
  8
0
100
AcDbLine
 62
7
  6
CONTINUOUS
 10
5.5112576988
 20
3.9162159342
 11
5.5124129499
 21
3.9145429189
  0
SPLINE
  5
256
100
AcDbEntity
  8
0
100
AcDbSpline
 62
7
  6
CONTINUOUS
 70
0
 71
3
 72
15
 73
11
 74
0
 42
0.0000001
 43
0.0000001
 44
0.0000000001
 40
0.0
 40
0.0
 40
0.0
 40
0.0
 40
0.1250671197
 40
0.2517529048
 40
0.3797102509
 40
0.5075639223
 40
0.6339131571
 40
0.757812883
 40
0.8793018852
 40
1.0
 40
1.0
 40
1.0
 40
1.0
 10
5.5124129499
 20
3.9145429189
 30
0.0
 10
5.5124828476
 20
3.9144290055
 30
0.0
 10
5.5126190018
 20
3.9141968143
 30
0.0
 10
5.5128040203
 20
3.9138354879
 30
0.0
 10
5.5129765393
 20
3.9134649227
 30
0.0
 10
5.5131489552
 20
3.913094717
 30
0.0
 10
5.513331612
 20
3.9127341434
 30
0.0
 10
5.5135356454
 20
3.9123926786
 30
0.0
 10
5.513772476
 20
3.9120800433
 30
0.0
 10
5.5139594765
 20
3.9118989116
 30
0.0
 10
5.5140601322
 20
3.9118182629
 30
0.0
  0
SPLINE
  5
257
100
AcDbEntity
  8
0
100
AcDbSpline
 62
7
  6
CONTINUOUS
 70
0
 71
3
 72
11
 73
7
 74
0
 42
0.0000001
 43
0.0000001
 44
0.0000000001
 40
0.0
 40
0.0
 40
0.0
 40
0.0
 40
0.2588449188
 40
0.5134986226
 40
0.7587517123
 40
1.0
 40
1.0
 40
1.0
 40
1.0
 10
5.5140601322
 20
3.9118182629
 30
0.0
 10
5.514164374
 20
3.9117347409
 30
0.0
 10
5.5143874984
 20
3.9115882288
 30
0.0
 10
5.5147545504
 20
3.91144307
 30
0.0
 10
5.5151391301
 20
3.9113948706
 30
0.0
 10
5.5153911706
 20
3.9114495098
 30
0.0
 10
5.5155053352
 20
3.9114991618
 30
0.0
  0
SPLINE
  5
258
100
AcDbEntity
  8
0
100
AcDbSpline
 62
9
  6
CONTINUOUS
 70
0
 71
3
 72
29
 73
25
 74
0
 42
0.0000001
 43
0.0000001
 44
0.0000000001
 40
0.0
 40
0.0
 40
0.0
 40
0.0
 40
0.0015711491
 40
0.0035164654
 40
0.0058829308
 40
0.0086992534
 40
0.0157516422
 40
0.024781574
 40
0.0358603589
 40
0.0490460385
 40
0.0643902513
 40
0.0819411911
 40
0.1017290126
 40
0.1237183535
 40
0.1740905289
 40
0.2326316136
 40
0.2989092578
 40
0.3723803976
 40
0.4520677432
 40
0.5368842037
 40
0.6257416557
 40
0.7175545336
 40
0.8112493178
 40
1.0
 40
1.0
 40
1.0
 40
1.0
 10
6.1065480988
 20
1.2742286513
 30
0.0
 10
6.1064985436
 20
1.2742160129
 30
0.0
 10
6.1063835503
 20
1.2742040988
 30
0.0
 10
6.1061920759
 20
1.2742175009
 30
0.0
 10
6.1059636284
 20
1.2742603232
 30
0.0
 10
6.1055792827
 20
1.2743657864
 30
0.0
 10
6.1050028422
 20
1.2745836476
 30
0.0
 10
6.1041985987
 20
1.2749514847
 30
0.0
 10
6.103234829
 20
1.2754478412
 30
0.0
 10
6.1021087033
 20
1.2760759006
 30
0.0
 10
6.1008173728
 20
1.2768392433
 30
0.0
 10
6.0993585373
 20
1.2777407954
 30
0.0
 10
6.0977320135
 20
1.2787819549
 30
0.0
 10
6.0952265061
 20
1.2804311248
 30
0.0
 10
6.0917055583
 20
1.2828312583
 30
0.0
 10
6.0870420774
 20
1.2861133814
 30
0.0
 10
6.081808442
 20
1.2898909589
 30
0.0
 10
6.0760582593
 20
1.2941283094
 30
0.0
 10
6.069858736
 20
1.2987726619
 30
0.0
 10
6.0632915097
 20
1.3037611821
 30
0.0
 10
6.0564408391
 20
1.3090288008
 30
0.0
 10
6.0493905271
 20
1.3145106636
 30
0.0
 10
6.0398089933
 20
1.3220340811
 30
0.0
 10
6.0326145531
 20
1.3277582879
 30
0.0
 10
6.027821548
 20
1.3316020608
 30
0.0
  0
SPLINE
  5
259
100
AcDbEntity
  8
0
100
AcDbSpline
 62
9
  6
CONTINUOUS
 70
0
 71
3
 72
29
 73
25
 74
0
 42
0.0000001
 43
0.0000001
 44
0.0000000001
 40
0.0
 40
0.0
 40
0.0
 40
0.0
 40
0.1887507558
 40
0.282445565
 40
0.3742584599
 40
0.4631159211
 40
0.5479323837
 40
0.6276197255
 40
0.7010908567
 40
0.7673684885
 40
0.8259095582
 40
0.876281717
 40
0.8982710496
 40
0.9180588626
 40
0.9356097942
 40
0.9509539991
 40
0.9641396709
 40
0.9752184486
 40
0.9842483735
 40
0.991300756
 40
0.9941170757
 40
0.9964835385
 40
0.9984288526
 40
1.0
 40
1.0
 40
1.0
 40
1.0
 10
4.8453539191
 20
1.3316020608
 30
0.0
 10
4.8405609161
 20
1.32775829
 30
0.0
 10
4.8333664795
 20
1.3220340867
 30
0.0
 10
4.8237849507
 20
1.3145106739
 30
0.0
 10
4.8167346434
 20
1.3090288153
 30
0.0
 10
4.8098839778
 20
1.303761201
 30
0.0
 10
4.8033167568
 20
1.2987726855
 30
0.0
 10
4.7971172388
 20
1.2941283377
 30
0.0
 10
4.7913670616
 20
1.2898909918
 30
0.0
 10
4.7861334315
 20
1.2861134187
 30
0.0
 10
4.7814699555
 20
1.2828312997
 30
0.0
 10
4.7779490117
 20
1.2804311694
 30
0.0
 10
4.7754435072
 20
1.2787820019
 30
0.0
 10
4.7738169854
 20
1.277740844
 30
0.0
 10
4.7723581517
 20
1.2768392933
 30
0.0
 10
4.7710668228
 20
1.276075952
 30
0.0
 10
4.7699406986
 20
1.2754478938
 30
0.0
 10
4.7689769302
 20
1.2749515382
 30
0.0
 10
4.768172688
 20
1.2745837021
 30
0.0
 10
4.7675962484
 20
1.2743658415
 30
0.0
 10
4.7672119033
 20
1.2742603787
 30
0.0
 10
4.7669834562
 20
1.2742175568
 30
0.0
 10
4.7667919821
 20
1.2742041549
 30
0.0
 10
4.7666769891
 20
1.2742160692
 30
0.0
 10
4.766627434
 20
1.2742287077
 30
0.0
  0
SPLINE
  5
25A
100
AcDbEntity
  8
0
100
AcDbSpline
 62
9
  6
CONTINUOUS
 70
0
 71
3
 72
27
 73
23
 74
0
 42
0.0000001
 43
0.0000001
 44
0.0000000001
 40
0.0
 40
0.0
 40
0.0
 40
0.0
 40
0.031110233
 40
0.0622480328
 40
0.0934138171
 40
0.1246057468
 40
0.187031518
 40
0.2495230211
 40
0.3120757153
 40
0.3746902328
 40
0.4373411383
 40
0.4999995014
 40
0.5626579568
 40
0.6253090185
 40
0.6879235541
 40
0.7504759091
 40
0.8129666438
 40
0.8753917985
 40
0.9065837272
 40
0.9377498521
 40
0.968888437
 40
1.0
 40
1.0
 40
1.0
 40
1.0
 10
6.0278215791
 20
1.3316020371
 30
0.0
 10
6.0188976009
 20
1.3208578237
 30
0.0
 10
6.0004283999
 20
1.2998610985
 30
0.0
 10
5.970999271
 20
1.2699540458
 30
0.0
 10
5.9399325746
 20
1.2416938519
 30
0.0
 10
5.8964672982
 20
1.2063137262
 30
0.0
 10
5.8385448159
 20
1.1665864649
 30
0.0
 10
5.7641988629
 20
1.1267783431
 30
0.0
 10
5.6858115155
 20
1.0954341712
 30
0.0
 10
5.6044210712
 20
1.0727779653
 30
0.0
 10
5.5210172557
 20
1.0590125446
 30
0.0
 10
5.4365883633
 20
1.0543515525
 30
0.0
 10
5.3521594173
 20
1.059012779
 30
0.0
 10
5.2687554993
 20
1.0727782612
 30
0.0
 10
5.1873650741
 20
1.0954342203
 30
0.0
 10
5.1089779953
 20
1.1267777149
 30
0.0
 10
5.0346323921
 20
1.1665848514
 30
0.0
 10
4.9767102345
 20
1.2063115078
 30
0.0
 10
4.9332450155
 20
1.2416915099
 30
0.0
 10
4.9021779674
 20
1.2699520696
 30
0.0
 10
4.8727481169
 20
1.2998599602
 30
0.0
 10
4.8542783132
 20
1.3208574191
 30
0.0
 10
4.8453539479
 20
1.3316020874
 30
0.0
  0
SPLINE
  5
25B
100
AcDbEntity
  8
0
100
AcDbSpline
 62
9
  6
CONTINUOUS
 70
0
 71
3
 72
37
 73
33
 74
0
 42
0.0000001
 43
0.0000001
 44
0.0000000001
 40
0.0
 40
0.0
 40
0.0
 40
0.0
 40
0.0313158458
 40
0.0626354987
 40
0.0939514645
 40
0.12525671
 40
0.1565461767
 40
0.187819896
 40
0.2190790775
 40
0.2503252149
 40
0.2815601904
 40
0.312785468
 40
0.3440023196
 40
0.3752122808
 40
0.4064172569
 40
0.4376186285
 40
0.4999997642
 40
0.5623809341
 40
0.5935823329
 40
0.6247873292
 40
0.6559972973
 40
0.6872141525
 40
0.718439445
 40
0.7496744614
 40
0.78092067
 40
0.8121799145
 40
0.8434536381
 40
0.8747429995
 40
0.9060480231
 40
0.9373638205
 40
0.9686835734
 40
1.0
 40
1.0
 40
1.0
 40
1.0
 10
6.0278215735
 20
6.4523063395
 30
0.0
 10
6.0648940704
 20
6.407669689
 30
0.0
 10
6.1371486526
 20
6.3167974369
 30
0.0
 10
6.2396168365
 20
6.1760087001
 30
0.0
 10
6.3359769797
 20
6.0309903907
 30
0.0
 10
6.4260079421
 20
5.8820257176
 30
0.0
 10
6.5094950671
 20
5.7293859667
 30
0.0
 10
6.5862885935
 20
5.5733667457
 30
0.0
 10
6.6562464111
 20
5.4142526078
 30
0.0
 10
6.7192269594
 20
5.2523264744
 30
0.0
 10
6.7750876241
 20
5.0878744966
 30
0.0
 10
6.823736755
 20
4.9212034982
 30
0.0
 10
6.8650825974
 20
4.7526196103
 30
0.0
 10
6.8990329778
 20
4.5824309022
 30
0.0
 10
6.9254954026
 20
4.4109440214
 30
0.0
 10
6.9507476904
 20
4.1810509661
 30
0.0
 10
6.9634469485
 20
3.891955453
 30
0.0
 10
6.9507478234
 20
3.602859885
 30
0.0
 10
6.9254956739
 20
3.3729666629
 30
0.0
 10
6.8990333663
 20
3.2014796624
 30
0.0
 10
6.8650831132
 20
3.0312908706
 30
0.0
 10
6.8237373744
 20
2.8627069083
 30
0.0
 10
6.7750882879
 20
2.6960357818
 30
0.0
 10
6.7192275758
 20
2.5315835707
 30
0.0
 10
6.6562469003
 20
2.3696571383
 30
0.0
 10
6.5862889976
 20
2.2105427581
 30
0.0
 10
6.5094955716
 20
2.0545235672
 30
0.0
 10
6.4260088489
 20
1.901884279
 30
0.0
 10
6.3359784663
 20
1.7529203276
 30
0.0
 10
6.2396186297
 20
1.607902459
 30
0.0
 10
6.137149864
 20
1.4671129714
 30
0.0
 10
6.064894578
 20
1.3762396725
 30
0.0
 10
6.0278215132
 20
1.3316020946
 30
0.0
  0
SPLINE
  5
25C
100
AcDbEntity
  8
0
100
AcDbSpline
 62
9
  6
CONTINUOUS
 70
0
 71
3
 72
27
 73
23
 74
0
 42
0.0000001
 43
0.0000001
 44
0.0000000001
 40
0.0
 40
0.0
 40
0.0
 40
0.0
 40
0.031110222
 40
0.0622480103
 40
0.0934137828
 40
0.124605701
 40
0.1870314517
 40
0.2495229409
 40
0.3120756306
 40
0.3746901505
 40
0.4373410614
 40
0.4999994295
 40
0.5626578874
 40
0.6253089503
 40
0.687923488
 40
0.750475848
 40
0.8129665924
 40
0.8753917609
 40
0.9065836978
 40
0.9377498317
 40
0.9688884264
 40
1.0
 40
1.0
 40
1.0
 40
1.0
 10
4.8453538864
 20
6.4523063462
 30
0.0
 10
4.854277861
 20
6.4630505562
 30
0.0
 10
4.872747054
 20
6.4840472749
 30
0.0
 10
4.9021761698
 20
6.513954319
 30
0.0
 10
4.9332428521
 20
6.5422145051
 30
0.0
 10
4.9767081102
 20
6.5775946223
 30
0.0
 10
5.0346305721
 20
6.6173218768
 30
0.0
 10
5.1089765068
 20
6.6571299959
 30
0.0
 10
5.1873638447
 20
6.6884741719
 30
0.0
 10
5.2687542876
 20
6.7111303882
 30
0.0
 10
5.3521581064
 20
6.7248958231
 30
0.0
 10
5.4365870038
 20
6.7295568307
 30
0.0
 10
5.5210159546
 20
6.7248956177
 30
0.0
 10
5.604419877
 20
6.7111301459
 30
0.0
 10
5.6858103082
 20
6.6884741939
 30
0.0
 10
5.7641973963
 20
6.6571307023
 30
0.0
 10
5.8385430136
 20
6.6173235649
 30
0.0
 10
5.8964651857
 20
6.5775969043
 30
0.0
 10
5.9399304178
 20
6.5422168963
 30
0.0
 10
5.9709974766
 20
6.5139563303
 30
0.0
 10
6.0004273381
 20
6.4840484319
 30
0.0
 10
6.0188971489
 20
6.4630509669
 30
0.0
 10
6.0278215176
 20
6.4523062954
 30
0.0
  0
SPLINE
  5
25D
100
AcDbEntity
  8
0
100
AcDbSpline
 62
9
  6
CONTINUOUS
 70
0
 71
3
 72
37
 73
33
 74
0
 42
0.0000001
 43
0.0000001
 44
0.0000000001
 40
0.0
 40
0.0
 40
0.0
 40
0.0
 40
0.0313158406
 40
0.0626354851
 40
0.0939514407
 40
0.1252566759
 40
0.1565461335
 40
0.1878198448
 40
0.2190790194
 40
0.2503251507
 40
0.2815601206
 40
0.3127853925
 40
0.3440022373
 40
0.3752121899
 40
0.4064171551
 40
0.4376185151
 40
0.4999996344
 40
0.5623808061
 40
0.5935822101
 40
0.6247872124
 40
0.6559971859
 40
0.6872140459
 40
0.7184393428
 40
0.7496743634
 40
0.7809205765
 40
0.812179827
 40
0.8434535594
 40
0.8747429343
 40
0.9060479766
 40
0.9373637942
 40
0.9686835641
 40
1.0
 40
1.0
 40
1.0
 40
1.0
 10
4.8453538922
 20
1.3316020435
 30
0.0
 10
4.8082814011
 20
1.3762386864
 30
0.0
 10
4.7360268335
 20
1.4671109176
 30
0.0
 10
4.6335586731
 20
1.607899617
 30
0.0
 10
4.5371985567
 20
1.7529178798
 30
0.0
 10
4.4471676183
 20
1.9018825033
 30
0.0
 10
4.36368051
 20
2.0545222056
 30
0.0
 10
4.2868869926
 20
2.2105413814
 30
0.0
 10
4.216929178
 20
2.369655478
 30
0.0
 10
4.1539486282
 20
2.5315815738
 30
0.0
 10
4.0980879598
 20
2.6960335161
 30
0.0
 10
4.0494388224
 20
2.8627044776
 30
0.0
 10
4.00809297
 20
3.0312883226
 30
0.0
 10
3.974142576
 20
3.2014769784
 30
0.0
 10
3.9476801332
 20
3.3729637981
 30
0.0
 10
3.9224278163
 20
3.6028567779
 30
0.0
 10
3.9097285185
 20
3.8919522405
 30
0.0
 10
3.9224275967
 20
4.1810477928
 30
0.0
 10
3.9476797067
 20
4.4109410434
 30
0.0
 10
3.9741419877
 20
4.5824280793
 30
0.0
 10
4.0080922187
 20
4.7526169061
 30
0.0
 10
4.0494379385
 20
4.9212009009
 30
0.0
 10
4.0980870079
 20
5.0878720583
 30
0.0
 10
4.1539477039
 20
5.2523243005
 30
0.0
 10
4.2169283644
 20
5.4142507679
 30
0.0
 10
4.2868862592
 20
5.5733651908
 30
0.0
 10
4.3636796908
 20
5.7293844376
 30
0.0
 10
4.4471664385
 20
5.8820237989
 30
0.0
 10
4.5371968655
 20
6.0309878369
 30
0.0
 10
4.6335567544
 20
6.1760057951
 30
0.0
 10
4.7360255651
 20
6.3167953566
 30
0.0
 10
4.808280878
 20
6.4076686965
 30
0.0
 10
4.8453539528
 20
6.4523062884
 30
0.0
  0
SPLINE
  5
25E
100
AcDbEntity
  8
0
100
AcDbSpline
 62
9
  6
CONTINUOUS
 70
0
 71
3
 72
29
 73
25
 74
0
 42
0.0000001
 43
0.0000001
 44
0.0000000001
 40
0.0
 40
0.0
 40
0.0
 40
0.0
 40
0.1892155572
 40
0.2830847808
 40
0.3750249062
 40
0.463957797
 40
0.548800373
 40
0.628468769
 40
0.7018801488
 40
0.7680628417
 40
0.8264848657
 40
0.8767263112
 40
0.8986497957
 40
0.9183735009
 40
0.9358635191
 40
0.9511510844
 40
0.9642853742
 40
0.975319005
 40
0.9843109826
 40
0.9913335432
 40
0.9941382544
 40
0.9964954091
 40
0.9984337171
 40
1.0
 40
1.0
 40
1.0
 40
1.0
 10
6.0278215412
 20
1.3316020709
 30
0.0
 10
6.0326263501
 20
1.3277488318
 30
0.0
 10
6.0398371336
 20
1.3220117436
 30
0.0
 10
6.0494384881
 20
1.3144731687
 30
0.0
 10
6.0564986924
 20
1.3089840321
 30
0.0
 10
6.0633555324
 20
1.3037122209
 30
0.0
 10
6.0699252208
 20
1.2987224987
 30
0.0
 10
6.07612374
 20
1.294079663
 30
0.0
 10
6.0818697748
 20
1.289846214
 30
0.0
 10
6.0870966254
 20
1.2860744644
 30
0.0
 10
6.0917514073
 20
1.2827994792
 30
0.0
 10
6.0952643003
 20
1.2804057711
 30
0.0
 10
6.0977630804
 20
1.2787618162
 30
0.0
 10
6.0993846266
 20
1.2777244067
 30
0.0
 10
6.1008386801
 20
1.2768263667
 30
0.0
 10
6.1021255168
 20
1.2760662303
 30
0.0
 10
6.1032475177
 20
1.2754410126
 30
0.0
 10
6.1042076099
 20
1.2749470783
 30
0.0
 10
6.1050087012
 20
1.2745811876
 30
0.0
 10
6.1055828594
 20
1.2743646044
 30
0.0
 10
6.1059656871
 20
1.2742598545
 30
0.0
 10
6.106193271
 20
1.2742173708
 30
0.0
 10
6.1063840657
 20
1.2742041526
 30
0.0
 10
6.1064986595
 20
1.2742160789
 30
0.0
 10
6.1065480613
 20
1.2742286778
 30
0.0
  0
SPLINE
  5
25F
100
AcDbEntity
  8
0
100
AcDbSpline
 62
9
  6
CONTINUOUS
 70
0
 71
3
 72
29
 73
25
 74
0
 42
0.0000001
 43
0.0000001
 44
0.0000000001
 40
0.0
 40
0.0
 40
0.0
 40
0.0
 40
0.0015662809
 40
0.0035045867
 40
0.0058617393
 40
0.0086664485
 40
0.0156890055
 40
0.0246809803
 40
0.035714609
 40
0.0488488976
 40
0.0641364626
 40
0.0816264814
 40
0.1013501882
 40
0.1232736752
 40
0.1735151279
 40
0.2319371613
 40
0.298119865
 40
0.3715312559
 40
0.4511996619
 40
0.5360422455
 40
0.6249751398
 40
0.7169152634
 40
0.810784479
 40
1.0
 40
1.0
 40
1.0
 40
1.0
 10
6.1065481231
 20
6.509679755
 30
0.0
 10
6.1064987214
 20
6.509692354
 30
0.0
 10
6.1063841276
 20
6.5097042803
 30
0.0
 10
6.106193333
 20
6.5096910623
 30
0.0
 10
6.1059657491
 20
6.5096485786
 30
0.0
 10
6.1055829214
 20
6.5095438288
 30
0.0
 10
6.105008763
 20
6.5093272456
 30
0.0
 10
6.1042076713
 20
6.5089613547
 30
0.0
 10
6.1032475785
 20
6.5084674201
 30
0.0
 10
6.102125577
 20
6.507842202
 30
0.0
 10
6.1008387393
 20
6.507082065
 30
0.0
 10
6.0993846847
 20
6.5061840242
 30
0.0
 10
6.0977631372
 20
6.5051466138
 30
0.0
 10
6.0952643549
 20
6.5035026574
 30
0.0
 10
6.0917514588
 20
6.501108947
 30
0.0
 10
6.0870966728
 20
6.4978339587
 30
0.0
 10
6.0818698174
 20
6.4940622054
 30
0.0
 10
6.0761237776
 20
6.4898287524
 30
0.0
 10
6.069925253
 20
6.4851859126
 30
0.0
 10
6.0633555593
 20
6.480196186
 30
0.0
 10
6.0564987139
 20
6.4749243705
 30
0.0
 10
6.0494385046
 20
6.4694352297
 30
0.0
 10
6.0398371442
 20
6.4618966499
 30
0.0
 10
6.0326263564
 20
6.4561595581
 30
0.0
 10
6.0278215448
 20
6.4523063167
 30
0.0
  0
SPLINE
  5
260
100
AcDbEntity
  8
0
100
AcDbSpline
 62
9
  6
CONTINUOUS
 70
0
 71
3
 72
43
 73
39
 74
0
 42
0.0000001
 43
0.0000001
 44
0.0000000001
 40
0.0
 40
0.0
 40
0.0
 40
0.0
 40
0.0312105718
 40
0.0624524862
 40
0.0937104774
 40
0.1093417307
 40
0.1249718004
 40
0.1562264998
 40
0.1874779795
 40
0.2187282557
 40
0.249979251
 40
0.2812310891
 40
0.3124831975
 40
0.3281101238
 40
0.3437370197
 40
0.3749890424
 40
0.4062412192
 40
0.4374936421
 40
0.4687465874
 40
0.5000000214
 40
0.5312534556
 40
0.5625064013
 40
0.5937588245
 40
0.6250110012
 40
0.6562630236
 40
0.6718899191
 40
0.6875168449
 40
0.7187689527
 40
0.7500207913
 40
0.7812717894
 40
0.8125220693
 40
0.8437735498
 40
0.8750282438
 40
0.8906583072
 40
0.9062895529
 40
0.9375475296
 40
0.9687894329
 40
1.0
 40
1.0
 40
1.0
 40
1.0
 10
6.1065581735
 20
1.274240744
 30
0.0
 10
6.143879911
 20
1.3199171589
 30
0.0
 10
6.2166231667
 20
1.412919233
 30
0.0
 10
6.319745293
 20
1.55696507
 30
0.0
 10
6.4005505928
 20
1.6806126025
 30
0.0
 10
6.4619968266
 20
1.7815431497
 30
0.0
 10
6.5212671641
 20
1.8837595681
 30
0.0
 10
6.5912321755
 20
2.0138590308
 30
0.0
 10
6.6684379595
 20
2.1734041509
 30
0.0
 10
6.7387516298
 20
2.3360986758
 30
0.0
 10
6.8020267349
 20
2.5016585042
 30
0.0
 10
6.8581568401
 20
2.6697770681
 30
0.0
 10
6.8988923283
 20
2.811758382
 30
0.0
 10
6.9278007485
 20
2.9263052291
 30
0.0
 10
6.9542390022
 20
3.0414471387
 30
0.0
 10
6.9826363218
 20
3.1864017947
 30
0.0
 10
7.0092144841
 20
3.3616423625
 30
0.0
 10
7.0282442048
 20
3.5378661163
 30
0.0
 10
7.0396671422
 20
3.7147479718
 30
0.0
 10
7.0434735624
 20
3.8919591643
 30
0.0
 10
7.0396667074
 20
4.0691703481
 30
0.0
 10
7.0282433528
 20
4.2460521782
 30
0.0
 10
7.0092132063
 20
4.4222758872
 30
0.0
 10
6.9826346144
 20
4.5975163895
 30
0.0
 10
6.9542369442
 20
4.7424709752
 30
0.0
 10
6.927798423
 20
4.8576128211
 30
0.0
 10
6.8988897325
 20
4.972159597
 30
0.0
 10
6.8581539013
 20
5.1141408116
 30
0.0
 10
6.8020233822
 20
5.2822592424
 30
0.0
 10
6.7387478746
 20
5.447818931
 30
0.0
 10
6.6684338014
 20
5.610513297
 30
0.0
 10
6.5912276263
 20
5.770058226
 30
0.0
 10
6.5212623164
 20
5.9001575046
 30
0.0
 10
6.4619917691
 20
6.0023737589
 30
0.0
 10
6.4005453391
 20
6.1033041235
 30
0.0
 10
6.3197397878
 20
6.226951417
 30
0.0
 10
6.2166173488
 20
6.3709969601
 30
0.0
 10
6.1438738808
 20
6.4639988305
 30
0.0
 10
6.1065520345
 20
6.509675145
 30
0.0
  0
SPLINE
  5
261
100
AcDbEntity
  8
0
100
AcDbSpline
 62
9
  6
CONTINUOUS
 70
0
 71
3
 72
29
 73
25
 74
0
 42
0.0000001
 43
0.0000001
 44
0.0000000001
 40
0.0
 40
0.0
 40
0.0
 40
0.0
 40
0.1892155574
 40
0.283084781
 40
0.3750249064
 40
0.4639577972
 40
0.5488003732
 40
0.6284687691
 40
0.7018801489
 40
0.7680628417
 40
0.8264848657
 40
0.8767263112
 40
0.8986497957
 40
0.9183735008
 40
0.935863519
 40
0.9511510844
 40
0.9642853741
 40
0.975319005
 40
0.9843109826
 40
0.9913335432
 40
0.9941382544
 40
0.9964954091
 40
0.9984337171
 40
1.0
 40
1.0
 40
1.0
 40
1.0
 10
4.8453539247
 20
6.4523063121
 30
0.0
 10
4.8405491157
 20
6.4561595513
 30
0.0
 10
4.8333383322
 20
6.4618966394
 30
0.0
 10
4.8237369778
 20
6.4694352142
 30
0.0
 10
4.8166767735
 20
6.4749243509
 30
0.0
 10
4.8098199335
 20
6.4801961621
 30
0.0
 10
4.8032502452
 20
6.4851858843
 30
0.0
 10
4.797051726
 20
6.4898287199
 30
0.0
 10
4.7913056912
 20
6.4940621689
 30
0.0
 10
4.7860788406
 20
6.4978339185
 30
0.0
 10
4.7814240588
 20
6.5011089037
 30
0.0
 10
4.7779111658
 20
6.5035026118
 30
0.0
 10
4.7754123856
 20
6.5051465666
 30
0.0
 10
4.7737908394
 20
6.5061839762
 30
0.0
 10
4.7723367859
 20
6.5070820162
 30
0.0
 10
4.7710499492
 20
6.5078421526
 30
0.0
 10
4.7699279484
 20
6.5084673703
 30
0.0
 10
4.7689678562
 20
6.5089613045
 30
0.0
 10
4.7681667648
 20
6.5093271953
 30
0.0
 10
4.7675926066
 20
6.5095437785
 30
0.0
 10
4.767209779
 20
6.5096485284
 30
0.0
 10
4.7669821951
 20
6.5096910121
 30
0.0
 10
4.7667914004
 20
6.5097042302
 30
0.0
 10
4.7666768066
 20
6.509692304
 30
0.0
 10
4.7666274048
 20
6.5096797051
 30
0.0
  0
SPLINE
  5
262
100
AcDbEntity
  8
0
100
AcDbSpline
 62
9
  6
CONTINUOUS
 70
0
 71
3
 72
43
 73
39
 74
0
 42
0.0000001
 43
0.0000001
 44
0.0000000001
 40
0.0
 40
0.0
 40
0.0
 40
0.0
 40
0.0312105713
 40
0.0624524849
 40
0.0937104762
 40
0.1093417303
 40
0.1249718015
 40
0.1562265052
 40
0.1874779895
 40
0.2187282687
 40
0.2499792638
 40
0.2812310994
 40
0.3124832045
 40
0.3281101292
 40
0.3437370237
 40
0.3749890444
 40
0.4062412196
 40
0.437493641
 40
0.4687465843
 40
0.5000000158
 40
0.5312534475
 40
0.5625063909
 40
0.5937588123
 40
0.6250109874
 40
0.656263008
 40
0.6718899023
 40
0.6875168268
 40
0.7187689317
 40
0.7500207678
 40
0.7812717641
 40
0.8125220443
 40
0.8437735276
 40
0.8750282265
 40
0.8906582933
 40
0.9062895424
 40
0.9375475248
 40
0.9687894317
 40
1.0
 40
1.0
 40
1.0
 40
1.0
 10
4.7666173007
 20
6.5096676493
 30
0.0
 10
4.7292955641
 20
6.4639912348
 30
0.0
 10
4.6565523076
 20
6.3709891639
 30
0.0
 10
4.5534301756
 20
6.2269433328
 30
0.0
 10
4.4726248713
 20
6.1032958022
 30
0.0
 10
4.4111786347
 20
6.0023652512
 30
0.0
 10
4.3519082931
 20
5.9001488204
 30
0.0
 10
4.2819432772
 20
5.7700493371
 30
0.0
 10
4.2047374891
 20
5.6105041932
 30
0.0
 10
4.1344238145
 20
5.4478096542
 30
0.0
 10
4.0711487082
 20
5.282249825
 30
0.0
 10
4.0150186092
 20
5.1141312703
 30
0.0
 10
3.9742831276
 20
4.9721499685
 30
0.0
 10
3.9453747117
 20
4.8576031321
 30
0.0
 10
3.9189364608
 20
4.7424612312
 30
0.0
 10
3.890539144
 20
4.5975065837
 30
0.0
 10
3.8639609834
 20
4.4222660248
 30
0.0
 10
3.8449312632
 20
4.2460422802
 30
0.0
 10
3.8335083248
 20
4.0691604356
 30
0.0
 10
3.8297019022
 20
3.8919492559
 30
0.0
 10
3.8335087545
 20
3.7147380851
 30
0.0
 10
3.8449321094
 20
3.5378562668
 30
0.0
 10
3.8639622517
 20
3.3616325674
 30
0.0
 10
3.8905408368
 20
3.1863920735
 30
0.0
 10
3.9189385015
 20
3.0414374951
 30
0.0
 10
3.945377021
 20
2.9262956568
 30
0.0
 10
3.9742857071
 20
2.8117488896
 30
0.0
 10
4.0150215293
 20
2.6697676852
 30
0.0
 10
4.0711520361
 20
2.5016492639
 30
0.0
 10
4.1344275386
 20
2.3360895808
 30
0.0
 10
4.2047416057
 20
2.173395209
 30
0.0
 10
4.2819477761
 20
2.0138502602
 30
0.0
 10
4.3519130898
 20
1.883750959
 30
0.0
 10
4.4111836491
 20
1.7815346854
 30
0.0
 10
4.4726300938
 20
1.6806043017
 30
0.0
 10
4.5534356598
 20
1.5569569886
 30
0.0
 10
4.6565581114
 20
1.4129114294
 30
0.0
 10
4.7293015855
 20
1.3199095517
 30
0.0
 10
4.7666234335
 20
1.2742332353
 30
0.0
  0
SPLINE
  5
263
100
AcDbEntity
  8
0
100
AcDbSpline
 62
9
  6
CONTINUOUS
 70
0
 71
3
 72
29
 73
25
 74
0
 42
0.0000001
 43
0.0000001
 44
0.0000000001
 40
0.0
 40
0.0
 40
0.0
 40
0.0
 40
0.0015662809
 40
0.0035045867
 40
0.0058617393
 40
0.0086664485
 40
0.0156890055
 40
0.0246809802
 40
0.035714609
 40
0.0488488975
 40
0.0641364626
 40
0.0816264814
 40
0.1013501882
 40
0.1232736752
 40
0.1735151279
 40
0.2319371613
 40
0.298119865
 40
0.3715312559
 40
0.4511996619
 40
0.5360422455
 40
0.6249751398
 40
0.7169152634
 40
0.8107844791
 40
1.0
 40
1.0
 40
1.0
 40
1.0
 10
4.7666273427
 20
1.274228628
 30
0.0
 10
4.7666767444
 20
1.274216029
 30
0.0
 10
4.7667913382
 20
1.2742041027
 30
0.0
 10
4.7669821328
 20
1.2742173207
 30
0.0
 10
4.7672097167
 20
1.2742598044
 30
0.0
 10
4.7675925444
 20
1.2743645542
 30
0.0
 10
4.7681667028
 20
1.2745811374
 30
0.0
 10
4.7689677945
 20
1.2749470283
 30
0.0
 10
4.7699278872
 20
1.2754409629
 30
0.0
 10
4.7710498888
 20
1.276066181
 30
0.0
 10
4.7723367265
 20
1.276826318
 30
0.0
 10
4.7737907811
 20
1.2777243588
 30
0.0
 10
4.7754123286
 20
1.2787617692
 30
0.0
 10
4.7779111109
 20
1.2804057256
 30
0.0
 10
4.781424007
 20
1.282799436
 30
0.0
 10
4.786078793
 20
1.2860744243
 30
0.0
 10
4.7913056484
 20
1.2898461776
 30
0.0
 10
4.7970516882
 20
1.2940796306
 30
0.0
 10
4.8032502128
 20
1.2987224704
 30
0.0
 10
4.8098199065
 20
1.303712197
 30
0.0
 10
4.8166767519
 20
1.3089840125
 30
0.0
 10
4.8237369612
 20
1.3144731534
 30
0.0
 10
4.8333383217
 20
1.3220117332
 30
0.0
 10
4.8405491094
 20
1.3277488249
 30
0.0
 10
4.845353921
 20
1.3316020664
 30
0.0
  0
SPLINE
  5
264
100
AcDbEntity
  8
0
100
AcDbSpline
 62
7
  6
CONTINUOUS
 70
0
 71
3
 72
25
 73
21
 74
0
 42
0.0000001
 43
0.0000001
 44
0.0000000001
 40
0.0
 40
0.0
 40
0.0
 40
0.0
 40
0.0618834554
 40
0.1241051588
 40
0.1865391989
 40
0.249080204
 40
0.3116999754
 40
0.3743935824
 40
0.4057773859
 40
0.4371797396
 40
0.500000613
 40
0.5628216399
 40
0.5942241597
 40
0.6256081411
 40
0.6883019717
 40
0.7509216622
 40
0.8134621676
 40
0.8758955355
 40
0.9381167302
 40
1.0
 40
1.0
 40
1.0
 40
1.0
 10
5.6035578927
 20
3.9392041915
 30
0.0
 10
5.5996820507
 20
3.9392041915
 30
0.0
 10
5.5919039549
 20
3.9395933575
 30
0.0
 10
5.5803307965
 20
3.9413158217
 30
0.0
 10
5.5689380074
 20
3.9441639219
 30
0.0
 10
5.5578578317
 20
3.9481295887
 30
0.0
 10
5.5472057878
 20
3.9531688589
 30
0.0
 10
5.5387716373
 20
3.9582204868
 30
0.0
 10
5.5323437954
 20
3.9627470411
 30
0.0
 10
5.5261415367
 20
3.9675911093
 30
0.0
 10
5.5188434989
 20
3.9742100858
 30
0.0
 10
5.5122246634
 20
3.9815082622
 30
0.0
 10
5.5073806471
 20
3.9877105997
 30
0.0
 10
5.5028540986
 20
3.9941384884
 30
0.0
 10
5.4978024551
 20
4.002572651
 30
0.0
 10
5.4927631327
 20
4.0132246426
 30
0.0
 10
5.4887973718
 20
4.024304702
 30
0.0
 10
5.4859492736
 20
4.0356973868
 30
0.0
 10
5.4842268689
 20
4.0472704685
 30
0.0
 10
5.4838377329
 20
4.055048521
 30
0.0
 10
5.4838377329
 20
4.0589243513
 30
0.0
  0
SPLINE
  5
265
100
AcDbEntity
  8
0
100
AcDbSpline
 62
7
  6
CONTINUOUS
 70
0
 71
3
 72
25
 73
21
 74
0
 42
0.0000001
 43
0.0000001
 44
0.0000000001
 40
0.0
 40
0.0
 40
0.0
 40
0.0
 40
0.0618833278
 40
0.1241047712
 40
0.1865385673
 40
0.2490794737
 40
0.3116992826
 40
0.3743929472
 40
0.4057767755
 40
0.437179146
 40
0.5000000303
 40
0.5628210485
 40
0.5942235528
 40
0.6256075107
 40
0.6883012872
 40
0.7509209431
 40
0.8134615468
 40
0.8758951549
 40
0.9381166049
 40
1.0
 40
1.0
 40
1.0
 40
1.0
 10
5.4838377329
 20
3.7249840317
 30
0.0
 10
5.4838377329
 20
3.7288598657
 30
0.0
 10
5.4842269127
 20
3.7366379374
 30
0.0
 10
5.4859494204
 20
3.7482110499
 30
0.0
 10
5.4887975663
 20
3.7596037879
 30
0.0
 10
5.4927632325
 20
3.7706839406
 30
0.0
 10
5.4978024354
 20
3.7813360141
 30
0.0
 10
5.5028540099
 20
3.7897702066
 30
0.0
 10
5.5073805464
 20
3.7961980689
 30
0.0
 10
5.5122246069
 20
3.8024003379
 30
0.0
 10
5.5188435808
 20
3.80969838
 30
0.0
 10
5.5261417533
 20
3.8163172181
 30
0.0
 10
5.532344081
 20
3.8211612419
 30
0.0
 10
5.5387719501
 20
3.8256878075
 30
0.0
 10
5.5472060718
 20
3.8307395034
 30
0.0
 10
5.5578580347
 20
3.8357788919
 30
0.0
 10
5.5689381167
 20
3.8397446535
 30
0.0
 10
5.5803308517
 20
3.842592707
 30
0.0
 10
5.5919039785
 20
3.8443150691
 30
0.0
 10
5.5996820545
 20
3.8447041915
 30
0.0
 10
5.6035578927
 20
3.8447041915
 30
0.0
  0
SPLINE
  5
266
100
AcDbEntity
  8
0
100
AcDbSpline
 62
7
  6
CONTINUOUS
 70
0
 71
3
 72
25
 73
21
 74
0
 42
0.0000001
 43
0.0000001
 44
0.0000000001
 40
0.0
 40
0.0
 40
0.0
 40
0.0
 40
0.0618834554
 40
0.1241051588
 40
0.1865391989
 40
0.249080204
 40
0.3116999754
 40
0.3743935824
 40
0.4057773859
 40
0.4371797396
 40
0.500000613
 40
0.5628216399
 40
0.5942241597
 40
0.6256081411
 40
0.6883019717
 40
0.7509216622
 40
0.8134621676
 40
0.8758955355
 40
0.9381167302
 40
1.0
 40
1.0
 40
1.0
 40
1.0
 10
5.2696175731
 20
3.8447041915
 30
0.0
 10
5.2734934151
 20
3.8447041915
 30
0.0
 10
5.2812715109
 20
3.8443150256
 30
0.0
 10
5.2928446694
 20
3.8425925614
 30
0.0
 10
5.3042374584
 20
3.8397444611
 30
0.0
 10
5.3153176341
 20
3.8357787944
 30
0.0
 10
5.325969678
 20
3.8307395241
 30
0.0
 10
5.3344038286
 20
3.8256878962
 30
0.0
 10
5.3408316704
 20
3.8211613419
 30
0.0
 10
5.3470339291
 20
3.8163172738
 30
0.0
 10
5.3543319669
 20
3.8096982972
 30
0.0
 10
5.3609508024
 20
3.8024001209
 30
0.0
 10
5.3657948188
 20
3.7961977834
 30
0.0
 10
5.3703213672
 20
3.7897698947
 30
0.0
 10
5.3753730108
 20
3.781335732
 30
0.0
 10
5.3804123332
 20
3.7706837404
 30
0.0
 10
5.384378094
 20
3.7596036811
 30
0.0
 10
5.3872261923
 20
3.7482109963
 30
0.0
 10
5.388948597
 20
3.7366379145
 30
0.0
 10
5.3893377329
 20
3.7288598621
 30
0.0
 10
5.3893377329
 20
3.7249840317
 30
0.0
  0
SPLINE
  5
267
100
AcDbEntity
  8
0
100
AcDbSpline
 62
7
  6
CONTINUOUS
 70
0
 71
3
 72
25
 73
21
 74
0
 42
0.0000001
 43
0.0000001
 44
0.0000000001
 40
0.0
 40
0.0
 40
0.0
 40
0.0
 40
0.0618833278
 40
0.1241047712
 40
0.1865385673
 40
0.2490794737
 40
0.3116992826
 40
0.3743929472
 40
0.4057767755
 40
0.437179146
 40
0.5000000303
 40
0.5628210485
 40
0.5942235528
 40
0.6256075107
 40
0.6883012872
 40
0.7509209431
 40
0.8134615468
 40
0.8758951549
 40
0.9381166049
 40
1.0
 40
1.0
 40
1.0
 40
1.0
 10
5.3893377329
 20
4.0589243513
 30
0.0
 10
5.3893377329
 20
4.0550485173
 30
0.0
 10
5.3889485532
 20
4.0472704456
 30
0.0
 10
5.3872260454
 20
4.0356973332
 30
0.0
 10
5.3843778995
 20
4.0243045951
 30
0.0
 10
5.3804122334
 20
4.0132244424
 30
0.0
 10
5.3753730304
 20
4.002572369
 30
0.0
 10
5.370321456
 20
3.9941381765
 30
0.0
 10
5.3657949194
 20
3.9877103142
 30
0.0
 10
5.3609508589
 20
3.9815080451
 30
0.0
 10
5.354331885
 20
3.974210003
 30
0.0
 10
5.3470337126
 20
3.9675911649
 30
0.0
 10
5.3408313848
 20
3.9627471412
 30
0.0
 10
5.3344035158
 20
3.9582205756
 30
0.0
 10
5.325969394
 20
3.9531688796
 30
0.0
 10
5.3153174311
 20
3.9481294911
 30
0.0
 10
5.3042373491
 20
3.9441637296
 30
0.0
 10
5.2928446142
 20
3.9413156761
 30
0.0
 10
5.2812714874
 20
3.939593314
 30
0.0
 10
5.2734934113
 20
3.9392041915
 30
0.0
 10
5.2696175731
 20
3.9392041915
 30
0.0
  0
ENDSEC
  0
SECTION
  2
OBJECTS
  0
DICTIONARY
  5
C
100
AcDbDictionary
280
0
281
1
  3
ACAD_GROUP
350
D
  3
ACAD_MLINESTYLE
350
17
  3
ACAD_LAYOUT
350
1A
  3
ACAD_PLOTSETTINGS
350
19
  3
ACAD_PLOTSTYLENAME
350
E
  0
DICTIONARY
  5
D
102
{ACAD_REACTORS
330
C
102
}
100
AcDbDictionary
280
0
281
1
  0
ACDBDICTIONARYWDFLT
  5
E
102
{ACAD_REACTORS
330
C
102
}
100
AcDbDictionary
281
1
  3
Normal
350
F
100
AcDbDictionaryWithDefault
340
F
  0
DICTIONARY
  5
17
102
{ACAD_REACTORS
330
C
102
}
100
AcDbDictionary
280
0
281
1
  3
Standard
350
18
  0
DICTIONARY
  5
19
102
{ACAD_REACTORS
330
C
102
}
100
AcDbDictionary
281
1
  0
DICTIONARY
  5
1A
102
{ACAD_REACTORS
330
C
102
}
100
AcDbDictionary
281
1
  3
Model
350
268
  3
Layout1
350
269
  0
ACDBPLACEHOLDER
  5
F
102
{ACAD_REACTORS
330
E
102
}
  0
MLINESTYLE
  5
18
102
{ACAD_REACTORS
330
17
102
}
100
AcDbMlineStyle
  2
STANDARD
 70
0
  3

 62
256
 51
90.0
 52
90.0
 71
2
 49
0.5
 62
256
  6
BYLAYER
 49
-0.5
 62
256
  6
BYLAYER
  0
LAYOUT
  5
268
102
{ACAD_REACTORS
330
1A
102
}
100
AcDbPlotSettings
  1

  2
none_device
  4
ANSI_A_(11.00_x_8.50_Inches)
  6

 40
0.0
 41
0.0
 42
0.0
 43
0.0
 44
279.4
 45
215.9
 46
0.0
 47
0.0
 48
0.0
 49
0.0
140
0.0
141
0.0
142
1.0
143
1.0
 70
1024
 72
0
 73
0
 74
0
  7

 75
0
147
1.0
148
0.0
149
0.0
100
AcDbLayout
  1
Model
 70
0
 71
0
 10
0.0
 20
0.0
 11
11.0
 21
8.5
 12
0.0
 22
0.0
 32
0.0
 14
0.0
 24
0.0
 34
0.0
 15
0.0
 25
0.0
 35
0.0
146
0.0
 13
0.0
 23
0.0
 33
0.0
 16
1.0
 26
0.0
 36
0.0
 17
0.0
 27
1.0
 37
0.0
 76
0
330
219
345
0
346
0
  0
LAYOUT
  5
269
102
{ACAD_REACTORS
330
1A
102
}
100
AcDbPlotSettings
  1

  2
none_device
  4
ANSI_A_(11.00_x_8.50_Inches)
  6

 40
0.0
 41
0.0
 42
0.0
 43
0.0
 44
279.4
 45
215.9
 46
0.0
 47
0.0
 48
0.0
 49
0.0
140
0.0
141
0.0
142
1.0
143
1.0
 70
0
 72
0
 73
0
 74
0
  7

 75
0
147
1.0
148
0.0
149
0.0
100
AcDbLayout
  1
Layout1
 70
0
 71
1
 10
0.0
 20
0.0
 11
11.0
 21
8.5
 12
0.0
 22
0.0
 32
0.0
 14
0.0
 24
0.0
 34
0.0
 15
0.0
 25
0.0
 35
0.0
146
0.0
 13
0.0
 23
0.0
 33
0.0
 16
1.0
 26
0.0
 36
0.0
 17
0.0
 27
1.0
 37
0.0
 76
0
330
21A
345
0
346
0
  0
ENDSEC
  0
EOF
