999
DXF file: C:\Prowork\plots\403-1_front.dxf
999
Pro/ENGINEER 2018500 by Parametric Technology Corporation
  0
SECTION
  2
HEADER
  9
$ACADVER
  1
AC1032
  9
$DWGCODEPAGE
  3
ANSI_1252
  9
$EXTMAX
 10
11.0
 20
8.5
 30
0.0
  9
$EXTMIN
 10
0.0
 20
0.0
 30
0.0
  9
$LIMMIN
 10
0.0
 20
0.0
  9
$LIMMAX
 10
11.0
 20
8.5
  9
$VIEWCTR
 10
5.5
 20
4.25
  9
$VIEWSIZE
 40
8.5
  9
$CLAYER
  8
0
  9
$LTSCALE
 40
0.605
  9
$CELTYPE
  6
BYLAYER
  9
$DIMSCALE
 40
1.0
  9
$DIMASZ
 40
0.1
  9
$DIMEXO
 40
0.0625
  9
$DIMDLI
 40
0.418
  9
$DIMEXE
 40
0.125
  9
$DIMCEN
 40
0.099
  9
$DIMLFAC
 40
1.0
  9
$DIMBLK
  1
_FILLED
  9
$DIMALT
 70
1
  9
$DIMALTD
 70
2
  9
$DIMALTTD
 70
2
  9
$DIMALTF
 40
25.4
  9
$DIMTXT
 40
0.08
  9
$DIMTOL
 70
1
  9
$DIMLIM
 70
0
  9
$DIMTFAC
 40
1.0
  9
$DIMTP
 40
0.001
  9
$DIMTM
 40
0.001
  9
$DIMGAP
 40
0.09
  9
$DIMDSEP
 70
46
  9
$AUNITS
 70
0
  9
$PDMODE
 70
3
  9
$PDSIZE
 40
0.06
  9
$HANDSEED
  5
26D
  9
$TILEMODE
 70
1
  9
$MEASUREMENT
 70
0
  9
$INSUNITS
 70
1
  0
ENDSEC
  0
SECTION
  2
CLASSES
  0
CLASS
  1
ACDBDICTIONARYWDFLT
  2
AcDbDictionaryWithDefault
  3
AutoCAD 2000
 90
0
 91
1
280
0
281
0
  0
CLASS
  1
ACDBPLACEHOLDER
  2
AcDbPlaceHolder
  3
AutoCAD 2000
 90
0
 91
1
280
0
281
0
  0
CLASS
  1
LAYOUT
  2
AcDbLayout
  3
AutoCAD 2000
 90
0
 91
0
280
0
281
0
  0
ENDSEC
  0
SECTION
  2
TABLES
  0
TABLE
  2
VPORT
  5
8
100
AcDbSymbolTable
 70
2
  0
VPORT
  5
1F4
100
AcDbSymbolTableRecord
100
AcDbViewportTableRecord
  2
*ACTIVE
 70
0
 10
0.0
 20
0.0
 11
1.0
 21
1.0
 12
5.5
 22
4.25
 13
0.0
 23
0.0
 14
1.0
 24
1.0
 15
0.0
 25
0.0
 16
0.0
 26
0.0
 36
1.0
 17
0.0
 27
0.0
 37
0.0
 40
8.5
 41
1.2941176471
 42
50.0
 43
0.0
 44
0.0
 50
0.0
 51
0.0
 71
0
 72
100
 73
1
 74
1
 75
0
 76
0
 77
0
 78
0
  0
ENDTAB
  0
TABLE
  2
LTYPE
  5
5
100
AcDbSymbolTable
 70
6
  0
LTYPE
  5
14
100
AcDbSymbolTableRecord
100
AcDbLinetypeTableRecord
  2
BYBLOCK
 70
0
  3

 72
65
 73
0
 40
0.0
  0
LTYPE
  5
15
100
AcDbSymbolTableRecord
100
AcDbLinetypeTableRecord
  2
BYLAYER
 70
0
  3

 72
65
 73
0
 40
0.0
  0
LTYPE
  5
16
100
AcDbSymbolTableRecord
100
AcDbLinetypeTableRecord
  2
CONTINUOUS
 70
64
  3
Solid line
 72
65
 73
0
 40
0.0
  0
LTYPE
  5
1F5
100
AcDbSymbolTableRecord
100
AcDbLinetypeTableRecord
  2
CENTER
 70
64
  3
____ _ ____ _ ____ _ ____ _ ____ _ ____ _ ____
 72
65
 73
4
 40
0.6
 49
0.375
 74
0
 49
-0.075
 74
0
 49
0.075
 74
0
 49
-0.075
 74
0
  0
LTYPE
  5
1F6
100
AcDbSymbolTableRecord
100
AcDbLinetypeTableRecord
  2
HIDDEN
 70
64
  3
- - - - - - - - - - - - - - - - - - - -
 72
65
 73
2
 40
0.2
 49
0.1
 74
0
 49
-0.1
 74
0
  0
LTYPE
  5
1F7
100
AcDbSymbolTableRecord
100
AcDbLinetypeTableRecord
  2
PHANTOM
 70
64
  3
_____ _ _ _____ _ _ _____ _ _ _____
 72
65
 73
6
 40
0.8
 49
0.45
 74
0
 49
-0.05
 74
0
 49
0.1
 74
0
 49
-0.05
 74
0
 49
0.1
 74
0
 49
-0.05
 74
0
  0
LTYPE
  5
1F8
100
AcDbSymbolTableRecord
100
AcDbLinetypeTableRecord
  2
DOT
 70
64
  3
. . . . . . . . . . . . . . . . . . . .
 72
65
 73
2
 40
0.2
 49
0.1
 74
0
 49
-0.1
 74
0
  0
LTYPE
  5
1F9
100
AcDbSymbolTableRecord
100
AcDbLinetypeTableRecord
  2
DASHED
 70
64
  3
- - - - - - - - - - - - - - - - - - - -
 72
65
 73
2
 40
0.2
 49
0.1
 74
0
 49
-0.1
 74
0
  0
ENDTAB
  0
TABLE
  2
LAYER
  5
2
100
AcDbSymbolTable
 70
36
  0
LAYER
  5
10
100
AcDbSymbolTableRecord
100
AcDbLayerTableRecord
  2
0
 70
0
 62
7
  6
CONTINUOUS
370
-3
390
F
  0
LAYER
  5
1FA
100
AcDbSymbolTableRecord
100
AcDbLayerTableRecord
  2
DEFAULT_1
 70
0
 62
7
  6
CENTER
370
-3
390
F
  0
LAYER
  5
1FB
100
AcDbSymbolTableRecord
100
AcDbLayerTableRecord
  2
DEFAULT_2
 70
0
 62
8
  6
HIDDEN
370
-3
390
F
  0
LAYER
  5
1FC
100
AcDbSymbolTableRecord
100
AcDbLayerTableRecord
  2
DEFAULT_3
 70
0
 62
7
  6
PHANTOM
370
-3
390
F
  0
LAYER
  5
1FD
100
AcDbSymbolTableRecord
100
AcDbLayerTableRecord
  2
1-134
 70
0
 62
7
  6
CONTINUOUS
370
-3
390
F
  0
LAYER
  5
1FE
100
AcDbSymbolTableRecord
100
AcDbLayerTableRecord
  2
50359
 70
0
 62
7
  6
CONTINUOUS
370
-3
390
F
  0
LAYER
  5
1FF
100
AcDbSymbolTableRecord
100
AcDbLayerTableRecord
  2
50362
 70
0
 62
7
  6
CONTINUOUS
370
-3
390
F
  0
LAYER
  5
200
100
AcDbSymbolTableRecord
100
AcDbLayerTableRecord
  2
50729
 70
0
 62
7
  6
CONTINUOUS
370
-3
390
F
  0
LAYER
  5
201
100
AcDbSymbolTableRecord
100
AcDbLayerTableRecord
  2
50733
 70
0
 62
7
  6
CONTINUOUS
370
-3
390
F
  0
LAYER
  5
202
100
AcDbSymbolTableRecord
100
AcDbLayerTableRecord
  2
50738
 70
0
 62
7
  6
CONTINUOUS
370
-3
390
F
  0
LAYER
  5
203
100
AcDbSymbolTableRecord
100
AcDbLayerTableRecord
  2
50741
 70
0
 62
7
  6
CONTINUOUS
370
-3
390
F
  0
LAYER
  5
204
100
AcDbSymbolTableRecord
100
AcDbLayerTableRecord
  2
50742
 70
0
 62
7
  6
CONTINUOUS
370
-3
390
F
  0
LAYER
  5
205
100
AcDbSymbolTableRecord
100
AcDbLayerTableRecord
  2
50743
 70
0
 62
7
  6
CONTINUOUS
370
-3
390
F
  0
LAYER
  5
206
100
AcDbSymbolTableRecord
100
AcDbLayerTableRecord
  2
6-034
 70
0
 62
7
  6
CONTINUOUS
370
-3
390
F
  0
LAYER
  5
207
100
AcDbSymbolTableRecord
100
AcDbLayerTableRecord
  2
91022
 70
0
 62
7
  6
CONTINUOUS
370
-3
390
F
  0
LAYER
  5
208
100
AcDbSymbolTableRecord
100
AcDbLayerTableRecord
  2
92087
 70
0
 62
7
  6
CONTINUOUS
370
-3
390
F
  0
LAYER
  5
209
100
AcDbSymbolTableRecord
100
AcDbLayerTableRecord
  2
ALL_ASSEMBLY_MEMBERS
 70
0
 62
7
  6
CONTINUOUS
370
-3
390
F
  0
LAYER
  5
20A
100
AcDbSymbolTableRecord
100
AcDbLayerTableRecord
  2
COLOR147
 70
0
 62
7
  6
CONTINUOUS
370
-3
390
F
  0
LAYER
  5
20B
100
AcDbSymbolTableRecord
100
AcDbLayerTableRecord
  2
COLOR32
 70
0
 62
7
  6
CONTINUOUS
370
-3
390
F
  0
LAYER
  5
20C
100
AcDbSymbolTableRecord
100
AcDbLayerTableRecord
  2
COLOR54
 70
0
 62
7
  6
CONTINUOUS
370
-3
390
F
  0
LAYER
  5
20D
100
AcDbSymbolTableRecord
100
AcDbLayerTableRecord
  2
COLOR66
 70
0
 62
7
  6
CONTINUOUS
370
-3
390
F
  0
LAYER
  5
20E
100
AcDbSymbolTableRecord
100
AcDbLayerTableRecord
  2
DEFAULT_COORDINATE_SYSTEM
 70
0
 62
7
  6
CONTINUOUS
370
-3
390
F
  0
LAYER
  5
20F
100
AcDbSymbolTableRecord
100
AcDbLayerTableRecord
  2
DEFAULT_DATUM_AXES
 70
0
 62
7
  6
CONTINUOUS
370
-3
390
F
  0
LAYER
  5
210
100
AcDbSymbolTableRecord
100
AcDbLayerTableRecord
  2
DEFAULT_DATUM_PLANES
 70
0
 62
7
  6
CONTINUOUS
370
-3
390
F
  0
LAYER
  5
211
100
AcDbSymbolTableRecord
100
AcDbLayerTableRecord
  2
DEFAULT_SURFACES_1
 70
0
 62
7
  6
CONTINUOUS
370
-3
390
F
  0
LAYER
  5
212
100
AcDbSymbolTableRecord
100
AcDbLayerTableRecord
  2
INTF_50359
 70
0
 62
7
  6
CONTINUOUS
370
-3
390
F
  0
LAYER
  5
213
100
AcDbSymbolTableRecord
100
AcDbLayerTableRecord
  2
INTF_50362
 70
0
 62
7
  6
CONTINUOUS
370
-3
390
F
  0
LAYER
  5
214
100
AcDbSymbolTableRecord
100
AcDbLayerTableRecord
  2
INTF_50729
 70
0
 62
7
  6
CONTINUOUS
370
-3
390
F
  0
LAYER
  5
215
100
AcDbSymbolTableRecord
100
AcDbLayerTableRecord
  2
INTF_50733
 70
0
 62
7
  6
CONTINUOUS
370
-3
390
F
  0
LAYER
  5
216
100
AcDbSymbolTableRecord
100
AcDbLayerTableRecord
  2
INTF_50738
 70
0
 62
7
  6
CONTINUOUS
370
-3
390
F
  0
LAYER
  5
217
100
AcDbSymbolTableRecord
100
AcDbLayerTableRecord
  2
INTF_50741
 70
0
 62
7
  6
CONTINUOUS
370
-3
390
F
  0
LAYER
  5
218
100
AcDbSymbolTableRecord
100
AcDbLayerTableRecord
  2
INTF_50742
 70
0
 62
7
  6
CONTINUOUS
370
-3
390
F
  0
LAYER
  5
219
100
AcDbSymbolTableRecord
100
AcDbLayerTableRecord
  2
INTF_50743
 70
0
 62
7
  6
CONTINUOUS
370
-3
390
F
  0
LAYER
  5
21A
100
AcDbSymbolTableRecord
100
AcDbLayerTableRecord
  2
INTF_91022
 70
0
 62
7
  6
CONTINUOUS
370
-3
390
F
  0
LAYER
  5
21B
100
AcDbSymbolTableRecord
100
AcDbLayerTableRecord
  2
INTF_92087
 70
0
 62
7
  6
CONTINUOUS
370
-3
390
F
  0
LAYER
  5
21C
100
AcDbSymbolTableRecord
100
AcDbLayerTableRecord
  2
INTF_BLANK
 70
0
 62
7
  6
CONTINUOUS
370
-3
390
F
  0
LAYER
  5
21D
100
AcDbSymbolTableRecord
100
AcDbLayerTableRecord
  2
QUILT
 70
0
 62
7
  6
CONTINUOUS
370
-3
390
F
  0
LAYER
  5
21E
100
AcDbSymbolTableRecord
100
AcDbLayerTableRecord
  2
QUILT_1
 70
0
 62
7
  6
CONTINUOUS
370
-3
390
F
  0
LAYER
  5
21F
100
AcDbSymbolTableRecord
100
AcDbLayerTableRecord
  2
SURFACES
 70
0
 62
7
  6
CONTINUOUS
370
-3
390
F
  0
LAYER
  5
220
100
AcDbSymbolTableRecord
100
AcDbLayerTableRecord
  2
WETTED_SURFACES
 70
0
 62
7
  6
CONTINUOUS
370
-3
390
F
  0
LAYER
  5
221
100
AcDbSymbolTableRecord
100
AcDbLayerTableRecord
  2
_BLACK_HOLE
 70
0
 62
7
  6
CONTINUOUS
370
-3
390
F
  0
ENDTAB
  0
TABLE
  2
STYLE
  5
3
100
AcDbSymbolTable
 70
1
  0
STYLE
  5
11
100
AcDbSymbolTableRecord
100
AcDbTextStyleTableRecord
  2
STANDARD
 70
0
 40
0.0
 41
0.8
 50
0.0
 71
0
 42
0.2
  3
txt
  4

  0
STYLE
  5
222
100
AcDbSymbolTableRecord
100
AcDbTextStyleTableRecord
  2
TEXTSTYLE_1
 70
0
 40
0.0
 41
0.8
 50
0.0
 71
0
 42
0.2
  3
gdt
  4

  0
ENDTAB
  0
TABLE
  2
VIEW
  5
6
100
AcDbSymbolTable
 70
0
  0
ENDTAB
  0
TABLE
  2
UCS
  5
7
100
AcDbSymbolTable
 70
0
  0
ENDTAB
  0
TABLE
  2
APPID
  5
9
100
AcDbSymbolTable
 70
1
  0
APPID
  5
223
100
AcDbSymbolTableRecord
100
AcDbRegAppTableRecord
  2
ACAD
 70
0
  0
ENDTAB
  0
TABLE
  2
BLOCK_RECORD
  5
1
100
AcDbSymbolTable
 70
0
  0
BLOCK_RECORD
  5
224
100
AcDbSymbolTableRecord
100
AcDbBlockTableRecord
  2
*Model_Space
  0
BLOCK_RECORD
  5
225
100
AcDbSymbolTableRecord
100
AcDbBlockTableRecord
  2
*Paper_Space
  0
BLOCK_RECORD
  5
226
100
AcDbSymbolTableRecord
100
AcDbBlockTableRecord
  2
_FILLED
  0
ENDTAB
  0
TABLE
  2
DIMSTYLE
  5
A
100
AcDbSymbolTable
 70
1
100
AcDbDimStyleTable
 71
0
  0
DIMSTYLE
105
227
100
AcDbSymbolTableRecord
100
AcDbDimStyleTableRecord
  2
STANDARD
 70
0
  3

  4

 40
1.0
 41
0.1
 42
0.0625
 43
0.38
 44
0.125
 45
0.0
 46
0.0
 47
0.001
 48
0.001
140
0.08
141
0.09
142
0.0
143
25.4
144
1.0
145
0.0
146
1.0
147
0.09
 71
1.0
 72
0.0
 73
1
 74
1
 75
0
 76
0
 77
0
 78
4
 79
1
170
1
171
2
172
0
173
0
174
0
175
0
176
0
177
0
178
0
270
2
179
3
271
3
272
3
273
2
274
2
275
0
280
0
281
0
282
0
283
1
284
4
285
0
286
0
287
3
288
0
340
11
278
46
341
226
342
226
343
226
344
226
  0
ENDTAB
  0
ENDSEC
  0
SECTION
  2
BLOCKS
  0
BLOCK
  5
20
100
AcDbEntity
  8
0
100
AcDbBlockBegin
  2
*Model_Space
 70
0
 10
0.0
 20
0.0
 30
0.0
  3
*Model_Space
  1

  0
ENDBLK
  5
21
100
AcDbEntity
  8
0
100
AcDbBlockEnd
  0
BLOCK
  5
1C
100
AcDbEntity
  8
0
100
AcDbBlockBegin
  2
*Paper_Space
 70
0
 10
0.0
 20
0.0
 30
0.0
  3
*Paper_Space
  1

  0
ENDBLK
  5
1D
100
AcDbEntity
  8
0
100
AcDbBlockEnd
  0
BLOCK
  5
228
100
AcDbEntity
  8
0
100
AcDbBlockBegin
  2
_FILLED
 70
64
 10
0.0
 20
0.0
  3
_FILLED
  1

  0
SOLID
  5
229
100
AcDbEntity
  8
0
  6
BYBLOCK
 62
0
100
AcDbTrace
 10
0.0
 20
0.0
 11
-1.0
 21
0.2
 12
-1.0
 22
-0.2
 13
-1.0
 23
-0.2
  0
ENDBLK
  5
22A
100
AcDbEntity
  8
0
  6
BYBLOCK
 62
0
100
AcDbBlockEnd
  0
ENDSEC
  0
SECTION
  2
ENTITIES
  0
MTEXT
  5
22B
100
AcDbEntity
  8
0
100
AcDbMText
 62
7
  6
CONTINUOUS
  7
STANDARD
 71
1
 72
1
 10
9.8062694099
 20
0.306556677
 30
0.0
 11
1.0
 21
0.0
 31
0.0
 73
2
 44
0.9
  1
SCALE: 1.75
 40
0.08
 41
0.704
  0
LINE
  5
22C
100
AcDbEntity
  8
0
100
AcDbLine
 62
7
  6
CONTINUOUS
 10
0.0
 20
0.0
 11
0.0
 21
8.5
  0
LINE
  5
22D
100
AcDbEntity
  8
0
100
AcDbLine
 62
7
  6
CONTINUOUS
 10
0.0
 20
0.0
 11
11.0
 21
0.0
  0
LINE
  5
22E
100
AcDbEntity
  8
0
100
AcDbLine
 62
7
  6
CONTINUOUS
 10
0.0
 20
8.5
 11
11.0
 21
8.5
  0
LINE
  5
22F
100
AcDbEntity
  8
0
100
AcDbLine
 62
7
  6
CONTINUOUS
 10
11.0
 20
0.0
 11
11.0
 21
8.5
  0
LINE
  5
230
100
AcDbEntity
  8
0
100
AcDbLine
 62
7
  6
CONTINUOUS
 10
5.1227717391
 20
1.9817453804
 11
5.7965217391
 21
1.9817453804
  0
LINE
  5
231
100
AcDbEntity
  8
0
100
AcDbLine
 62
7
  6
CONTINUOUS
 10
5.0124874124
 20
5.5580181831
 11
4.9752939336
 21
5.5365183736
  0
LINE
  5
232
100
AcDbEntity
  8
0
100
AcDbLine
 62
7
  6
CONTINUOUS
 10
4.9748092391
 20
5.5360423007
 11
4.9752938877
 21
5.5365612877
  0
LINE
  5
233
100
AcDbEntity
  8
0
100
AcDbLine
 62
7
  6
CONTINUOUS
 10
4.9748092392
 20
5.4631255624
 11
4.9753132602
 21
5.4636548927
  0
LINE
  5
234
100
AcDbEntity
  8
0
100
AcDbLine
 62
7
  6
CONTINUOUS
 10
5.0126990638
 20
5.4851121678
 11
4.9753134389
 21
5.4634911083
  0
LINE
  5
235
100
AcDbEntity
  8
0
100
AcDbLine
 62
7
  6
CONTINUOUS
 10
5.1531493293
 20
5.4211078804
 11
5.1277526317
 21
5.3996881854
  0
LINE
  5
236
100
AcDbEntity
  8
0
100
AcDbLine
 62
7
  6
CONTINUOUS
 10
4.5846467391
 20
4.0736078804
 11
4.5846467391
 21
5.3861078804
  0
LINE
  5
237
100
AcDbEntity
  8
0
100
AcDbLine
 62
7
  6
CONTINUOUS
 10
5.9065069654
 20
5.4475844287
 11
5.9441032787
 21
5.4693315481
  0
LINE
  5
238
100
AcDbEntity
  8
0
100
AcDbLine
 62
7
  6
CONTINUOUS
 10
5.9066925956
 20
5.5205259864
 11
5.9441445305
 21
5.5421806256
  0
LINE
  5
239
100
AcDbEntity
  8
0
100
AcDbLine
 62
7
  6
CONTINUOUS
 10
4.8383967391
 20
6.3136078804
 11
4.8383967391
 21
5.5611078804
  0
LINE
  5
23A
100
AcDbEntity
  8
0
100
AcDbLine
 62
7
  6
CONTINUOUS
 10
4.9678967391
 20
6.3136078804
 11
4.9678967391
 21
6.5586078804
  0
LINE
  5
23B
100
AcDbEntity
  8
0
100
AcDbLine
 62
7
  6
CONTINUOUS
 10
4.9748092391
 20
5.5359525281
 11
4.9748092391
 21
5.5061747527
  0
LINE
  5
23C
100
AcDbEntity
  8
0
100
AcDbLine
 62
7
  6
CONTINUOUS
 10
4.9748092391
 20
5.4629108213
 11
4.9748092391
 21
5.3861078804
  0
LINE
  5
23D
100
AcDbEntity
  8
0
100
AcDbLine
 62
7
  6
CONTINUOUS
 10
5.1227717391
 20
3.5521261444
 11
5.1227717391
 21
1.9817453804
  0
LINE
  5
23E
100
AcDbEntity
  8
0
100
AcDbLine
 62
7
  6
CONTINUOUS
 10
5.1277526317
 20
5.4425275754
 11
5.1277526317
 21
5.3996881854
  0
LINE
  5
23F
100
AcDbEntity
  8
0
100
AcDbLine
 62
7
  6
CONTINUOUS
 10
5.9444842391
 20
5.5424234937
 11
5.9441447021
 21
5.5419890658
  0
LINE
  5
240
100
AcDbEntity
  8
0
100
AcDbLine
 62
7
  6
CONTINUOUS
 10
5.9444842391
 20
5.4695068908
 11
5.9441035487
 21
5.4690468264
  0
LINE
  5
241
100
AcDbEntity
  8
0
100
AcDbLine
 62
7
  6
CONTINUOUS
 10
5.7965217391
 20
1.9817453804
 11
5.7965217391
 21
3.5521253001
  0
LINE
  5
242
100
AcDbEntity
  8
0
100
AcDbLine
 62
7
  6
CONTINUOUS
 10
5.9444842391
 20
5.5611078804
 11
5.9444842391
 21
5.5425717196
  0
LINE
  5
243
100
AcDbEntity
  8
0
100
AcDbLine
 62
7
  6
CONTINUOUS
 10
5.9444842391
 20
5.4994301209
 11
5.9444842391
 21
5.4697665172
  0
LINE
  5
244
100
AcDbEntity
  8
0
100
AcDbLine
 62
7
  6
CONTINUOUS
 10
5.9444842391
 20
5.4264036278
 11
5.9444842391
 21
5.3861078804
  0
LINE
  5
245
100
AcDbEntity
  8
0
100
AcDbLine
 62
7
  6
CONTINUOUS
 10
5.9513967391
 20
6.5586078804
 11
5.9513967391
 21
6.3136078804
  0
LINE
  5
246
100
AcDbEntity
  8
0
100
AcDbLine
 62
7
  6
CONTINUOUS
 10
5.9065098388
 20
5.448647003
 11
5.9065069654
 21
5.4475844287
  0
LINE
  5
247
100
AcDbEntity
  8
0
100
AcDbLine
 62
7
  6
CONTINUOUS
 10
4.9748092392
 20
5.5059651955
 11
4.9751649851
 21
5.5055204847
  0
LINE
  5
248
100
AcDbEntity
  8
0
100
AcDbLine
 62
7
  6
CONTINUOUS
 10
6.0808967391
 20
6.3136078804
 11
6.0808967391
 21
5.5611078804
  0
LINE
  5
249
100
AcDbEntity
  8
0
100
AcDbLine
 62
7
  6
CONTINUOUS
 10
4.9751652111
 20
5.505766967
 11
5.0127034059
 21
5.4840574916
  0
LINE
  5
24A
100
AcDbEntity
  8
0
100
AcDbLine
 62
7
  6
CONTINUOUS
 10
5.1277526317
 20
5.4425275754
 11
5.1531493293
 21
5.4211078804
  0
LINE
  5
24B
100
AcDbEntity
  8
0
100
AcDbLine
 62
7
  6
CONTINUOUS
 10
6.3346467391
 20
5.3861078804
 11
6.3346467391
 21
4.0736078804
  0
LINE
  5
24C
100
AcDbEntity
  8
0
100
AcDbLine
 62
7
  6
CONTINUOUS
 10
4.5846882753
 20
5.3861078804
 11
6.3346052029
 21
5.3861078804
  0
LINE
  5
24D
100
AcDbEntity
  8
0
100
AcDbLine
 62
7
  6
CONTINUOUS
 10
5.9444842391
 20
5.4266672011
 11
5.9439946168
 21
5.4271889442
  0
LINE
  5
24E
100
AcDbEntity
  8
0
100
AcDbLine
 62
7
  6
CONTINUOUS
 10
6.0808967391
 20
5.5611078804
 11
4.8383967391
 21
5.5611078804
  0
LINE
  5
24F
100
AcDbEntity
  8
0
100
AcDbLine
 62
7
  6
CONTINUOUS
 10
5.9439807402
 20
5.5000133527
 11
5.9066982805
 21
5.5215697653
  0
LINE
  5
250
100
AcDbEntity
  8
0
100
AcDbLine
 62
7
  6
CONTINUOUS
 10
5.9439943755
 20
5.4269646583
 11
5.9065098388
 21
5.448647003
  0
LINE
  5
251
100
AcDbEntity
  8
0
100
AcDbLine
 62
7
  6
CONTINUOUS
 10
5.9444842391
 20
5.4995839307
 11
5.9439808487
 21
5.5001128948
  0
LINE
  5
252
100
AcDbEntity
  8
0
100
AcDbLine
 62
7
  6
CONTINUOUS
 10
4.8383967391
 20
6.3136078804
 11
4.9678967391
 21
6.3136078804
  0
LINE
  5
253
100
AcDbEntity
  8
0
100
AcDbLine
 62
7
  6
CONTINUOUS
 10
5.9513967391
 20
6.3136078804
 11
6.0808967391
 21
6.3136078804
  0
LINE
  5
254
100
AcDbEntity
  8
0
100
AcDbLine
 62
7
  6
CONTINUOUS
 10
5.9513967391
 20
6.5586078804
 11
4.9678967391
 21
6.5586078804
  0
ARC
  5
255
100
AcDbEntity
  8
0
100
AcDbCircle
 62
7
  6
CONTINUOUS
 10
6.3798511871
 20
-36.0256189351
 40
41.4870741032
100
AcDbArc
 50
91.2709529313
 51
91.7294762161
  0
ARC
  5
256
100
AcDbEntity
  8
0
100
AcDbCircle
 62
7
  6
CONTINUOUS
 10
5.4596467391
 20
4.0736078804
 40
0.875
100
AcDbArc
 50
292.6519864743
 51
247.3480135257
  0
ARC
  5
257
100
AcDbEntity
  8
0
100
AcDbCircle
 62
9
  6
CONTINUOUS
 10
5.4596467391
 20
4.0736078804
 40
0.8574999742
100
AcDbArc
 50
293.1455529298
 51
246.8544482882
  0
CIRCLE
  5
258
100
AcDbEntity
  8
0
100
AcDbCircle
 62
7
  6
CONTINUOUS
 10
5.4596467391
 20
4.0736078804
 40
0.62125
  0
SPLINE
  5
259
100
AcDbEntity
  8
0
100
AcDbSpline
 62
7
  6
CONTINUOUS
 70
0
 71
3
 72
15
 73
11
 74
0
 42
0.0000001
 43
0.0000001
 44
0.0000000001
 40
0.0
 40
0.0
 40
0.0
 40
0.0
 40
0.1647086077
 40
0.2982118102
 40
0.406194671
 40
0.4990304027
 40
0.5921735703
 40
0.7008469335
 40
0.8350085807
 40
1.0
 40
1.0
 40
1.0
 40
1.0
 10
5.9066982805
 20
5.5215697653
 30
0.0
 10
5.9067665103
 20
5.5215303123
 30
0.0
 10
5.9068869164
 20
5.5214528874
 30
0.0
 10
5.9070328545
 20
5.5213229021
 30
0.0
 10
5.9071250004
 20
5.5211891239
 30
0.0
 10
5.907157301
 20
5.5210476268
 30
0.0
 10
5.9071225639
 20
5.5209064398
 30
0.0
 10
5.9070287782
 20
5.5207729788
 30
0.0
 10
5.9068817722
 20
5.5206430741
 30
0.0
 10
5.9067609423
 20
5.5205655074
 30
0.0
 10
5.9066925956
 20
5.5205259864
 30
0.0
  0
SPLINE
  5
25A
100
AcDbEntity
  8
0
100
AcDbSpline
 62
7
  6
CONTINUOUS
 70
0
 71
3
 72
15
 73
11
 74
0
 42
0.0000001
 43
0.0000001
 44
0.0000000001
 40
0.0
 40
0.0
 40
0.0
 40
0.0
 40
0.1647342248
 40
0.2983152796
 40
0.4063860243
 40
0.4992670912
 40
0.5923805318
 40
0.7009732141
 40
0.8350519964
 40
1.0
 40
1.0
 40
1.0
 40
1.0
 10
5.0126990638
 20
5.4851121678
 30
0.0
 10
5.0126301223
 20
5.4850722941
 30
0.0
 10
5.0125084328
 20
5.4849940416
 30
0.0
 10
5.0123608735
 20
5.4848627079
 30
0.0
 10
5.0122675863
 20
5.4847275719
 30
0.0
 10
5.0122346572
 20
5.4845846395
 30
0.0
 10
5.0122694473
 20
5.4844419438
 30
0.0
 10
5.012363987
 20
5.4843070502
 30
0.0
 10
5.012512362
 20
5.4841757781
 30
0.0
 10
5.0126343752
 20
5.4840974173
 30
0.0
 10
5.0127034059
 20
5.4840574916
 30
0.0
  0
SPLINE
  5
25B
100
AcDbEntity
  8
0
100
AcDbSpline
 62
7
  6
CONTINUOUS
 70
0
 71
3
 72
15
 73
11
 74
0
 42
0.0000001
 43
0.0000001
 44
0.0000000001
 40
0.0
 40
0.0
 40
0.0
 40
0.0
 40
0.1646860474
 40
0.2981179498
 40
0.4060196162
 40
0.4988128418
 40
0.5919825092
 40
0.7007296245
 40
0.8349676887
 40
1.0
 40
1.0
 40
1.0
 40
1.0
 10
5.0124874124
 20
5.5580181831
 30
0.0
 10
5.012420065
 20
5.5579792497
 30
0.0
 10
5.0123012407
 20
5.5579028462
 30
0.0
 10
5.0121572787
 20
5.5577745387
 30
0.0
 10
5.0120664857
 20
5.5576424602
 30
0.0
 10
5.0120348647
 20
5.5575027598
 30
0.0
 10
5.0120694303
 20
5.5573634343
 30
0.0
 10
5.0121622046
 20
5.5572317392
 30
0.0
 10
5.0123074572
 20
5.5571035289
 30
0.0
 10
5.0124267937
 20
5.5570269542
 30
0.0
 10
5.0124942825
 20
5.5569879385
 30
0.0
  0
LINE
  5
25C
100
AcDbEntity
  8
0
100
AcDbLine
 62
7
  6
CONTINUOUS
 10
5.9439913455
 20
5.42718893
 11
5.9409442991
 21
5.4280705741
  0
LINE
  5
25D
100
AcDbEntity
  8
0
100
AcDbLine
 62
7
  6
CONTINUOUS
 10
5.9439776067
 20
5.5001128813
 11
5.9409442956
 21
5.5009872415
  0
SPLINE
  5
25E
100
AcDbEntity
  8
0
100
AcDbSpline
 62
7
  6
CONTINUOUS
 70
0
 71
3
 72
34
 73
30
 74
0
 42
0.0000001
 43
0.0000001
 44
0.0000000001
 40
0.0
 40
0.0
 40
0.0
 40
0.0
 40
0.0006759411
 40
0.0014825028
 40
0.0034986656
 40
0.0060632067
 40
0.009182297
 40
0.0128571076
 40
0.0170865577
 40
0.0272013519
 40
0.0395078121
 40
0.0539835615
 40
0.0706046096
 40
0.0893368497
 40
0.1101318368
 40
0.1329397127
 40
0.1577104336
 40
0.184393755
 40
0.2432559958
 40
0.308973301
 40
0.3809683821
 40
0.4585808098
 40
0.5410869181
 40
0.6277523157
 40
0.7178134402
 40
0.7638769543
 40
0.8104945246
 40
0.9048949476
 40
1.0
 40
1.0
 40
1.0
 40
1.0
 10
4.9753165007
 20
5.463654878
 30
0.0
 10
4.9754131771
 20
5.4637057483
 30
0.0
 10
4.9756315647
 20
5.4638052334
 30
0.0
 10
4.9761617839
 20
5.4640024467
 30
0.0
 10
4.9770005689
 20
5.4642401024
 30
0.0
 10
4.978215344
 20
5.464511162
 30
0.0
 10
4.9797034417
 20
5.4647834387
 30
0.0
 10
4.9814640056
 20
5.4650569703
 30
0.0
 10
4.9843502192
 20
5.4654461519
 30
0.0
 10
4.988631754
 20
5.4659202435
 30
0.0
 10
4.9945701862
 20
5.4664648299
 30
0.0
 10
5.0015637194
 20
5.4670114223
 30
0.0
 10
5.0095983397
 20
5.4675595083
 30
0.0
 10
5.0186562881
 20
5.4681084166
 30
0.0
 10
5.0287157118
 20
5.4686581923
 30
0.0
 10
5.0397523388
 20
5.4692086017
 30
0.0
 10
5.051741672
 20
5.4697595906
 30
0.0
 10
5.0695544267
 20
5.4705198813
 30
0.0
 10
5.093983059
 20
5.4714596074
 30
0.0
 10
5.1257339252
 20
5.4725558748
 30
0.0
 10
5.1605168125
 20
5.4736507851
 30
0.0
 10
5.1980142397
 20
5.4747469101
 30
0.0
 10
5.2378833876
 20
5.475849886
 30
0.0
 10
5.279764931
 20
5.4769623664
 30
0.0
 10
5.3157599674
 20
5.4778744021
 30
0.0
 10
5.3452854087
 20
5.4785929966
 30
0.0
 10
5.3755124405
 20
5.4793080011
 30
0.0
 10
5.41366346
 20
5.4801984604
 30
0.0
 10
5.4442814355
 20
5.480952929
 30
0.0
 10
5.4596467391
 20
5.4813548521
 30
0.0
  0
SPLINE
  5
25F
100
AcDbEntity
  8
0
100
AcDbSpline
 62
7
  6
CONTINUOUS
 70
0
 71
3
 72
34
 73
30
 74
0
 42
0.0000001
 43
0.0000001
 44
0.0000000001
 40
0.0
 40
0.0
 40
0.0
 40
0.0
 40
0.0006668114
 40
0.0014640823
 40
0.0034616136
 40
0.0060078081
 40
0.0091090424
 40
0.0127666328
 40
0.0169795338
 40
0.0270632981
 40
0.0393415193
 40
0.0537918152
 40
0.0703901914
 40
0.0891027538
 40
0.109881058
 40
0.1326751643
 40
0.1574349459
 40
0.1841100835
 40
0.2429644018
 40
0.3086844231
 40
0.3806920045
 40
0.4583260941
 40
0.5408618516
 40
0.6275637152
 40
0.7176668836
 40
0.7637531002
 40
0.8103943146
 40
0.9048441431
 40
1.0
 40
1.0
 40
1.0
 40
1.0
 10
4.9752971697
 20
5.5365612772
 30
0.0
 10
4.9753921339
 20
5.5366122355
 30
0.0
 10
4.9756072149
 20
5.5367118554
 30
0.0
 10
4.9761309859
 20
5.5369093098
 30
0.0
 10
4.9769620383
 20
5.5371471002
 30
0.0
 10
4.9781677703
 20
5.5374182439
 30
0.0
 10
4.9796471483
 20
5.5376906247
 30
0.0
 10
4.9813993311
 20
5.5379642802
 30
0.0
 10
4.9842750696
 20
5.5383537729
 30
0.0
 10
4.9885444463
 20
5.538828144
 30
0.0
 10
4.9944693748
 20
5.5393729926
 30
0.0
 10
5.0014508249
 20
5.5399198669
 30
0.0
 10
5.0094748047
 20
5.5404682584
 30
0.0
 10
5.018523586
 20
5.5410174762
 30
0.0
 10
5.0285753334
 20
5.541567565
 30
0.0
 10
5.0396057456
 20
5.5421182853
 30
0.0
 10
5.0515902848
 20
5.5426695786
 30
0.0
 10
5.0693994498
 20
5.543430319
 30
0.0
 10
5.0938270005
 20
5.5443705435
 30
0.0
 10
5.1255804581
 20
5.5454674251
 30
0.0
 10
5.1603708515
 20
5.5465631927
 30
0.0
 10
5.1978802643
 20
5.5476601532
 30
0.0
 10
5.2377653952
 20
5.5487634359
 30
0.0
 10
5.2796663275
 20
5.549875458
 30
0.0
 10
5.3156793405
 20
5.5507878924
 30
0.0
 10
5.3452203653
 20
5.5515080641
 30
0.0
 10
5.3754641779
 20
5.5522257135
 30
0.0
 10
5.4136368672
 20
5.5531193776
 30
0.0
 10
5.4442724563
 20
5.55387236
 30
0.0
 10
5.4596467391
 20
5.5542715188
 30
0.0
  0
SPLINE
  5
260
100
AcDbEntity
  8
0
100
AcDbSpline
 62
7
  6
CONTINUOUS
 70
0
 71
3
 72
33
 73
29
 74
0
 42
0.0000001
 43
0.0000001
 44
0.0000000001
 40
0.0
 40
0.0
 40
0.0
 40
0.0
 40
0.0006147983
 40
0.0013588563
 40
0.003249305
 40
0.0056898685
 40
0.0086881661
 40
0.0122464314
 40
0.0163638615
 40
0.0262685891
 40
0.0383838654
 40
0.0526872863
 40
0.0691548074
 40
0.0877537268
 40
0.1084356747
 40
0.1311502383
 40
0.1558468109
 40
0.1824746277
 40
0.2412829746
 40
0.3070184718
 40
0.3790980172
 40
0.4568569383
 40
0.539563598
 40
0.6264756981
 40
0.7168213665
 40
0.8098162078
 40
0.904551085
 40
1.0
 40
1.0
 40
1.0
 40
1.0
 10
5.9441000411
 20
5.469046833
 30
0.0
 10
5.9440150205
 20
5.468995355
 30
0.0
 10
5.9438190525
 20
5.4688949249
 30
0.0
 10
5.9433325106
 20
5.4686960279
 30
0.0
 10
5.9425460085
 20
5.4684574744
 30
0.0
 10
5.9413924372
 20
5.4681858723
 30
0.0
 10
5.9399633766
 20
5.4679129115
 30
0.0
 10
5.93825959
 20
5.4676385608
 30
0.0
 10
5.93544436
 20
5.4672472805
 30
0.0
 10
5.9312452225
 20
5.4667713322
 30
0.0
 10
5.9253983243
 20
5.4662249986
 30
0.0
 10
5.9184867279
 20
5.4656765016
 30
0.0
 10
5.9105243071
 20
5.4651263071
 30
0.0
 10
5.9015286105
 20
5.4645752176
 30
0.0
 10
5.8915213657
 20
5.4640232454
 30
0.0
 10
5.880527029
 20
5.4634707027
 30
0.0
 10
5.8685703754
 20
5.4629177143
 30
0.0
 10
5.8507822463
 20
5.4621546667
 30
0.0
 10
5.826361352
 20
5.4612122854
 30
0.0
 10
5.7945934913
 20
5.4601120256
 30
0.0
 10
5.7597604348
 20
5.4590090042
 30
0.0
 10
5.722182537
 20
5.4579047103
 30
0.0
 10
5.6822057286
 20
5.4568025562
 30
0.0
 10
5.6401932573
 20
5.4557048353
 30
0.0
 10
5.5965171589
 20
5.4546017078
 30
0.0
 10
5.5515765009
 20
5.4534788112
 30
0.0
 10
5.5058106638
 20
5.4523524408
 30
0.0
 10
5.4750733706
 20
5.4516284257
 30
0.0
 10
5.4596467391
 20
5.4512775754
 30
0.0
  0
SPLINE
  5
261
100
AcDbEntity
  8
0
100
AcDbSpline
 62
7
  6
CONTINUOUS
 70
0
 71
3
 72
37
 73
33
 74
0
 42
0.0000001
 43
0.0000001
 44
0.0000000001
 40
0.0
 40
0.0
 40
0.0
 40
0.0
 40
0.0006292988
 40
0.0014277535
 40
0.0024002558
 40
0.0035493152
 40
0.0063817512
 40
0.0099304607
 40
0.0141964778
 40
0.0191792098
 40
0.0248772595
 40
0.031288787
 40
0.0384116889
 40
0.046243695
 40
0.0640253693
 40
0.0846007105
 40
0.1078424864
 40
0.1335831472
 40
0.1616547222
 40
0.1918890756
 40
0.2241179649
 40
0.2581730761
 40
0.2938860456
 40
0.369611928
 40
0.4499397728
 40
0.5333161792
 40
0.617987873
 40
0.7021926458
 40
0.7841683094
 40
0.8621528368
 40
0.9345103826
 40
1.0
 40
1.0
 40
1.0
 40
1.0
 10
5.9065069654
 20
5.4475844287
 30
0.0
 10
5.9063701173
 20
5.4475052643
 30
0.0
 10
5.9060437469
 20
5.4473535837
 30
0.0
 10
5.9054755565
 20
5.4471507368
 30
0.0
 10
5.9047704657
 20
5.4469468495
 30
0.0
 10
5.9035607746
 20
5.4466532523
 30
0.0
 10
5.9017016325
 20
5.4462982495
 30
0.0
 10
5.8990575465
 20
5.4458921929
 30
0.0
 10
5.8958681828
 20
5.4454842994
 30
0.0
 10
5.8921354267
 20
5.4450747837
 30
0.0
 10
5.8878609469
 20
5.444664355
 30
0.0
 10
5.8830467016
 20
5.4442532422
 30
0.0
 10
5.8776946504
 20
5.4438416187
 30
0.0
 10
5.8694903649
 20
5.4432677329
 30
0.0
 10
5.8579078387
 20
5.4425604996
 30
0.0
 10
5.8424541302
 20
5.4417428594
 30
0.0
 10
5.8249985476
 20
5.4409234696
 30
0.0
 10
5.8056579527
 20
5.4401023111
 30
0.0
 10
5.7845592483
 20
5.4392799987
 30
0.0
 10
5.7618294255
 20
5.4384568259
 30
0.0
 10
5.7375954864
 20
5.4376330292
 30
0.0
 10
5.7119844449
 20
5.4368087294
 30
0.0
 10
5.6754497767
 20
5.4356871996
 30
0.0
 10
5.6272929947
 20
5.4342978265
 30
0.0
 10
5.5671641849
 20
5.4326607728
 30
0.0
 10
5.5047871526
 20
5.4310240152
 30
0.0
 10
5.4414358351
 20
5.4293863149
 30
0.0
 10
5.3784365277
 20
5.4277489529
 30
0.0
 10
5.3171177502
 20
5.426112975
 30
0.0
 10
5.2587763382
 20
5.4244789573
 30
0.0
 10
5.2045784158
 20
5.4228438827
 30
0.0
 10
5.169966627
 20
5.4216936592
 30
0.0
 10
5.153524363
 20
5.4211078804
 30
0.0
  0
SPLINE
  5
262
100
AcDbEntity
  8
0
100
AcDbSpline
 62
7
  6
CONTINUOUS
 70
0
 71
3
 72
34
 73
30
 74
0
 42
0.0000001
 43
0.0000001
 44
0.0000000001
 40
0.0
 40
0.0
 40
0.0
 40
0.0
 40
0.000592544
 40
0.0013136568
 40
0.0031577077
 40
0.0055523934
 40
0.0085059163
 40
0.0120209449
 40
0.0160968065
 40
0.025923567
 40
0.0379678756
 40
0.0522073239
 40
0.0686178331
 40
0.0871671989
 40
0.1078071257
 40
0.1304869949
 40
0.1551559905
 40
0.1817631471
 40
0.2405513375
 40
0.3062934564
 40
0.3784042255
 40
0.4562174058
 40
0.5389984052
 40
0.6260019799
 40
0.7164531982
 40
0.762727435
 40
0.8095645134
 40
0.9044235519
 40
1.0
 40
1.0
 40
1.0
 40
1.0
 10
5.9441411028
 20
5.5419890676
 30
0.0
 10
5.9440604525
 20
5.5419373606
 30
0.0
 10
5.9438728287
 20
5.5418365606
 30
0.0
 10
5.943402513
 20
5.5416370102
 30
0.0
 10
5.942635371
 20
5.5413981362
 30
0.0
 10
5.9415045047
 20
5.5411263516
 30
0.0
 10
5.9400973583
 20
5.5408531484
 30
0.0
 10
5.9384146674
 20
5.5405785001
 30
0.0
 10
5.935625825
 20
5.5401864354
 30
0.0
 10
5.9314573227
 20
5.5397098054
 30
0.0
 10
5.9256444672
 20
5.5391628331
 30
0.0
 10
5.9187633615
 20
5.5386136416
 30
0.0
 10
5.9108278338
 20
5.5380626812
 30
0.0
 10
5.9018553535
 20
5.5375107988
 30
0.0
 10
5.8918675986
 20
5.5369580246
 30
0.0
 10
5.8808890861
 20
5.5364046938
 30
0.0
 10
5.8689446959
 20
5.535850954
 30
0.0
 10
5.8511659047
 20
5.5350868389
 30
0.0
 10
5.826748146
 20
5.5341434002
 30
0.0
 10
5.7949743056
 20
5.5330416933
 30
0.0
 10
5.7601229612
 20
5.5319360031
 30
0.0
 10
5.7225155455
 20
5.5308289422
 30
0.0
 10
5.6824991608
 20
5.5297265222
 30
0.0
 10
5.6404384985
 20
5.5286331519
 30
0.0
 10
5.6042775693
 20
5.5277200118
 30
0.0
 10
5.574608645
 20
5.5269722048
 30
0.0
 10
5.5442273775
 20
5.5262030443
 30
0.0
 10
5.5058771566
 20
5.5252454341
 30
0.0
 10
5.4750958696
 20
5.5245299509
 30
0.0
 10
5.4596467391
 20
5.5241942421
 30
0.0
  0
SPLINE
  5
263
100
AcDbEntity
  8
0
100
AcDbSpline
 62
7
  6
CONTINUOUS
 70
0
 71
3
 72
57
 73
53
 74
0
 42
0.0000001
 43
0.0000001
 44
0.0000000001
 40
0.0
 40
0.0
 40
0.0
 40
0.0
 40
0.0007420683
 40
0.0017447948
 40
0.0030147276
 40
0.0045542409
 40
0.0063639968
 40
0.0084438356
 40
0.013410983
 40
0.0194484869
 40
0.0265470926
 40
0.0346966962
 40
0.0438867437
 40
0.0541064203
 40
0.0653447503
 40
0.0775906526
 40
0.0908324707
 40
0.1201776828
 40
0.1530347233
 40
0.1890356637
 40
0.2278123345
 40
0.2689964215
 40
0.3122195197
 40
0.3571131646
 40
0.4033088289
 40
0.4504216529
 40
0.4980220307
 40
0.5456727456
 40
0.5929365797
 40
0.6393763226
 40
0.684554781
 40
0.7280347903
 40
0.7693792326
 40
0.8081839828
 40
0.8441642365
 40
0.8770622924
 40
0.9066206405
 40
0.9200670514
 40
0.9325821328
 40
0.9441338332
 40
0.9546901718
 40
0.9642192739
 40
0.9726894302
 40
0.9800692051
 40
0.9863276502
 40
0.9914393273
 40
0.993565418
 40
0.9954073882
 40
0.9969675654
 40
0.9982491061
 40
0.9992568915
 40
1.0
 40
1.0
 40
1.0
 40
1.0
 10
5.9066925956
 20
5.5205259864
 30
0.0
 10
5.9065009196
 20
5.5204151509
 30
0.0
 10
5.9060196477
 20
5.5202095343
 30
0.0
 10
5.9051610524
 20
5.5199408442
 30
0.0
 10
5.9040555713
 20
5.5196698965
 30
0.0
 10
5.9027043911
 20
5.5193972598
 30
0.0
 10
5.9011075652
 20
5.5191235764
 30
0.0
 10
5.8984936213
 20
5.5187343514
 30
0.0
 10
5.8946178942
 20
5.5182600348
 30
0.0
 10
5.8892437133
 20
5.5177151117
 30
0.0
 10
5.8829160057
 20
5.5171682081
 30
0.0
 10
5.8756448248
 20
5.5166196467
 30
0.0
 10
5.8674401397
 20
5.5160700899
 30
0.0
 10
5.8583120728
 20
5.515519779
 30
0.0
 10
5.8482707543
 20
5.5149689447
 30
0.0
 10
5.8373264957
 20
5.5144176499
 30
0.0
 10
5.8209834538
 20
5.513656403
 30
0.0
 10
5.798492354
 20
5.5127176428
 30
0.0
 10
5.7692114773
 20
5.5116224664
 30
0.0
 10
5.7371147885
 20
5.5105251143
 30
0.0
 10
5.7025322502
 20
5.5094260735
 30
0.0
 10
5.6657938243
 20
5.5083259121
 30
0.0
 10
5.6272295018
 20
5.5072249363
 30
0.0
 10
5.5871692875
 20
5.5061233751
 30
0.0
 10
5.5459480623
 20
5.5050215738
 30
0.0
 10
5.5039189283
 20
5.5039200957
 30
0.0
 10
5.4614555014
 20
5.502818494
 30
0.0
 10
5.4189470022
 20
5.5017168834
 30
0.0
 10
5.3767849198
 20
5.5006153948
 30
0.0
 10
5.3353607421
 20
5.499514181
 30
0.0
 10
5.2950659546
 20
5.4984134214
 30
0.0
 10
5.2562920392
 20
5.4973133338
 30
0.0
 10
5.2194206489
 20
5.4962139584
 30
0.0
 10
5.1847880658
 20
5.4951138204
 30
0.0
 10
5.1526769835
 20
5.494014769
 30
0.0
 10
5.1233264797
 20
5.4929174487
 30
0.0
 10
5.1006984255
 20
5.4919781185
 30
0.0
 10
5.0841501304
 20
5.4912187065
 30
0.0
 10
5.0729707121
 20
5.4906676202
 30
0.0
 10
5.062654717
 20
5.490117011
 30
0.0
 10
5.053231002
 20
5.4895669981
 30
0.0
 10
5.0447283951
 20
5.4890178309
 30
0.0
 10
5.0371757093
 20
5.4884698308
 30
0.0
 10
5.0306015993
 20
5.4879237149
 30
0.0
 10
5.0250333997
 20
5.4873800634
 30
0.0
 10
5.0210339508
 20
5.486905365
 30
0.0
 10
5.0183528889
 20
5.4865151732
 30
0.0
 10
5.0167260551
 20
5.4862414815
 30
0.0
 10
5.0153552482
 20
5.4859688319
 30
0.0
 10
5.0142382872
 20
5.4856978579
 30
0.0
 10
5.0133741673
 20
5.4854291137
 30
0.0
 10
5.0128909978
 20
5.4852231769
 30
0.0
 10
5.0126990638
 20
5.4851121678
 30
0.0
  0
SPLINE
  5
264
100
AcDbEntity
  8
0
100
AcDbSpline
 62
7
  6
CONTINUOUS
 70
0
 71
3
 72
17
 73
13
 74
0
 42
0.0000001
 43
0.0000001
 44
0.0000000001
 40
0.0
 40
0.0
 40
0.0
 40
0.0
 40
0.2033480272
 40
0.3848797678
 40
0.5442437731
 40
0.6811031216
 40
0.7951475978
 40
0.8861254545
 40
0.9229710618
 40
0.9541426647
 40
0.979755864
 40
1.0
 40
1.0
 40
1.0
 40
1.0
 10
5.0340347364
 20
5.5611078668
 30
0.0
 10
5.0325602355
 20
5.5609856163
 30
0.0
 10
5.0297703031
 20
5.5607433866
 30
0.0
 10
5.0258288641
 20
5.5603603338
 30
0.0
 10
5.0223736736
 20
5.5599781853
 30
0.0
 10
5.0194126581
 20
5.5595976259
 30
0.0
 10
5.0169539002
 20
5.5592189583
 30
0.0
 10
5.0152245898
 20
5.5588877932
 30
0.0
 10
5.0141005069
 20
5.5586134477
 30
0.0
 10
5.013446034
 20
5.5584229993
 30
0.0
 10
5.0129182775
 20
5.5582334585
 30
0.0
 10
5.0126149335
 20
5.5580919026
 30
0.0
 10
5.0124874124
 20
5.5580181831
 30
0.0
  0
SPLINE
  5
265
100
AcDbEntity
  8
0
100
AcDbSpline
 62
9
  6
CONTINUOUS
 70
0
 71
3
 72
63
 73
59
 74
0
 42
0.0000001
 43
0.0000001
 44
0.0000000001
 40
0.0
 40
0.0
 40
0.0
 40
0.0
 40
0.0273592514
 40
0.0410653325
 40
0.054810919
 40
0.0686136146
 40
0.0824853554
 40
0.1104566465
 40
0.1387911414
 40
0.1675668792
 40
0.1821508353
 40
0.1968815296
 40
0.211775137
 40
0.226848097
 40
0.2421116695
 40
0.2575786249
 40
0.2732654864
 40
0.2891913501
 40
0.3053665899
 40
0.3217991031
 40
0.338502306
 40
0.3554899731
 40
0.3902797424
 40
0.4080864343
 40
0.4261379939
 40
0.4443970901
 40
0.4535954865
 40
0.4628321907
 40
0.4813867899
 40
0.5000007055
 40
0.5186146084
 40
0.5371691796
 40
0.5464058675
 40
0.5556042461
 40
0.5738632874
 40
0.5919147811
 40
0.6097214133
 40
0.6445110236
 40
0.6614986186
 40
0.6782017506
 40
0.6946341842
 40
0.7108093469
 40
0.7267351468
 40
0.742421947
 40
0.7578888411
 40
0.7731523562
 40
0.7882252672
 40
0.8031188308
 40
0.8178494811
 40
0.8324333948
 40
0.8612090622
 40
0.8895435111
 40
0.9175147692
 40
0.9313864956
 40
0.9451891753
 40
0.9589347377
 40
0.9726407907
 40
1.0
 40
1.0
 40
1.0
 40
1.0
 10
6.3325926129
 20
4.1386388027
 30
0.0
 10
6.3310163498
 20
4.1634796236
 30
0.0
 10
6.3272771443
 20
4.2006974564
 30
0.0
 10
6.3195366422
 20
4.2499665538
 30
0.0
 10
6.3123354513
 20
4.2868108912
 30
0.0
 10
6.3037378838
 20
4.3235090797
 30
0.0
 10
6.2903594158
 20
4.3723444284
 30
0.0
 10
6.2699909669
 20
4.4329265667
 30
0.0
 10
6.2396676765
 20
4.5042270189
 30
0.0
 10
6.2094133792
 20
4.5621005724
 30
0.0
 10
6.1820726217
 20
4.607342985
 30
0.0
 10
6.1598298132
 20
4.6408675267
 30
0.0
 10
6.135907569
 20
4.6737664769
 30
0.0
 10
6.1102746174
 20
4.7059738415
 30
0.0
 10
6.0828829663
 20
4.7373960071
 30
0.0
 10
6.0536898935
 20
4.7679308504
 30
0.0
 10
6.0226542843
 20
4.7974732114
 30
0.0
 10
5.989747053
 20
4.8259125153
 30
0.0
 10
5.9549408074
 20
4.8531118862
 30
0.0
 10
5.9182169267
 20
4.8789129821
 30
0.0
 10
5.879564632
 20
4.9031524964
 30
0.0
 10
5.8250650866
 20
4.9333862761
 30
0.0
 10
5.7672028193
 20
4.9594655975
 30
0.0
 10
5.7065132156
 20
4.9807166188
 30
0.0
 10
5.6591363043
 20
4.9942236133
 30
0.0
 10
5.6186832599
 20
5.0031700814
 30
0.0
 10
5.5857844447
 20
5.008865852
 30
0.0
 10
5.5524584013
 20
5.0135740583
 30
0.0
 10
5.5103969833
 20
5.0175354751
 30
0.0
 10
5.4596399462
 20
5.0191451539
 30
0.0
 10
5.408882961
 20
5.017534616
 30
0.0
 10
5.366821665
 20
5.0135724576
 30
0.0
 10
5.3334957573
 20
5.0088636979
 30
0.0
 10
5.3005971121
 20
5.0031674217
 30
0.0
 10
5.2601443343
 20
4.9942203302
 30
0.0
 10
5.212767799
 20
4.9807126194
 30
0.0
 10
5.1520787589
 20
4.9594607738
 30
0.0
 10
5.0942171286
 20
4.9333806847
 30
0.0
 10
5.0397182703
 20
4.9031462345
 30
0.0
 10
5.0010664832
 20
4.8789062936
 30
0.0
 10
4.9643431179
 20
4.8531048248
 30
0.0
 10
4.9295373882
 20
4.8259051197
 30
0.0
 10
4.8966306713
 20
4.7974655023
 30
0.0
 10
4.8655955559
 20
4.7679228693
 30
0.0
 10
4.8364029671
 20
4.7373877902
 30
0.0
 10
4.8090117912
 20
4.7059654128
 30
0.0
 10
4.7833793138
 20
4.6737578455
 30
0.0
 10
4.7594575306
 20
4.6408587144
 30
0.0
 10
4.7372151624
 20
4.6073340231
 30
0.0
 10
4.7098749709
 20
4.5620914351
 30
0.0
 10
4.6796213733
 20
4.5042176791
 30
0.0
 10
4.6492989001
 20
4.4329170283
 30
0.0
 10
4.6289310943
 20
4.3723347642
 30
0.0
 10
4.6155531369
 20
4.3234993351
 30
0.0
 10
4.606955957
 20
4.2868011068
 30
0.0
 10
4.5997551383
 20
4.24995676
 30
0.0
 10
4.5920151218
 20
4.2006876732
 30
0.0
 10
4.5882762755
 20
4.1634698687
 30
0.0
 10
4.5867002502
 20
4.1386290711
 30
0.0
  0
SPLINE
  5
266
100
AcDbEntity
  8
0
100
AcDbSpline
 62
7
  6
CONTINUOUS
 70
0
 71
3
 72
39
 73
35
 74
0
 42
0.0000001
 43
0.0000001
 44
0.0000000001
 40
0.0
 40
0.0
 40
0.0
 40
0.0
 40
0.1947990468
 40
0.2899267711
 40
0.3822043646
 40
0.4707882878
 40
0.5548494241
 40
0.6335903839
 40
0.706226732
 40
0.7720655739
 40
0.8022405743
 40
0.8304822602
 40
0.8567210423
 40
0.880900901
 40
0.9029672186
 40
0.9228655582
 40
0.9405420135
 40
0.9559539176
 40
0.9628020842
 40
0.9690741267
 40
0.974766998
 40
0.979877823
 40
0.9844039901
 40
0.9883433113
 40
0.991694325
 40
0.9944573731
 40
0.9956200247
 40
0.9966382418
 40
0.9975138938
 40
0.9982499366
 40
0.9988513883
 40
0.9993275412
 40
0.9996972586
 40
1.0
 40
1.0
 40
1.0
 40
1.0
 10
5.4596467391
 20
5.4084381854
 30
0.0
 10
5.4911689545
 20
5.4092293131
 30
0.0
 10
5.538086578
 20
5.410328712
 30
0.0
 10
5.5999357999
 20
5.4118309518
 30
0.0
 10
5.644595763
 20
5.4129673096
 30
0.0
 10
5.6874637051
 20
5.4141061145
 30
0.0
 10
5.7281398237
 20
5.4152391116
 30
0.0
 10
5.766233569
 20
5.4163681907
 30
0.0
 10
5.8013762938
 20
5.4174967773
 30
0.0
 10
5.8286587072
 20
5.4184625427
 30
0.0
 10
5.8487568426
 20
5.4192427511
 30
0.0
 10
5.8624482843
 20
5.4198105031
 30
0.0
 10
5.8751684139
 20
5.4203779348
 30
0.0
 10
5.886887891
 20
5.4209448549
 30
0.0
 10
5.8975797685
 20
5.4215111463
 30
0.0
 10
5.90721738
 20
5.422076545
 30
0.0
 10
5.9157758299
 20
5.4226410406
 30
0.0
 10
5.9222221865
 20
5.4231275229
 30
0.0
 10
5.9268238776
 20
5.423521594
 30
0.0
 10
5.9298559579
 20
5.4238051749
 30
0.0
 10
5.932605502
 20
5.4240884721
 30
0.0
 10
5.9350708372
 20
5.4243714053
 30
0.0
 10
5.9372503032
 20
5.4246538474
 30
0.0
 10
5.9391423608
 20
5.4249355061
 30
0.0
 10
5.9407454926
 20
5.4252162207
 30
0.0
 10
5.9418982214
 20
5.4254606935
 30
0.0
 10
5.9426731763
 20
5.4256609299
 30
0.0
 10
5.9431475096
 20
5.4258021032
 30
0.0
 10
5.9435494797
 20
5.4259429332
 30
0.0
 10
5.943879385
 20
5.4260834139
 30
0.0
 10
5.9441381219
 20
5.4262235555
 30
0.0
 10
5.9443267257
 20
5.4263643665
 30
0.0
 10
5.9444482036
 20
5.4265088959
 30
0.0
 10
5.9444798103
 20
5.4266181922
 30
0.0
 10
5.9444798364
 20
5.426667197
 30
0.0
  0
SPLINE
  5
267
100
AcDbEntity
  8
0
100
AcDbSpline
 62
7
  6
CONTINUOUS
 70
0
 71
3
 72
15
 73
11
 74
0
 42
0.0000001
 43
0.0000001
 44
0.0000000001
 40
0.0
 40
0.0
 40
0.0
 40
0.0
 40
0.1045641973
 40
0.2172341398
 40
0.3368391373
 40
0.4622586528
 40
0.5924510949
 40
0.7263611906
 40
0.862694086
 40
1.0
 40
1.0
 40
1.0
 40
1.0
 10
5.1277526317
 20
5.3996881854
 30
0.0
 10
5.1393179106
 20
5.4000865139
 30
0.0
 10
5.1633472097
 20
5.400849936
 30
0.0
 10
5.2006099927
 20
5.4019170722
 30
0.0
 10
5.2401815761
 20
5.4029894301
 30
0.0
 10
5.2816924805
 20
5.4040836427
 30
0.0
 10
5.324787068
 20
5.4051779037
 30
0.0
 10
5.3690903389
 20
5.4062507871
 30
0.0
 10
5.4141811483
 20
5.4073206664
 30
0.0
 10
5.4444558552
 20
5.4080569328
 30
0.0
 10
5.4596467391
 20
5.4084381854
 30
0.0
  0
SPLINE
  5
268
100
AcDbEntity
  8
0
100
AcDbSpline
 62
7
  6
CONTINUOUS
 70
0
 71
3
 72
41
 73
37
 74
0
 42
0.0000001
 43
0.0000001
 44
0.0000000001
 40
0.0
 40
0.0
 40
0.0
 40
0.0
 40
0.0977889886
 40
0.194799692
 40
0.2426658728
 40
0.2899277452
 40
0.3822055989
 40
0.4707897557
 40
0.5548510783
 40
0.6335921578
 40
0.706228564
 40
0.7720674136
 40
0.8022423961
 40
0.8304840461
 40
0.8567227726
 40
0.8809025555
 40
0.902968777
 40
0.9228670004
 40
0.9405433203
 40
0.9559550726
 40
0.9628031574
 40
0.969075114
 40
0.9747678952
 40
0.9798786262
 40
0.9844046952
 40
0.9883439141
 40
0.9916948214
 40
0.9944577593
 40
0.9956203547
 40
0.9966385153
 40
0.9975141106
 40
0.9982500972
 40
0.9988514945
 40
0.9993275973
 40
0.9996972752
 40
1.0
 40
1.0
 40
1.0
 40
1.0
 10
5.4596467391
 20
5.4813548521
 30
0.0
 10
5.4754704431
 20
5.4817687659
 30
0.0
 10
5.5069931924
 20
5.4825441735
 30
0.0
 10
5.54626288
 20
5.4834594215
 30
0.0
 10
5.5773556621
 20
5.484196961
 30
0.0
 10
5.6076820155
 20
5.4849386305
 30
0.0
 10
5.6445964987
 20
5.4858788384
 30
0.0
 10
5.6874643929
 20
5.4870238774
 30
0.0
 10
5.7281405818
 20
5.4881576809
 30
0.0
 10
5.7662344361
 20
5.4892852969
 30
0.0
 10
5.8013772293
 20
5.4904129313
 30
0.0
 10
5.8286596499
 20
5.4913788822
 30
0.0
 10
5.8487577718
 20
5.4921593472
 30
0.0
 10
5.8624491918
 20
5.4927272558
 30
0.0
 10
5.8751692938
 20
5.493294751
 30
0.0
 10
5.8868887359
 20
5.4938616757
 30
0.0
 10
5.8975805706
 20
5.4944279336
 30
0.0
 10
5.9072181303
 20
5.4949932841
 30
0.0
 10
5.9157765189
 20
5.4955577419
 30
0.0
 10
5.9222228178
 20
5.4960442131
 30
0.0
 10
5.9268244579
 20
5.4964382837
 30
0.0
 10
5.9298564966
 20
5.4967218672
 30
0.0
 10
5.9326059968
 20
5.4970051693
 30
0.0
 10
5.9350712858
 20
5.4972881088
 30
0.0
 10
5.9372507033
 20
5.4975705579
 30
0.0
 10
5.9391427101
 20
5.4978522233
 30
0.0
 10
5.9407457889
 20
5.4981329438
 30
0.0
 10
5.941898472
 20
5.4983774204
 30
0.0
 10
5.9426733891
 20
5.4985776594
 30
0.0
 10
5.9431476936
 20
5.4987188337
 30
0.0
 10
5.9435496346
 20
5.4988596644
 30
0.0
 10
5.9438795104
 20
5.4990001455
 30
0.0
 10
5.9441382178
 20
5.4991402874
 30
0.0
 10
5.9443267924
 20
5.4992810989
 30
0.0
 10
5.9444482414
 20
5.4994256323
 30
0.0
 10
5.9444798211
 20
5.4995349278
 30
0.0
 10
5.9444798362
 20
5.4995839299
 30
0.0
  0
SPLINE
  5
269
100
AcDbEntity
  8
0
100
AcDbSpline
 62
7
  6
CONTINUOUS
 70
0
 71
3
 72
41
 73
37
 74
0
 42
0.0000001
 43
0.0000001
 44
0.0000000001
 40
0.0
 40
0.0
 40
0.0
 40
0.0
 40
0.0977888143
 40
0.1947993841
 40
0.2426655286
 40
0.2899273601
 40
0.3822050722
 40
0.4707890145
 40
0.5548501994
 40
0.6335912611
 40
0.7062276859
 40
0.7720665185
 40
0.8022414878
 40
0.8304831346
 40
0.8567218771
 40
0.8809016956
 40
0.9029679712
 40
0.9228662641
 40
0.9405426628
 40
0.9559544966
 40
0.9628026228
 40
0.9690746215
 40
0.9747674455
 40
0.9798782201
 40
0.984404334
 40
0.9883435996
 40
0.9916945562
 40
0.9944575468
 40
0.9956201699
 40
0.9966383589
 40
0.9975139833
 40
0.9982499996
 40
0.9988514266
 40
0.999327558
 40
0.9996972607
 40
1.0
 40
1.0
 40
1.0
 40
1.0
 10
5.4596467391
 20
5.5241942421
 30
0.0
 10
5.4438213872
 20
5.523850358
 30
0.0
 10
5.4122976876
 20
5.5231165187
 30
0.0
 10
5.3730296734
 20
5.5221340842
 30
0.0
 10
5.3419381463
 20
5.5213468946
 30
0.0
 10
5.3116123879
 20
5.5205828244
 30
0.0
 10
5.2746978078
 20
5.5196494659
 30
0.0
 10
5.2318293286
 20
5.5185295427
 30
0.0
 10
5.1911530908
 20
5.5173993178
 30
0.0
 10
5.1530594411
 20
5.5162655236
 30
0.0
 10
5.1179167842
 20
5.5151339117
 30
0.0
 10
5.090634343
 20
5.5141687202
 30
0.0
 10
5.070536186
 20
5.5133893162
 30
0.0
 10
5.0568447395
 20
5.5128220546
 30
0.0
 10
5.0441246182
 20
5.5122548171
 30
0.0
 10
5.0324051586
 20
5.5116879041
 30
0.0
 10
5.021713306
 20
5.5111214996
 30
0.0
 10
5.012075726
 20
5.5105559411
 30
0.0
 10
5.0035173113
 20
5.5099913201
 30
0.0
 10
4.9970709841
 20
5.5095047966
 30
0.0
 10
4.992469318
 20
5.5091107193
 30
0.0
 10
4.9894372582
 20
5.5088271438
 30
0.0
 10
4.9866877354
 20
5.5085438591
 30
0.0
 10
4.9842224224
 20
5.5082609428
 30
0.0
 10
4.9820429797
 20
5.5079785193
 30
0.0
 10
4.9801509463
 20
5.5076968783
 30
0.0
 10
4.9785478396
 20
5.5074161779
 30
0.0
 10
4.9773951328
 20
5.5071717119
 30
0.0
 10
4.9766201963
 20
5.5069714777
 30
0.0
 10
4.9761458769
 20
5.506830305
 30
0.0
 10
4.975743921
 20
5.5066894746
 30
0.0
 10
4.9754140299
 20
5.5065489926
 30
0.0
 10
4.9751553074
 20
5.5064088489
 30
0.0
 10
4.9749667177
 20
5.5062680351
 30
0.0
 10
4.9748452542
 20
5.5061235006
 30
0.0
 10
4.9748136611
 20
5.5060142029
 30
0.0
 10
4.9748136404
 20
5.5059651984
 30
0.0
  0
SPLINE
  5
26A
100
AcDbEntity
  8
0
100
AcDbSpline
 62
7
  6
CONTINUOUS
 70
0
 71
3
 72
13
 73
9
 74
0
 42
0.0000001
 43
0.0000001
 44
0.0000000001
 40
0.0
 40
0.0
 40
0.0
 40
0.0
 40
0.2639665907
 40
0.3943435888
 40
0.5225355449
 40
0.6478338831
 40
0.7695997919
 40
1.0
 40
1.0
 40
1.0
 40
1.0
 10
5.4596467391
 20
5.5542715188
 30
0.0
 10
5.483347949
 20
5.5548868676
 30
0.0
 10
5.5187574565
 20
5.5557310252
 30
0.0
 10
5.5656781221
 20
5.5568317138
 30
0.0
 10
5.6001465219
 20
5.5576685504
 30
0.0
 10
5.6338408477
 20
5.5585213681
 30
0.0
 10
5.6767114265
 20
5.5596467554
 30
0.0
 10
5.708330709
 20
5.5605154585
 30
0.0
 10
5.7290164487
 20
5.5611106304
 30
0.0
  0
ENDSEC
  0
SECTION
  2
OBJECTS
  0
DICTIONARY
  5
C
100
AcDbDictionary
280
0
281
1
  3
ACAD_GROUP
350
D
  3
ACAD_MLINESTYLE
350
17
  3
ACAD_LAYOUT
350
1A
  3
ACAD_PLOTSETTINGS
350
19
  3
ACAD_PLOTSTYLENAME
350
E
  0
DICTIONARY
  5
D
102
{ACAD_REACTORS
330
C
102
}
100
AcDbDictionary
280
0
281
1
  0
ACDBDICTIONARYWDFLT
  5
E
102
{ACAD_REACTORS
330
C
102
}
100
AcDbDictionary
281
1
  3
Normal
350
F
100
AcDbDictionaryWithDefault
340
F
  0
DICTIONARY
  5
17
102
{ACAD_REACTORS
330
C
102
}
100
AcDbDictionary
280
0
281
1
  3
Standard
350
18
  0
DICTIONARY
  5
19
102
{ACAD_REACTORS
330
C
102
}
100
AcDbDictionary
281
1
  0
DICTIONARY
  5
1A
102
{ACAD_REACTORS
330
C
102
}
100
AcDbDictionary
281
1
  3
Model
350
26B
  3
Layout1
350
26C
  0
ACDBPLACEHOLDER
  5
F
102
{ACAD_REACTORS
330
E
102
}
  0
MLINESTYLE
  5
18
102
{ACAD_REACTORS
330
17
102
}
100
AcDbMlineStyle
  2
STANDARD
 70
0
  3

 62
256
 51
90.0
 52
90.0
 71
2
 49
0.5
 62
256
  6
BYLAYER
 49
-0.5
 62
256
  6
BYLAYER
  0
LAYOUT
  5
26B
102
{ACAD_REACTORS
330
1A
102
}
100
AcDbPlotSettings
  1

  2
none_device
  4
ANSI_A_(11.00_x_8.50_Inches)
  6

 40
0.0
 41
0.0
 42
0.0
 43
0.0
 44
279.4
 45
215.9
 46
0.0
 47
0.0
 48
0.0
 49
0.0
140
0.0
141
0.0
142
1.0
143
1.0
 70
1024
 72
0
 73
0
 74
0
  7

 75
0
147
1.0
148
0.0
149
0.0
100
AcDbLayout
  1
Model
 70
0
 71
0
 10
0.0
 20
0.0
 11
11.0
 21
8.5
 12
0.0
 22
0.0
 32
0.0
 14
0.0
 24
0.0
 34
0.0
 15
0.0
 25
0.0
 35
0.0
146
0.0
 13
0.0
 23
0.0
 33
0.0
 16
1.0
 26
0.0
 36
0.0
 17
0.0
 27
1.0
 37
0.0
 76
0
330
224
345
0
346
0
  0
LAYOUT
  5
26C
102
{ACAD_REACTORS
330
1A
102
}
100
AcDbPlotSettings
  1

  2
none_device
  4
ANSI_A_(11.00_x_8.50_Inches)
  6

 40
0.0
 41
0.0
 42
0.0
 43
0.0
 44
279.4
 45
215.9
 46
0.0
 47
0.0
 48
0.0
 49
0.0
140
0.0
141
0.0
142
1.0
143
1.0
 70
0
 72
0
 73
0
 74
0
  7

 75
0
147
1.0
148
0.0
149
0.0
100
AcDbLayout
  1
Layout1
 70
0
 71
1
 10
0.0
 20
0.0
 11
11.0
 21
8.5
 12
0.0
 22
0.0
 32
0.0
 14
0.0
 24
0.0
 34
0.0
 15
0.0
 25
0.0
 35
0.0
146
0.0
 13
0.0
 23
0.0
 33
0.0
 16
1.0
 26
0.0
 36
0.0
 17
0.0
 27
1.0
 37
0.0
 76
0
330
225
345
0
346
0
  0
ENDSEC
  0
EOF
