999
DXF file: C:\Prowork\plots\403-3_front.dxf
999
Pro/ENGINEER 2018500 by Parametric Technology Corporation
  0
SECTION
  2
HEADER
  9
$ACADVER
  1
AC1032
  9
$DWGCODEPAGE
  3
ANSI_1252
  9
$EXTMAX
 10
11.0
 20
8.5
 30
0.0
  9
$EXTMIN
 10
0.0
 20
0.0
 30
0.0
  9
$LIMMIN
 10
0.0
 20
0.0
  9
$LIMMAX
 10
11.0
 20
8.5
  9
$VIEWCTR
 10
5.5
 20
4.25
  9
$VIEWSIZE
 40
8.5
  9
$CLAYER
  8
0
  9
$LTSCALE
 40
0.605
  9
$CELTYPE
  6
BYLAYER
  9
$DIMSCALE
 40
1.0
  9
$DIMASZ
 40
0.1
  9
$DIMEXO
 40
0.0625
  9
$DIMDLI
 40
0.418
  9
$DIMEXE
 40
0.125
  9
$DIMCEN
 40
0.099
  9
$DIMLFAC
 40
1.0
  9
$DIMBLK
  1
_FILLED
  9
$DIMALT
 70
1
  9
$DIMALTD
 70
2
  9
$DIMALTTD
 70
2
  9
$DIMALTF
 40
25.4
  9
$DIMTXT
 40
0.08
  9
$DIMTOL
 70
1
  9
$DIMLIM
 70
0
  9
$DIMTFAC
 40
1.0
  9
$DIMTP
 40
0.001
  9
$DIMTM
 40
0.001
  9
$DIMGAP
 40
0.09
  9
$DIMDSEP
 70
46
  9
$AUNITS
 70
0
  9
$PDMODE
 70
3
  9
$PDSIZE
 40
0.06
  9
$HANDSEED
  5
25D
  9
$TILEMODE
 70
1
  9
$MEASUREMENT
 70
0
  9
$INSUNITS
 70
1
  0
ENDSEC
  0
SECTION
  2
CLASSES
  0
CLASS
  1
ACDBDICTIONARYWDFLT
  2
AcDbDictionaryWithDefault
  3
AutoCAD 2000
 90
0
 91
1
280
0
281
0
  0
CLASS
  1
ACDBPLACEHOLDER
  2
AcDbPlaceHolder
  3
AutoCAD 2000
 90
0
 91
1
280
0
281
0
  0
CLASS
  1
LAYOUT
  2
AcDbLayout
  3
AutoCAD 2000
 90
0
 91
0
280
0
281
0
  0
ENDSEC
  0
SECTION
  2
TABLES
  0
TABLE
  2
VPORT
  5
8
100
AcDbSymbolTable
 70
2
  0
VPORT
  5
1F4
100
AcDbSymbolTableRecord
100
AcDbViewportTableRecord
  2
*ACTIVE
 70
0
 10
0.0
 20
0.0
 11
1.0
 21
1.0
 12
5.5
 22
4.25
 13
0.0
 23
0.0
 14
1.0
 24
1.0
 15
0.0
 25
0.0
 16
0.0
 26
0.0
 36
1.0
 17
0.0
 27
0.0
 37
0.0
 40
8.5
 41
1.2941176471
 42
50.0
 43
0.0
 44
0.0
 50
0.0
 51
0.0
 71
0
 72
100
 73
1
 74
1
 75
0
 76
0
 77
0
 78
0
  0
ENDTAB
  0
TABLE
  2
LTYPE
  5
5
100
AcDbSymbolTable
 70
6
  0
LTYPE
  5
14
100
AcDbSymbolTableRecord
100
AcDbLinetypeTableRecord
  2
BYBLOCK
 70
0
  3

 72
65
 73
0
 40
0.0
  0
LTYPE
  5
15
100
AcDbSymbolTableRecord
100
AcDbLinetypeTableRecord
  2
BYLAYER
 70
0
  3

 72
65
 73
0
 40
0.0
  0
LTYPE
  5
16
100
AcDbSymbolTableRecord
100
AcDbLinetypeTableRecord
  2
CONTINUOUS
 70
64
  3
Solid line
 72
65
 73
0
 40
0.0
  0
LTYPE
  5
1F5
100
AcDbSymbolTableRecord
100
AcDbLinetypeTableRecord
  2
CENTER
 70
64
  3
____ _ ____ _ ____ _ ____ _ ____ _ ____ _ ____
 72
65
 73
4
 40
0.6
 49
0.375
 74
0
 49
-0.075
 74
0
 49
0.075
 74
0
 49
-0.075
 74
0
  0
LTYPE
  5
1F6
100
AcDbSymbolTableRecord
100
AcDbLinetypeTableRecord
  2
HIDDEN
 70
64
  3
- - - - - - - - - - - - - - - - - - - -
 72
65
 73
2
 40
0.2
 49
0.1
 74
0
 49
-0.1
 74
0
  0
LTYPE
  5
1F7
100
AcDbSymbolTableRecord
100
AcDbLinetypeTableRecord
  2
PHANTOM
 70
64
  3
_____ _ _ _____ _ _ _____ _ _ _____
 72
65
 73
6
 40
0.8
 49
0.45
 74
0
 49
-0.05
 74
0
 49
0.1
 74
0
 49
-0.05
 74
0
 49
0.1
 74
0
 49
-0.05
 74
0
  0
LTYPE
  5
1F8
100
AcDbSymbolTableRecord
100
AcDbLinetypeTableRecord
  2
DOT
 70
64
  3
. . . . . . . . . . . . . . . . . . . .
 72
65
 73
2
 40
0.2
 49
0.1
 74
0
 49
-0.1
 74
0
  0
LTYPE
  5
1F9
100
AcDbSymbolTableRecord
100
AcDbLinetypeTableRecord
  2
DASHED
 70
64
  3
- - - - - - - - - - - - - - - - - - - -
 72
65
 73
2
 40
0.2
 49
0.1
 74
0
 49
-0.1
 74
0
  0
ENDTAB
  0
TABLE
  2
LAYER
  5
2
100
AcDbSymbolTable
 70
36
  0
LAYER
  5
10
100
AcDbSymbolTableRecord
100
AcDbLayerTableRecord
  2
0
 70
0
 62
7
  6
CONTINUOUS
370
-3
390
F
  0
LAYER
  5
1FA
100
AcDbSymbolTableRecord
100
AcDbLayerTableRecord
  2
DEFAULT_1
 70
0
 62
7
  6
CENTER
370
-3
390
F
  0
LAYER
  5
1FB
100
AcDbSymbolTableRecord
100
AcDbLayerTableRecord
  2
DEFAULT_2
 70
0
 62
8
  6
HIDDEN
370
-3
390
F
  0
LAYER
  5
1FC
100
AcDbSymbolTableRecord
100
AcDbLayerTableRecord
  2
DEFAULT_3
 70
0
 62
7
  6
PHANTOM
370
-3
390
F
  0
LAYER
  5
1FD
100
AcDbSymbolTableRecord
100
AcDbLayerTableRecord
  2
1-134
 70
0
 62
7
  6
CONTINUOUS
370
-3
390
F
  0
LAYER
  5
1FE
100
AcDbSymbolTableRecord
100
AcDbLayerTableRecord
  2
50359
 70
0
 62
7
  6
CONTINUOUS
370
-3
390
F
  0
LAYER
  5
1FF
100
AcDbSymbolTableRecord
100
AcDbLayerTableRecord
  2
50362
 70
0
 62
7
  6
CONTINUOUS
370
-3
390
F
  0
LAYER
  5
200
100
AcDbSymbolTableRecord
100
AcDbLayerTableRecord
  2
50726
 70
0
 62
7
  6
CONTINUOUS
370
-3
390
F
  0
LAYER
  5
201
100
AcDbSymbolTableRecord
100
AcDbLayerTableRecord
  2
50731
 70
0
 62
7
  6
CONTINUOUS
370
-3
390
F
  0
LAYER
  5
202
100
AcDbSymbolTableRecord
100
AcDbLayerTableRecord
  2
50741
 70
0
 62
7
  6
CONTINUOUS
370
-3
390
F
  0
LAYER
  5
203
100
AcDbSymbolTableRecord
100
AcDbLayerTableRecord
  2
50742
 70
0
 62
7
  6
CONTINUOUS
370
-3
390
F
  0
LAYER
  5
204
100
AcDbSymbolTableRecord
100
AcDbLayerTableRecord
  2
50743
 70
0
 62
7
  6
CONTINUOUS
370
-3
390
F
  0
LAYER
  5
205
100
AcDbSymbolTableRecord
100
AcDbLayerTableRecord
  2
6-031
 70
0
 62
7
  6
CONTINUOUS
370
-3
390
F
  0
LAYER
  5
206
100
AcDbSymbolTableRecord
100
AcDbLayerTableRecord
  2
91022
 70
0
 62
7
  6
CONTINUOUS
370
-3
390
F
  0
LAYER
  5
207
100
AcDbSymbolTableRecord
100
AcDbLayerTableRecord
  2
92000
 70
0
 62
7
  6
CONTINUOUS
370
-3
390
F
  0
LAYER
  5
208
100
AcDbSymbolTableRecord
100
AcDbLayerTableRecord
  2
ALL_ASSEMBLY_MEMBERS
 70
0
 62
7
  6
CONTINUOUS
370
-3
390
F
  0
LAYER
  5
209
100
AcDbSymbolTableRecord
100
AcDbLayerTableRecord
  2
ALL_FEATURES_7
 70
0
 62
7
  6
CONTINUOUS
370
-3
390
F
  0
LAYER
  5
20A
100
AcDbSymbolTableRecord
100
AcDbLayerTableRecord
  2
COLOR147
 70
0
 62
7
  6
CONTINUOUS
370
-3
390
F
  0
LAYER
  5
20B
100
AcDbSymbolTableRecord
100
AcDbLayerTableRecord
  2
COLOR32
 70
0
 62
7
  6
CONTINUOUS
370
-3
390
F
  0
LAYER
  5
20C
100
AcDbSymbolTableRecord
100
AcDbLayerTableRecord
  2
COLOR54
 70
0
 62
7
  6
CONTINUOUS
370
-3
390
F
  0
LAYER
  5
20D
100
AcDbSymbolTableRecord
100
AcDbLayerTableRecord
  2
COLOR66
 70
0
 62
7
  6
CONTINUOUS
370
-3
390
F
  0
LAYER
  5
20E
100
AcDbSymbolTableRecord
100
AcDbLayerTableRecord
  2
DEFAULT_COORDINATE_SYSTEM
 70
0
 62
7
  6
CONTINUOUS
370
-3
390
F
  0
LAYER
  5
20F
100
AcDbSymbolTableRecord
100
AcDbLayerTableRecord
  2
DEFAULT_DATUM_AXES
 70
0
 62
7
  6
CONTINUOUS
370
-3
390
F
  0
LAYER
  5
210
100
AcDbSymbolTableRecord
100
AcDbLayerTableRecord
  2
DEFAULT_DATUM_PLANES
 70
0
 62
7
  6
CONTINUOUS
370
-3
390
F
  0
LAYER
  5
211
100
AcDbSymbolTableRecord
100
AcDbLayerTableRecord
  2
DEFAULT_SURFACES_1
 70
0
 62
7
  6
CONTINUOUS
370
-3
390
F
  0
LAYER
  5
212
100
AcDbSymbolTableRecord
100
AcDbLayerTableRecord
  2
DEFAULT_SURFACES_2
 70
0
 62
7
  6
CONTINUOUS
370
-3
390
F
  0
LAYER
  5
213
100
AcDbSymbolTableRecord
100
AcDbLayerTableRecord
  2
INTF_50359
 70
0
 62
7
  6
CONTINUOUS
370
-3
390
F
  0
LAYER
  5
214
100
AcDbSymbolTableRecord
100
AcDbLayerTableRecord
  2
INTF_50362
 70
0
 62
7
  6
CONTINUOUS
370
-3
390
F
  0
LAYER
  5
215
100
AcDbSymbolTableRecord
100
AcDbLayerTableRecord
  2
INTF_50726
 70
0
 62
7
  6
CONTINUOUS
370
-3
390
F
  0
LAYER
  5
216
100
AcDbSymbolTableRecord
100
AcDbLayerTableRecord
  2
INTF_50731
 70
0
 62
7
  6
CONTINUOUS
370
-3
390
F
  0
LAYER
  5
217
100
AcDbSymbolTableRecord
100
AcDbLayerTableRecord
  2
INTF_50741
 70
0
 62
7
  6
CONTINUOUS
370
-3
390
F
  0
LAYER
  5
218
100
AcDbSymbolTableRecord
100
AcDbLayerTableRecord
  2
INTF_50742
 70
0
 62
7
  6
CONTINUOUS
370
-3
390
F
  0
LAYER
  5
219
100
AcDbSymbolTableRecord
100
AcDbLayerTableRecord
  2
INTF_50743
 70
0
 62
7
  6
CONTINUOUS
370
-3
390
F
  0
LAYER
  5
21A
100
AcDbSymbolTableRecord
100
AcDbLayerTableRecord
  2
INTF_91022
 70
0
 62
7
  6
CONTINUOUS
370
-3
390
F
  0
LAYER
  5
21B
100
AcDbSymbolTableRecord
100
AcDbLayerTableRecord
  2
INTF_92000
 70
0
 62
7
  6
CONTINUOUS
370
-3
390
F
  0
LAYER
  5
21C
100
AcDbSymbolTableRecord
100
AcDbLayerTableRecord
  2
INTF_BLANK
 70
0
 62
7
  6
CONTINUOUS
370
-3
390
F
  0
LAYER
  5
21D
100
AcDbSymbolTableRecord
100
AcDbLayerTableRecord
  2
SURFACES
 70
0
 62
7
  6
CONTINUOUS
370
-3
390
F
  0
LAYER
  5
21E
100
AcDbSymbolTableRecord
100
AcDbLayerTableRecord
  2
WETTED_SURFACE
 70
0
 62
7
  6
CONTINUOUS
370
-3
390
F
  0
LAYER
  5
21F
100
AcDbSymbolTableRecord
100
AcDbLayerTableRecord
  2
WETTED_SURFACES
 70
0
 62
7
  6
CONTINUOUS
370
-3
390
F
  0
LAYER
  5
220
100
AcDbSymbolTableRecord
100
AcDbLayerTableRecord
  2
_BLACK_HOLE
 70
0
 62
7
  6
CONTINUOUS
370
-3
390
F
  0
ENDTAB
  0
TABLE
  2
STYLE
  5
3
100
AcDbSymbolTable
 70
1
  0
STYLE
  5
11
100
AcDbSymbolTableRecord
100
AcDbTextStyleTableRecord
  2
STANDARD
 70
0
 40
0.0
 41
0.8
 50
0.0
 71
0
 42
0.2
  3
txt
  4

  0
STYLE
  5
221
100
AcDbSymbolTableRecord
100
AcDbTextStyleTableRecord
  2
TEXTSTYLE_1
 70
0
 40
0.0
 41
0.8
 50
0.0
 71
0
 42
0.2
  3
gdt
  4

  0
ENDTAB
  0
TABLE
  2
VIEW
  5
6
100
AcDbSymbolTable
 70
0
  0
ENDTAB
  0
TABLE
  2
UCS
  5
7
100
AcDbSymbolTable
 70
0
  0
ENDTAB
  0
TABLE
  2
APPID
  5
9
100
AcDbSymbolTable
 70
1
  0
APPID
  5
222
100
AcDbSymbolTableRecord
100
AcDbRegAppTableRecord
  2
ACAD
 70
0
  0
ENDTAB
  0
TABLE
  2
BLOCK_RECORD
  5
1
100
AcDbSymbolTable
 70
0
  0
BLOCK_RECORD
  5
223
100
AcDbSymbolTableRecord
100
AcDbBlockTableRecord
  2
*Model_Space
  0
BLOCK_RECORD
  5
224
100
AcDbSymbolTableRecord
100
AcDbBlockTableRecord
  2
*Paper_Space
  0
BLOCK_RECORD
  5
225
100
AcDbSymbolTableRecord
100
AcDbBlockTableRecord
  2
_FILLED
  0
ENDTAB
  0
TABLE
  2
DIMSTYLE
  5
A
100
AcDbSymbolTable
 70
1
100
AcDbDimStyleTable
 71
0
  0
DIMSTYLE
105
226
100
AcDbSymbolTableRecord
100
AcDbDimStyleTableRecord
  2
STANDARD
 70
0
  3

  4

 40
1.0
 41
0.1
 42
0.0625
 43
0.38
 44
0.125
 45
0.0
 46
0.0
 47
0.001
 48
0.001
140
0.08
141
0.09
142
0.0
143
25.4
144
1.0
145
0.0
146
1.0
147
0.09
 71
1.0
 72
0.0
 73
1
 74
1
 75
0
 76
0
 77
0
 78
4
 79
1
170
1
171
2
172
0
173
0
174
0
175
0
176
0
177
0
178
0
270
2
179
3
271
3
272
3
273
2
274
2
275
0
280
0
281
0
282
0
283
1
284
4
285
0
286
0
287
3
288
0
340
11
278
46
341
225
342
225
343
225
344
225
  0
ENDTAB
  0
ENDSEC
  0
SECTION
  2
BLOCKS
  0
BLOCK
  5
20
100
AcDbEntity
  8
0
100
AcDbBlockBegin
  2
*Model_Space
 70
0
 10
0.0
 20
0.0
 30
0.0
  3
*Model_Space
  1

  0
ENDBLK
  5
21
100
AcDbEntity
  8
0
100
AcDbBlockEnd
  0
BLOCK
  5
1C
100
AcDbEntity
  8
0
100
AcDbBlockBegin
  2
*Paper_Space
 70
0
 10
0.0
 20
0.0
 30
0.0
  3
*Paper_Space
  1

  0
ENDBLK
  5
1D
100
AcDbEntity
  8
0
100
AcDbBlockEnd
  0
BLOCK
  5
227
100
AcDbEntity
  8
0
100
AcDbBlockBegin
  2
_FILLED
 70
64
 10
0.0
 20
0.0
  3
_FILLED
  1

  0
SOLID
  5
228
100
AcDbEntity
  8
0
  6
BYBLOCK
 62
0
100
AcDbTrace
 10
0.0
 20
0.0
 11
-1.0
 21
0.2
 12
-1.0
 22
-0.2
 13
-1.0
 23
-0.2
  0
ENDBLK
  5
229
100
AcDbEntity
  8
0
  6
BYBLOCK
 62
0
100
AcDbBlockEnd
  0
ENDSEC
  0
SECTION
  2
ENTITIES
  0
MTEXT
  5
22A
100
AcDbEntity
  8
0
100
AcDbMText
 62
7
  6
CONTINUOUS
  7
STANDARD
 71
1
 72
1
 10
9.7428571429
 20
0.3123214286
 30
0.0
 11
1.0
 21
0.0
 31
0.0
 73
2
 44
0.9
  1
SCALE: 1.69
 40
0.08
 41
0.704
  0
LINE
  5
22B
100
AcDbEntity
  8
0
100
AcDbLine
 62
7
  6
CONTINUOUS
 10
0.0
 20
0.0
 11
0.0
 21
8.5
  0
LINE
  5
22C
100
AcDbEntity
  8
0
100
AcDbLine
 62
7
  6
CONTINUOUS
 10
0.0
 20
0.0
 11
11.0
 21
0.0
  0
LINE
  5
22D
100
AcDbEntity
  8
0
100
AcDbLine
 62
7
  6
CONTINUOUS
 10
0.0
 20
8.5
 11
11.0
 21
8.5
  0
LINE
  5
22E
100
AcDbEntity
  8
0
100
AcDbLine
 62
7
  6
CONTINUOUS
 10
11.0
 20
0.0
 11
11.0
 21
8.5
  0
LINE
  5
22F
100
AcDbEntity
  8
0
100
AcDbLine
 62
7
  6
CONTINUOUS
 10
6.1778222049
 20
2.5979877329
 11
4.4878222049
 21
2.5979877329
  0
LINE
  5
230
100
AcDbEntity
  8
0
100
AcDbLine
 62
9
  6
CONTINUOUS
 10
4.4878222049
 20
2.6064377329
 11
6.1776926021
 21
2.6064377329
  0
LINE
  5
231
100
AcDbEntity
  8
0
100
AcDbLine
 62
7
  6
CONTINUOUS
 10
4.4878222049
 20
2.5979877329
 11
4.4878222049
 21
4.7104877329
  0
LINE
  5
232
100
AcDbEntity
  8
0
100
AcDbLine
 62
9
  6
CONTINUOUS
 10
4.4962722049
 20
4.2879877329
 11
4.4962722049
 21
2.5981102295
  0
LINE
  5
233
100
AcDbEntity
  8
0
100
AcDbLine
 62
7
  6
CONTINUOUS
 10
4.8638472049
 20
4.784425734
 11
4.8643332946
 21
4.7849361596
  0
LINE
  5
234
100
AcDbEntity
  8
0
100
AcDbLine
 62
7
  6
CONTINUOUS
 10
4.9011984498
 20
4.8060975876
 11
4.8643334671
 21
4.7847776609
  0
LINE
  5
235
100
AcDbEntity
  8
0
100
AcDbLine
 62
7
  6
CONTINUOUS
 10
4.7328722049
 20
5.5385877329
 11
4.7328722049
 21
4.8118877329
  0
LINE
  5
236
100
AcDbEntity
  8
0
100
AcDbLine
 62
7
  6
CONTINUOUS
 10
5.0368332777
 20
4.7442877329
 11
5.0117867259
 21
4.7231633526
  0
LINE
  5
237
100
AcDbEntity
  8
0
100
AcDbLine
 62
7
  6
CONTINUOUS
 10
4.8579322049
 20
5.5385877329
 11
4.8579322049
 21
5.7751877329
  0
LINE
  5
238
100
AcDbEntity
  8
0
100
AcDbLine
 62
7
  6
CONTINUOUS
 10
4.8638472049
 20
4.7842180223
 11
4.8638472049
 21
4.7104877329
  0
LINE
  5
239
100
AcDbEntity
  8
0
100
AcDbLine
 62
7
  6
CONTINUOUS
 10
5.0117867259
 20
4.7654121132
 11
5.0117867259
 21
4.7231633526
  0
LINE
  5
23A
100
AcDbEntity
  8
0
100
AcDbLine
 62
7
  6
CONTINUOUS
 10
5.7643615091
 20
4.7698565139
 11
5.8014299858
 21
4.7912982797
  0
LINE
  5
23B
100
AcDbEntity
  8
0
100
AcDbLine
 62
7
  6
CONTINUOUS
 10
5.8017972048
 20
4.7914664233
 11
5.8014302461
 21
4.7910229034
  0
LINE
  5
23C
100
AcDbEntity
  8
0
100
AcDbLine
 62
9
  6
CONTINUOUS
 10
6.1778222049
 20
4.2795377329
 11
4.4879447014
 21
4.2795377329
  0
LINE
  5
23D
100
AcDbEntity
  8
0
100
AcDbLine
 62
7
  6
CONTINUOUS
 10
4.4878222049
 20
4.2879877329
 11
6.1778222049
 21
4.2879877329
  0
LINE
  5
23E
100
AcDbEntity
  8
0
100
AcDbLine
 62
7
  6
CONTINUOUS
 10
5.0117867259
 20
4.7654121132
 11
5.0368332777
 21
4.7442877329
  0
LINE
  5
23F
100
AcDbEntity
  8
0
100
AcDbLine
 62
7
  6
CONTINUOUS
 10
4.8894302705
 20
4.8118877329
 11
4.9012026431
 21
4.8050790717
  0
LINE
  5
240
100
AcDbEntity
  8
0
100
AcDbLine
 62
7
  6
CONTINUOUS
 10
5.8017972049
 20
4.8118877329
 11
5.8017972049
 21
4.7917175591
  0
LINE
  5
241
100
AcDbEntity
  8
0
100
AcDbLine
 62
7
  6
CONTINUOUS
 10
5.8017972049
 20
4.7489624264
 11
5.8017972049
 21
4.7104877329
  0
LINE
  5
242
100
AcDbEntity
  8
0
100
AcDbLine
 62
7
  6
CONTINUOUS
 10
5.8077122049
 20
5.7751877329
 11
5.8077122049
 21
5.5385877329
  0
LINE
  5
243
100
AcDbEntity
  8
0
100
AcDbLine
 62
7
  6
CONTINUOUS
 10
5.7643615091
 20
4.7698565139
 11
5.764364284
 21
4.770882657
  0
LINE
  5
244
100
AcDbEntity
  8
0
100
AcDbLine
 62
7
  6
CONTINUOUS
 10
5.9327722049
 20
5.5385877329
 11
5.9327722049
 21
4.8118877329
  0
LINE
  5
245
100
AcDbEntity
  8
0
100
AcDbLine
 62
7
  6
CONTINUOUS
 10
4.4878222049
 20
4.7104877329
 11
6.1778222049
 21
4.7104877329
  0
LINE
  5
246
100
AcDbEntity
  8
0
100
AcDbLine
 62
7
  6
CONTINUOUS
 10
5.9327722049
 20
4.8118877329
 11
4.7328722049
 21
4.8118877329
  0
LINE
  5
247
100
AcDbEntity
  8
0
100
AcDbLine
 62
7
  6
CONTINUOUS
 10
5.8013248038
 20
4.7495034544
 11
5.764364284
 21
4.770882657
  0
LINE
  5
248
100
AcDbEntity
  8
0
100
AcDbLine
 62
7
  6
CONTINUOUS
 10
5.8017972048
 20
4.7492173737
 11
5.8013250365
 21
4.7497204644
  0
LINE
  5
249
100
AcDbEntity
  8
0
100
AcDbLine
 62
9
  6
CONTINUOUS
 10
6.1693722049
 20
2.5979877329
 11
6.1693722049
 21
4.2878652364
  0
LINE
  5
24A
100
AcDbEntity
  8
0
100
AcDbLine
 62
7
  6
CONTINUOUS
 10
6.1778222049
 20
2.5979877329
 11
6.1778222049
 21
4.7104877329
  0
LINE
  5
24B
100
AcDbEntity
  8
0
100
AcDbLine
 62
7
  6
CONTINUOUS
 10
4.7328722049
 20
5.5385877329
 11
4.8579322049
 21
5.5385877329
  0
LINE
  5
24C
100
AcDbEntity
  8
0
100
AcDbLine
 62
7
  6
CONTINUOUS
 10
5.8077122049
 20
5.5385877329
 11
5.9327722049
 21
5.5385877329
  0
LINE
  5
24D
100
AcDbEntity
  8
0
100
AcDbLine
 62
7
  6
CONTINUOUS
 10
5.8077122049
 20
5.7751877329
 11
4.8579322049
 21
5.7751877329
  0
ARC
  5
24E
100
AcDbEntity
  8
0
100
AcDbCircle
 62
7
  6
CONTINUOUS
 10
6.2229226552
 20
-35.4110962604
 40
40.1947871221
100
AcDbArc
 50
91.2688991896
 51
91.7266798755
  0
ARC
  5
24F
100
AcDbEntity
  8
0
100
AcDbCircle
 62
7
  6
CONTINUOUS
 10
4.4962722049
 20
4.2795377329
 40
0.00845
100
AcDbArc
 50
90.0
 51
180.0
  0
ARC
  5
250
100
AcDbEntity
  8
0
100
AcDbCircle
 62
7
  6
CONTINUOUS
 10
4.4962722049
 20
2.6064377329
 40
0.00845
100
AcDbArc
 50
180.0
 51
270.0
  0
ARC
  5
251
100
AcDbEntity
  8
0
100
AcDbCircle
 62
7
  6
CONTINUOUS
 10
6.1693722049
 20
2.6064377329
 40
0.00845
100
AcDbArc
 50
270.0
 51
360.0
  0
ARC
  5
252
100
AcDbEntity
  8
0
100
AcDbCircle
 62
7
  6
CONTINUOUS
 10
6.1693722049
 20
4.2795377329
 40
0.00845
100
AcDbArc
 50
0.0
 51
90.0
  0
SPLINE
  5
253
100
AcDbEntity
  8
0
100
AcDbSpline
 62
7
  6
CONTINUOUS
 70
0
 71
3
 72
16
 73
12
 74
0
 42
0.0000001
 43
0.0000001
 44
0.0000000001
 40
0.0
 40
0.0
 40
0.0
 40
0.0
 40
0.1422760845
 40
0.2830663959
 40
0.3522726569
 40
0.4203847886
 40
0.5525589583
 40
0.678059896
 40
0.7954064627
 40
0.9031573097
 40
1.0
 40
1.0
 40
1.0
 40
1.0
 10
5.3328222049
 20
4.8020300193
 30
0.0
 10
5.3499592484
 20
4.8024776218
 30
0.0
 10
5.3840559116
 20
4.8033088826
 30
0.0
 10
5.4264899705
 20
4.8042913693
 30
0.0
 10
5.4599896912
 20
4.805096961
 30
0.0
 10
5.4924508919
 20
4.8059044417
 30
0.0
 10
5.5316918709
 20
4.8069237461
 30
0.0
 10
5.5768615884
 20
4.8081546224
 30
0.0
 10
5.6190877442
 20
4.8093730548
 30
0.0
 10
5.6578593729
 20
4.8105895223
 30
0.0
 10
5.6824959817
 20
4.8114498698
 30
0.0
 10
5.694156388
 20
4.8118872024
 30
0.0
  0
SPLINE
  5
254
100
AcDbEntity
  8
0
100
AcDbSpline
 62
7
  6
CONTINUOUS
 70
0
 71
3
 72
15
 73
11
 74
0
 42
0.0000001
 43
0.0000001
 44
0.0000000001
 40
0.0
 40
0.0
 40
0.0
 40
0.0
 40
0.1045641464
 40
0.2172340614
 40
0.3368390482
 40
0.4622585659
 40
0.5924510206
 40
0.726361137
 40
0.8626940581
 40
1.0
 40
1.0
 40
1.0
 40
1.0
 10
5.0117867259
 20
4.7231633526
 30
0.0
 10
5.0229736242
 20
4.7235480532
 30
0.0
 10
5.0462167556
 20
4.7242853175
 30
0.0
 10
5.082260405
 20
4.7253158353
 30
0.0
 10
5.1205373178
 20
4.7263514022
 30
0.0
 10
5.1606901037
 20
4.7274081089
 30
0.0
 10
5.2023747589
 20
4.7284648614
 30
0.0
 10
5.2452285522
 20
4.7295009345
 30
0.0
 10
5.2888441178
 20
4.7305341019
 30
0.0
 10
5.3181283227
 20
4.7312451434
 30
0.0
 10
5.3328222049
 20
4.7316133526
 30
0.0
  0
SPLINE
  5
255
100
AcDbEntity
  8
0
100
AcDbSpline
 62
7
  6
CONTINUOUS
 70
0
 71
3
 72
33
 73
29
 74
0
 42
0.0000001
 43
0.0000001
 44
0.0000000001
 40
0.0
 40
0.0
 40
0.0
 40
0.0
 40
0.0006138869
 40
0.0013570517
 40
0.0032457781
 40
0.0056847019
 40
0.0086814374
 40
0.0122382187
 40
0.0163542391
 40
0.0262563582
 40
0.0383692911
 40
0.0526706211
 40
0.0691362956
 40
0.0877336234
 40
0.1084142333
 40
0.1311277037
 40
0.1558234195
 40
0.1824506082
 40
0.2412583936
 40
0.3069942029
 40
0.3790748604
 40
0.4568356402
 40
0.5395448093
 40
0.626459973
 40
0.7168091584
 40
0.8098078667
 40
0.9045468588
 40
1.0
 40
1.0
 40
1.0
 40
1.0
 10
5.8014268504
 20
4.7910229097
 30
0.0
 10
5.8013447359
 20
4.7909731857
 30
0.0
 10
5.8011554219
 20
4.7908761853
 30
0.0
 10
5.8006852761
 20
4.7906840851
 30
0.0
 10
5.79992509
 20
4.7904537044
 30
0.0
 10
5.7988099534
 20
4.7901914111
 30
0.0
 10
5.7974283137
 20
4.7899278033
 30
0.0
 10
5.795780909
 20
4.7896628504
 30
0.0
 10
5.7930585734
 20
4.7892849609
 30
0.0
 10
5.7889977414
 20
4.7888253104
 30
0.0
 10
5.7833431676
 20
4.7882976895
 30
0.0
 10
5.7766586206
 20
4.7877679777
 30
0.0
 10
5.7689575194
 20
4.7872366249
 30
0.0
 10
5.7602568366
 20
4.7867044075
 30
0.0
 10
5.7505775878
 20
4.7861713371
 30
0.0
 10
5.7399434311
 20
4.7856377155
 30
0.0
 10
5.7283783343
 20
4.7851036633
 30
0.0
 10
5.7111724594
 20
4.7843667412
 30
0.0
 10
5.6875506384
 20
4.7834566287
 30
0.0
 10
5.6568219505
 20
4.7823940465
 30
0.0
 10
5.6231279786
 20
4.7813287947
 30
0.0
 10
5.58677863
 20
4.7802623129
 30
0.0
 10
5.5481085548
 20
4.7791979011
 30
0.0
 10
5.5074691617
 20
4.7781377795
 30
0.0
 10
5.4652203602
 20
4.7770724311
 30
0.0
 10
5.4217482085
 20
4.7759879612
 30
0.0
 10
5.3774777652
 20
4.7749001267
 30
0.0
 10
5.347744789
 20
4.7742009211
 30
0.0
 10
5.3328222049
 20
4.7738621132
 30
0.0
  0
LINE
  5
256
100
AcDbEntity
  8
0
100
AcDbLine
 62
7
  6
CONTINUOUS
 10
5.8013218692
 20
4.7497204507
 11
5.7983730816
 21
4.7505726308
  0
SPLINE
  5
257
100
AcDbEntity
  8
0
100
AcDbSpline
 62
7
  6
CONTINUOUS
 70
0
 71
3
 72
34
 73
30
 74
0
 42
0.0000001
 43
0.0000001
 44
0.0000000001
 40
0.0
 40
0.0
 40
0.0
 40
0.0
 40
0.0006750517
 40
0.0014807442
 40
0.0034952323
 40
0.0060581786
 40
0.0091757503
 40
0.0128491181
 40
0.0170771974
 40
0.0271894542
 40
0.0394936343
 40
0.0539673488
 40
0.0705866003
 40
0.0893172935
 40
0.1101109802
 40
0.1329177933
 40
0.1576876813
 40
0.1843703924
 40
0.2432320898
 40
0.3089497003
 40
0.3809458647
 40
0.4585601015
 40
0.5410686506
 40
0.6277370275
 40
0.7178015716
 40
0.7638669283
 40
0.8104864158
 40
0.9048908391
 40
1.0
 40
1.0
 40
1.0
 40
1.0
 10
4.8643364322
 20
4.7849361453
 30
0.0
 10
4.8644298254
 20
4.7849852811
 30
0.0
 10
4.864640832
 20
4.7850813674
 30
0.0
 10
4.8651532386
 20
4.7852718394
 30
0.0
 10
4.8659640117
 20
4.7855013545
 30
0.0
 10
4.867138369
 20
4.7857631248
 30
0.0
 10
4.868577133
 20
4.7860260726
 30
0.0
 10
4.870279476
 20
4.7862902346
 30
0.0
 10
4.8730704957
 20
4.7866660966
 30
0.0
 10
4.8772110565
 20
4.7871239541
 30
0.0
 10
4.8829542006
 20
4.7876498877
 30
0.0
 10
4.8897180321
 20
4.7881777599
 30
0.0
 10
4.8974889968
 20
4.7887070762
 30
0.0
 10
4.9062499184
 20
4.7892371865
 30
0.0
 10
4.9159796602
 20
4.7897681351
 30
0.0
 10
4.9266547419
 20
4.790299696
 30
0.0
 10
4.9382514649
 20
4.7908318168
 30
0.0
 10
4.9554811758
 20
4.7915660761
 30
0.0
 10
4.9791104953
 20
4.7924736257
 30
0.0
 10
5.0098227539
 20
4.7935323526
 30
0.0
 10
5.0434681977
 20
4.7945897655
 30
0.0
 10
5.0797396996
 20
4.7956483501
 30
0.0
 10
5.1183056202
 20
4.7967135588
 30
0.0
 10
5.1588183465
 20
4.7977879635
 30
0.0
 10
5.1936370525
 20
4.7986687723
 30
0.0
 10
5.2221976557
 20
4.7993627422
 30
0.0
 10
5.2514369859
 20
4.8000532249
 30
0.0
 10
5.288341414
 20
4.8009131411
 30
0.0
 10
5.3179589528
 20
4.8016418059
 30
0.0
 10
5.3328222049
 20
4.8020300193
 30
0.0
  0
SPLINE
  5
258
100
AcDbEntity
  8
0
100
AcDbSpline
 62
7
  6
CONTINUOUS
 70
0
 71
3
 72
22
 73
18
 74
0
 42
0.0000001
 43
0.0000001
 44
0.0000000001
 40
0.0
 40
0.0
 40
0.0
 40
0.0
 40
0.0061030941
 40
0.013756036
 40
0.0230141218
 40
0.0339119192
 40
0.0607157694
 40
0.094283237
 40
0.1345895044
 40
0.1815704341
 40
0.2351535879
 40
0.295261997
 40
0.3618160136
 40
0.4347343044
 40
0.5993183578
 40
0.7881060986
 40
1.0
 40
1.0
 40
1.0
 40
1.0
 10
4.9011765485
 20
4.8060973978
 30
0.0
 10
4.9012949667
 20
4.8061660185
 30
0.0
 10
4.9015746998
 20
4.8062982709
 30
0.0
 10
4.9020595138
 20
4.8064760567
 30
0.0
 10
4.9026573578
 20
4.8066546422
 30
0.0
 10
4.9036788578
 20
4.8069115087
 30
0.0
 10
4.9052474065
 20
4.8072224781
 30
0.0
 10
4.9074772348
 20
4.8075777211
 30
0.0
 10
4.9101640656
 20
4.807934783
 30
0.0
 10
4.9133028251
 20
4.8082933395
 30
0.0
 10
4.916888076
 20
4.808652748
 30
0.0
 10
4.9209141332
 20
4.8090127379
 30
0.0
 10
4.9253753035
 20
4.8093731052
 30
0.0
 10
4.9321754545
 20
4.8098743302
 30
0.0
 10
4.9417153823
 20
4.8104913677
 30
0.0
 10
4.9543715128
 20
4.8112067718
 30
0.0
 10
4.9633455702
 20
4.8116592428
 30
0.0
 10
4.9680918444
 20
4.8118879927
 30
0.0
  0
SPLINE
  5
259
100
AcDbEntity
  8
0
100
AcDbSpline
 62
7
  6
CONTINUOUS
 70
0
 71
3
 72
39
 73
35
 74
0
 42
0.0000001
 43
0.0000001
 44
0.0000000001
 40
0.0
 40
0.0
 40
0.0
 40
0.0
 40
0.1947997901
 40
0.2899278732
 40
0.3822058088
 40
0.4707900523
 40
0.5548514819
 40
0.6335927025
 40
0.7062292726
 40
0.7720682915
 40
0.802243361
 40
0.8304851017
 40
0.8567239232
 40
0.880903804
 40
0.9029701248
 40
0.9228684464
 40
0.9405448588
 40
0.9559566908
 40
0.9628048082
 40
0.9690767912
 40
0.9747695912
 40
0.979880331
 40
0.9844063961
 40
0.988345594
 40
0.9916964569
 40
0.9944593159
 40
0.9956218528
 40
0.9966399377
 40
0.9975154344
 40
0.9982512912
 40
0.9988525138
 40
0.999328376
 40
0.9996977179
 40
1.0
 40
1.0
 40
1.0
 40
1.0
 10
5.3328222049
 20
4.7316133526
 30
0.0
 10
5.3633131047
 20
4.7323774141
 30
0.0
 10
5.4086957159
 20
4.7334390822
 30
0.0
 10
5.4685214079
 20
4.7348897823
 30
0.0
 10
5.5117202245
 20
4.735987184
 30
0.0
 10
5.5531856498
 20
4.7370869544
 30
0.0
 10
5.5925309615
 20
4.7381811075
 30
0.0
 10
5.6293783872
 20
4.7392714727
 30
0.0
 10
5.6633713409
 20
4.7403613631
 30
0.0
 10
5.6897611529
 20
4.7412940169
 30
0.0
 10
5.7092017369
 20
4.7420474759
 30
0.0
 10
5.7224452331
 20
4.7425957623
 30
0.0
 10
5.7347491957
 20
4.7431437393
 30
0.0
 10
5.746085244
 20
4.7436912221
 30
0.0
 10
5.7564273127
 20
4.7442380976
 30
0.0
 10
5.7657496074
 20
4.7447841111
 30
0.0
 10
5.774028047
 20
4.7453292522
 30
0.0
 10
5.7802634988
 20
4.7457990553
 30
0.0
 10
5.7847146387
 20
4.7461796155
 30
0.0
 10
5.7876475171
 20
4.7464534736
 30
0.0
 10
5.7903071028
 20
4.7467270576
 30
0.0
 10
5.7926917778
 20
4.74700029
 30
0.0
 10
5.7947999358
 20
4.747273048
 30
0.0
 10
5.7966300876
 20
4.7475450492
 30
0.0
 10
5.798180765
 20
4.7478161383
 30
0.0
 10
5.7992957814
 20
4.7480522287
 30
0.0
 10
5.8000453881
 20
4.7482456011
 30
0.0
 10
5.8005042002
 20
4.7483819332
 30
0.0
 10
5.8008930158
 20
4.7485179329
 30
0.0
 10
5.8012121226
 20
4.7486535941
 30
0.0
 10
5.8014623886
 20
4.7487889242
 30
0.0
 10
5.801644814
 20
4.7489248972
 30
0.0
 10
5.801762328
 20
4.7490644554
 30
0.0
 10
5.801792921
 20
4.7491700403
 30
0.0
 10
5.8017929462
 20
4.7492173697
 30
0.0
  0
SPLINE
  5
25A
100
AcDbEntity
  8
0
100
AcDbSpline
 62
7
  6
CONTINUOUS
 70
0
 71
3
 72
37
 73
33
 74
0
 42
0.0000001
 43
0.0000001
 44
0.0000000001
 40
0.0
 40
0.0
 40
0.0
 40
0.0
 40
0.0654613868
 40
0.1380004536
 40
0.2161310003
 40
0.2980956707
 40
0.3821781283
 40
0.4667721536
 40
0.5501645746
 40
0.630564784
 40
0.7063411263
 40
0.7420181213
 40
0.7760102882
 40
0.8081766893
 40
0.8383754691
 40
0.8664416265
 40
0.8921864786
 40
0.9154204375
 40
0.9359746012
 40
0.9537702022
 40
0.9616168398
 40
0.9687538892
 40
0.9751748876
 40
0.9808743387
 40
0.9858513867
 40
0.9901071195
 40
0.9936434325
 40
0.9964638476
 40
0.9976078125
 40
0.9985762369
 40
0.9993719201
 40
1.0
 40
1.0
 40
1.0
 40
1.0
 10
5.0371954531
 20
4.7442877329
 30
0.0
 10
5.0530671375
 20
4.744853184
 30
0.0
 10
5.0865294029
 20
4.7459652977
 30
0.0
 10
5.1389417038
 20
4.7475461912
 30
0.0
 10
5.1953596199
 20
4.7491258542
 30
0.0
 10
5.2545791156
 20
4.7507060488
 30
0.0
 10
5.3153672805
 20
4.7522858497
 30
0.0
 10
5.3765019407
 20
4.7538659918
 30
0.0
 10
5.4367429304
 20
4.7554466655
 30
0.0
 10
5.4948438284
 20
4.7570293779
 30
0.0
 10
5.5413705906
 20
4.758371441
 30
0.0
 10
5.5766408843
 20
4.7594543563
 30
0.0
 10
5.6013346853
 20
4.7602493975
 30
0.0
 10
5.624698698
 20
4.7610438812
 30
0.0
 10
5.6466241256
 20
4.7618378488
 30
0.0
 10
5.6669905418
 20
4.7626311753
 30
0.0
 10
5.6856658475
 20
4.7634238679
 30
0.0
 10
5.7025169229
 20
4.7642153753
 30
0.0
 10
5.7174370097
 20
4.7650072431
 30
0.0
 10
5.7286241768
 20
4.7656907484
 30
0.0
 10
5.7365575398
 20
4.7662452209
 30
0.0
 10
5.7417353851
 20
4.7666429108
 30
0.0
 10
5.746390667
 20
4.7670398818
 30
0.0
 10
5.7505198746
 20
4.7674360762
 30
0.0
 10
5.7541211316
 20
4.7678312341
 30
0.0
 10
5.7571942689
 20
4.7682246848
 30
0.0
 10
5.7597392684
 20
4.7686162832
 30
0.0
 10
5.7615274684
 20
4.768958665
 30
0.0
 10
5.7626904948
 20
4.7692417838
 30
0.0
 10
5.7633684713
 20
4.7694384038
 30
0.0
 10
5.7639151909
 20
4.7696340584
 30
0.0
 10
5.7642294021
 20
4.7697802786
 30
0.0
 10
5.7643613319
 20
4.7698565296
 30
0.0
  0
ENDSEC
  0
SECTION
  2
OBJECTS
  0
DICTIONARY
  5
C
100
AcDbDictionary
280
0
281
1
  3
ACAD_GROUP
350
D
  3
ACAD_MLINESTYLE
350
17
  3
ACAD_LAYOUT
350
1A
  3
ACAD_PLOTSETTINGS
350
19
  3
ACAD_PLOTSTYLENAME
350
E
  0
DICTIONARY
  5
D
102
{ACAD_REACTORS
330
C
102
}
100
AcDbDictionary
280
0
281
1
  0
ACDBDICTIONARYWDFLT
  5
E
102
{ACAD_REACTORS
330
C
102
}
100
AcDbDictionary
281
1
  3
Normal
350
F
100
AcDbDictionaryWithDefault
340
F
  0
DICTIONARY
  5
17
102
{ACAD_REACTORS
330
C
102
}
100
AcDbDictionary
280
0
281
1
  3
Standard
350
18
  0
DICTIONARY
  5
19
102
{ACAD_REACTORS
330
C
102
}
100
AcDbDictionary
281
1
  0
DICTIONARY
  5
1A
102
{ACAD_REACTORS
330
C
102
}
100
AcDbDictionary
281
1
  3
Model
350
25B
  3
Layout1
350
25C
  0
ACDBPLACEHOLDER
  5
F
102
{ACAD_REACTORS
330
E
102
}
  0
MLINESTYLE
  5
18
102
{ACAD_REACTORS
330
17
102
}
100
AcDbMlineStyle
  2
STANDARD
 70
0
  3

 62
256
 51
90.0
 52
90.0
 71
2
 49
0.5
 62
256
  6
BYLAYER
 49
-0.5
 62
256
  6
BYLAYER
  0
LAYOUT
  5
25B
102
{ACAD_REACTORS
330
1A
102
}
100
AcDbPlotSettings
  1

  2
none_device
  4
ANSI_A_(11.00_x_8.50_Inches)
  6

 40
0.0
 41
0.0
 42
0.0
 43
0.0
 44
279.4
 45
215.9
 46
0.0
 47
0.0
 48
0.0
 49
0.0
140
0.0
141
0.0
142
1.0
143
1.0
 70
1024
 72
0
 73
0
 74
0
  7

 75
0
147
1.0
148
0.0
149
0.0
100
AcDbLayout
  1
Model
 70
0
 71
0
 10
0.0
 20
0.0
 11
11.0
 21
8.5
 12
0.0
 22
0.0
 32
0.0
 14
0.0
 24
0.0
 34
0.0
 15
0.0
 25
0.0
 35
0.0
146
0.0
 13
0.0
 23
0.0
 33
0.0
 16
1.0
 26
0.0
 36
0.0
 17
0.0
 27
1.0
 37
0.0
 76
0
330
223
345
0
346
0
  0
LAYOUT
  5
25C
102
{ACAD_REACTORS
330
1A
102
}
100
AcDbPlotSettings
  1

  2
none_device
  4
ANSI_A_(11.00_x_8.50_Inches)
  6

 40
0.0
 41
0.0
 42
0.0
 43
0.0
 44
279.4
 45
215.9
 46
0.0
 47
0.0
 48
0.0
 49
0.0
140
0.0
141
0.0
142
1.0
143
1.0
 70
0
 72
0
 73
0
 74
0
  7

 75
0
147
1.0
148
0.0
149
0.0
100
AcDbLayout
  1
Layout1
 70
0
 71
1
 10
0.0
 20
0.0
 11
11.0
 21
8.5
 12
0.0
 22
0.0
 32
0.0
 14
0.0
 24
0.0
 34
0.0
 15
0.0
 25
0.0
 35
0.0
146
0.0
 13
0.0
 23
0.0
 33
0.0
 16
1.0
 26
0.0
 36
0.0
 17
0.0
 27
1.0
 37
0.0
 76
0
330
224
345
0
346
0
  0
ENDSEC
  0
EOF
