999
DXF file: C:\Prowork\plots\403-3_right.dxf
999
Pro/ENGINEER 2018500 by Parametric Technology Corporation
  0
SECTION
  2
HEADER
  9
$ACADVER
  1
AC1032
  9
$DWGCODEPAGE
  3
ANSI_1252
  9
$EXTMAX
 10
11.0
 20
8.5
 30
0.0
  9
$EXTMIN
 10
0.0
 20
0.0
 30
0.0
  9
$LIMMIN
 10
0.0
 20
0.0
  9
$LIMMAX
 10
11.0
 20
8.5
  9
$VIEWCTR
 10
5.5
 20
4.25
  9
$VIEWSIZE
 40
8.5
  9
$CLAYER
  8
0
  9
$LTSCALE
 40
0.605
  9
$CELTYPE
  6
BYLAYER
  9
$DIMSCALE
 40
1.0
  9
$DIMASZ
 40
0.1
  9
$DIMEXO
 40
0.0625
  9
$DIMDLI
 40
0.418
  9
$DIMEXE
 40
0.125
  9
$DIMCEN
 40
0.099
  9
$DIMLFAC
 40
1.0
  9
$DIMBLK
  1
_FILLED
  9
$DIMALT
 70
1
  9
$DIMALTD
 70
2
  9
$DIMALTTD
 70
2
  9
$DIMALTF
 40
25.4
  9
$DIMTXT
 40
0.08
  9
$DIMTOL
 70
1
  9
$DIMLIM
 70
0
  9
$DIMTFAC
 40
1.0
  9
$DIMTP
 40
0.001
  9
$DIMTM
 40
0.001
  9
$DIMGAP
 40
0.09
  9
$DIMDSEP
 70
46
  9
$AUNITS
 70
0
  9
$PDMODE
 70
3
  9
$PDSIZE
 40
0.06
  9
$HANDSEED
  5
26C
  9
$TILEMODE
 70
1
  9
$MEASUREMENT
 70
0
  9
$INSUNITS
 70
1
  0
ENDSEC
  0
SECTION
  2
CLASSES
  0
CLASS
  1
ACDBDICTIONARYWDFLT
  2
AcDbDictionaryWithDefault
  3
AutoCAD 2000
 90
0
 91
1
280
0
281
0
  0
CLASS
  1
ACDBPLACEHOLDER
  2
AcDbPlaceHolder
  3
AutoCAD 2000
 90
0
 91
1
280
0
281
0
  0
CLASS
  1
LAYOUT
  2
AcDbLayout
  3
AutoCAD 2000
 90
0
 91
0
280
0
281
0
  0
ENDSEC
  0
SECTION
  2
TABLES
  0
TABLE
  2
VPORT
  5
8
100
AcDbSymbolTable
 70
2
  0
VPORT
  5
1F4
100
AcDbSymbolTableRecord
100
AcDbViewportTableRecord
  2
*ACTIVE
 70
0
 10
0.0
 20
0.0
 11
1.0
 21
1.0
 12
5.5
 22
4.25
 13
0.0
 23
0.0
 14
1.0
 24
1.0
 15
0.0
 25
0.0
 16
0.0
 26
0.0
 36
1.0
 17
0.0
 27
0.0
 37
0.0
 40
8.5
 41
1.2941176471
 42
50.0
 43
0.0
 44
0.0
 50
0.0
 51
0.0
 71
0
 72
100
 73
1
 74
1
 75
0
 76
0
 77
0
 78
0
  0
ENDTAB
  0
TABLE
  2
LTYPE
  5
5
100
AcDbSymbolTable
 70
6
  0
LTYPE
  5
14
100
AcDbSymbolTableRecord
100
AcDbLinetypeTableRecord
  2
BYBLOCK
 70
0
  3

 72
65
 73
0
 40
0.0
  0
LTYPE
  5
15
100
AcDbSymbolTableRecord
100
AcDbLinetypeTableRecord
  2
BYLAYER
 70
0
  3

 72
65
 73
0
 40
0.0
  0
LTYPE
  5
16
100
AcDbSymbolTableRecord
100
AcDbLinetypeTableRecord
  2
CONTINUOUS
 70
64
  3
Solid line
 72
65
 73
0
 40
0.0
  0
LTYPE
  5
1F5
100
AcDbSymbolTableRecord
100
AcDbLinetypeTableRecord
  2
CENTER
 70
64
  3
____ _ ____ _ ____ _ ____ _ ____ _ ____ _ ____
 72
65
 73
4
 40
0.6
 49
0.375
 74
0
 49
-0.075
 74
0
 49
0.075
 74
0
 49
-0.075
 74
0
  0
LTYPE
  5
1F6
100
AcDbSymbolTableRecord
100
AcDbLinetypeTableRecord
  2
HIDDEN
 70
64
  3
- - - - - - - - - - - - - - - - - - - -
 72
65
 73
2
 40
0.2
 49
0.1
 74
0
 49
-0.1
 74
0
  0
LTYPE
  5
1F7
100
AcDbSymbolTableRecord
100
AcDbLinetypeTableRecord
  2
PHANTOM
 70
64
  3
_____ _ _ _____ _ _ _____ _ _ _____
 72
65
 73
6
 40
0.8
 49
0.45
 74
0
 49
-0.05
 74
0
 49
0.1
 74
0
 49
-0.05
 74
0
 49
0.1
 74
0
 49
-0.05
 74
0
  0
LTYPE
  5
1F8
100
AcDbSymbolTableRecord
100
AcDbLinetypeTableRecord
  2
DOT
 70
64
  3
. . . . . . . . . . . . . . . . . . . .
 72
65
 73
2
 40
0.2
 49
0.1
 74
0
 49
-0.1
 74
0
  0
LTYPE
  5
1F9
100
AcDbSymbolTableRecord
100
AcDbLinetypeTableRecord
  2
DASHED
 70
64
  3
- - - - - - - - - - - - - - - - - - - -
 72
65
 73
2
 40
0.2
 49
0.1
 74
0
 49
-0.1
 74
0
  0
ENDTAB
  0
TABLE
  2
LAYER
  5
2
100
AcDbSymbolTable
 70
36
  0
LAYER
  5
10
100
AcDbSymbolTableRecord
100
AcDbLayerTableRecord
  2
0
 70
0
 62
7
  6
CONTINUOUS
370
-3
390
F
  0
LAYER
  5
1FA
100
AcDbSymbolTableRecord
100
AcDbLayerTableRecord
  2
DEFAULT_1
 70
0
 62
7
  6
CENTER
370
-3
390
F
  0
LAYER
  5
1FB
100
AcDbSymbolTableRecord
100
AcDbLayerTableRecord
  2
DEFAULT_2
 70
0
 62
8
  6
HIDDEN
370
-3
390
F
  0
LAYER
  5
1FC
100
AcDbSymbolTableRecord
100
AcDbLayerTableRecord
  2
DEFAULT_3
 70
0
 62
7
  6
PHANTOM
370
-3
390
F
  0
LAYER
  5
1FD
100
AcDbSymbolTableRecord
100
AcDbLayerTableRecord
  2
1-134
 70
0
 62
7
  6
CONTINUOUS
370
-3
390
F
  0
LAYER
  5
1FE
100
AcDbSymbolTableRecord
100
AcDbLayerTableRecord
  2
50359
 70
0
 62
7
  6
CONTINUOUS
370
-3
390
F
  0
LAYER
  5
1FF
100
AcDbSymbolTableRecord
100
AcDbLayerTableRecord
  2
50362
 70
0
 62
7
  6
CONTINUOUS
370
-3
390
F
  0
LAYER
  5
200
100
AcDbSymbolTableRecord
100
AcDbLayerTableRecord
  2
50726
 70
0
 62
7
  6
CONTINUOUS
370
-3
390
F
  0
LAYER
  5
201
100
AcDbSymbolTableRecord
100
AcDbLayerTableRecord
  2
50731
 70
0
 62
7
  6
CONTINUOUS
370
-3
390
F
  0
LAYER
  5
202
100
AcDbSymbolTableRecord
100
AcDbLayerTableRecord
  2
50741
 70
0
 62
7
  6
CONTINUOUS
370
-3
390
F
  0
LAYER
  5
203
100
AcDbSymbolTableRecord
100
AcDbLayerTableRecord
  2
50742
 70
0
 62
7
  6
CONTINUOUS
370
-3
390
F
  0
LAYER
  5
204
100
AcDbSymbolTableRecord
100
AcDbLayerTableRecord
  2
50743
 70
0
 62
7
  6
CONTINUOUS
370
-3
390
F
  0
LAYER
  5
205
100
AcDbSymbolTableRecord
100
AcDbLayerTableRecord
  2
6-031
 70
0
 62
7
  6
CONTINUOUS
370
-3
390
F
  0
LAYER
  5
206
100
AcDbSymbolTableRecord
100
AcDbLayerTableRecord
  2
91022
 70
0
 62
7
  6
CONTINUOUS
370
-3
390
F
  0
LAYER
  5
207
100
AcDbSymbolTableRecord
100
AcDbLayerTableRecord
  2
92000
 70
0
 62
7
  6
CONTINUOUS
370
-3
390
F
  0
LAYER
  5
208
100
AcDbSymbolTableRecord
100
AcDbLayerTableRecord
  2
ALL_ASSEMBLY_MEMBERS
 70
0
 62
7
  6
CONTINUOUS
370
-3
390
F
  0
LAYER
  5
209
100
AcDbSymbolTableRecord
100
AcDbLayerTableRecord
  2
ALL_FEATURES_7
 70
0
 62
7
  6
CONTINUOUS
370
-3
390
F
  0
LAYER
  5
20A
100
AcDbSymbolTableRecord
100
AcDbLayerTableRecord
  2
COLOR147
 70
0
 62
7
  6
CONTINUOUS
370
-3
390
F
  0
LAYER
  5
20B
100
AcDbSymbolTableRecord
100
AcDbLayerTableRecord
  2
COLOR32
 70
0
 62
7
  6
CONTINUOUS
370
-3
390
F
  0
LAYER
  5
20C
100
AcDbSymbolTableRecord
100
AcDbLayerTableRecord
  2
COLOR54
 70
0
 62
7
  6
CONTINUOUS
370
-3
390
F
  0
LAYER
  5
20D
100
AcDbSymbolTableRecord
100
AcDbLayerTableRecord
  2
COLOR66
 70
0
 62
7
  6
CONTINUOUS
370
-3
390
F
  0
LAYER
  5
20E
100
AcDbSymbolTableRecord
100
AcDbLayerTableRecord
  2
DEFAULT_COORDINATE_SYSTEM
 70
0
 62
7
  6
CONTINUOUS
370
-3
390
F
  0
LAYER
  5
20F
100
AcDbSymbolTableRecord
100
AcDbLayerTableRecord
  2
DEFAULT_DATUM_AXES
 70
0
 62
7
  6
CONTINUOUS
370
-3
390
F
  0
LAYER
  5
210
100
AcDbSymbolTableRecord
100
AcDbLayerTableRecord
  2
DEFAULT_DATUM_PLANES
 70
0
 62
7
  6
CONTINUOUS
370
-3
390
F
  0
LAYER
  5
211
100
AcDbSymbolTableRecord
100
AcDbLayerTableRecord
  2
DEFAULT_SURFACES_1
 70
0
 62
7
  6
CONTINUOUS
370
-3
390
F
  0
LAYER
  5
212
100
AcDbSymbolTableRecord
100
AcDbLayerTableRecord
  2
DEFAULT_SURFACES_2
 70
0
 62
7
  6
CONTINUOUS
370
-3
390
F
  0
LAYER
  5
213
100
AcDbSymbolTableRecord
100
AcDbLayerTableRecord
  2
INTF_50359
 70
0
 62
7
  6
CONTINUOUS
370
-3
390
F
  0
LAYER
  5
214
100
AcDbSymbolTableRecord
100
AcDbLayerTableRecord
  2
INTF_50362
 70
0
 62
7
  6
CONTINUOUS
370
-3
390
F
  0
LAYER
  5
215
100
AcDbSymbolTableRecord
100
AcDbLayerTableRecord
  2
INTF_50726
 70
0
 62
7
  6
CONTINUOUS
370
-3
390
F
  0
LAYER
  5
216
100
AcDbSymbolTableRecord
100
AcDbLayerTableRecord
  2
INTF_50731
 70
0
 62
7
  6
CONTINUOUS
370
-3
390
F
  0
LAYER
  5
217
100
AcDbSymbolTableRecord
100
AcDbLayerTableRecord
  2
INTF_50741
 70
0
 62
7
  6
CONTINUOUS
370
-3
390
F
  0
LAYER
  5
218
100
AcDbSymbolTableRecord
100
AcDbLayerTableRecord
  2
INTF_50742
 70
0
 62
7
  6
CONTINUOUS
370
-3
390
F
  0
LAYER
  5
219
100
AcDbSymbolTableRecord
100
AcDbLayerTableRecord
  2
INTF_50743
 70
0
 62
7
  6
CONTINUOUS
370
-3
390
F
  0
LAYER
  5
21A
100
AcDbSymbolTableRecord
100
AcDbLayerTableRecord
  2
INTF_91022
 70
0
 62
7
  6
CONTINUOUS
370
-3
390
F
  0
LAYER
  5
21B
100
AcDbSymbolTableRecord
100
AcDbLayerTableRecord
  2
INTF_92000
 70
0
 62
7
  6
CONTINUOUS
370
-3
390
F
  0
LAYER
  5
21C
100
AcDbSymbolTableRecord
100
AcDbLayerTableRecord
  2
INTF_BLANK
 70
0
 62
7
  6
CONTINUOUS
370
-3
390
F
  0
LAYER
  5
21D
100
AcDbSymbolTableRecord
100
AcDbLayerTableRecord
  2
SURFACES
 70
0
 62
7
  6
CONTINUOUS
370
-3
390
F
  0
LAYER
  5
21E
100
AcDbSymbolTableRecord
100
AcDbLayerTableRecord
  2
WETTED_SURFACE
 70
0
 62
7
  6
CONTINUOUS
370
-3
390
F
  0
LAYER
  5
21F
100
AcDbSymbolTableRecord
100
AcDbLayerTableRecord
  2
WETTED_SURFACES
 70
0
 62
7
  6
CONTINUOUS
370
-3
390
F
  0
LAYER
  5
220
100
AcDbSymbolTableRecord
100
AcDbLayerTableRecord
  2
_BLACK_HOLE
 70
0
 62
7
  6
CONTINUOUS
370
-3
390
F
  0
ENDTAB
  0
TABLE
  2
STYLE
  5
3
100
AcDbSymbolTable
 70
1
  0
STYLE
  5
11
100
AcDbSymbolTableRecord
100
AcDbTextStyleTableRecord
  2
STANDARD
 70
0
 40
0.0
 41
0.8
 50
0.0
 71
0
 42
0.2
  3
txt
  4

  0
STYLE
  5
221
100
AcDbSymbolTableRecord
100
AcDbTextStyleTableRecord
  2
TEXTSTYLE_1
 70
0
 40
0.0
 41
0.8
 50
0.0
 71
0
 42
0.2
  3
gdt
  4

  0
ENDTAB
  0
TABLE
  2
VIEW
  5
6
100
AcDbSymbolTable
 70
0
  0
ENDTAB
  0
TABLE
  2
UCS
  5
7
100
AcDbSymbolTable
 70
0
  0
ENDTAB
  0
TABLE
  2
APPID
  5
9
100
AcDbSymbolTable
 70
1
  0
APPID
  5
222
100
AcDbSymbolTableRecord
100
AcDbRegAppTableRecord
  2
ACAD
 70
0
  0
ENDTAB
  0
TABLE
  2
BLOCK_RECORD
  5
1
100
AcDbSymbolTable
 70
0
  0
BLOCK_RECORD
  5
223
100
AcDbSymbolTableRecord
100
AcDbBlockTableRecord
  2
*Model_Space
  0
BLOCK_RECORD
  5
224
100
AcDbSymbolTableRecord
100
AcDbBlockTableRecord
  2
*Paper_Space
  0
BLOCK_RECORD
  5
225
100
AcDbSymbolTableRecord
100
AcDbBlockTableRecord
  2
_FILLED
  0
ENDTAB
  0
TABLE
  2
DIMSTYLE
  5
A
100
AcDbSymbolTable
 70
1
100
AcDbDimStyleTable
 71
0
  0
DIMSTYLE
105
226
100
AcDbSymbolTableRecord
100
AcDbDimStyleTableRecord
  2
STANDARD
 70
0
  3

  4

 40
1.0
 41
0.1
 42
0.0625
 43
0.38
 44
0.125
 45
0.0
 46
0.0
 47
0.001
 48
0.001
140
0.08
141
0.09
142
0.0
143
25.4
144
1.0
145
0.0
146
1.0
147
0.09
 71
1.0
 72
0.0
 73
1
 74
1
 75
0
 76
0
 77
0
 78
4
 79
1
170
1
171
2
172
0
173
0
174
0
175
0
176
0
177
0
178
0
270
2
179
3
271
3
272
3
273
2
274
2
275
0
280
0
281
0
282
0
283
1
284
4
285
0
286
0
287
3
288
0
340
11
278
46
341
225
342
225
343
225
344
225
  0
ENDTAB
  0
ENDSEC
  0
SECTION
  2
BLOCKS
  0
BLOCK
  5
20
100
AcDbEntity
  8
0
100
AcDbBlockBegin
  2
*Model_Space
 70
0
 10
0.0
 20
0.0
 30
0.0
  3
*Model_Space
  1

  0
ENDBLK
  5
21
100
AcDbEntity
  8
0
100
AcDbBlockEnd
  0
BLOCK
  5
1C
100
AcDbEntity
  8
0
100
AcDbBlockBegin
  2
*Paper_Space
 70
0
 10
0.0
 20
0.0
 30
0.0
  3
*Paper_Space
  1

  0
ENDBLK
  5
1D
100
AcDbEntity
  8
0
100
AcDbBlockEnd
  0
BLOCK
  5
227
100
AcDbEntity
  8
0
100
AcDbBlockBegin
  2
_FILLED
 70
64
 10
0.0
 20
0.0
  3
_FILLED
  1

  0
SOLID
  5
228
100
AcDbEntity
  8
0
  6
BYBLOCK
 62
0
100
AcDbTrace
 10
0.0
 20
0.0
 11
-1.0
 21
0.2
 12
-1.0
 22
-0.2
 13
-1.0
 23
-0.2
  0
ENDBLK
  5
229
100
AcDbEntity
  8
0
  6
BYBLOCK
 62
0
100
AcDbBlockEnd
  0
ENDSEC
  0
SECTION
  2
ENTITIES
  0
MTEXT
  5
22A
100
AcDbEntity
  8
0
100
AcDbMText
 62
7
  6
CONTINUOUS
  7
STANDARD
 71
1
 72
1
 10
9.6102678571
 20
0.3872631988
 30
0.0
 11
1.0
 21
0.0
 31
0.0
 73
2
 44
0.9
  1
SCALE: 1.69
 40
0.08
 41
0.704
  0
LINE
  5
22B
100
AcDbEntity
  8
0
100
AcDbLine
 62
7
  6
CONTINUOUS
 10
0.0
 20
0.0
 11
0.0
 21
8.5
  0
LINE
  5
22C
100
AcDbEntity
  8
0
100
AcDbLine
 62
7
  6
CONTINUOUS
 10
0.0
 20
0.0
 11
11.0
 21
0.0
  0
LINE
  5
22D
100
AcDbEntity
  8
0
100
AcDbLine
 62
7
  6
CONTINUOUS
 10
0.0
 20
8.5
 11
11.0
 21
8.5
  0
LINE
  5
22E
100
AcDbEntity
  8
0
100
AcDbLine
 62
7
  6
CONTINUOUS
 10
11.0
 20
0.0
 11
11.0
 21
8.5
  0
LINE
  5
22F
100
AcDbEntity
  8
0
100
AcDbLine
 62
7
  6
CONTINUOUS
 10
1.4168097516
 20
2.5257312112
 11
1.4168097516
 21
4.1988312112
  0
LINE
  5
230
100
AcDbEntity
  8
0
100
AcDbLine
 62
9
  6
CONTINUOUS
 10
1.4252597516
 20
4.2072812112
 11
1.4252597516
 21
2.5174037077
  0
LINE
  5
231
100
AcDbEntity
  8
0
100
AcDbLine
 62
9
  6
CONTINUOUS
 10
3.3096097516
 20
2.5172812112
 11
3.3096097516
 21
4.2071587146
  0
LINE
  5
232
100
AcDbEntity
  8
0
100
AcDbLine
 62
7
  6
CONTINUOUS
 10
3.3180597516
 20
4.1988312112
 11
3.3180597516
 21
2.5257312112
  0
LINE
  5
233
100
AcDbEntity
  8
0
100
AcDbLine
 62
7
  6
CONTINUOUS
 10
3.3518597516
 20
2.5172812112
 11
3.3518597516
 21
4.2072812112
  0
LINE
  5
234
100
AcDbEntity
  8
0
100
AcDbLine
 62
7
  6
CONTINUOUS
 10
3.7743597516
 20
4.6297812112
 11
3.7743597516
 21
4.2072812112
  0
LINE
  5
235
100
AcDbEntity
  8
0
100
AcDbLine
 62
7
  6
CONTINUOUS
 10
4.0194097516
 20
4.7311812112
 11
4.0194097516
 21
5.6944812112
  0
LINE
  5
236
100
AcDbEntity
  8
0
100
AcDbLine
 62
7
  6
CONTINUOUS
 10
9.5947197516
 20
2.5172812112
 11
8.2190597516
 21
2.5172812112
  0
LINE
  5
237
100
AcDbEntity
  8
0
100
AcDbLine
 62
7
  6
CONTINUOUS
 10
8.0838597516
 20
2.5172812112
 11
3.3518597516
 21
2.5172812112
  0
LINE
  5
238
100
AcDbEntity
  8
0
100
AcDbLine
 62
7
  6
CONTINUOUS
 10
3.3096097516
 20
2.5172812112
 11
1.4252597516
 21
2.5172812112
  0
LINE
  5
239
100
AcDbEntity
  8
0
100
AcDbLine
 62
9
  6
CONTINUOUS
 10
1.4168097516
 20
2.5257312112
 11
3.3179313771
 21
2.5257312112
  0
LINE
  5
23A
100
AcDbEntity
  8
0
100
AcDbLine
 62
7
  6
CONTINUOUS
 10
3.3180597516
 20
2.6626212112
 11
3.3518597516
 21
2.6626212112
  0
LINE
  5
23B
100
AcDbEntity
  8
0
100
AcDbLine
 62
7
  6
CONTINUOUS
 10
4.1503847516
 20
4.7213234975
 11
4.1503847516
 21
4.6931555915
  0
LINE
  5
23C
100
AcDbEntity
  8
0
100
AcDbLine
 62
7
  6
CONTINUOUS
 10
4.1503847516
 20
4.6509068309
 11
4.1503847516
 21
4.6297812112
  0
LINE
  5
23D
100
AcDbEntity
  8
0
100
AcDbLine
 62
7
  6
CONTINUOUS
 10
4.2527271147
 20
5.6944812112
 11
4.2527271147
 21
5.4578812112
  0
LINE
  5
23E
100
AcDbEntity
  8
0
100
AcDbLine
 62
7
  6
CONTINUOUS
 10
4.1503847516
 20
4.6509068309
 11
4.150848718
 21
4.6514053879
  0
LINE
  5
23F
100
AcDbEntity
  8
0
100
AcDbLine
 62
7
  6
CONTINUOUS
 10
4.1503847516
 20
4.7213234975
 11
4.1508725956
 21
4.7218347247
  0
LINE
  5
240
100
AcDbEntity
  8
0
100
AcDbLine
 62
7
  6
CONTINUOUS
 10
4.1878711365
 20
4.6725683524
 11
4.1508489886
 21
4.6511508586
  0
LINE
  5
241
100
AcDbEntity
  8
0
100
AcDbLine
 62
7
  6
CONTINUOUS
 10
4.1672565957
 20
4.7311812112
 11
4.1508727343
 21
4.7217074767
  0
LINE
  5
242
100
AcDbEntity
  8
0
100
AcDbLine
 62
7
  6
CONTINUOUS
 10
8.2190597516
 20
2.7420512112
 11
8.0838597516
 21
2.7420512112
  0
LINE
  5
243
100
AcDbEntity
  8
0
100
AcDbLine
 62
7
  6
CONTINUOUS
 10
9.2820697516
 20
2.8690906796
 11
9.5947197516
 21
2.8690906796
  0
LINE
  5
244
100
AcDbEntity
  8
0
100
AcDbLine
 62
7
  6
CONTINUOUS
 10
5.0883347516
 20
4.7283639248
 11
5.0879806459
 21
4.7279283833
  0
LINE
  5
245
100
AcDbEntity
  8
0
100
AcDbLine
 62
7
  6
CONTINUOUS
 10
5.0509363483
 20
4.7067616712
 11
5.0879804053
 21
4.7281874651
  0
LINE
  5
246
100
AcDbEntity
  8
0
100
AcDbLine
 62
7
  6
CONTINUOUS
 10
4.9859923884
 20
5.4578812112
 11
4.9859923884
 21
5.6944812112
  0
LINE
  5
247
100
AcDbEntity
  8
0
100
AcDbLine
 62
7
  6
CONTINUOUS
 10
5.0883347516
 20
4.6297812112
 11
5.0883347516
 21
4.6861151642
  0
LINE
  5
248
100
AcDbEntity
  8
0
100
AcDbLine
 62
7
  6
CONTINUOUS
 10
5.0883347516
 20
4.7283639248
 11
5.0883347516
 21
4.7311812112
  0
LINE
  5
249
100
AcDbEntity
  8
0
100
AcDbLine
 62
7
  6
CONTINUOUS
 10
5.2193097516
 20
5.6944812112
 11
5.2193097516
 21
4.7311812112
  0
LINE
  5
24A
100
AcDbEntity
  8
0
100
AcDbLine
 62
7
  6
CONTINUOUS
 10
5.4643597516
 20
4.2072812112
 11
5.4643597516
 21
4.6297812112
  0
LINE
  5
24B
100
AcDbEntity
  8
0
100
AcDbLine
 62
7
  6
CONTINUOUS
 10
9.5947197516
 20
3.8554717427
 11
9.2820697516
 21
3.8554717427
  0
LINE
  5
24C
100
AcDbEntity
  8
0
100
AcDbLine
 62
7
  6
CONTINUOUS
 10
8.0838597516
 20
3.9825112112
 11
8.2190597516
 21
3.9825112112
  0
LINE
  5
24D
100
AcDbEntity
  8
0
100
AcDbLine
 62
7
  6
CONTINUOUS
 10
3.3180597516
 20
4.0619412112
 11
3.3518597516
 21
4.0619412112
  0
LINE
  5
24E
100
AcDbEntity
  8
0
100
AcDbLine
 62
7
  6
CONTINUOUS
 10
4.1507645285
 20
4.6930067241
 11
4.1878732757
 21
4.6715390417
  0
LINE
  5
24F
100
AcDbEntity
  8
0
100
AcDbLine
 62
9
  6
CONTINUOUS
 10
3.3180597516
 20
4.1988312112
 11
1.4169393543
 21
4.1988312112
  0
LINE
  5
250
100
AcDbEntity
  8
0
100
AcDbLine
 62
7
  6
CONTINUOUS
 10
8.0838597516
 20
4.2072812112
 11
5.4643597516
 21
4.2072812112
  0
LINE
  5
251
100
AcDbEntity
  8
0
100
AcDbLine
 62
7
  6
CONTINUOUS
 10
3.7743597516
 20
4.2072812112
 11
3.3518597516
 21
4.2072812112
  0
LINE
  5
252
100
AcDbEntity
  8
0
100
AcDbLine
 62
7
  6
CONTINUOUS
 10
1.4252597516
 20
4.2072812112
 11
3.3096097516
 21
4.2072812112
  0
LINE
  5
253
100
AcDbEntity
  8
0
100
AcDbLine
 62
7
  6
CONTINUOUS
 10
8.2190597516
 20
4.2072812112
 11
9.5947197516
 21
4.2072812112
  0
LINE
  5
254
100
AcDbEntity
  8
0
100
AcDbLine
 62
7
  6
CONTINUOUS
 10
5.0878539203
 20
4.6864339092
 11
5.0509398438
 21
4.7077843766
  0
LINE
  5
255
100
AcDbEntity
  8
0
100
AcDbLine
 62
7
  6
CONTINUOUS
 10
3.7743597516
 20
4.6297812112
 11
5.4643597516
 21
4.6297812112
  0
LINE
  5
256
100
AcDbEntity
  8
0
100
AcDbLine
 62
7
  6
CONTINUOUS
 10
5.2193097516
 20
4.7311812112
 11
4.0194097516
 21
4.7311812112
  0
LINE
  5
257
100
AcDbEntity
  8
0
100
AcDbLine
 62
7
  6
CONTINUOUS
 10
4.2527271147
 20
5.4578812112
 11
4.9859923884
 21
5.4578812112
  0
LINE
  5
258
100
AcDbEntity
  8
0
100
AcDbLine
 62
7
  6
CONTINUOUS
 10
4.0194097516
 20
5.6944812112
 11
5.2193097516
 21
5.6944812112
  0
LINE
  5
259
100
AcDbEntity
  8
0
100
AcDbLine
 62
7
  6
CONTINUOUS
 10
8.0838597516
 20
2.5172812112
 11
8.0838597516
 21
4.2072812112
  0
LINE
  5
25A
100
AcDbEntity
  8
0
100
AcDbLine
 62
7
  6
CONTINUOUS
 10
8.2190597516
 20
2.5172812112
 11
8.2190597516
 21
4.2072812112
  0
LINE
  5
25B
100
AcDbEntity
  8
0
100
AcDbLine
 62
7
  6
CONTINUOUS
 10
9.2736197516
 20
3.8434981393
 11
9.2736197516
 21
2.8810642831
  0
LINE
  5
25C
100
AcDbEntity
  8
0
100
AcDbLine
 62
9
  6
CONTINUOUS
 10
9.2820697516
 20
2.8690906796
 11
9.2820697516
 21
3.8554717427
  0
LINE
  5
25D
100
AcDbEntity
  8
0
100
AcDbLine
 62
7
  6
CONTINUOUS
 10
9.5947197516
 20
2.5172812112
 11
9.5947197516
 21
4.2072812112
  0
ARC
  5
25E
100
AcDbEntity
  8
0
100
AcDbCircle
 62
7
  6
CONTINUOUS
 10
3.3096097516
 20
4.1988312112
 40
0.00845
100
AcDbArc
 50
0.0
 51
90.0
  0
ARC
  5
25F
100
AcDbEntity
  8
0
100
AcDbCircle
 62
7
  6
CONTINUOUS
 10
3.3096097516
 20
2.5257312112
 40
0.00845
100
AcDbArc
 50
270.0
 51
360.0
  0
ARC
  5
260
100
AcDbEntity
  8
0
100
AcDbCircle
 62
7
  6
CONTINUOUS
 10
1.4252597516
 20
2.5257312112
 40
0.00845
100
AcDbArc
 50
180.0
 51
270.0
  0
ARC
  5
261
100
AcDbEntity
  8
0
100
AcDbCircle
 62
7
  6
CONTINUOUS
 10
1.4252597516
 20
4.1988312112
 40
0.00845
100
AcDbArc
 50
90.0
 51
180.0
  0
SPLINE
  5
262
100
AcDbEntity
  8
0
100
AcDbSpline
 62
7
  6
CONTINUOUS
 70
0
 71
3
 72
18
 73
14
 74
0
 42
0.0000001
 43
0.0000001
 44
0.0000000001
 40
0.0
 40
0.0
 40
0.0
 40
0.0
 40
0.2337028468
 40
0.3517494663
 40
0.4113373263
 40
0.4714772119
 40
0.5323943581
 40
0.5942849792
 40
0.6572743802
 40
0.7218519563
 40
0.7889718298
 40
0.8587499408
 40
1.0
 40
1.0
 40
1.0
 40
1.0
 10
9.2736197516
 20
2.8810642831
 30
0.0
 10
9.2736197516
 20
2.8798059529
 30
0.0
 10
9.2738194965
 20
2.8779015834
 30
0.0
 10
9.2744446284
 20
2.8757714475
 30
0.0
 10
9.2749279849
 20
2.874584802
 30
0.0
 10
9.2753600419
 20
2.8737123554
 30
0.0
 10
9.2758638927
 20
2.8728647959
 30
0.0
 10
9.2764439879
 20
2.8720480955
 30
0.0
 10
9.2771187876
 20
2.8712801283
 30
0.0
 10
9.2779040557
 20
2.8705813473
 30
0.0
 10
9.2788109034
 20
2.8699780538
 30
0.0
 10
9.2801658314
 20
2.8693355978
 30
0.0
 10
9.2813092165
 20
2.8690906796
 30
0.0
 10
9.2820697516
 20
2.8690906796
 30
0.0
  0
SPLINE
  5
263
100
AcDbEntity
  8
0
100
AcDbSpline
 62
7
  6
CONTINUOUS
 70
0
 71
3
 72
18
 73
14
 74
0
 42
0.0000001
 43
0.0000001
 44
0.0000000001
 40
0.0
 40
0.0
 40
0.0
 40
0.0
 40
0.1412509312
 40
0.211028873
 40
0.2781481252
 40
0.3427252826
 40
0.405714674
 40
0.4676055724
 40
0.5285229756
 40
0.5886629437
 40
0.6482507187
 40
0.7662970346
 40
1.0
 40
1.0
 40
1.0
 40
1.0
 10
9.2820697516
 20
3.8554717427
 30
0.0
 10
9.2813092099
 20
3.8554717427
 30
0.0
 10
9.2801658164
 20
3.8552268568
 30
0.0
 10
9.2788108643
 20
3.8545844374
 30
0.0
 10
9.2779040161
 20
3.8539811491
 30
0.0
 10
9.2771187635
 20
3.8532823542
 30
0.0
 10
9.2764439849
 20
3.8525143659
 30
0.0
 10
9.2758639087
 20
3.8516976459
 30
0.0
 10
9.2753600646
 20
3.8508500762
 30
0.0
 10
9.274928005
 20
3.8499776269
 30
0.0
 10
9.2744446384
 20
3.848790984
 30
0.0
 10
9.2738194878
 20
3.8466608486
 30
0.0
 10
9.2736197516
 20
3.8447564732
 30
0.0
 10
9.2736197516
 20
3.8434981393
 30
0.0
  0
SPLINE
  5
264
100
AcDbEntity
  8
0
100
AcDbSpline
 62
7
  6
CONTINUOUS
 70
0
 71
3
 72
15
 73
11
 74
0
 42
0.0000001
 43
0.0000001
 44
0.0000000001
 40
0.0
 40
0.0
 40
0.0
 40
0.0
 40
0.165834799
 40
0.3008266517
 40
0.4101763299
 40
0.5036278855
 40
0.5962495291
 40
0.70359296
 40
0.8362328648
 40
1.0
 40
1.0
 40
1.0
 40
1.0
 10
5.0509383808
 20
4.7067616023
 30
0.0
 10
5.0510057569
 20
4.7068003303
 30
0.0
 10
5.0511249772
 20
4.7068763427
 30
0.0
 10
5.0512704115
 20
4.7070035323
 30
0.0
 10
5.0513638469
 20
4.7071340628
 30
0.0
 10
5.0513998691
 20
4.7072721417
 30
0.0
 10
5.0513703231
 20
4.7074109459
 30
0.0
 10
5.0512818072
 20
4.7075422481
 30
0.0
 10
5.0511405198
 20
4.7076696852
 30
0.0
 10
5.0510236128
 20
4.7077455325
 30
0.0
 10
5.0509573093
 20
4.7077841793
 30
0.0
  0
SPLINE
  5
265
100
AcDbEntity
  8
0
100
AcDbSpline
 62
7
  6
CONTINUOUS
 70
0
 71
3
 72
15
 73
11
 74
0
 42
0.0000001
 43
0.0000001
 44
0.0000000001
 40
0.0
 40
0.0
 40
0.0
 40
0.0
 40
0.1647468976
 40
0.2986283431
 40
0.4071257989
 40
0.5003264691
 40
0.5934430545
 40
0.7017351535
 40
0.8353868783
 40
1.0
 40
1.0
 40
1.0
 40
1.0
 10
4.1878714888
 20
4.6715391205
 30
0.0
 10
4.187804401
 20
4.6715780596
 30
0.0
 10
4.1876858671
 20
4.6716544971
 30
0.0
 10
4.1875418992
 20
4.6717826144
 30
0.0
 10
4.1874504368
 20
4.6719143254
 30
0.0
 10
4.1874172373
 20
4.6720535563
 30
0.0
 10
4.1874497236
 20
4.6721928712
 30
0.0
 10
4.1875406278
 20
4.6723247027
 30
0.0
 10
4.1876841607
 20
4.6724529215
 30
0.0
 10
4.1878024919
 20
4.6725293685
 30
0.0
 10
4.1878695039
 20
4.6725683128
 30
0.0
  0
SPLINE
  5
266
100
AcDbEntity
  8
0
100
AcDbSpline
 62
7
  6
CONTINUOUS
 70
0
 71
3
 72
25
 73
21
 74
0
 42
0.0000001
 43
0.0000001
 44
0.0000000001
 40
0.0
 40
0.0
 40
0.0
 40
0.0
 40
0.0020792453
 40
0.0045857489
 40
0.0109216503
 40
0.0190580936
 40
0.0290129858
 40
0.0407931155
 40
0.0544001108
 40
0.0870881664
 40
0.1270237772
 40
0.1740826234
 40
0.2281299946
 40
0.2890296075
 40
0.3566413108
 40
0.4307799084
 40
0.5112255104
 40
0.5977569168
 40
0.7881802235
 40
1.0
 40
1.0
 40
1.0
 40
1.0
 10
4.1508758309
 20
4.7218678923
 30
0.0
 10
4.1509793819
 20
4.721924
 30
0.0
 10
4.1512158905
 20
4.7220326921
 30
0.0
 10
4.1517971079
 20
4.7222455706
 30
0.0
 10
4.1527269426
 20
4.7224968288
 30
0.0
 10
4.1540817562
 20
4.7227788461
 30
0.0
 10
4.1557507797
 20
4.7230590635
 30
0.0
 10
4.1577331444
 20
4.7233387669
 30
0.0
 10
4.1609987301
 20
4.7237364038
 30
0.0
 10
4.1658592394
 20
4.7242229119
 30
0.0
 10
4.1726146397
 20
4.7247917586
 30
0.0
 10
4.1805829385
 20
4.7253690561
 30
0.0
 10
4.1897409617
 20
4.7259522416
 30
0.0
 10
4.2000651166
 20
4.7265376213
 30
0.0
 10
4.2115289953
 20
4.7271216014
 30
0.0
 10
4.2241014051
 20
4.7277035598
 30
0.0
 10
4.2377465685
 20
4.7282846107
 30
0.0
 10
4.2579750003
 20
4.7290844818
 30
0.0
 10
4.2856430681
 20
4.7300732738
 30
0.0
 10
4.308415478
 20
4.7308085011
 30
0.0
 10
4.3204078054
 20
4.7311806807
 30
0.0
  0
SPLINE
  5
267
100
AcDbEntity
  8
0
100
AcDbSpline
 62
7
  6
CONTINUOUS
 70
0
 71
3
 72
56
 73
52
 74
0
 42
0.0000001
 43
0.0000001
 44
0.0000000001
 40
0.0
 40
0.0
 40
0.0
 40
0.0
 40
0.0007379355
 40
0.001735319
 40
0.0030012999
 40
0.0045409046
 40
0.0063574502
 40
0.008453428
 40
0.0134914805
 40
0.0196688611
 40
0.026982661
 40
0.0354029257
 40
0.0448964725
 40
0.0554298287
 40
0.0669693478
 40
0.079481163
 40
0.0929308195
 40
0.1225049632
 40
0.1554142581
 40
0.1913880414
 40
0.2301669242
 40
0.271481225
 40
0.3149423119
 40
0.3600898124
 40
0.4064738994
 40
0.4536835686
 40
0.5013154443
 40
0.596136
 40
0.6424354439
 40
0.6874192521
 40
0.7306695268
 40
0.7717948531
 40
0.8104880593
 40
0.8464579197
 40
0.8793739655
 40
0.9088522017
 40
0.9221812834
 40
0.9345177469
 40
0.9458422345
 40
0.9561368328
 40
0.9653837378
 40
0.9735653163
 40
0.9806665486
 40
0.9866842848
 40
0.9916197077
 40
0.9936824656
 40
0.9954760668
 40
0.9970016507
 40
0.9982611634
 40
0.9992582092
 40
1.0
 40
1.0
 40
1.0
 40
1.0
 10
4.1878695039
 20
4.6725683128
 30
0.0
 10
4.1880532875
 20
4.6726751194
 30
0.0
 10
4.1885148759
 20
4.6728737463
 30
0.0
 10
4.1893397178
 20
4.6731332656
 30
0.0
 10
4.1904042168
 20
4.6733949441
 30
0.0
 10
4.1917095175
 20
4.6736582458
 30
0.0
 10
4.1932578264
 20
4.6739225942
 30
0.0
 10
4.1958085292
 20
4.6742994798
 30
0.0
 10
4.1996159387
 20
4.6747586367
 30
0.0
 10
4.2049275569
 20
4.6752848985
 30
0.0
 10
4.2112173429
 20
4.675812524
 30
0.0
 10
4.2184650257
 20
4.6763422386
 30
0.0
 10
4.2266422197
 20
4.6768730039
 30
0.0
 10
4.2357195671
 20
4.677404439
 30
0.0
 10
4.2456676721
 20
4.677936139
 30
0.0
 10
4.2564569255
 20
4.678467854
 30
0.0
 10
4.2724374512
 20
4.6792002138
 30
0.0
 10
4.2942916719
 20
4.6801053296
 30
0.0
 10
4.3226330133
 20
4.6811631928
 30
0.0
 10
4.3536273981
 20
4.6822239571
 30
0.0
 10
4.3870441124
 20
4.6832868661
 30
0.0
 10
4.4226185867
 20
4.684349999
 30
0.0
 10
4.4600283313
 20
4.685413443
 30
0.0
 10
4.498899014
 20
4.6864768582
 30
0.0
 10
4.5388499047
 20
4.6875394289
 30
0.0
 10
4.5795166889
 20
4.6886015581
 30
0.0
 10
4.6341313647
 20
4.6900158189
 30
0.0
 10
4.6884839091
 20
4.6914244282
 30
0.0
 10
4.7420728109
 20
4.6928555221
 30
0.0
 10
4.7808111447
 20
4.6939203853
 30
0.0
 10
4.8180585063
 20
4.6949839844
 30
0.0
 10
4.8534931042
 20
4.6960462003
 30
0.0
 10
4.8868296038
 20
4.6971068378
 30
0.0
 10
4.9178001749
 20
4.6981657
 30
0.0
 10
4.9461147269
 20
4.6992224852
 30
0.0
 10
4.9679084513
 20
4.7001286398
 30
0.0
 10
4.983775866
 20
4.7008637395
 30
0.0
 10
4.9944176949
 20
4.7013967264
 30
0.0
 10
5.0041842633
 20
4.7019293467
 30
0.0
 10
5.0130594647
 20
4.7024613696
 30
0.0
 10
5.0210276175
 20
4.7029924205
 30
0.0
 10
5.0280737264
 20
4.7035220991
 30
0.0
 10
5.0341868747
 20
4.7040500821
 30
0.0
 10
5.0393610597
 20
4.7045759493
 30
0.0
 10
5.043082864
 20
4.705033754
 30
0.0
 10
5.0455875105
 20
4.7054093404
 30
0.0
 10
5.0471153716
 20
4.7056732659
 30
0.0
 10
5.0484079739
 20
4.705936222
 30
0.0
 10
5.0494663276
 20
4.7061976492
 30
0.0
 10
5.0502903196
 20
4.7064570402
 30
0.0
 10
5.0507531279
 20
4.7066551185
 30
0.0
 10
5.0509383808
 20
4.7067616023
 30
0.0
  0
SPLINE
  5
268
100
AcDbEntity
  8
0
100
AcDbSpline
 62
7
  6
CONTINUOUS
 70
0
 71
3
 72
66
 73
62
 74
0
 42
0.0000001
 43
0.0000001
 44
0.0000000001
 40
0.0
 40
0.0
 40
0.0
 40
0.0
 40
0.0003398226
 40
0.00074638
 40
0.001765806
 40
0.0030659324
 40
0.0046496018
 40
0.0065179637
 40
0.0086713663
 40
0.0138326446
 40
0.0201287091
 40
0.0275438665
 40
0.036058912
 40
0.0456543041
 40
0.0563103102
 40
0.068005465
 40
0.0807102617
 40
0.0943926775
 40
0.1245620154
 40
0.1582441322
 40
0.1951147538
 40
0.2348333449
 40
0.2770306099
 40
0.3213063239
 40
0.3672526943
 40
0.4144360554
 40
0.4624155101
 40
0.5107440191
 40
0.5589680425
 40
0.6066358049
 40
0.6533043321
 40
0.6985337287
 40
0.741902334
 40
0.7830075138
 40
0.8214575435
 40
0.8569021874
 40
0.8890037143
 40
0.9037050912
 40
0.917463464
 40
0.930246773
 40
0.9420230097
 40
0.952762154
 40
0.9624422479
 40
0.9710435128
 40
0.9785463353
 40
0.9818797938
 40
0.9849314346
 40
0.9876992146
 40
0.9901823514
 40
0.9923805165
 40
0.9942936189
 40
0.995921975
 40
0.997266656
 40
0.9978334202
 40
0.9983305004
 40
0.9987588489
 40
0.9991200279
 40
0.999416743
 40
0.9996540167
 40
0.9998418334
 40
1.0
 40
1.0
 40
1.0
 40
1.0
 10
4.1508518278
 20
4.6514224634
 30
0.0
 10
4.1509451651
 20
4.6514734102
 30
0.0
 10
4.1511570549
 20
4.6515726725
 30
0.0
 10
4.1516741206
 20
4.6517683206
 30
0.0
 10
4.1524958566
 20
4.6520018739
 30
0.0
 10
4.1536885423
 20
4.6522661564
 30
0.0
 10
4.1551522948
 20
4.6525301555
 30
0.0
 10
4.1568864492
 20
4.6527943478
 30
0.0
 10
4.1597355075
 20
4.6531697728
 30
0.0
 10
4.1639703935
 20
4.6536271127
 30
0.0
 10
4.1698523067
 20
4.6541564484
 30
0.0
 10
4.1767868622
 20
4.6546911857
 30
0.0
 10
4.1847561562
 20
4.6552299301
 30
0.0
 10
4.1937414756
 20
4.6557708286
 30
0.0
 10
4.2037234692
 20
4.6563124463
 30
0.0
 10
4.2146797845
 20
4.6568532047
 30
0.0
 10
4.2265841878
 20
4.6573934966
 30
0.0
 10
4.2442660699
 20
4.6581380084
 30
0.0
 10
4.268510427
 20
4.6590575961
 30
0.0
 10
4.3000098556
 20
4.6601315469
 30
0.0
 10
4.3344989072
 20
4.6612080335
 30
0.0
 10
4.3716536548
 20
4.6622855499
 30
0.0
 10
4.411126483
 20
4.6633634359
 30
0.0
 10
4.4525487577
 20
4.6644420755
 30
0.0
 10
4.4955317661
 20
4.6655210377
 30
0.0
 10
4.5396740819
 20
4.6666004257
 30
0.0
 10
4.5845620239
 20
4.6676799767
 30
0.0
 10
4.6297756999
 20
4.668759532
 30
0.0
 10
4.6748918144
 20
4.6698390861
 30
0.0
 10
4.7194883426
 20
4.6709186282
 30
0.0
 10
4.7631475302
 20
4.6719978258
 30
0.0
 10
4.8054610265
 20
4.6730766084
 30
0.0
 10
4.8460330829
 20
4.6741549006
 30
0.0
 10
4.8844829925
 20
4.6752325434
 30
0.0
 10
4.9204523332
 20
4.676310054
 30
0.0
 10
4.9536029733
 20
4.6773856682
 30
0.0
 10
4.9793233518
 20
4.67830368
 30
0.0
 10
4.9982595336
 20
4.6790450979
 30
0.0
 10
5.0111539258
 20
4.6795849051
 30
0.0
 10
5.0231321092
 20
4.6801252597
 30
0.0
 10
5.0341644457
 20
4.6806665505
 30
0.0
 10
5.0442243766
 20
4.6812094297
 30
0.0
 10
5.0532892494
 20
4.6817518012
 30
0.0
 10
5.0613395636
 20
4.6822916192
 30
0.0
 10
5.0674044628
 20
4.6827537247
 30
0.0
 10
5.0717343581
 20
4.683125218
 30
0.0
 10
5.0745861252
 20
4.6833909927
 30
0.0
 10
5.0771707554
 20
4.6836547615
 30
0.0
 10
5.0794869436
 20
4.6839172116
 30
0.0
 10
5.0815338498
 20
4.6841790707
 30
0.0
 10
5.0833108573
 20
4.6844408981
 30
0.0
 10
5.0848172932
 20
4.6847034004
 30
0.0
 10
5.0859012284
 20
4.6849338648
 30
0.0
 10
5.0866305533
 20
4.6851244237
 30
0.0
 10
5.0870775869
 20
4.6852597871
 30
0.0
 10
5.0874567416
 20
4.6853958651
 30
0.0
 10
5.0877682469
 20
4.6855327709
 30
0.0
 10
5.0880128342
 20
4.6856707316
 30
0.0
 10
5.0881914693
 20
4.6858108904
 30
0.0
 10
5.088306014
 20
4.6859567088
 30
0.0
 10
5.0883347516
 20
4.6860656711
 30
0.0
 10
5.0883347516
 20
4.6861151642
 30
0.0
  0
SPLINE
  5
269
100
AcDbEntity
  8
0
100
AcDbSpline
 62
7
  6
CONTINUOUS
 70
0
 71
3
 72
65
 73
61
 74
0
 42
0.0000001
 43
0.0000001
 44
0.0000000001
 40
0.0
 40
0.0
 40
0.0
 40
0.0
 40
0.0003067328
 40
0.0006807085
 40
0.0016365227
 40
0.002874825
 40
0.0043981169
 40
0.0062072981
 40
0.00830254
 40
0.013350052
 40
0.0195359625
 40
0.0268458937
 40
0.0352611126
 40
0.044762329
 40
0.0553299454
 40
0.0669430023
 40
0.0795725536
 40
0.0931863605
 40
0.1232375391
 40
0.1568271975
 40
0.1936314089
 40
0.2333081504
 40
0.2754880778
 40
0.3197691946
 40
0.3657421611
 40
0.4129717547
 40
0.4610147667
 40
0.5094220786
 40
0.5577377812
 40
0.6055075099
 40
0.6522857275
 40
0.6976300853
 40
0.7411159965
 40
0.782338532
 40
0.8209033194
 40
0.8564577005
 40
0.8886620703
 40
0.9034114602
 40
0.9172152456
 40
0.9300411489
 40
0.9418569316
 40
0.9526322674
 40
0.9623450826
 40
0.9709757035
 40
0.9785047142
 40
0.9849131476
 40
0.9876917173
 40
0.9901849818
 40
0.99239249
 40
0.9943139751
 40
0.9959494872
 40
0.9972996628
 40
0.9978683173
 40
0.9983665267
 40
0.9987950121
 40
0.9991549796
 40
0.9994485627
 40
0.9996798432
 40
0.9998573916
 40
1.0
 40
1.0
 40
1.0
 40
1.0
 10
5.0879781454
 20
4.7279523165
 30
0.0
 10
5.0878954293
 20
4.7279036079
 30
0.0
 10
5.0877043766
 20
4.7278082943
 30
0.0
 10
5.0872286451
 20
4.7276178434
 30
0.0
 10
5.086457669
 20
4.727386426
 30
0.0
 10
5.0853251703
 20
4.7271193505
 30
0.0
 10
5.0839203662
 20
4.7268479464
 30
0.0
 10
5.0822440028
 20
4.7265731442
 30
0.0
 10
5.0794701136
 20
4.7261794757
 30
0.0
 10
5.0753259055
 20
4.7257003775
 30
0.0
 10
5.0695478964
 20
4.725158247
 30
0.0
 10
5.0627117969
 20
4.7246198764
 30
0.0
 10
5.054835339
 20
4.7240835649
 30
0.0
 10
5.0459372673
 20
4.7235482265
 30
0.0
 10
5.0360368674
 20
4.7230122392
 30
0.0
 10
5.0251562763
 20
4.722473952
 30
0.0
 10
5.0133214111
 20
4.7219335543
 30
0.0
 10
4.9957198574
 20
4.7211862546
 30
0.0
 10
4.9715606041
 20
4.7202611411
 30
0.0
 10
4.9401446927
 20
4.7191845495
 30
0.0
 10
4.9057148862
 20
4.7181071844
 30
0.0
 10
4.8685955864
 20
4.7170285513
 30
0.0
 10
4.8291355012
 20
4.7159486518
 30
0.0
 10
4.7877043395
 20
4.7148677934
 30
0.0
 10
4.7446923719
 20
4.7137868366
 30
0.0
 10
4.7005027664
 20
4.7127055915
 30
0.0
 10
4.6555511141
 20
4.7116241415
 30
0.0
 10
4.6102594687
 20
4.7105426161
 30
0.0
 10
4.5650533711
 20
4.7094611094
 30
0.0
 10
4.5203572433
 20
4.7083796948
 30
0.0
 10
4.4765912669
 20
4.7072985882
 30
0.0
 10
4.4341663261
 20
4.7062176717
 30
0.0
 10
4.3934806105
 20
4.7051371465
 30
0.0
 10
4.3549173145
 20
4.7040577329
 30
0.0
 10
4.3188371875
 20
4.7029793697
 30
0.0
 10
4.2855806095
 20
4.7019023768
 30
0.0
 10
4.2597760551
 20
4.7009805026
 30
0.0
 10
4.2407765631
 20
4.7002352168
 30
0.0
 10
4.2278382952
 20
4.6996933815
 30
0.0
 10
4.2158189146
 20
4.6991525804
 30
0.0
 10
4.2047482516
 20
4.6986132205
 30
0.0
 10
4.1946529875
 20
4.69807566
 30
0.0
 10
4.1855560199
 20
4.6975389726
 30
0.0
 10
4.1774769337
 20
4.6970022722
 30
0.0
 10
4.1704346349
 20
4.6964644892
 30
0.0
 10
4.1652240922
 20
4.6959959091
 30
0.0
 10
4.1615889652
 20
4.6956113126
 30
0.0
 10
4.1592644381
 20
4.6953363285
 30
0.0
 10
4.1572101826
 20
4.6950617187
 30
0.0
 10
4.1554268529
 20
4.69478833
 30
0.0
 10
4.1539151519
 20
4.6945169258
 30
0.0
 10
4.1528274383
 20
4.6942821369
 30
0.0
 10
4.1520953876
 20
4.694091241
 30
0.0
 10
4.1516468746
 20
4.6939572879
 30
0.0
 10
4.1512665584
 20
4.6938244217
 30
0.0
 10
4.1509542891
 20
4.693692727
 30
0.0
 10
4.1507093116
 20
4.693562354
 30
0.0
 10
4.1505308247
 20
4.6934324423
 30
0.0
 10
4.1504155308
 20
4.6933006286
 30
0.0
 10
4.1503847516
 20
4.6932002208
 30
0.0
 10
4.1503847516
 20
4.6931555915
 30
0.0
  0
ENDSEC
  0
SECTION
  2
OBJECTS
  0
DICTIONARY
  5
C
100
AcDbDictionary
280
0
281
1
  3
ACAD_GROUP
350
D
  3
ACAD_MLINESTYLE
350
17
  3
ACAD_LAYOUT
350
1A
  3
ACAD_PLOTSETTINGS
350
19
  3
ACAD_PLOTSTYLENAME
350
E
  0
DICTIONARY
  5
D
102
{ACAD_REACTORS
330
C
102
}
100
AcDbDictionary
280
0
281
1
  0
ACDBDICTIONARYWDFLT
  5
E
102
{ACAD_REACTORS
330
C
102
}
100
AcDbDictionary
281
1
  3
Normal
350
F
100
AcDbDictionaryWithDefault
340
F
  0
DICTIONARY
  5
17
102
{ACAD_REACTORS
330
C
102
}
100
AcDbDictionary
280
0
281
1
  3
Standard
350
18
  0
DICTIONARY
  5
19
102
{ACAD_REACTORS
330
C
102
}
100
AcDbDictionary
281
1
  0
DICTIONARY
  5
1A
102
{ACAD_REACTORS
330
C
102
}
100
AcDbDictionary
281
1
  3
Model
350
26A
  3
Layout1
350
26B
  0
ACDBPLACEHOLDER
  5
F
102
{ACAD_REACTORS
330
E
102
}
  0
MLINESTYLE
  5
18
102
{ACAD_REACTORS
330
17
102
}
100
AcDbMlineStyle
  2
STANDARD
 70
0
  3

 62
256
 51
90.0
 52
90.0
 71
2
 49
0.5
 62
256
  6
BYLAYER
 49
-0.5
 62
256
  6
BYLAYER
  0
LAYOUT
  5
26A
102
{ACAD_REACTORS
330
1A
102
}
100
AcDbPlotSettings
  1

  2
none_device
  4
ANSI_A_(11.00_x_8.50_Inches)
  6

 40
0.0
 41
0.0
 42
0.0
 43
0.0
 44
279.4
 45
215.9
 46
0.0
 47
0.0
 48
0.0
 49
0.0
140
0.0
141
0.0
142
1.0
143
1.0
 70
1024
 72
0
 73
0
 74
0
  7

 75
0
147
1.0
148
0.0
149
0.0
100
AcDbLayout
  1
Model
 70
0
 71
0
 10
0.0
 20
0.0
 11
11.0
 21
8.5
 12
0.0
 22
0.0
 32
0.0
 14
0.0
 24
0.0
 34
0.0
 15
0.0
 25
0.0
 35
0.0
146
0.0
 13
0.0
 23
0.0
 33
0.0
 16
1.0
 26
0.0
 36
0.0
 17
0.0
 27
1.0
 37
0.0
 76
0
330
223
345
0
346
0
  0
LAYOUT
  5
26B
102
{ACAD_REACTORS
330
1A
102
}
100
AcDbPlotSettings
  1

  2
none_device
  4
ANSI_A_(11.00_x_8.50_Inches)
  6

 40
0.0
 41
0.0
 42
0.0
 43
0.0
 44
279.4
 45
215.9
 46
0.0
 47
0.0
 48
0.0
 49
0.0
140
0.0
141
0.0
142
1.0
143
1.0
 70
0
 72
0
 73
0
 74
0
  7

 75
0
147
1.0
148
0.0
149
0.0
100
AcDbLayout
  1
Layout1
 70
0
 71
1
 10
0.0
 20
0.0
 11
11.0
 21
8.5
 12
0.0
 22
0.0
 32
0.0
 14
0.0
 24
0.0
 34
0.0
 15
0.0
 25
0.0
 35
0.0
146
0.0
 13
0.0
 23
0.0
 33
0.0
 16
1.0
 26
0.0
 36
0.0
 17
0.0
 27
1.0
 37
0.0
 76
0
330
224
345
0
346
0
  0
ENDSEC
  0
EOF
