999
DXF file: C:\Prowork\plots\403x-2_front.dxf
999
Pro/ENGINEER 2018500 by Parametric Technology Corporation
  0
SECTION
  2
HEADER
  9
$ACADVER
  1
AC1032
  9
$DWGCODEPAGE
  3
ANSI_1252
  9
$EXTMAX
 10
11.0
 20
8.5
 30
0.0
  9
$EXTMIN
 10
0.0
 20
0.0
 30
0.0
  9
$LIMMIN
 10
0.0
 20
0.0
  9
$LIMMAX
 10
11.0
 20
8.5
  9
$VIEWCTR
 10
5.5
 20
4.25
  9
$VIEWSIZE
 40
8.5
  9
$CLAYER
  8
0
  9
$LTSCALE
 40
0.605
  9
$CELTYPE
  6
BYLAYER
  9
$DIMSCALE
 40
1.0
  9
$DIMASZ
 40
0.1
  9
$DIMEXO
 40
0.0625
  9
$DIMDLI
 40
0.418
  9
$DIMEXE
 40
0.125
  9
$DIMCEN
 40
0.099
  9
$DIMLFAC
 40
1.0
  9
$DIMBLK
  1
_FILLED
  9
$DIMALT
 70
1
  9
$DIMALTD
 70
2
  9
$DIMALTTD
 70
2
  9
$DIMALTF
 40
25.4
  9
$DIMTXT
 40
0.08
  9
$DIMTOL
 70
1
  9
$DIMLIM
 70
0
  9
$DIMTFAC
 40
1.0
  9
$DIMTP
 40
0.001
  9
$DIMTM
 40
0.001
  9
$DIMGAP
 40
0.09
  9
$DIMDSEP
 70
46
  9
$AUNITS
 70
0
  9
$PDMODE
 70
3
  9
$PDSIZE
 40
0.06
  9
$HANDSEED
  5
2C6
  9
$TILEMODE
 70
1
  9
$MEASUREMENT
 70
0
  9
$INSUNITS
 70
1
  0
ENDSEC
  0
SECTION
  2
CLASSES
  0
CLASS
  1
ACDBDICTIONARYWDFLT
  2
AcDbDictionaryWithDefault
  3
AutoCAD 2000
 90
0
 91
1
280
0
281
0
  0
CLASS
  1
ACDBPLACEHOLDER
  2
AcDbPlaceHolder
  3
AutoCAD 2000
 90
0
 91
1
280
0
281
0
  0
CLASS
  1
LAYOUT
  2
AcDbLayout
  3
AutoCAD 2000
 90
0
 91
0
280
0
281
0
  0
ENDSEC
  0
SECTION
  2
TABLES
  0
TABLE
  2
VPORT
  5
8
100
AcDbSymbolTable
 70
2
  0
VPORT
  5
1F4
100
AcDbSymbolTableRecord
100
AcDbViewportTableRecord
  2
*ACTIVE
 70
0
 10
0.0
 20
0.0
 11
1.0
 21
1.0
 12
5.5
 22
4.25
 13
0.0
 23
0.0
 14
1.0
 24
1.0
 15
0.0
 25
0.0
 16
0.0
 26
0.0
 36
1.0
 17
0.0
 27
0.0
 37
0.0
 40
8.5
 41
1.2941176471
 42
50.0
 43
0.0
 44
0.0
 50
0.0
 51
0.0
 71
0
 72
100
 73
1
 74
1
 75
0
 76
0
 77
0
 78
0
  0
ENDTAB
  0
TABLE
  2
LTYPE
  5
5
100
AcDbSymbolTable
 70
6
  0
LTYPE
  5
14
100
AcDbSymbolTableRecord
100
AcDbLinetypeTableRecord
  2
BYBLOCK
 70
0
  3

 72
65
 73
0
 40
0.0
  0
LTYPE
  5
15
100
AcDbSymbolTableRecord
100
AcDbLinetypeTableRecord
  2
BYLAYER
 70
0
  3

 72
65
 73
0
 40
0.0
  0
LTYPE
  5
16
100
AcDbSymbolTableRecord
100
AcDbLinetypeTableRecord
  2
CONTINUOUS
 70
64
  3
Solid line
 72
65
 73
0
 40
0.0
  0
LTYPE
  5
1F5
100
AcDbSymbolTableRecord
100
AcDbLinetypeTableRecord
  2
CENTER
 70
64
  3
____ _ ____ _ ____ _ ____ _ ____ _ ____ _ ____
 72
65
 73
4
 40
0.6
 49
0.375
 74
0
 49
-0.075
 74
0
 49
0.075
 74
0
 49
-0.075
 74
0
  0
LTYPE
  5
1F6
100
AcDbSymbolTableRecord
100
AcDbLinetypeTableRecord
  2
HIDDEN
 70
64
  3
- - - - - - - - - - - - - - - - - - - -
 72
65
 73
2
 40
0.2
 49
0.1
 74
0
 49
-0.1
 74
0
  0
LTYPE
  5
1F7
100
AcDbSymbolTableRecord
100
AcDbLinetypeTableRecord
  2
PHANTOM
 70
64
  3
_____ _ _ _____ _ _ _____ _ _ _____
 72
65
 73
6
 40
0.8
 49
0.45
 74
0
 49
-0.05
 74
0
 49
0.1
 74
0
 49
-0.05
 74
0
 49
0.1
 74
0
 49
-0.05
 74
0
  0
LTYPE
  5
1F8
100
AcDbSymbolTableRecord
100
AcDbLinetypeTableRecord
  2
DOT
 70
64
  3
. . . . . . . . . . . . . . . . . . . .
 72
65
 73
2
 40
0.2
 49
0.1
 74
0
 49
-0.1
 74
0
  0
LTYPE
  5
1F9
100
AcDbSymbolTableRecord
100
AcDbLinetypeTableRecord
  2
DASHED
 70
64
  3
- - - - - - - - - - - - - - - - - - - -
 72
65
 73
2
 40
0.2
 49
0.1
 74
0
 49
-0.1
 74
0
  0
ENDTAB
  0
TABLE
  2
LAYER
  5
2
100
AcDbSymbolTable
 70
36
  0
LAYER
  5
10
100
AcDbSymbolTableRecord
100
AcDbLayerTableRecord
  2
0
 70
0
 62
7
  6
CONTINUOUS
370
-3
390
F
  0
LAYER
  5
1FA
100
AcDbSymbolTableRecord
100
AcDbLayerTableRecord
  2
DEFAULT_1
 70
0
 62
7
  6
CENTER
370
-3
390
F
  0
LAYER
  5
1FB
100
AcDbSymbolTableRecord
100
AcDbLayerTableRecord
  2
DEFAULT_2
 70
0
 62
8
  6
HIDDEN
370
-3
390
F
  0
LAYER
  5
1FC
100
AcDbSymbolTableRecord
100
AcDbLayerTableRecord
  2
DEFAULT_3
 70
0
 62
7
  6
PHANTOM
370
-3
390
F
  0
LAYER
  5
1FD
100
AcDbSymbolTableRecord
100
AcDbLayerTableRecord
  2
1-134
 70
0
 62
7
  6
CONTINUOUS
370
-3
390
F
  0
LAYER
  5
1FE
100
AcDbSymbolTableRecord
100
AcDbLayerTableRecord
  2
10851
 70
0
 62
7
  6
CONTINUOUS
370
-3
390
F
  0
LAYER
  5
1FF
100
AcDbSymbolTableRecord
100
AcDbLayerTableRecord
  2
10851_1
 70
0
 62
7
  6
CONTINUOUS
370
-3
390
F
  0
LAYER
  5
200
100
AcDbSymbolTableRecord
100
AcDbLayerTableRecord
  2
10851_2
 70
0
 62
7
  6
CONTINUOUS
370
-3
390
F
  0
LAYER
  5
201
100
AcDbSymbolTableRecord
100
AcDbLayerTableRecord
  2
10851_3
 70
0
 62
7
  6
CONTINUOUS
370
-3
390
F
  0
LAYER
  5
202
100
AcDbSymbolTableRecord
100
AcDbLayerTableRecord
  2
50359
 70
0
 62
7
  6
CONTINUOUS
370
-3
390
F
  0
LAYER
  5
203
100
AcDbSymbolTableRecord
100
AcDbLayerTableRecord
  2
50362
 70
0
 62
7
  6
CONTINUOUS
370
-3
390
F
  0
LAYER
  5
204
100
AcDbSymbolTableRecord
100
AcDbLayerTableRecord
  2
50677
 70
0
 62
7
  6
CONTINUOUS
370
-3
390
F
  0
LAYER
  5
205
100
AcDbSymbolTableRecord
100
AcDbLayerTableRecord
  2
50678
 70
0
 62
7
  6
CONTINUOUS
370
-3
390
F
  0
LAYER
  5
206
100
AcDbSymbolTableRecord
100
AcDbLayerTableRecord
  2
50728
 70
0
 62
7
  6
CONTINUOUS
370
-3
390
F
  0
LAYER
  5
207
100
AcDbSymbolTableRecord
100
AcDbLayerTableRecord
  2
50736
 70
0
 62
7
  6
CONTINUOUS
370
-3
390
F
  0
LAYER
  5
208
100
AcDbSymbolTableRecord
100
AcDbLayerTableRecord
  2
50743
 70
0
 62
7
  6
CONTINUOUS
370
-3
390
F
  0
LAYER
  5
209
100
AcDbSymbolTableRecord
100
AcDbLayerTableRecord
  2
6-030
 70
0
 62
7
  6
CONTINUOUS
370
-3
390
F
  0
LAYER
  5
20A
100
AcDbSymbolTableRecord
100
AcDbLayerTableRecord
  2
91022
 70
0
 62
7
  6
CONTINUOUS
370
-3
390
F
  0
LAYER
  5
20B
100
AcDbSymbolTableRecord
100
AcDbLayerTableRecord
  2
ALL_ASSEMBLY_MEMBERS
 70
0
 62
7
  6
CONTINUOUS
370
-3
390
F
  0
LAYER
  5
20C
100
AcDbSymbolTableRecord
100
AcDbLayerTableRecord
  2
COLOR147
 70
0
 62
7
  6
CONTINUOUS
370
-3
390
F
  0
LAYER
  5
20D
100
AcDbSymbolTableRecord
100
AcDbLayerTableRecord
  2
COLOR32
 70
0
 62
7
  6
CONTINUOUS
370
-3
390
F
  0
LAYER
  5
20E
100
AcDbSymbolTableRecord
100
AcDbLayerTableRecord
  2
COLOR54
 70
0
 62
7
  6
CONTINUOUS
370
-3
390
F
  0
LAYER
  5
20F
100
AcDbSymbolTableRecord
100
AcDbLayerTableRecord
  2
COLOR66
 70
0
 62
7
  6
CONTINUOUS
370
-3
390
F
  0
LAYER
  5
210
100
AcDbSymbolTableRecord
100
AcDbLayerTableRecord
  2
DEFAULT_COORDINATE_SYSTEM
 70
0
 62
7
  6
CONTINUOUS
370
-3
390
F
  0
LAYER
  5
211
100
AcDbSymbolTableRecord
100
AcDbLayerTableRecord
  2
DEFAULT_DATUM_AXES
 70
0
 62
7
  6
CONTINUOUS
370
-3
390
F
  0
LAYER
  5
212
100
AcDbSymbolTableRecord
100
AcDbLayerTableRecord
  2
DEFAULT_DATUM_PLANES
 70
0
 62
7
  6
CONTINUOUS
370
-3
390
F
  0
LAYER
  5
213
100
AcDbSymbolTableRecord
100
AcDbLayerTableRecord
  2
INTF_10851
 70
0
 62
7
  6
CONTINUOUS
370
-3
390
F
  0
LAYER
  5
214
100
AcDbSymbolTableRecord
100
AcDbLayerTableRecord
  2
INTF_50359
 70
0
 62
7
  6
CONTINUOUS
370
-3
390
F
  0
LAYER
  5
215
100
AcDbSymbolTableRecord
100
AcDbLayerTableRecord
  2
INTF_50362
 70
0
 62
7
  6
CONTINUOUS
370
-3
390
F
  0
LAYER
  5
216
100
AcDbSymbolTableRecord
100
AcDbLayerTableRecord
  2
INTF_50677
 70
0
 62
7
  6
CONTINUOUS
370
-3
390
F
  0
LAYER
  5
217
100
AcDbSymbolTableRecord
100
AcDbLayerTableRecord
  2
INTF_50678
 70
0
 62
7
  6
CONTINUOUS
370
-3
390
F
  0
LAYER
  5
218
100
AcDbSymbolTableRecord
100
AcDbLayerTableRecord
  2
INTF_50728
 70
0
 62
7
  6
CONTINUOUS
370
-3
390
F
  0
LAYER
  5
219
100
AcDbSymbolTableRecord
100
AcDbLayerTableRecord
  2
INTF_50736
 70
0
 62
7
  6
CONTINUOUS
370
-3
390
F
  0
LAYER
  5
21A
100
AcDbSymbolTableRecord
100
AcDbLayerTableRecord
  2
INTF_50743
 70
0
 62
7
  6
CONTINUOUS
370
-3
390
F
  0
LAYER
  5
21B
100
AcDbSymbolTableRecord
100
AcDbLayerTableRecord
  2
INTF_91022
 70
0
 62
7
  6
CONTINUOUS
370
-3
390
F
  0
LAYER
  5
21C
100
AcDbSymbolTableRecord
100
AcDbLayerTableRecord
  2
INTF_BLANK
 70
0
 62
7
  6
CONTINUOUS
370
-3
390
F
  0
LAYER
  5
21D
100
AcDbSymbolTableRecord
100
AcDbLayerTableRecord
  2
PLATED_SURFACE
 70
0
 62
7
  6
CONTINUOUS
370
-3
390
F
  0
LAYER
  5
21E
100
AcDbSymbolTableRecord
100
AcDbLayerTableRecord
  2
PLATED_SURFACE_1
 70
0
 62
7
  6
CONTINUOUS
370
-3
390
F
  0
LAYER
  5
21F
100
AcDbSymbolTableRecord
100
AcDbLayerTableRecord
  2
QUILT
 70
0
 62
7
  6
CONTINUOUS
370
-3
390
F
  0
LAYER
  5
220
100
AcDbSymbolTableRecord
100
AcDbLayerTableRecord
  2
WETTED_SURFACES
 70
0
 62
7
  6
CONTINUOUS
370
-3
390
F
  0
LAYER
  5
221
100
AcDbSymbolTableRecord
100
AcDbLayerTableRecord
  2
_BLACK_HOLE
 70
0
 62
7
  6
CONTINUOUS
370
-3
390
F
  0
ENDTAB
  0
TABLE
  2
STYLE
  5
3
100
AcDbSymbolTable
 70
1
  0
STYLE
  5
11
100
AcDbSymbolTableRecord
100
AcDbTextStyleTableRecord
  2
STANDARD
 70
0
 40
0.0
 41
0.8
 50
0.0
 71
0
 42
0.2
  3
txt
  4

  0
STYLE
  5
222
100
AcDbSymbolTableRecord
100
AcDbTextStyleTableRecord
  2
TEXTSTYLE_1
 70
0
 40
0.0
 41
0.8
 50
0.0
 71
0
 42
0.2
  3
gdt
  4

  0
ENDTAB
  0
TABLE
  2
VIEW
  5
6
100
AcDbSymbolTable
 70
0
  0
ENDTAB
  0
TABLE
  2
UCS
  5
7
100
AcDbSymbolTable
 70
0
  0
ENDTAB
  0
TABLE
  2
APPID
  5
9
100
AcDbSymbolTable
 70
1
  0
APPID
  5
223
100
AcDbSymbolTableRecord
100
AcDbRegAppTableRecord
  2
ACAD
 70
0
  0
ENDTAB
  0
TABLE
  2
BLOCK_RECORD
  5
1
100
AcDbSymbolTable
 70
0
  0
BLOCK_RECORD
  5
224
100
AcDbSymbolTableRecord
100
AcDbBlockTableRecord
  2
*Model_Space
  0
BLOCK_RECORD
  5
225
100
AcDbSymbolTableRecord
100
AcDbBlockTableRecord
  2
*Paper_Space
  0
BLOCK_RECORD
  5
226
100
AcDbSymbolTableRecord
100
AcDbBlockTableRecord
  2
_FILLED
  0
ENDTAB
  0
TABLE
  2
DIMSTYLE
  5
A
100
AcDbSymbolTable
 70
1
100
AcDbDimStyleTable
 71
0
  0
DIMSTYLE
105
227
100
AcDbSymbolTableRecord
100
AcDbDimStyleTableRecord
  2
STANDARD
 70
0
  3

  4

 40
1.0
 41
0.1
 42
0.0625
 43
0.38
 44
0.125
 45
0.0
 46
0.0
 47
0.001
 48
0.001
140
0.08
141
0.09
142
0.0
143
25.4
144
1.0
145
0.0
146
1.0
147
0.09
 71
1.0
 72
0.0
 73
1
 74
1
 75
0
 76
0
 77
0
 78
4
 79
1
170
1
171
2
172
0
173
0
174
0
175
0
176
0
177
0
178
0
270
2
179
3
271
3
272
3
273
2
274
2
275
0
280
0
281
0
282
0
283
1
284
4
285
0
286
0
287
3
288
0
340
11
278
46
341
226
342
226
343
226
344
226
  0
ENDTAB
  0
ENDSEC
  0
SECTION
  2
BLOCKS
  0
BLOCK
  5
20
100
AcDbEntity
  8
0
100
AcDbBlockBegin
  2
*Model_Space
 70
0
 10
0.0
 20
0.0
 30
0.0
  3
*Model_Space
  1

  0
ENDBLK
  5
21
100
AcDbEntity
  8
0
100
AcDbBlockEnd
  0
BLOCK
  5
1C
100
AcDbEntity
  8
0
100
AcDbBlockBegin
  2
*Paper_Space
 70
0
 10
0.0
 20
0.0
 30
0.0
  3
*Paper_Space
  1

  0
ENDBLK
  5
1D
100
AcDbEntity
  8
0
100
AcDbBlockEnd
  0
BLOCK
  5
228
100
AcDbEntity
  8
0
100
AcDbBlockBegin
  2
_FILLED
 70
64
 10
0.0
 20
0.0
  3
_FILLED
  1

  0
SOLID
  5
229
100
AcDbEntity
  8
0
  6
BYBLOCK
 62
0
100
AcDbTrace
 10
0.0
 20
0.0
 11
-1.0
 21
0.2
 12
-1.0
 22
-0.2
 13
-1.0
 23
-0.2
  0
ENDBLK
  5
22A
100
AcDbEntity
  8
0
  6
BYBLOCK
 62
0
100
AcDbBlockEnd
  0
ENDSEC
  0
SECTION
  2
ENTITIES
  0
MTEXT
  5
22B
100
AcDbEntity
  8
0
100
AcDbMText
 62
7
  6
CONTINUOUS
  7
STANDARD
 71
1
 72
1
 10
9.5756793478
 20
0.3296156832
 30
0.0
 11
1.0
 21
0.0
 31
0.0
 73
2
 44
0.9
  1
SCALE: 1.875
 40
0.08
 41
0.768
  0
LINE
  5
22C
100
AcDbEntity
  8
0
100
AcDbLine
 62
7
  6
CONTINUOUS
 10
0.0
 20
0.0
 11
0.0
 21
8.5
  0
LINE
  5
22D
100
AcDbEntity
  8
0
100
AcDbLine
 62
7
  6
CONTINUOUS
 10
0.0
 20
0.0
 11
11.0
 21
0.0
  0
LINE
  5
22E
100
AcDbEntity
  8
0
100
AcDbLine
 62
7
  6
CONTINUOUS
 10
0.0
 20
8.5
 11
11.0
 21
8.5
  0
LINE
  5
22F
100
AcDbEntity
  8
0
100
AcDbLine
 62
7
  6
CONTINUOUS
 10
11.0
 20
0.0
 11
11.0
 21
8.5
  0
LINE
  5
230
100
AcDbEntity
  8
0
100
AcDbLine
 62
7
  6
CONTINUOUS
 10
4.8737092391
 20
6.2876202453
 11
4.7830643924
 21
6.1969753986
  0
LINE
  5
231
100
AcDbEntity
  8
0
100
AcDbLine
 62
9
  6
CONTINUOUS
 10
4.2120472498
 20
3.1293314645
 11
4.7557329583
 21
2.5856457559
  0
LINE
  5
232
100
AcDbEntity
  8
0
100
AcDbLine
 62
9
  6
CONTINUOUS
 10
4.3227078259
 20
3.149042119
 11
4.7754436129
 21
2.696306332
  0
LINE
  5
233
100
AcDbEntity
  8
0
100
AcDbLine
 62
7
  6
CONTINUOUS
 10
4.8204481821
 20
2.716749611
 11
4.3431511048
 21
3.1940466883
  0
LINE
  5
234
100
AcDbEntity
  8
0
100
AcDbLine
 62
9
  6
CONTINUOUS
 10
4.3634765064
 20
3.2452467523
 11
4.8716482461
 21
2.7370750126
  0
LINE
  5
235
100
AcDbEntity
  8
0
100
AcDbLine
 62
7
  6
CONTINUOUS
 10
4.9807422286
 20
5.4930041912
 11
4.9405941606
 21
5.4697871238
  0
LINE
  5
236
100
AcDbEntity
  8
0
100
AcDbLine
 62
7
  6
CONTINUOUS
 10
4.9807583638
 20
5.4149255839
 11
4.9406807987
 21
5.3917484924
  0
LINE
  5
237
100
AcDbEntity
  8
0
100
AcDbLine
 62
7
  6
CONTINUOUS
 10
4.9401779892
 20
5.469511831
 11
4.9405939475
 21
5.4700095678
  0
LINE
  5
238
100
AcDbEntity
  8
0
100
AcDbLine
 62
7
  6
CONTINUOUS
 10
4.9401779892
 20
5.3913868231
 11
4.9406806035
 21
5.3919339593
  0
LINE
  5
239
100
AcDbEntity
  8
0
100
AcDbLine
 62
9
  6
CONTINUOUS
 10
4.7557329583
 20
5.0808447347
 11
4.2120472498
 21
4.5371590261
  0
LINE
  5
23A
100
AcDbEntity
  8
0
100
AcDbLine
 62
9
  6
CONTINUOUS
 10
4.7754436129
 20
4.9701841586
 11
4.3227078259
 21
4.5174483716
  0
LINE
  5
23B
100
AcDbEntity
  8
0
100
AcDbLine
 62
7
  6
CONTINUOUS
 10
4.3431511048
 20
4.4724438023
 11
4.8204481821
 21
4.9497408796
  0
LINE
  5
23C
100
AcDbEntity
  8
0
100
AcDbLine
 62
9
  6
CONTINUOUS
 10
4.8716482461
 20
4.929415478
 11
4.3634765064
 21
4.4212437383
  0
LINE
  5
23D
100
AcDbEntity
  8
0
100
AcDbLine
 62
7
  6
CONTINUOUS
 10
4.3227078259
 20
3.149042119
 11
4.2120472498
 21
3.1293314645
  0
LINE
  5
23E
100
AcDbEntity
  8
0
100
AcDbLine
 62
7
  6
CONTINUOUS
 10
6.7072462285
 20
3.1293314645
 11
6.5965856524
 21
3.149042119
  0
LINE
  5
23F
100
AcDbEntity
  8
0
100
AcDbLine
 62
7
  6
CONTINUOUS
 10
4.7830643924
 20
5.592640092
 11
4.7830643924
 21
6.1969753986
  0
LINE
  5
240
100
AcDbEntity
  8
0
100
AcDbLine
 62
7
  6
CONTINUOUS
 10
5.9387054551
 20
5.3746783489
 11
5.9785978144
 21
5.3977401804
  0
LINE
  5
241
100
AcDbEntity
  8
0
100
AcDbLine
 62
7
  6
CONTINUOUS
 10
5.9388963133
 20
5.4528639763
 11
5.9787077478
 21
5.4758698949
  0
LINE
  5
242
100
AcDbEntity
  8
0
100
AcDbLine
 62
7
  6
CONTINUOUS
 10
4.9401779891
 20
5.4693110921
 11
4.9401779891
 21
5.4374984028
  0
LINE
  5
243
100
AcDbEntity
  8
0
100
AcDbLine
 62
7
  6
CONTINUOUS
 10
4.9401779891
 20
5.3911723909
 11
4.9401779891
 21
5.3144952453
  0
LINE
  5
244
100
AcDbEntity
  8
0
100
AcDbLine
 62
7
  6
CONTINUOUS
 10
5.3172378613
 20
5.3519952453
 11
5.3054377119
 21
5.3290455721
  0
LINE
  5
245
100
AcDbEntity
  8
0
100
AcDbLine
 62
7
  6
CONTINUOUS
 10
4.7754436129
 20
4.9701841586
 11
4.7557329583
 21
5.0808447347
  0
LINE
  5
246
100
AcDbEntity
  8
0
100
AcDbLine
 62
7
  6
CONTINUOUS
 10
5.1213555658
 20
5.592640092
 11
5.1213555658
 21
6.1969753986
  0
LINE
  5
247
100
AcDbEntity
  8
0
100
AcDbLine
 62
7
  6
CONTINUOUS
 10
4.7557329583
 20
2.5856457559
 11
4.7754436129
 21
2.696306332
  0
LINE
  5
248
100
AcDbEntity
  8
0
100
AcDbLine
 62
7
  6
CONTINUOUS
 10
5.9791154891
 20
5.4763487926
 11
5.9787077608
 21
5.4758561188
  0
LINE
  5
249
100
AcDbEntity
  8
0
100
AcDbLine
 62
7
  6
CONTINUOUS
 10
5.9791154891
 20
5.3982238589
 11
5.9785978907
 21
5.3976686838
  0
LINE
  5
24A
100
AcDbEntity
  8
0
100
AcDbLine
 62
7
  6
CONTINUOUS
 10
6.1362290858
 20
5.592640092
 11
6.0455842391
 21
5.5019952453
  0
LINE
  5
24B
100
AcDbEntity
  8
0
100
AcDbLine
 62
7
  6
CONTINUOUS
 10
5.3054377119
 20
5.3749449185
 11
5.3054377119
 21
5.3290455721
  0
LINE
  5
24C
100
AcDbEntity
  8
0
100
AcDbLine
 62
7
  6
CONTINUOUS
 10
6.5965856524
 20
4.5174483716
 11
6.7072462285
 21
4.5371590261
  0
LINE
  5
24D
100
AcDbEntity
  8
0
100
AcDbLine
 62
7
  6
CONTINUOUS
 10
4.2120472498
 20
4.5371590261
 11
4.3227078259
 21
4.5174483716
  0
LINE
  5
24E
100
AcDbEntity
  8
0
100
AcDbLine
 62
7
  6
CONTINUOUS
 10
5.7979379125
 20
6.1969753986
 11
5.7979379125
 21
5.592640092
  0
LINE
  5
24F
100
AcDbEntity
  8
0
100
AcDbLine
 62
7
  6
CONTINUOUS
 10
5.9791154891
 20
5.5019952453
 11
5.9791154891
 21
5.4763491962
  0
LINE
  5
250
100
AcDbEntity
  8
0
100
AcDbLine
 62
7
  6
CONTINUOUS
 10
5.9791154891
 20
5.4304486839
 11
5.9791154891
 21
5.3983400131
  0
LINE
  5
251
100
AcDbEntity
  8
0
100
AcDbLine
 62
7
  6
CONTINUOUS
 10
5.9791154891
 20
5.3522122614
 11
5.9791154891
 21
5.3144952453
  0
LINE
  5
252
100
AcDbEntity
  8
0
100
AcDbLine
 62
7
  6
CONTINUOUS
 10
6.1635605199
 20
5.0808447347
 11
6.1438498654
 21
4.9701841586
  0
LINE
  5
253
100
AcDbEntity
  8
0
100
AcDbLine
 62
7
  6
CONTINUOUS
 10
4.7830643924
 20
5.592640092
 11
4.8737092391
 21
5.5019952453
  0
LINE
  5
254
100
AcDbEntity
  8
0
100
AcDbLine
 62
7
  6
CONTINUOUS
 10
4.9401779892
 20
5.4372864139
 11
4.9406031065
 21
5.4367832211
  0
LINE
  5
255
100
AcDbEntity
  8
0
100
AcDbLine
 62
7
  6
CONTINUOUS
 10
5.3054377119
 20
5.3749449185
 11
5.3172378613
 21
5.3519952453
  0
LINE
  5
256
100
AcDbEntity
  8
0
100
AcDbLine
 62
7
  6
CONTINUOUS
 10
6.1438498654
 20
2.696306332
 11
6.1635605199
 21
2.5856457559
  0
LINE
  5
257
100
AcDbEntity
  8
0
100
AcDbLine
 62
7
  6
CONTINUOUS
 10
6.1362290858
 20
5.592640092
 11
6.1362290858
 21
6.1969753986
  0
LINE
  5
258
100
AcDbEntity
  8
0
100
AcDbLine
 62
7
  6
CONTINUOUS
 10
4.9406033283
 20
5.4370122104
 11
4.9797768037
 21
5.4143579061
  0
LINE
  5
259
100
AcDbEntity
  8
0
100
AcDbLine
 62
7
  6
CONTINUOUS
 10
4.9632298684
 20
5.5019952453
 11
4.9797596779
 21
5.4924359597
  0
LINE
  5
25A
100
AcDbEntity
  8
0
100
AcDbLine
 62
9
  6
CONTINUOUS
 10
6.2385775695
 20
5.2635378267
 11
4.6807752719
 21
5.2635378267
  0
LINE
  5
25B
100
AcDbEntity
  8
0
100
AcDbLine
 62
9
  6
CONTINUOUS
 10
6.5558169718
 20
4.4212437383
 11
6.0476452321
 21
4.929415478
  0
LINE
  5
25C
100
AcDbEntity
  8
0
100
AcDbLine
 62
7
  6
CONTINUOUS
 10
6.0988452961
 20
4.9497408796
 11
6.5761423734
 21
4.4724438023
  0
LINE
  5
25D
100
AcDbEntity
  8
0
100
AcDbLine
 62
9
  6
CONTINUOUS
 10
6.5965856524
 20
4.5174483716
 11
6.1438498654
 21
4.9701841586
  0
LINE
  5
25E
100
AcDbEntity
  8
0
100
AcDbLine
 62
7
  6
CONTINUOUS
 10
4.6402973175
 20
5.3144952453
 11
6.2790062086
 21
5.3144952453
  0
LINE
  5
25F
100
AcDbEntity
  8
0
100
AcDbLine
 62
7
  6
CONTINUOUS
 10
5.9787349204
 20
5.3526506909
 11
5.938699692
 21
5.3757953566
  0
LINE
  5
260
100
AcDbEntity
  8
0
100
AcDbLine
 62
9
  6
CONTINUOUS
 10
6.7072462285
 20
4.5371590261
 11
6.1635605199
 21
5.0808447347
  0
LINE
  5
261
100
AcDbEntity
  8
0
100
AcDbLine
 62
7
  6
CONTINUOUS
 10
5.9791154891
 20
5.4304494456
 11
5.9786954712
 21
5.4309494905
  0
LINE
  5
262
100
AcDbEntity
  8
0
100
AcDbLine
 62
7
  6
CONTINUOUS
 10
5.9791154891
 20
5.3523243818
 11
5.9787350575
 21
5.3528003401
  0
LINE
  5
263
100
AcDbEntity
  8
0
100
AcDbLine
 62
7
  6
CONTINUOUS
 10
6.0455583446
 20
5.5019952453
 11
4.8737351336
 21
5.5019952453
  0
LINE
  5
264
100
AcDbEntity
  8
0
100
AcDbLine
 62
7
  6
CONTINUOUS
 10
5.9786954658
 20
5.4309438706
 11
5.938898924
 21
5.4539410679
  0
LINE
  5
265
100
AcDbEntity
  8
0
100
AcDbLine
 62
9
  6
CONTINUOUS
 10
6.0476452321
 20
2.7370750126
 11
6.5558169718
 21
3.2452467523
  0
LINE
  5
266
100
AcDbEntity
  8
0
100
AcDbLine
 62
7
  6
CONTINUOUS
 10
6.5761423734
 20
3.1940466883
 11
6.0988452961
 21
2.716749611
  0
LINE
  5
267
100
AcDbEntity
  8
0
100
AcDbLine
 62
9
  6
CONTINUOUS
 10
6.1438498654
 20
2.696306332
 11
6.5965856524
 21
3.149042119
  0
LINE
  5
268
100
AcDbEntity
  8
0
100
AcDbLine
 62
9
  6
CONTINUOUS
 10
6.1635605199
 20
2.5856457559
 11
6.7072462285
 21
3.1293314645
  0
LINE
  5
269
100
AcDbEntity
  8
0
100
AcDbLine
 62
7
  6
CONTINUOUS
 10
6.0455842391
 20
6.2876202453
 11
6.1362290858
 21
6.1969753986
  0
LINE
  5
26A
100
AcDbEntity
  8
0
100
AcDbLine
 62
7
  6
CONTINUOUS
 10
6.0455583446
 20
6.2876202453
 11
4.8737351336
 21
6.2876202453
  0
ARC
  5
26B
100
AcDbEntity
  8
0
100
AcDbCircle
 62
9
  6
CONTINUOUS
 10
5.2636954661
 20
2.4241622338
 40
2.2851027716
100
AcDbArc
 50
74.8882919524
 51
76.3887996797
  0
ARC
  5
26C
100
AcDbEntity
  8
0
100
AcDbCircle
 62
7
  6
CONTINUOUS
 10
4.2942463754
 20
2.6678448816
 40
0.46875
100
AcDbArc
 50
100.0995
 51
349.9005
  0
ARC
  5
26D
100
AcDbEntity
  8
0
100
AcDbCircle
 62
7
  6
CONTINUOUS
 10
5.2202455005
 20
2.7267543162
 40
0.34875
100
AcDbArc
 50
98.4301943847
 51
178.3041758004
  0
ARC
  5
26E
100
AcDbEntity
  8
0
100
AcDbCircle
 62
7
  6
CONTINUOUS
 10
4.35315581
 20
3.5938440067
 40
0.34875
100
AcDbArc
 50
271.6958241996
 51
351.5698056153
  0
ARC
  5
26F
100
AcDbEntity
  8
0
100
AcDbCircle
 62
7
  6
CONTINUOUS
 10
4.8416613856
 20
2.7379628144
 40
0.03
100
AcDbArc
 50
225.0
 51
358.3041758004
  0
ARC
  5
270
100
AcDbEntity
  8
0
100
AcDbCircle
 62
7
  6
CONTINUOUS
 10
4.3643643083
 20
3.2152598917
 40
0.03
100
AcDbArc
 50
91.6958241996
 51
225.0
  0
ARC
  5
271
100
AcDbEntity
  8
0
100
AcDbCircle
 62
7
  6
CONTINUOUS
 10
4.8049787542
 20
2.691045588
 40
0.03
100
AcDbArc
 50
58.9592487754
 51
169.9005
  0
ARC
  5
272
100
AcDbEntity
  8
0
100
AcDbCircle
 62
7
  6
CONTINUOUS
 10
4.3174470818
 20
3.1785772603
 40
0.03
100
AcDbArc
 50
280.0995
 51
31.0407512246
  0
ARC
  5
273
100
AcDbEntity
  8
0
100
AcDbCircle
 62
7
  6
CONTINUOUS
 10
4.35315581
 20
4.072646484
 40
0.34875
100
AcDbArc
 50
8.5764769507
 51
88.3041758004
  0
ARC
  5
274
100
AcDbEntity
  8
0
100
AcDbCircle
 62
7
  6
CONTINUOUS
 10
4.3643643083
 20
4.4512305989
 40
0.03
100
AcDbArc
 50
135.0
 51
268.3041758004
  0
ARC
  5
275
100
AcDbEntity
  8
0
100
AcDbCircle
 62
7
  6
CONTINUOUS
 10
4.3174470818
 20
4.4879132303
 40
0.03
100
AcDbArc
 50
328.9592487754
 51
79.9005
  0
ARC
  5
276
100
AcDbEntity
  8
0
100
AcDbCircle
 62
7
  6
CONTINUOUS
 10
4.2942463754
 20
4.9986456091
 40
0.46875
100
AcDbArc
 50
10.0995
 51
259.9005
  0
ARC
  5
277
100
AcDbEntity
  8
0
100
AcDbCircle
 62
7
  6
CONTINUOUS
 10
5.2202455005
 20
4.9397361744
 40
0.34875
100
AcDbArc
 50
181.6958241996
 51
261.4235230493
  0
ARC
  5
278
100
AcDbEntity
  8
0
100
AcDbCircle
 62
7
  6
CONTINUOUS
 10
4.9523282556
 20
5.6495323312
 40
0.1475371333
100
AcDbArc
 50
263.1609101912
 51
269.9540675203
  0
ARC
  5
279
100
AcDbEntity
  8
0
100
AcDbCircle
 62
7
  6
CONTINUOUS
 10
4.8416613856
 20
4.9285276762
 40
0.03
100
AcDbArc
 50
1.6958241996
 51
135.0
  0
ARC
  5
27A
100
AcDbEntity
  8
0
100
AcDbCircle
 62
7
  6
CONTINUOUS
 10
4.8049787542
 20
4.9754449026
 40
0.03
100
AcDbArc
 50
190.0995
 51
301.0407512246
  0
ARC
  5
27B
100
AcDbEntity
  8
0
100
AcDbCircle
 62
9
  6
CONTINUOUS
 10
5.63855872
 20
2.4907107807
 40
2.2164135208
100
AcDbArc
 50
103.5879223875
 51
105.1349561555
  0
ARC
  5
27C
100
AcDbEntity
  8
0
100
AcDbCircle
 62
7
  6
CONTINUOUS
 10
5.6990479778
 20
2.7267543162
 40
0.34875
100
AcDbArc
 50
1.6958241996
 51
81.4235230493
  0
ARC
  5
27D
100
AcDbEntity
  8
0
100
AcDbCircle
 62
7
  6
CONTINUOUS
 10
5.4596467391
 20
3.8332452453
 40
1.209375
100
AcDbArc
 50
151.0837176106
 51
208.916479765
  0
ARC
  5
27E
100
AcDbEntity
  8
0
100
AcDbCircle
 62
7
  6
CONTINUOUS
 10
5.4596467391
 20
3.8332452453
 40
1.209375
100
AcDbArc
 50
241.091859945
 51
298.908140055
  0
ARC
  5
27F
100
AcDbEntity
  8
0
100
AcDbCircle
 62
7
  6
CONTINUOUS
 10
5.4596467391
 20
3.8332452453
 40
1.209375
100
AcDbArc
 50
331.083520235
 51
28.9162823894
  0
ARC
  5
280
100
AcDbEntity
  8
0
100
AcDbCircle
 62
9
  6
CONTINUOUS
 10
5.4596467391
 20
3.8332452453
 40
0.9741393627
100
AcDbArc
 50
150.7912130693
 51
209.2098976783
  0
ARC
  5
281
100
AcDbEntity
  8
0
100
AcDbCircle
 62
9
  6
CONTINUOUS
 10
5.4596467391
 20
3.8332452453
 40
0.9741393627
100
AcDbArc
 50
240.7883828898
 51
299.2116171102
  0
ARC
  5
282
100
AcDbEntity
  8
0
100
AcDbCircle
 62
9
  6
CONTINUOUS
 10
5.4596467391
 20
3.8332452453
 40
0.9741393627
100
AcDbArc
 50
330.7901023217
 51
29.2087869307
  0
ARC
  5
283
100
AcDbEntity
  8
0
100
AcDbCircle
 62
7
  6
CONTINUOUS
 10
5.4596467391
 20
3.8332452453
 40
0.880712433
100
AcDbArc
 50
243.9190127637
 51
296.0809872364
  0
ARC
  5
284
100
AcDbEntity
  8
0
100
AcDbCircle
 62
7
  6
CONTINUOUS
 10
5.4596467391
 20
3.8332452453
 40
0.880712433
100
AcDbArc
 50
153.9311143152
 51
206.0688856847
  0
ARC
  5
285
100
AcDbEntity
  8
0
100
AcDbCircle
 62
7
  6
CONTINUOUS
 10
5.4596467391
 20
3.8332452453
 40
0.880712433
100
AcDbArc
 50
63.9190127637
 51
116.0809872364
  0
ARC
  5
286
100
AcDbEntity
  8
0
100
AcDbCircle
 62
7
  6
CONTINUOUS
 10
5.4596467391
 20
3.8332452453
 40
0.880712433
100
AcDbArc
 50
333.9311143152
 51
26.0688856847
  0
ARC
  5
287
100
AcDbEntity
  8
0
100
AcDbCircle
 62
9
  6
CONTINUOUS
 10
5.4596467391
 20
3.8332452453
 40
0.8782145456
100
AcDbArc
 50
64.0452292105
 51
115.9547707895
  0
ARC
  5
288
100
AcDbEntity
  8
0
100
AcDbCircle
 62
9
  6
CONTINUOUS
 10
5.4596467391
 20
3.8332452453
 40
0.8782145456
100
AcDbArc
 50
334.0726342657
 51
25.9273657343
  0
ARC
  5
289
100
AcDbEntity
  8
0
100
AcDbCircle
 62
9
  6
CONTINUOUS
 10
5.4596467391
 20
3.8332452453
 40
0.8782145456
100
AcDbArc
 50
244.0452292105
 51
295.9547707895
  0
ARC
  5
28A
100
AcDbEntity
  8
0
100
AcDbCircle
 62
9
  6
CONTINUOUS
 10
5.4596467391
 20
3.8332452453
 40
0.8782145456
100
AcDbArc
 50
154.0726342657
 51
205.9273657343
  0
ARC
  5
28B
100
AcDbEntity
  8
0
100
AcDbCircle
 62
7
  6
CONTINUOUS
 10
5.4596467391
 20
3.8332452453
 40
0.8704748691
100
AcDbArc
 50
64.4665406226
 51
115.5121960353
  0
ARC
  5
28C
100
AcDbEntity
  8
0
100
AcDbCircle
 62
7
  6
CONTINUOUS
 10
5.4596467391
 20
3.8332452453
 40
0.8704748691
100
AcDbArc
 50
334.4878039647
 51
25.5334593774
  0
ARC
  5
28D
100
AcDbEntity
  8
0
100
AcDbCircle
 62
7
  6
CONTINUOUS
 10
5.4596467391
 20
3.8332452453
 40
0.8704748691
100
AcDbArc
 50
244.4665406226
 51
295.5121960353
  0
ARC
  5
28E
100
AcDbEntity
  8
0
100
AcDbCircle
 62
7
  6
CONTINUOUS
 10
5.4596467391
 20
3.8332452453
 40
0.8704748691
100
AcDbArc
 50
154.4878039647
 51
205.5334593774
  0
ARC
  5
28F
100
AcDbEntity
  8
0
100
AcDbCircle
 62
9
  6
CONTINUOUS
 10
5.4596467391
 20
3.8332452453
 40
0.8568138911
100
AcDbArc
 50
65.3728432771
 51
114.6497720985
  0
ARC
  5
290
100
AcDbEntity
  8
0
100
AcDbCircle
 62
9
  6
CONTINUOUS
 10
5.4596467391
 20
3.8332452453
 40
0.8568138911
100
AcDbArc
 50
335.3502279015
 51
24.6271567229
  0
ARC
  5
291
100
AcDbEntity
  8
0
100
AcDbCircle
 62
9
  6
CONTINUOUS
 10
5.4596467391
 20
3.8332452453
 40
0.85681389
100
AcDbArc
 50
155.3501495744
 51
204.6271716245
  0
ARC
  5
292
100
AcDbEntity
  8
0
100
AcDbCircle
 62
9
  6
CONTINUOUS
 10
5.4596467391
 20
3.8332452453
 40
0.85681389
100
AcDbArc
 50
245.3728556671
 51
294.6497203503
  0
CIRCLE
  5
293
100
AcDbEntity
  8
0
100
AcDbCircle
 62
7
  6
CONTINUOUS
 10
5.4596467391
 20
3.8332452453
 40
0.815625
  0
CIRCLE
  5
294
100
AcDbEntity
  8
0
100
AcDbCircle
 62
7
  6
CONTINUOUS
 10
5.4596467391
 20
3.8332452453
 40
0.7807317443
  0
CIRCLE
  5
295
100
AcDbEntity
  8
0
100
AcDbCircle
 62
7
  6
CONTINUOUS
 10
5.4596467391
 20
3.8332452453
 40
0.778125
  0
CIRCLE
  5
296
100
AcDbEntity
  8
0
100
AcDbCircle
 62
9
  6
CONTINUOUS
 10
5.4596467391
 20
3.8332452453
 40
0.6468937454
  0
ARC
  5
297
100
AcDbEntity
  8
0
100
AcDbCircle
 62
7
  6
CONTINUOUS
 10
6.6250471029
 20
2.6678448816
 40
0.46875
100
AcDbArc
 50
190.0995
 51
79.9005
  0
ARC
  5
298
100
AcDbEntity
  8
0
100
AcDbCircle
 62
7
  6
CONTINUOUS
 10
6.0776320927
 20
2.7379628144
 40
0.03
100
AcDbArc
 50
181.6958241996
 51
315.0
  0
ARC
  5
299
100
AcDbEntity
  8
0
100
AcDbCircle
 62
7
  6
CONTINUOUS
 10
6.1143147241
 20
2.691045588
 40
0.03
100
AcDbArc
 50
10.0995
 51
121.0407512246
  0
ARC
  5
29A
100
AcDbEntity
  8
0
100
AcDbCircle
 62
7
  6
CONTINUOUS
 10
6.5661376682
 20
3.5938440067
 40
0.34875
100
AcDbArc
 50
188.5764769507
 51
268.3041758004
  0
ARC
  5
29B
100
AcDbEntity
  8
0
100
AcDbCircle
 62
7
  6
CONTINUOUS
 10
6.55492917
 20
3.2152598917
 40
0.03
100
AcDbArc
 50
315.0
 51
88.3041758004
  0
ARC
  5
29C
100
AcDbEntity
  8
0
100
AcDbCircle
 62
7
  6
CONTINUOUS
 10
6.6018463964
 20
3.1785772603
 40
0.03
100
AcDbArc
 50
148.9592487754
 51
259.9005
  0
ARC
  5
29D
100
AcDbEntity
  8
0
100
AcDbCircle
 62
7
  6
CONTINUOUS
 10
6.6250471029
 20
4.9986456091
 40
0.46875
100
AcDbArc
 50
280.0995
 51
169.9005
  0
ARC
  5
29E
100
AcDbEntity
  8
0
100
AcDbCircle
 62
7
  6
CONTINUOUS
 10
6.5661376682
 20
4.072646484
 40
0.34875
100
AcDbArc
 50
91.6958241996
 51
171.5698056153
  0
ARC
  5
29F
100
AcDbEntity
  8
0
100
AcDbCircle
 62
7
  6
CONTINUOUS
 10
5.6990479778
 20
4.9397361744
 40
0.34875
100
AcDbArc
 50
278.4301943847
 51
358.3041758004
  0
ARC
  5
2A0
100
AcDbEntity
  8
0
100
AcDbCircle
 62
7
  6
CONTINUOUS
 10
5.9670467128
 20
5.648177238
 40
0.1461819973
100
AcDbArc
 50
270.0144183567
 51
276.8727303953
  0
ARC
  5
2A1
100
AcDbEntity
  8
0
100
AcDbCircle
 62
7
  6
CONTINUOUS
 10
6.6018463964
 20
4.4879132303
 40
0.03
100
AcDbArc
 50
100.0995
 51
211.0407512246
  0
ARC
  5
2A2
100
AcDbEntity
  8
0
100
AcDbCircle
 62
7
  6
CONTINUOUS
 10
6.1143147241
 20
4.9754449026
 40
0.03
100
AcDbArc
 50
238.9592487754
 51
349.9005
  0
ARC
  5
2A3
100
AcDbEntity
  8
0
100
AcDbCircle
 62
7
  6
CONTINUOUS
 10
6.55492917
 20
4.4512305989
 40
0.03
100
AcDbArc
 50
271.6958241996
 51
45.0
  0
ARC
  5
2A4
100
AcDbEntity
  8
0
100
AcDbCircle
 62
7
  6
CONTINUOUS
 10
6.0776320927
 20
4.9285276762
 40
0.03
100
AcDbArc
 50
45.0
 51
178.3041758004
  0
SPLINE
  5
2A5
100
AcDbEntity
  8
0
100
AcDbSpline
 62
7
  6
CONTINUOUS
 70
0
 71
3
 72
11
 73
7
 74
0
 42
0.0000001
 43
0.0000001
 44
0.0000000001
 40
0.0
 40
0.0
 40
0.0
 40
0.0
 40
0.2439553025
 40
0.4912828656
 40
0.7430085247
 40
1.0
 40
1.0
 40
1.0
 40
1.0
 10
5.9845394833
 20
5.5030456449
 30
0.0
 10
5.9891010557
 20
5.5035915282
 30
0.0
 10
5.998241791
 20
5.505110555
 30
0.0
 10
6.0118106491
 20
5.50859015
 30
0.0
 10
6.0252807223
 20
5.5132468986
 30
0.0
 10
6.0340800717
 20
5.5170591116
 30
0.0
 10
6.0384539376
 20
5.5191306233
 30
0.0
  0
SPLINE
  5
2A6
100
AcDbEntity
  8
0
100
AcDbSpline
 62
7
  6
CONTINUOUS
 70
0
 71
3
 72
13
 73
9
 74
0
 42
0.0000001
 43
0.0000001
 44
0.0000000001
 40
0.0
 40
0.0
 40
0.0
 40
0.0
 40
0.2344173819
 40
0.3556784564
 40
0.4795806459
 40
0.606080199
 40
0.7350887234
 40
1.0
 40
1.0
 40
1.0
 40
1.0
 10
6.0384539376
 20
5.5191306233
 30
0.0
 10
6.0471322205
 20
5.5232407549
 30
0.0
 10
6.0598956328
 20
5.5303570885
 30
0.0
 10
6.0762671657
 20
5.541220713
 30
0.0
 10
6.0885520745
 20
5.5502229482
 30
0.0
 10
6.1006989002
 20
5.5599243976
 30
0.0
 10
6.1168555134
 20
5.5738373081
 30
0.0
 10
6.1285559179
 20
5.5849669241
 30
0.0
 10
6.1362290858
 20
5.592640092
 30
0.0
  0
SPLINE
  5
2A7
100
AcDbEntity
  8
0
100
AcDbSpline
 62
7
  6
CONTINUOUS
 70
0
 71
3
 72
20
 73
16
 74
0
 42
0.0000001
 43
0.0000001
 44
0.0000000001
 40
0.0
 40
0.0
 40
0.0
 40
0.0
 40
0.0560958892
 40
0.1124709032
 40
0.1693319387
 40
0.2268595059
 40
0.2852080227
 40
0.3445121466
 40
0.4048863558
 40
0.4664063541
 40
0.5291109126
 40
0.5930064772
 40
0.7242858122
 40
0.8600877098
 40
1.0
 40
1.0
 40
1.0
 40
1.0
 10
4.9522099791
 20
5.5019952453
 30
0.0
 10
4.9558915952
 20
5.5019952453
 30
0.0
 10
4.9632760963
 20
5.5022803581
 30
0.0
 10
4.9743273678
 20
5.5035406722
 30
0.0
 10
4.985351063
 20
5.5056134038
 30
0.0
 10
4.9963290811
 20
5.5084776566
 30
0.0
 10
5.0072446978
 20
5.512113683
 30
0.0
 10
5.0180824419
 20
5.516498414
 30
0.0
 10
5.0288369791
 20
5.521588273
 30
0.0
 10
5.0395042569
 20
5.5273427619
 30
0.0
 10
5.0500806748
 20
5.5337210796
 30
0.0
 10
5.0641826574
 20
5.5430876768
 30
0.0
 10
5.0815438039
 20
5.5561785662
 30
0.0
 10
5.1017926774
 20
5.5736204855
 30
0.0
 10
5.114862522
 20
5.5861470483
 30
0.0
 10
5.1213555658
 20
5.592640092
 30
0.0
  0
SPLINE
  5
2A8
100
AcDbEntity
  8
0
100
AcDbSpline
 62
7
  6
CONTINUOUS
 70
0
 71
3
 72
11
 73
7
 74
0
 42
0.0000001
 43
0.0000001
 44
0.0000000001
 40
0.0
 40
0.0
 40
0.0
 40
0.0
 40
0.2436710399
 40
0.4902346062
 40
0.7417904091
 40
1.0
 40
1.0
 40
1.0
 40
1.0
 10
4.9522099791
 20
6.2876202453
 30
0.0
 10
4.9462091794
 20
6.2876202453
 30
0.0
 10
4.9341243006
 20
6.2868582284
 30
0.0
 10
4.9161222379
 20
6.2835327592
 30
0.0
 10
4.8982643115
 20
6.2781155826
 30
0.0
 10
4.8866701954
 20
6.2732427886
 30
0.0
 10
4.8809222021
 20
6.2705233474
 30
0.0
  0
SPLINE
  5
2A9
100
AcDbEntity
  8
0
100
AcDbSpline
 62
7
  6
CONTINUOUS
 70
0
 71
3
 72
13
 73
9
 74
0
 42
0.0000001
 43
0.0000001
 44
0.0000000001
 40
0.0
 40
0.0
 40
0.0
 40
0.0
 40
0.2344113522
 40
0.3556729374
 40
0.4795752343
 40
0.6060736139
 40
0.7350815639
 40
1.0
 40
1.0
 40
1.0
 40
1.0
 10
4.8809222021
 20
6.2705233474
 30
0.0
 10
4.8722360352
 20
6.2664138229
 30
0.0
 10
4.8594608853
 20
6.2592965661
 30
0.0
 10
4.8430748613
 20
6.248428836
 30
0.0
 10
4.8307793663
 20
6.2394219709
 30
0.0
 10
4.8186225166
 20
6.2297147116
 30
0.0
 10
4.8024528627
 20
6.2157923848
 30
0.0
 10
4.7907434521
 20
6.2046544583
 30
0.0
 10
4.7830643924
 20
6.1969753986
 30
0.0
  0
SPLINE
  5
2AA
100
AcDbEntity
  8
0
100
AcDbSpline
 62
7
  6
CONTINUOUS
 70
0
 71
3
 72
20
 73
16
 74
0
 42
0.0000001
 43
0.0000001
 44
0.0000000001
 40
0.0
 40
0.0
 40
0.0
 40
0.0
 40
0.1399098811
 40
0.2757084161
 40
0.40698887
 40
0.4708870855
 40
0.5335944722
 40
0.5951170563
 40
0.6554931017
 40
0.7147977088
 40
0.773145131
 40
0.8306710664
 40
0.8875305528
 40
0.9439045054
 40
1.0
 40
1.0
 40
1.0
 40
1.0
 10
5.1213555658
 20
6.1969753986
 30
0.0
 10
5.1148626328
 20
6.2034683316
 30
0.0
 10
5.1017931468
 20
6.2159947224
 30
0.0
 10
5.0815445797
 20
6.2334365418
 30
0.0
 10
5.0641833134
 20
6.2465273365
 30
0.0
 10
5.050080798
 20
6.2558939218
 30
0.0
 10
5.0395038052
 20
6.2622723137
 30
0.0
 10
5.0288360567
 20
6.2680269318
 30
0.0
 10
5.0180812713
 20
6.2731170118
 30
0.0
 10
5.0072436324
 20
6.2775022004
 30
0.0
 10
4.9963283384
 20
6.2811387577
 30
0.0
 10
4.9853505682
 20
6.2840029045
 30
0.0
 10
4.9743270928
 20
6.2860753204
 30
0.0
 10
4.9632759758
 20
6.2873352647
 30
0.0
 10
4.9558915699
 20
6.2876202453
 30
0.0
 10
4.9522099791
 20
6.2876202453
 30
0.0
  0
SPLINE
  5
2AB
100
AcDbEntity
  8
0
100
AcDbSpline
 62
7
  6
CONTINUOUS
 70
0
 71
3
 72
20
 73
16
 74
0
 42
0.0000001
 43
0.0000001
 44
0.0000000001
 40
0.0
 40
0.0
 40
0.0
 40
0.0
 40
0.0560954972
 40
0.1124694608
 40
0.1693289663
 40
0.2268549252
 40
0.2852023683
 40
0.3445069799
 40
0.4048830161
 40
0.4664055853
 40
0.5291129574
 40
0.5930111639
 40
0.7242916074
 40
0.8600901278
 40
1.0
 40
1.0
 40
1.0
 40
1.0
 10
5.9670834992
 20
6.2876202453
 30
0.0
 10
5.9634019082
 20
6.2876202453
 30
0.0
 10
5.9560175014
 20
6.2873352628
 30
0.0
 10
5.9449663829
 20
6.2860753133
 30
0.0
 10
5.9339429049
 20
6.2840028927
 30
0.0
 10
5.9229651311
 20
6.2811387443
 30
0.0
 10
5.9120498314
 20
6.2775021942
 30
0.0
 10
5.9012121892
 20
6.2731170109
 30
0.0
 10
5.8904574046
 20
6.2680269324
 30
0.0
 10
5.8797896594
 20
6.2622723136
 30
0.0
 10
5.8692126707
 20
6.2558939197
 30
0.0
 10
5.8551101603
 20
6.2465273311
 30
0.0
 10
5.8377488973
 20
6.2334365363
 30
0.0
 10
5.8175003307
 20
6.2159947199
 30
0.0
 10
5.8044308451
 20
6.2034683312
 30
0.0
 10
5.7979379125
 20
6.1969753986
 30
0.0
  0
SPLINE
  5
2AC
100
AcDbEntity
  8
0
100
AcDbSpline
 62
7
  6
CONTINUOUS
 70
0
 71
3
 72
20
 73
16
 74
0
 42
0.0000001
 43
0.0000001
 44
0.0000000001
 40
0.0
 40
0.0
 40
0.0
 40
0.0
 40
0.1399098811
 40
0.2757084161
 40
0.40698887
 40
0.4708870855
 40
0.5335944722
 40
0.5951170563
 40
0.6554931017
 40
0.7147977088
 40
0.773145131
 40
0.8306710664
 40
0.8875305528
 40
0.9439045054
 40
1.0
 40
1.0
 40
1.0
 40
1.0
 10
6.1362290858
 20
6.1969753986
 30
0.0
 10
6.1297361528
 20
6.2034683316
 30
0.0
 10
6.1166666668
 20
6.2159947224
 30
0.0
 10
6.0964180998
 20
6.2334365418
 30
0.0
 10
6.0790568335
 20
6.2465273365
 30
0.0
 10
6.0649543181
 20
6.2558939218
 30
0.0
 10
6.0543773252
 20
6.2622723137
 30
0.0
 10
6.0437095768
 20
6.2680269318
 30
0.0
 10
6.0329547914
 20
6.2731170118
 30
0.0
 10
6.0221171525
 20
6.2775022004
 30
0.0
 10
6.0112018585
 20
6.2811387577
 30
0.0
 10
6.0002240883
 20
6.2840029045
 30
0.0
 10
5.9892006129
 20
6.2860753204
 30
0.0
 10
5.9781494959
 20
6.2873352647
 30
0.0
 10
5.9707650899
 20
6.2876202453
 30
0.0
 10
5.9670834992
 20
6.2876202453
 30
0.0
  0
SPLINE
  5
2AD
100
AcDbEntity
  8
0
100
AcDbSpline
 62
7
  6
CONTINUOUS
 70
0
 71
3
 72
17
 73
13
 74
0
 42
0.0000001
 43
0.0000001
 44
0.0000000001
 40
0.0
 40
0.0
 40
0.0
 40
0.0
 40
0.2498678705
 40
0.3748567571
 40
0.4998748361
 40
0.5623843077
 40
0.6248901336
 40
0.6874043981
 40
0.7499443901
 40
0.812497973
 40
0.8750408682
 40
1.0
 40
1.0
 40
1.0
 40
1.0
 10
5.1213555658
 20
5.592640092
 30
0.0
 10
5.1476838463
 20
5.5794759517
 30
0.0
 10
5.1878996624
 20
5.5610754976
 30
0.0
 10
5.2430381624
 20
5.5403434912
 30
0.0
 10
5.2781506974
 20
5.5292011371
 30
0.0
 10
5.3065957185
 20
5.5215377543
 30
0.0
 10
5.3280993216
 20
5.5164557893
 30
0.0
 10
5.3497616447
 20
5.5120799234
 30
0.0
 10
5.3715678898
 20
5.5084535826
 30
0.0
 10
5.3934926369
 20
5.505598682
 30
0.0
 10
5.4228258796
 20
5.5028464947
 30
0.0
 10
5.4449258146
 20
5.5019952453
 30
0.0
 10
5.4596467391
 20
5.5019952453
 30
0.0
  0
SPLINE
  5
2AE
100
AcDbEntity
  8
0
100
AcDbSpline
 62
7
  6
CONTINUOUS
 70
0
 71
3
 72
17
 73
13
 74
0
 42
0.0000001
 43
0.0000001
 44
0.0000000001
 40
0.0
 40
0.0
 40
0.0
 40
0.0
 40
0.1249591446
 40
0.1875020586
 40
0.2500556682
 40
0.3125956926
 40
0.3751099711
 40
0.4376157892
 40
0.5001252407
 40
0.6251432782
 40
0.7501321464
 40
1.0
 40
1.0
 40
1.0
 40
1.0
 10
5.4596467391
 20
6.2876202453
 30
0.0
 10
5.4449258131
 20
6.2876202453
 30
0.0
 10
5.4228258745
 20
6.2867689903
 30
0.0
 10
5.3934926255
 20
6.2840167973
 30
0.0
 10
5.3715678695
 20
6.2811618949
 30
0.0
 10
5.3497616144
 20
6.2775355621
 30
0.0
 10
5.3280992855
 20
6.273159702
 30
0.0
 10
5.3065956837
 20
6.2680777382
 30
0.0
 10
5.2781506715
 20
6.2604143538
 30
0.0
 10
5.2430381487
 20
6.2492719925
 30
0.0
 10
5.1878996592
 20
6.2285399851
 30
0.0
 10
5.1476838445
 20
6.210139538
 30
0.0
 10
5.1213555658
 20
6.1969753986
 30
0.0
  0
SPLINE
  5
2AF
100
AcDbEntity
  8
0
100
AcDbSpline
 62
7
  6
CONTINUOUS
 70
0
 71
3
 72
17
 73
13
 74
0
 42
0.0000001
 43
0.0000001
 44
0.0000000001
 40
0.0
 40
0.0
 40
0.0
 40
0.0
 40
0.2498678694
 40
0.3748567555
 40
0.4998748334
 40
0.5623843044
 40
0.6248901301
 40
0.687404395
 40
0.749944388
 40
0.8124979717
 40
0.8750408675
 40
1.0
 40
1.0
 40
1.0
 40
1.0
 10
5.7979379125
 20
6.1969753986
 30
0.0
 10
5.771609632
 20
6.2101395389
 30
0.0
 10
5.731393816
 20
6.228539993
 30
0.0
 10
5.6762553168
 20
6.2492720007
 30
0.0
 10
5.6411427824
 20
6.2604143564
 30
0.0
 10
5.6126977617
 20
6.2680777401
 30
0.0
 10
5.5911941586
 20
6.2731597054
 30
0.0
 10
5.5695318353
 20
6.277535571
 30
0.0
 10
5.5477255897
 20
6.2811619108
 30
0.0
 10
5.5258008421
 20
6.2840168105
 30
0.0
 10
5.4964675989
 20
6.2867689966
 30
0.0
 10
5.4743676638
 20
6.2876202453
 30
0.0
 10
5.4596467391
 20
6.2876202453
 30
0.0
  0
SPLINE
  5
2B0
100
AcDbEntity
  8
0
100
AcDbSpline
 62
7
  6
CONTINUOUS
 70
0
 71
3
 72
18
 73
14
 74
0
 42
0.0000001
 43
0.0000001
 44
0.0000000001
 40
0.0
 40
0.0
 40
0.0
 40
0.0
 40
0.1249541815
 40
0.1874953958
 40
0.2500475863
 40
0.3125861787
 40
0.3750973994
 40
0.4375983419
 40
0.5001018007
 40
0.6251071547
 40
0.7500881455
 40
0.8750639285
 40
1.0
 40
1.0
 40
1.0
 40
1.0
 10
5.4596467391
 20
5.5019952453
 30
0.0
 10
5.4743678308
 20
5.5019952453
 30
0.0
 10
5.4964681046
 20
5.5028468994
 30
0.0
 10
5.5258018634
 20
5.5055994996
 30
0.0
 10
5.5477271936
 20
5.5084545224
 30
0.0
 10
5.5695339692
 20
5.512080315
 30
0.0
 10
5.5911964273
 20
5.5164556987
 30
0.0
 10
5.6126995393
 20
5.5215374304
 30
0.0
 10
5.6411433718
 20
5.5292006655
 30
0.0
 10
5.6762538862
 20
5.5403428704
 30
0.0
 10
5.7176186715
 20
5.5558963568
 30
0.0
 10
5.7582077967
 20
5.5733442795
 30
0.0
 10
5.7847728761
 20
5.5860575738
 30
0.0
 10
5.7979379125
 20
5.592640092
 30
0.0
  0
SPLINE
  5
2B1
100
AcDbEntity
  8
0
100
AcDbSpline
 62
7
  6
CONTINUOUS
 70
0
 71
3
 72
20
 73
16
 74
0
 42
0.0000001
 43
0.0000001
 44
0.0000000001
 40
0.0
 40
0.0
 40
0.0
 40
0.0
 40
0.1399123463
 40
0.275714328
 40
0.4069936812
 40
0.4708892365
 40
0.5335937975
 40
0.5951138022
 40
0.655488011
 40
0.7147921144
 40
0.7731405872
 40
0.8306681115
 40
0.8875291151
 40
0.9439041127
 40
1.0
 40
1.0
 40
1.0
 40
1.0
 10
5.7979379125
 20
5.592640092
 30
0.0
 10
5.8044309589
 20
5.5861470456
 30
0.0
 10
5.8175008087
 20
5.5736204748
 30
0.0
 10
5.8377496871
 20
5.5561785447
 30
0.0
 10
5.855110841
 20
5.5430876542
 30
0.0
 10
5.8692128313
 20
5.5337210669
 30
0.0
 10
5.8797892539
 20
5.5273427569
 30
0.0
 10
5.8904565349
 20
5.5215882725
 30
0.0
 10
5.9012110711
 20
5.5164984137
 30
0.0
 10
5.9120488068
 20
5.5121136738
 30
0.0
 10
5.922964412
 20
5.5084776346
 30
0.0
 10
5.9339424233
 20
5.5056133846
 30
0.0
 10
5.9449661139
 20
5.5035406605
 30
0.0
 10
5.9560173832
 20
5.5022803551
 30
0.0
 10
5.9634018832
 20
5.5019952453
 30
0.0
 10
5.9670834992
 20
5.5019952453
 30
0.0
  0
SPLINE
  5
2B2
100
AcDbEntity
  8
0
100
AcDbSpline
 62
7
  6
CONTINUOUS
 70
0
 71
3
 72
16
 73
12
 74
0
 42
0.0000001
 43
0.0000001
 44
0.0000000001
 40
0.0
 40
0.0
 40
0.0
 40
0.0
 40
0.1385844045
 40
0.273550575
 40
0.4045380641
 40
0.5313642023
 40
0.6539509935
 40
0.7724702624
 40
0.830395865
 40
0.8875542576
 40
1.0
 40
1.0
 40
1.0
 40
1.0
 10
4.7830643924
 20
5.592640092
 30
0.0
 10
4.7889238926
 20
5.5867805919
 30
0.0
 10
4.8007136066
 20
5.5754344394
 30
0.0
 10
4.8189183124
 20
5.5594906577
 30
0.0
 10
4.8374418021
 20
5.5450280192
 30
0.0
 10
4.856286892
 20
5.5322541055
 30
0.0
 10
4.8754484959
 20
5.52139087
 30
0.0
 10
4.8918004233
 20
5.5140706605
 30
0.0
 10
4.9049920932
 20
5.5094546363
 30
0.0
 10
4.9180810009
 20
5.5057243037
 30
0.0
 10
4.9280832971
 20
5.5038436746
 30
0.0
 10
4.9347593291
 20
5.5030449989
 30
0.0
  0
SPLINE
  5
2B3
100
AcDbEntity
  8
0
100
AcDbSpline
 62
7
  6
CONTINUOUS
 70
0
 71
3
 72
15
 73
11
 74
0
 42
0.0000001
 43
0.0000001
 44
0.0000000001
 40
0.0
 40
0.0
 40
0.0
 40
0.0
 40
0.1653987606
 40
0.299871827
 40
0.4086706083
 40
0.5016841919
 40
0.5941960477
 40
0.7018548624
 40
0.8351967767
 40
1.0
 40
1.0
 40
1.0
 40
1.0
 10
5.9387106773
 20
5.3757955325
 30
0.0
 10
5.9387843399
 20
5.3757532438
 30
0.0
 10
5.9389146119
 20
5.3756702631
 30
0.0
 10
5.9390733512
 20
5.3755313235
 30
0.0
 10
5.9391749839
 20
5.3753886321
 30
0.0
 10
5.9392132888
 20
5.3752375151
 30
0.0
 10
5.9391792811
 20
5.3750858509
 30
0.0
 10
5.9390806064
 20
5.3749425827
 30
0.0
 10
5.9389239189
 20
5.3748034536
 30
0.0
 10
5.9387945475
 20
5.3747206561
 30
0.0
 10
5.9387211891
 20
5.374678452
 30
0.0
  0
SPLINE
  5
2B4
100
AcDbEntity
  8
0
100
AcDbSpline
 62
7
  6
CONTINUOUS
 70
0
 71
3
 72
15
 73
11
 74
0
 42
0.0000001
 43
0.0000001
 44
0.0000000001
 40
0.0
 40
0.0
 40
0.0
 40
0.0
 40
0.1661006098
 40
0.3013244481
 40
0.4108341125
 40
0.5043289385
 40
0.5968684984
 40
0.704063052
 40
0.8365410669
 40
1.0
 40
1.0
 40
1.0
 40
1.0
 10
5.9388783364
 20
5.4539410901
 30
0.0
 10
5.9389494795
 20
5.4539002735
 30
0.0
 10
5.9390753882
 20
5.4538201684
 30
0.0
 10
5.939229082
 20
5.4536861694
 30
0.0
 10
5.9393279835
 20
5.4535487016
 30
0.0
 10
5.9393664431
 20
5.4534032763
 30
0.0
 10
5.9393357362
 20
5.453256998
 30
0.0
 10
5.9392427339
 20
5.4531186656
 30
0.0
 10
5.9390941185
 20
5.4529845447
 30
0.0
 10
5.9389711854
 20
5.4529046679
 30
0.0
 10
5.9389014915
 20
5.4528639517
 30
0.0
  0
SPLINE
  5
2B5
100
AcDbEntity
  8
0
100
AcDbSpline
 62
7
  6
CONTINUOUS
 70
0
 71
3
 72
15
 73
11
 74
0
 42
0.0000001
 43
0.0000001
 44
0.0000000001
 40
0.0
 40
0.0
 40
0.0
 40
0.0
 40
0.1658085246
 40
0.3005921136
 40
0.4096191113
 40
0.5027646358
 40
0.5952691801
 40
0.702753206
 40
0.8357428458
 40
1.0
 40
1.0
 40
1.0
 40
1.0
 10
4.9807318558
 20
5.493004393
 30
0.0
 10
4.980656853
 20
5.4929614339
 30
0.0
 10
4.9805242084
 20
5.4928771388
 30
0.0
 10
4.9803625124
 20
5.4927359915
 30
0.0
 10
4.9802588701
 20
5.4925910704
 30
0.0
 10
4.9802194574
 20
5.4924376376
 30
0.0
 10
4.9802533406
 20
5.4922835759
 30
0.0
 10
4.980352815
 20
5.4921379975
 30
0.0
 10
4.9805110222
 20
5.4919966527
 30
0.0
 10
4.9806417343
 20
5.4919125148
 30
0.0
 10
4.9807158486
 20
5.4918696332
 30
0.0
  0
SPLINE
  5
2B6
100
AcDbEntity
  8
0
100
AcDbSpline
 62
7
  6
CONTINUOUS
 70
0
 71
3
 72
34
 73
30
 74
0
 42
0.0000001
 43
0.0000001
 44
0.0000000001
 40
0.0
 40
0.0
 40
0.0
 40
0.0
 40
0.0006593719
 40
0.0014490619
 40
0.0034313766
 40
0.0059625797
 40
0.0090492179
 40
0.0126927293
 40
0.0168920991
 40
0.0269504901
 40
0.039205619
 40
0.0536351001
 40
0.0702149349
 40
0.0889114018
 40
0.10967606
 40
0.1324589029
 40
0.1572097358
 40
0.183878178
 40
0.2427260092
 40
0.3084482442
 40
0.3804660397
 40
0.4581178352
 40
0.5406778306
 40
0.6274095072
 40
0.7175470511
 40
0.7636518301
 40
0.8103123773
 40
0.9048026027
 40
1.0
 40
1.0
 40
1.0
 40
1.0
 10
4.9406841553
 20
5.3919339337
 30
0.0
 10
4.9407844001
 20
5.3919886104
 30
0.0
 10
4.9410119457
 20
5.3920954673
 30
0.0
 10
4.9415674784
 20
5.3923072428
 30
0.0
 10
4.9424511195
 20
5.3925621407
 30
0.0
 10
4.9437350531
 20
5.3928527294
 30
0.0
 10
4.9453124615
 20
5.3931446602
 30
0.0
 10
4.9471824558
 20
5.393437973
 30
0.0
 10
4.950254424
 20
5.3938555613
 30
0.0
 10
4.9548181005
 20
5.3943640597
 30
0.0
 10
4.9611544028
 20
5.3949480526
 30
0.0
 10
4.9686239359
 20
5.3955342323
 30
0.0
 10
4.977211728
 20
5.3961220594
 30
0.0
 10
4.9868988115
 20
5.3967107775
 30
0.0
 10
4.9976618068
 20
5.3973004327
 30
0.0
 10
5.0094746518
 20
5.3978907632
 30
0.0
 10
5.02231102
 20
5.3984817018
 30
0.0
 10
5.0413891098
 20
5.3992971742
 30
0.0
 10
5.0675605204
 20
5.40030499
 30
0.0
 10
5.1015843302
 20
5.4014807556
 30
0.0
 10
5.138866304
 20
5.4026555537
 30
0.0
 10
5.1790654363
 20
5.4038316144
 30
0.0
 10
5.2218134829
 20
5.4050139597
 30
0.0
 10
5.2667243017
 20
5.4062049473
 30
0.0
 10
5.305325401
 20
5.407182891
 30
0.0
 10
5.3369901331
 20
5.4079559432
 30
0.0
 10
5.3694088997
 20
5.4087272931
 30
0.0
 10
5.4103271691
 20
5.4096877575
 30
0.0
 10
5.4431664313
 20
5.410493118
 30
0.0
 10
5.4596467391
 20
5.410918196
 30
0.0
  0
SPLINE
  5
2B7
100
AcDbEntity
  8
0
100
AcDbSpline
 62
7
  6
CONTINUOUS
 70
0
 71
3
 72
33
 73
29
 74
0
 42
0.0000001
 43
0.0000001
 44
0.0000000001
 40
0.0
 40
0.0
 40
0.0
 40
0.0
 40
0.0006660715
 40
0.0014625887
 40
0.003458607
 40
0.0060033104
 40
0.0091030928
 40
0.0127592824
 40
0.0169708374
 40
0.0270520783
 40
0.0393280045
 40
0.0537762337
 40
0.070372771
 40
0.0890837385
 40
0.1098606906
 40
0.1326536795
 40
0.1574125714
 40
0.1840870406
 40
0.2429407074
 40
0.3086609539
 40
0.3806695695
 40
0.4583054311
 40
0.5408435922
 40
0.6275484119
 40
0.7176550017
 40
0.8103861669
 40
0.9048399714
 40
1.0
 40
1.0
 40
1.0
 40
1.0
 10
5.9785943711
 20
5.3976686933
 30
0.0
 10
5.978492773
 20
5.3976140872
 30
0.0
 10
5.9782626171
 20
5.3975073392
 30
0.0
 10
5.9777019955
 20
5.3972957591
 30
0.0
 10
5.9768122553
 20
5.3970409721
 30
0.0
 10
5.9755211868
 20
5.3967504558
 30
0.0
 10
5.9739368979
 20
5.3964586148
 30
0.0
 10
5.9720602889
 20
5.396165408
 30
0.0
 10
5.9689800522
 20
5.3957480773
 30
0.0
 10
5.9644067785
 20
5.3952398097
 30
0.0
 10
5.9580598168
 20
5.3946560245
 30
0.0
 10
5.9505807447
 20
5.3940700514
 30
0.0
 10
5.9419845517
 20
5.3934824245
 30
0.0
 10
5.9322902295
 20
5.3928938902
 30
0.0
 10
5.9215211706
 20
5.3923044311
 30
0.0
 10
5.9097034139
 20
5.3917143298
 30
0.0
 10
5.8968632532
 20
5.3911236738
 30
0.0
 10
5.8777823129
 20
5.3903087469
 30
0.0
 10
5.8516100179
 20
5.3893017546
 30
0.0
 10
5.8175882304
 20
5.3881265211
 30
0.0
 10
5.7803122011
 20
5.3869508984
 30
0.0
 10
5.7401225428
 20
5.3857740118
 30
0.0
 10
5.6973870306
 20
5.3845938124
 30
0.0
 10
5.652491293
 20
5.3834098982
 30
0.0
 10
5.6058297918
 20
5.3822283639
 30
0.0
 10
5.5578256733
 20
5.3810598037
 30
0.0
 10
5.508946144
 20
5.3798938791
 30
0.0
 10
5.4761204831
 20
5.3790998328
 30
0.0
 10
5.4596467391
 20
5.3786925424
 30
0.0
  0
SPLINE
  5
2B8
100
AcDbEntity
  8
0
100
AcDbSpline
 62
7
  6
CONTINUOUS
 70
0
 71
3
 72
36
 73
32
 74
0
 42
0.0000001
 43
0.0000001
 44
0.0000000001
 40
0.0
 40
0.0
 40
0.0
 40
0.0
 40
0.0006419129
 40
0.0014305396
 40
0.0023709371
 40
0.003466368
 40
0.0061288146
 40
0.0094209652
 40
0.0133394537
 40
0.0178792353
 40
0.0230344148
 40
0.0287986215
 40
0.0421272056
 40
0.057809339
 40
0.0757794549
 40
0.0959656745
 40
0.1182955786
 40
0.1426965137
 40
0.1690980965
 40
0.1974339531
 40
0.2276380321
 40
0.2596442287
 40
0.3287089353
 40
0.4036045295
 40
0.4832022238
 40
0.5664482919
 40
0.6523221179
 40
0.7397603284
 40
0.8276609257
 40
0.9148450267
 40
1.0
 40
1.0
 40
1.0
 40
1.0
 10
5.9387211891
 20
5.374678452
 30
0.0
 10
5.938605841
 20
5.3746120906
 30
0.0
 10
5.9383378819
 20
5.3744832868
 30
0.0
 10
5.9378781612
 20
5.3743085821
 30
0.0
 10
5.9373191868
 20
5.3741332685
 30
0.0
 10
5.9363778255
 20
5.3738824334
 30
0.0
 10
5.9349474965
 20
5.3735781947
 30
0.0
 10
5.9329303763
 20
5.3732296059
 30
0.0
 10
5.9305194287
 20
5.3728795397
 30
0.0
 10
5.9277190516
 20
5.3725282334
 30
0.0
 10
5.9245335042
 20
5.3721761868
 30
0.0
 10
5.919530923
 20
5.3716818903
 30
0.0
 10
5.9123469245
 20
5.3710756037
 30
0.0
 10
5.9026323268
 20
5.3703759466
 30
0.0
 10
5.8914929686
 20
5.3696748354
 30
0.0
 10
5.8789731632
 20
5.3689723061
 30
0.0
 10
5.8651183567
 20
5.3682687393
 30
0.0
 10
5.8499735872
 20
5.367564108
 30
0.0
 10
5.8335825288
 20
5.3668584646
 30
0.0
 10
5.8159874153
 20
5.3661521051
 30
0.0
 10
5.7972295562
 20
5.3654451373
 30
0.0
 10
5.7700320725
 20
5.3644774254
 30
0.0
 10
5.7335719364
 20
5.3632809609
 30
0.0
 10
5.6872472742
 20
5.3618767176
 30
0.0
 10
5.6379814315
 20
5.3604716127
 30
0.0
 10
5.5864388361
 20
5.3590656681
 30
0.0
 10
5.5332702795
 20
5.3576581722
 30
0.0
 10
5.4791365118
 20
5.3562487284
 30
0.0
 10
5.4247310555
 20
5.3548378814
 30
0.0
 10
5.3707990809
 20
5.3534276904
 30
0.0
 10
5.3350841006
 20
5.352474505
 30
0.0
 10
5.3174370902
 20
5.3519952453
 30
0.0
  0
SPLINE
  5
2B9
100
AcDbEntity
  8
0
100
AcDbSpline
 62
7
  6
CONTINUOUS
 70
0
 71
3
 72
34
 73
30
 74
0
 42
0.0000001
 43
0.0000001
 44
0.0000000001
 40
0.0
 40
0.0
 40
0.0
 40
0.0
 40
0.0006147194
 40
0.0013586966
 40
0.003248983
 40
0.0056893868
 40
0.0086875292
 40
0.0122456454
 40
0.0163629327
 40
0.0262673941
 40
0.0383824294
 40
0.0526856341
 40
0.0691529631
 40
0.0877517159
 40
0.1084335222
 40
0.131147968
 40
0.1558444454
 40
0.1824721888
 40
0.2412804601
 40
0.3070159798
 40
0.3790956413
 40
0.4568547529
 40
0.5395616541
 40
0.6264740447
 40
0.7168200722
 40
0.7630374782
 40
0.8098153481
 40
0.9045506769
 40
1.0
 40
1.0
 40
1.0
 40
1.0
 10
5.9787040018
 20
5.4758561018
 30
0.0
 10
5.9786129241
 20
5.4758009471
 30
0.0
 10
5.9784029887
 20
5.4756933442
 30
0.0
 10
5.9778817528
 20
5.4754802427
 30
0.0
 10
5.9770391425
 20
5.4752246549
 30
0.0
 10
5.9758032562
 20
5.4749336594
 30
0.0
 10
5.9742721997
 20
5.4746412077
 30
0.0
 10
5.972446791
 20
5.4743472658
 30
0.0
 10
5.9694305688
 20
5.4739280419
 30
0.0
 10
5.9649316042
 20
5.4734181007
 30
0.0
 10
5.9586671943
 20
5.4728327406
 30
0.0
 10
5.9512620236
 20
5.4722450533
 30
0.0
 10
5.9427309568
 20
5.4716555348
 30
0.0
 10
5.9330927959
 20
5.471065047
 30
0.0
 10
5.9223708196
 20
5.4704736181
 30
0.0
 10
5.9105912308
 20
5.4698815955
 30
0.0
 10
5.8977805748
 20
5.4692891254
 30
0.0
 10
5.8787218965
 20
5.4684716649
 30
0.0
 10
5.8525566564
 20
5.4674621927
 30
0.0
 10
5.818519639
 20
5.4662833766
 30
0.0
 10
5.7811984614
 20
5.4651007956
 30
0.0
 10
5.7409363413
 20
5.4639168298
 30
0.0
 10
5.6981038793
 20
5.4627368468
 30
0.0
 10
5.6530902417
 20
5.4615647378
 30
0.0
 10
5.6143940852
 20
5.4605872971
 30
0.0
 10
5.5826473567
 20
5.459789419
 30
0.0
 10
5.5501406267
 20
5.4589710792
 30
0.0
 10
5.5091087228
 20
5.4579523819
 30
0.0
 10
5.4761755839
 20
5.4571830048
 30
0.0
 10
5.4596467391
 20
5.4568175424
 30
0.0
  0
SPLINE
  5
2BA
100
AcDbEntity
  8
0
100
AcDbSpline
 62
7
  6
CONTINUOUS
 70
0
 71
3
 72
15
 73
11
 74
0
 42
0.0000001
 43
0.0000001
 44
0.0000000001
 40
0.0
 40
0.0
 40
0.0
 40
0.0
 40
0.2982459838
 40
0.4410532762
 40
0.5763615368
 40
0.7019450201
 40
0.8156616264
 40
0.9155745979
 40
0.9598226452
 40
1.0
 40
1.0
 40
1.0
 40
1.0
 10
5.4596467391
 20
5.489043196
 30
0.0
 10
5.5042332583
 20
5.4901345876
 30
0.0
 10
5.5701704798
 20
5.4916823649
 30
0.0
 10
5.6563325663
 20
5.4938544357
 30
0.0
 10
5.716680597
 20
5.4954608292
 30
0.0
 10
5.7726769851
 20
5.4970594999
 30
0.0
 10
5.823378105
 20
5.49865425
 30
0.0
 10
5.8619169968
 20
5.5000283784
 30
0.0
 10
5.8894604083
 20
5.5011469924
 30
0.0
 10
5.9020728938
 20
5.5017107375
 30
0.0
 10
5.9080742925
 20
5.5019953681
 30
0.0
  0
SPLINE
  5
2BB
100
AcDbEntity
  8
0
100
AcDbSpline
 62
7
  6
CONTINUOUS
 70
0
 71
3
 72
41
 73
37
 74
0
 42
0.0000001
 43
0.0000001
 44
0.0000000001
 40
0.0
 40
0.0
 40
0.0
 40
0.0
 40
0.0977888718
 40
0.1947994518
 40
0.2426655947
 40
0.2899274335
 40
0.3822051795
 40
0.4707891646
 40
0.5548503778
 40
0.6335914505
 40
0.7062278798
 40
0.772066717
 40
0.8022416875
 40
0.8304833334
 40
0.856722072
 40
0.8809018835
 40
0.9029681493
 40
0.9228664298
 40
0.9405428143
 40
0.9559546327
 40
0.9628027507
 40
0.9690747407
 40
0.9747675557
 40
0.9798783208
 40
0.9844044246
 40
0.9883436793
 40
0.9916946242
 40
0.9944576019
 40
0.9956202181
 40
0.9966384
 40
0.9975140171
 40
0.9982500258
 40
0.9988514451
 40
0.999327569
 40
0.999697265
 40
1.0
 40
1.0
 40
1.0
 40
1.0
 10
5.4596467391
 20
5.4568175424
 30
0.0
 10
5.4426911369
 20
5.4564426442
 30
0.0
 10
5.4089158356
 20
5.4556525589
 30
0.0
 10
5.3668427985
 20
5.454606139
 30
0.0
 10
5.3335303308
 20
5.4537672948
 30
0.0
 10
5.3010383889
 20
5.4529507114
 30
0.0
 10
5.2614870549
 20
5.4519500533
 30
0.0
 10
5.2155565853
 20
5.4507478219
 30
0.0
 10
5.1719748993
 20
5.4495365368
 30
0.0
 10
5.1311602514
 20
5.4483223261
 30
0.0
 10
5.0935073901
 20
5.4471102507
 30
0.0
 10
5.0642762043
 20
5.4460760465
 30
0.0
 10
5.0427424682
 20
5.445240873
 30
0.0
 10
5.0280730648
 20
5.4446330333
 30
0.0
 10
5.0144443669
 20
5.4440252556
 30
0.0
 10
5.001887807
 20
5.4434178481
 30
0.0
 10
4.9904322554
 20
5.4428109997
 30
0.0
 10
4.9801062823
 20
5.4422050628
 30
0.0
 10
4.970936559
 20
5.4416001253
 30
0.0
 10
4.9640297863
 20
5.441078853
 30
0.0
 10
4.9590994357
 20
5.4406566265
 30
0.0
 10
4.9558508048
 20
5.4403527941
 30
0.0
 10
4.9529048926
 20
5.4400492727
 30
0.0
 10
4.9502634912
 20
5.4397461459
 30
0.0
 10
4.9479283796
 20
5.4394435475
 30
0.0
 10
4.9459012069
 20
5.4391417883
 30
0.0
 10
4.9441835989
 20
5.4388410381
 30
0.0
 10
4.9429485612
 20
5.4385791119
 30
0.0
 10
4.9421182763
 20
5.4383645772
 30
0.0
 10
4.9416100804
 20
5.4382133224
 30
0.0
 10
4.9411794167
 20
5.4380624345
 30
0.0
 10
4.9408259655
 20
5.43791192
 30
0.0
 10
4.9405487663
 20
5.437761768
 30
0.0
 10
4.9403467093
 20
5.4376108978
 30
0.0
 10
4.940216573
 20
5.4374560407
 30
0.0
 10
4.9401827263
 20
5.437338937
 30
0.0
 10
4.9401827054
 20
5.4372864329
 30
0.0
  0
SPLINE
  5
2BC
100
AcDbEntity
  8
0
100
AcDbSpline
 62
7
  6
CONTINUOUS
 70
0
 71
3
 72
41
 73
37
 74
0
 42
0.0000001
 43
0.0000001
 44
0.0000000001
 40
0.0
 40
0.0
 40
0.0
 40
0.0
 40
0.0977894579
 40
0.1948005787
 40
0.2426669566
 40
0.2899290248
 40
0.3822072476
 40
0.4707917208
 40
0.5548533006
 40
0.6335945701
 40
0.7062310833
 40
0.7720699468
 40
0.8022448989
 40
0.8304864932
 40
0.8567251401
 40
0.8809048191
 40
0.9029709116
 40
0.9228689798
 40
0.9405451171
 40
0.955956661
 40
0.9628046321
 40
0.9690764687
 40
0.9747691237
 40
0.9798797224
 40
0.9844056531
 40
0.988344728
 40
0.9916954863
 40
0.9944582714
 40
0.9956207897
 40
0.9966388729
 40
0.9975143912
 40
0.9982503023
 40
0.998851627
 40
0.9993276643
 40
0.9996972925
 40
1.0
 40
1.0
 40
1.0
 40
1.0
 10
5.4596467391
 20
5.410918196
 30
0.0
 10
5.4766009526
 20
5.4113554975
 30
0.0
 10
5.5103755657
 20
5.4121826265
 30
0.0
 10
5.5524502895
 20
5.4131691833
 30
0.0
 10
5.5857640265
 20
5.4139637898
 30
0.0
 10
5.6182566372
 20
5.4147604166
 30
0.0
 10
5.6578080432
 20
5.4157671828
 30
0.0
 10
5.7037381611
 20
5.4169917998
 30
0.0
 10
5.747319942
 20
5.4182062792
 30
0.0
 10
5.7881348735
 20
5.4194149904
 30
0.0
 10
5.8257879151
 20
5.4206235266
 30
0.0
 10
5.855019103
 20
5.4216584119
 30
0.0
 10
5.8765527999
 20
5.4224945354
 30
0.0
 10
5.8912221546
 20
5.4231029554
 30
0.0
 10
5.9048507972
 20
5.4237109671
 30
0.0
 10
5.9174072903
 20
5.4243183891
 30
0.0
 10
5.9288627613
 20
5.4249251102
 30
0.0
 10
5.9391886377
 20
5.4255308634
 30
0.0
 10
5.9483582456
 20
5.4261356546
 30
0.0
 10
5.9552649076
 20
5.4266568779
 30
0.0
 10
5.9601951601
 20
5.4270790972
 30
0.0
 10
5.963443711
 20
5.4273829362
 30
0.0
 10
5.9663895387
 20
5.4276864733
 30
0.0
 10
5.9690308511
 20
5.4279896222
 30
0.0
 10
5.9713658692
 20
5.4282922462
 30
0.0
 10
5.973392944
 20
5.4285940319
 30
0.0
 10
5.9751104497
 20
5.4288948068
 30
0.0
 10
5.9763453994
 20
5.4291567511
 30
0.0
 10
5.9771756115
 20
5.4293712986
 30
0.0
 10
5.9776837521
 20
5.4295225604
 30
0.0
 10
5.9781143597
 20
5.4296734541
 30
0.0
 10
5.9784677543
 20
5.4298239733
 30
0.0
 10
5.9787448969
 20
5.4299741294
 30
0.0
 10
5.9789468977
 20
5.4301250033
 30
0.0
 10
5.9790769782
 20
5.43027987
 30
0.0
 10
5.9791107731
 20
5.430396973
 30
0.0
 10
5.9791107728
 20
5.4304494723
 30
0.0
  0
LINE
  5
2BD
100
AcDbEntity
  8
0
100
AcDbLine
 62
7
  6
CONTINUOUS
 10
5.4596467391
 20
5.3786925424
 11
5.3054377119
 21
5.3749449185
  0
LINE
  5
2BE
100
AcDbEntity
  8
0
100
AcDbLine
 62
7
  6
CONTINUOUS
 10
5.3054377119
 20
5.3290455721
 11
5.4596467391
 21
5.332793196
  0
SPLINE
  5
2BF
100
AcDbEntity
  8
0
100
AcDbSpline
 62
7
  6
CONTINUOUS
 70
0
 71
3
 72
59
 73
55
 74
0
 42
0.0000001
 43
0.0000001
 44
0.0000000001
 40
0.0
 40
0.0
 40
0.0
 40
0.0
 40
0.000338662
 40
0.0007438845
 40
0.0017595132
 40
0.0030529699
 40
0.0046251756
 40
0.0064752503
 40
0.0086014659
 40
0.0136732401
 40
0.019820685
 40
0.0270246996
 40
0.0352721611
 40
0.0445505496
 40
0.0548470965
 40
0.066148878
 40
0.0784415728
 40
0.0917001463
 40
0.1209935996
 40
0.1537860545
 40
0.1897915059
 40
0.2286164121
 40
0.2698511553
 40
0.3131133365
 40
0.3580538618
 40
0.4043186917
 40
0.4514845757
 40
0.4990885023
 40
0.5466787445
 40
0.5938474135
 40
0.6401964854
 40
0.6853094428
 40
0.7287424541
 40
0.7700557189
 40
0.8088746993
 40
0.8448640275
 40
0.8777111457
 40
0.9071809886
 40
0.9205813387
 40
0.9330548996
 40
0.9445673421
 40
0.9550813606
 40
0.9645597442
 40
0.9729654609
 40
0.9802625319
 40
0.9864341144
 40
0.9914836153
 40
0.9935894748
 40
0.9954174052
 40
0.9969689378
 40
0.9982464175
 40
0.999253876
 40
0.9996587968
 40
1.0
 40
1.0
 40
1.0
 40
1.0
 10
5.9389014915
 20
5.4528639517
 30
0.0
 10
5.9388079813
 20
5.4528093215
 30
0.0
 10
5.9385948915
 20
5.4527025132
 30
0.0
 10
5.9380731764
 20
5.4524909389
 30
0.0
 10
5.9372419514
 20
5.4522363226
 30
0.0
 10
5.9360349483
 20
5.4519459894
 30
0.0
 10
5.9345550433
 20
5.4516542266
 30
0.0
 10
5.9328049523
 20
5.4513611269
 30
0.0
 10
5.9299414927
 20
5.450944551
 30
0.0
 10
5.9257035363
 20
5.4504371491
 30
0.0
 10
5.919840815
 20
5.4498539558
 30
0.0
 10
5.912958489
 20
5.4492685193
 30
0.0
 10
5.9050719929
 20
5.4486814393
 30
0.0
 10
5.8961942188
 20
5.4480932688
 30
0.0
 10
5.8863378751
 20
5.4475041518
 30
0.0
 10
5.8755160958
 20
5.4469142088
 30
0.0
 10
5.8637458552
 20
5.4463236566
 30
0.0
 10
5.8462263349
 20
5.4455080551
 30
0.0
 10
5.8221533746
 20
5.4444993415
 30
0.0
 10
5.7908073069
 20
5.443323501
 30
0.0
 10
5.756411265
 20
5.442148576
 30
0.0
 10
5.7193141159
 20
5.4409724581
 30
0.0
 10
5.679895329
 20
5.4397951254
 30
0.0
 10
5.6385200808
 20
5.4386164035
 30
0.0
 10
5.5955356998
 20
5.4374364897
 30
0.0
 10
5.5513025465
 20
5.4362556952
 30
0.0
 10
5.5062173991
 20
5.4350743326
 30
0.0
 10
5.4607082563
 20
5.4338932228
 30
0.0
 10
5.4151981958
 20
5.4327131456
 30
0.0
 10
5.3700895304
 20
5.4315339382
 30
0.0
 10
5.3257733211
 20
5.4303552443
 30
0.0
 10
5.2826521403
 20
5.4291767816
 30
0.0
 10
5.2411419477
 20
5.427998373
 30
0.0
 10
5.2016453439
 20
5.4268189114
 30
0.0
 10
5.164530224
 20
5.4256396836
 30
0.0
 10
5.1301238211
 20
5.4244626723
 30
0.0
 10
5.0987089458
 20
5.4232877635
 30
0.0
 10
5.0745165389
 20
5.4222821584
 30
0.0
 10
5.0568371442
 20
5.4214692372
 30
0.0
 10
5.0448961209
 20
5.420879338
 30
0.0
 10
5.0338792903
 20
5.4202898099
 30
0.0
 10
5.0238217278
 20
5.4197007711
 30
0.0
 10
5.0147594571
 20
5.4191125213
 30
0.0
 10
5.0067282369
 20
5.4185255512
 30
0.0
 10
4.9997575074
 20
5.4179399351
 30
0.0
 10
4.993864376
 20
5.4173555662
 30
0.0
 10
4.9896325405
 20
5.4168464079
 30
0.0
 10
4.9867901986
 20
5.4164285205
 30
0.0
 10
4.9850606394
 20
5.4161350904
 30
0.0
 10
4.9835999784
 20
5.4158429687
 30
0.0
 10
4.9824077903
 20
5.4155522431
 30
0.0
 10
4.9815848997
 20
5.4152973815
 30
0.0
 10
4.9810650611
 20
5.4150862693
 30
0.0
 10
4.9808510366
 20
5.4149798588
 30
0.0
 10
4.9807563822
 20
5.4149255833
 30
0.0
  0
SPLINE
  5
2C0
100
AcDbEntity
  8
0
100
AcDbSpline
 62
7
  6
CONTINUOUS
 70
0
 71
3
 72
32
 73
28
 74
0
 42
0.0000001
 43
0.0000001
 44
0.0000000001
 40
0.0
 40
0.0
 40
0.0
 40
0.0
 40
0.0006187619
 40
0.0013668943
 40
0.0032655669
 40
0.0057142549
 40
0.0087204777
 40
0.0122863938
 40
0.0164111788
 40
0.0263296997
 40
0.0384575284
 40
0.0527722619
 40
0.069249861
 40
0.0878575354
 40
0.1085469074
 40
0.1312676022
 40
0.155969051
 40
0.1826005243
 40
0.2414124415
 40
0.3071467578
 40
0.3792207496
 40
0.4569700524
 40
0.5396635786
 40
0.626559531
 40
0.716886529
 40
0.8098607346
 40
1.0
 40
1.0
 40
1.0
 40
1.0
 10
4.9405976884
 20
5.4700095472
 30
0.0
 10
4.9406896072
 20
5.470064659
 30
0.0
 10
4.9409011527
 20
5.4701721943
 30
0.0
 10
4.9414255216
 20
5.4703851777
 30
0.0
 10
4.9422718742
 20
5.4706407122
 30
0.0
 10
4.9435121467
 20
5.4709316841
 30
0.0
 10
4.9450474357
 20
5.471224103
 30
0.0
 10
4.9468769174
 20
5.4715180027
 30
0.0
 10
4.9498982328
 20
5.4719370971
 30
0.0
 10
4.9544031105
 20
5.4724469269
 30
0.0
 10
4.9606740914
 20
5.4730321676
 30
0.0
 10
4.968085147
 20
5.4736196955
 30
0.0
 10
4.976621404
 20
5.4742089969
 30
0.0
 10
4.9862640454
 20
5.4747992231
 30
0.0
 10
4.9969897808
 20
5.4753904026
 30
0.0
 10
5.0087724188
 20
5.4759822382
 30
0.0
 10
5.0215854334
 20
5.4765746317
 30
0.0
 10
5.0406458944
 20
5.4773922126
 30
0.0
 10
5.066811698
 20
5.478402264
 30
0.0
 10
5.1008475348
 20
5.4795809294
 30
0.0
 10
5.1381652337
 20
5.4807603531
 30
0.0
 10
5.178421705
 20
5.4819410176
 30
0.0
 10
5.2212464136
 20
5.4831242947
 30
0.0
 10
5.2662503921
 20
5.4843102974
 30
0.0
 10
5.3130356906
 20
5.4854950497
 30
0.0
 10
5.3776992585
 20
5.4870744867
 30
0.0
 10
5.4267229732
 20
5.488237286
 30
0.0
 10
5.4596467391
 20
5.489043196
 30
0.0
  0
SPLINE
  5
2C1
100
AcDbEntity
  8
0
100
AcDbSpline
 62
7
  6
CONTINUOUS
 70
0
 71
3
 72
24
 73
20
 74
0
 42
0.0000001
 43
0.0000001
 44
0.0000000001
 40
0.0
 40
0.0
 40
0.0
 40
0.0
 40
0.2139648114
 40
0.4053789915
 40
0.4920648056
 40
0.5724565649
 40
0.6463457326
 40
0.7135243426
 40
0.7737874902
 40
0.8270211111
 40
0.8732318405
 40
0.9124376382
 40
0.9446622867
 40
0.9581677818
 40
0.9699434521
 40
0.9799987703
 40
0.9883448962
 40
0.9949981958
 40
1.0
 40
1.0
 40
1.0
 40
1.0
 10
5.1143939461
 20
5.5019954324
 30
0.0
 10
5.104834672
 20
5.5016389572
 30
0.0
 10
5.0867246783
 20
5.5009344899
 30
0.0
 10
5.064746077
 20
5.4999802049
 30
0.0
 10
5.0487372805
 20
5.4992072532
 30
0.0
 10
5.0379787027
 20
5.4986471324
 30
0.0
 10
5.028093498
 20
5.498087501
 30
0.0
 10
5.0191097224
 20
5.4975286583
 30
0.0
 10
5.0110513199
 20
5.4969705713
 30
0.0
 10
5.0039328129
 20
5.4964131295
 30
0.0
 10
4.9977587998
 20
5.4958574859
 30
0.0
 10
4.9925283093
 20
5.4953038978
 30
0.0
 10
4.9887611012
 20
5.494821985
 30
0.0
 10
4.986220518
 20
5.4944269331
 30
0.0
 10
4.9846651333
 20
5.4941490026
 30
0.0
 10
4.9833445168
 20
5.4938720797
 30
0.0
 10
4.9822580266
 20
5.4935967661
 30
0.0
 10
4.9814063288
 20
5.4933235287
 30
0.0
 10
4.9809259006
 20
5.4931155353
 30
0.0
 10
4.9807318558
 20
5.493004393
 30
0.0
  0
SPLINE
  5
2C2
100
AcDbEntity
  8
0
100
AcDbSpline
 62
9
  6
CONTINUOUS
 70
0
 71
3
 72
29
 73
25
 74
0
 42
0.0000001
 43
0.0000001
 44
0.0000000001
 40
0.0
 40
0.0
 40
0.0
 40
0.0
 40
0.0614536675
 40
0.1231400407
 40
0.1851450869
 40
0.2475198281
 40
0.2788304071
 40
0.3102185767
 40
0.3416907473
 40
0.3732537283
 40
0.4048893476
 40
0.4365739806
 40
0.5000001823
 40
0.5634262943
 40
0.5951108759
 40
0.6267464796
 40
0.6583095019
 40
0.6897816962
 40
0.7211698236
 40
0.7524803287
 40
0.8148549585
 40
0.8768600264
 40
0.9385463705
 40
1.0
 40
1.0
 40
1.0
 40
1.0
 10
5.0051375023
 20
4.665666542
 30
0.0
 10
5.0225088643
 20
4.6745910355
 30
0.0
 10
5.0575769779
 20
4.6919768805
 30
0.0
 10
5.111233774
 20
4.7161597486
 30
0.0
 10
5.1661996806
 20
4.7380204564
 30
0.0
 10
5.2131026473
 20
4.7538668328
 30
0.0
 10
5.2513065278
 20
4.7648586036
 30
0.0
 10
5.2803269286
 20
4.7721932499
 30
0.0
 10
5.3096633561
 20
4.7785338086
 30
0.0
 10
5.3392911631
 20
4.7838039945
 30
0.0
 10
5.3691633668
 20
4.7879689429
 30
0.0
 10
5.4092485961
 20
4.7920005689
 30
0.0
 10
5.459646892
 20
4.7940894404
 30
0.0
 10
5.5100451829
 20
4.7920006745
 30
0.0
 10
5.5501303512
 20
4.7879689287
 30
0.0
 10
5.5800025355
 20
4.7838039086
 30
0.0
 10
5.609630361
 20
4.7785337432
 30
0.0
 10
5.6389668102
 20
4.7721932493
 30
0.0
 10
5.6679871866
 20
4.7648586243
 30
0.0
 10
5.7061909954
 20
4.7538668649
 30
0.0
 10
5.7530938918
 20
4.7380204415
 30
0.0
 10
5.8080597491
 20
4.7161597155
 30
0.0
 10
5.8617165419
 20
4.6919768761
 30
0.0
 10
5.8967846414
 20
4.6745910498
 30
0.0
 10
5.9141559915
 20
4.6656665597
 30
0.0
  0
SPLINE
  5
2C3
100
AcDbEntity
  8
0
100
AcDbSpline
 62
7
  6
CONTINUOUS
 70
0
 71
3
 72
40
 73
36
 74
0
 42
0.0000001
 43
0.0000001
 44
0.0000000001
 40
0.0
 40
0.0
 40
0.0
 40
0.0
 40
0.0977891859
 40
0.1947999822
 40
0.2899281544
 40
0.3822061334
 40
0.4707903532
 40
0.5548517413
 40
0.6335929139
 40
0.7062293911
 40
0.7720682413
 40
0.8022432012
 40
0.830484821
 40
0.8567235155
 40
0.880903265
 40
0.9029694504
 40
0.922867633
 40
0.9405439031
 40
0.9559555931
 40
0.9628036419
 40
0.9690755594
 40
0.9747682985
 40
0.9798789845
 40
0.9844050058
 40
0.9883441748
 40
0.9916950308
 40
0.994457917
 40
0.9956204867
 40
0.9966386219
 40
0.9975141922
 40
0.9982501548
 40
0.9988515295
 40
0.9993276128
 40
0.9996972772
 40
1.0
 40
1.0
 40
1.0
 40
1.0
 10
5.4596467391
 20
5.332793196
 30
0.0
 10
5.4766019654
 20
5.3331871387
 30
0.0
 10
5.5103770737
 20
5.3339884053
 30
0.0
 10
5.560644958
 20
5.3352173515
 30
0.0
 10
5.6099568217
 20
5.3364425729
 30
0.0
 10
5.6578071102
 20
5.3376549404
 30
0.0
 10
5.7037375114
 20
5.3388641333
 30
0.0
 10
5.7473192595
 20
5.3400763628
 30
0.0
 10
5.7881340154
 20
5.3412889043
 30
0.0
 10
5.8257869434
 20
5.3424998988
 30
0.0
 10
5.8550181336
 20
5.3435343122
 30
0.0
 10
5.8765518558
 20
5.3443697765
 30
0.0
 10
5.8912212389
 20
5.3449777941
 30
0.0
 10
5.9048499115
 20
5.3455856441
 30
0.0
 10
5.9174064396
 20
5.3461930568
 30
0.0
 10
5.9288619523
 20
5.346799867
 30
0.0
 10
5.9391878785
 20
5.3474057483
 30
0.0
 10
5.9483575463
 20
5.3480106413
 30
0.0
 10
5.9552642664
 20
5.3485318985
 30
0.0
 10
5.9601945706
 20
5.3489541228
 30
0.0
 10
5.9634431636
 20
5.3492579573
 30
0.0
 10
5.9663890359
 20
5.3495614836
 30
0.0
 10
5.9690303952
 20
5.3498646175
 30
0.0
 10
5.9713654627
 20
5.3501672242
 30
0.0
 10
5.9733925892
 20
5.3504689922
 30
0.0
 10
5.975110149
 20
5.3507697509
 30
0.0
 10
5.9763451452
 20
5.3510316839
 30
0.0
 10
5.9771753957
 20
5.3512462238
 30
0.0
 10
5.9776835655
 20
5.3513974815
 30
0.0
 10
5.9781142027
 20
5.351548372
 30
0.0
 10
5.9784676272
 20
5.3516988887
 30
0.0
 10
5.9787447997
 20
5.3518490428
 30
0.0
 10
5.9789468301
 20
5.3519999149
 30
0.0
 10
5.97907694
 20
5.352154777
 30
0.0
 10
5.9791107622
 20
5.3522718806
 30
0.0
 10
5.979110773
 20
5.3523243825
 30
0.0
  0
ENDSEC
  0
SECTION
  2
OBJECTS
  0
DICTIONARY
  5
C
100
AcDbDictionary
280
0
281
1
  3
ACAD_GROUP
350
D
  3
ACAD_MLINESTYLE
350
17
  3
ACAD_LAYOUT
350
1A
  3
ACAD_PLOTSETTINGS
350
19
  3
ACAD_PLOTSTYLENAME
350
E
  0
DICTIONARY
  5
D
102
{ACAD_REACTORS
330
C
102
}
100
AcDbDictionary
280
0
281
1
  0
ACDBDICTIONARYWDFLT
  5
E
102
{ACAD_REACTORS
330
C
102
}
100
AcDbDictionary
281
1
  3
Normal
350
F
100
AcDbDictionaryWithDefault
340
F
  0
DICTIONARY
  5
17
102
{ACAD_REACTORS
330
C
102
}
100
AcDbDictionary
280
0
281
1
  3
Standard
350
18
  0
DICTIONARY
  5
19
102
{ACAD_REACTORS
330
C
102
}
100
AcDbDictionary
281
1
  0
DICTIONARY
  5
1A
102
{ACAD_REACTORS
330
C
102
}
100
AcDbDictionary
281
1
  3
Model
350
2C4
  3
Layout1
350
2C5
  0
ACDBPLACEHOLDER
  5
F
102
{ACAD_REACTORS
330
E
102
}
  0
MLINESTYLE
  5
18
102
{ACAD_REACTORS
330
17
102
}
100
AcDbMlineStyle
  2
STANDARD
 70
0
  3

 62
256
 51
90.0
 52
90.0
 71
2
 49
0.5
 62
256
  6
BYLAYER
 49
-0.5
 62
256
  6
BYLAYER
  0
LAYOUT
  5
2C4
102
{ACAD_REACTORS
330
1A
102
}
100
AcDbPlotSettings
  1

  2
none_device
  4
ANSI_A_(11.00_x_8.50_Inches)
  6

 40
0.0
 41
0.0
 42
0.0
 43
0.0
 44
279.4
 45
215.9
 46
0.0
 47
0.0
 48
0.0
 49
0.0
140
0.0
141
0.0
142
1.0
143
1.0
 70
1024
 72
0
 73
0
 74
0
  7

 75
0
147
1.0
148
0.0
149
0.0
100
AcDbLayout
  1
Model
 70
0
 71
0
 10
0.0
 20
0.0
 11
11.0
 21
8.5
 12
0.0
 22
0.0
 32
0.0
 14
0.0
 24
0.0
 34
0.0
 15
0.0
 25
0.0
 35
0.0
146
0.0
 13
0.0
 23
0.0
 33
0.0
 16
1.0
 26
0.0
 36
0.0
 17
0.0
 27
1.0
 37
0.0
 76
0
330
224
345
0
346
0
  0
LAYOUT
  5
2C5
102
{ACAD_REACTORS
330
1A
102
}
100
AcDbPlotSettings
  1

  2
none_device
  4
ANSI_A_(11.00_x_8.50_Inches)
  6

 40
0.0
 41
0.0
 42
0.0
 43
0.0
 44
279.4
 45
215.9
 46
0.0
 47
0.0
 48
0.0
 49
0.0
140
0.0
141
0.0
142
1.0
143
1.0
 70
0
 72
0
 73
0
 74
0
  7

 75
0
147
1.0
148
0.0
149
0.0
100
AcDbLayout
  1
Layout1
 70
0
 71
1
 10
0.0
 20
0.0
 11
11.0
 21
8.5
 12
0.0
 22
0.0
 32
0.0
 14
0.0
 24
0.0
 34
0.0
 15
0.0
 25
0.0
 35
0.0
146
0.0
 13
0.0
 23
0.0
 33
0.0
 16
1.0
 26
0.0
 36
0.0
 17
0.0
 27
1.0
 37
0.0
 76
0
330
225
345
0
346
0
  0
ENDSEC
  0
EOF
