999
DXF file: C:\Prowork\plots\403x-2_top.dxf
999
Pro/ENGINEER 2018500 by Parametric Technology Corporation
  0
SECTION
  2
HEADER
  9
$ACADVER
  1
AC1032
  9
$DWGCODEPAGE
  3
ANSI_1252
  9
$EXTMAX
 10
11.0
 20
8.5
 30
0.0
  9
$EXTMIN
 10
0.0
 20
0.0
 30
0.0
  9
$LIMMIN
 10
0.0
 20
0.0
  9
$LIMMAX
 10
11.0
 20
8.5
  9
$VIEWCTR
 10
5.5
 20
4.25
  9
$VIEWSIZE
 40
8.5
  9
$CLAYER
  8
0
  9
$LTSCALE
 40
0.605
  9
$CELTYPE
  6
BYLAYER
  9
$DIMSCALE
 40
1.0
  9
$DIMASZ
 40
0.1
  9
$DIMEXO
 40
0.0625
  9
$DIMDLI
 40
0.418
  9
$DIMEXE
 40
0.125
  9
$DIMCEN
 40
0.099
  9
$DIMLFAC
 40
1.0
  9
$DIMBLK
  1
_FILLED
  9
$DIMALT
 70
1
  9
$DIMALTD
 70
2
  9
$DIMALTTD
 70
2
  9
$DIMALTF
 40
25.4
  9
$DIMTXT
 40
0.08
  9
$DIMTOL
 70
1
  9
$DIMLIM
 70
0
  9
$DIMTFAC
 40
1.0
  9
$DIMTP
 40
0.001
  9
$DIMTM
 40
0.001
  9
$DIMGAP
 40
0.09
  9
$DIMDSEP
 70
46
  9
$AUNITS
 70
0
  9
$PDMODE
 70
3
  9
$PDSIZE
 40
0.06
  9
$HANDSEED
  5
332
  9
$TILEMODE
 70
1
  9
$MEASUREMENT
 70
0
  9
$INSUNITS
 70
1
  0
ENDSEC
  0
SECTION
  2
CLASSES
  0
CLASS
  1
ACDBDICTIONARYWDFLT
  2
AcDbDictionaryWithDefault
  3
AutoCAD 2000
 90
0
 91
1
280
0
281
0
  0
CLASS
  1
ACDBPLACEHOLDER
  2
AcDbPlaceHolder
  3
AutoCAD 2000
 90
0
 91
1
280
0
281
0
  0
CLASS
  1
LAYOUT
  2
AcDbLayout
  3
AutoCAD 2000
 90
0
 91
0
280
0
281
0
  0
ENDSEC
  0
SECTION
  2
TABLES
  0
TABLE
  2
VPORT
  5
8
100
AcDbSymbolTable
 70
2
  0
VPORT
  5
1F4
100
AcDbSymbolTableRecord
100
AcDbViewportTableRecord
  2
*ACTIVE
 70
0
 10
0.0
 20
0.0
 11
1.0
 21
1.0
 12
5.5
 22
4.25
 13
0.0
 23
0.0
 14
1.0
 24
1.0
 15
0.0
 25
0.0
 16
0.0
 26
0.0
 36
1.0
 17
0.0
 27
0.0
 37
0.0
 40
8.5
 41
1.2941176471
 42
50.0
 43
0.0
 44
0.0
 50
0.0
 51
0.0
 71
0
 72
100
 73
1
 74
1
 75
0
 76
0
 77
0
 78
0
  0
ENDTAB
  0
TABLE
  2
LTYPE
  5
5
100
AcDbSymbolTable
 70
6
  0
LTYPE
  5
14
100
AcDbSymbolTableRecord
100
AcDbLinetypeTableRecord
  2
BYBLOCK
 70
0
  3

 72
65
 73
0
 40
0.0
  0
LTYPE
  5
15
100
AcDbSymbolTableRecord
100
AcDbLinetypeTableRecord
  2
BYLAYER
 70
0
  3

 72
65
 73
0
 40
0.0
  0
LTYPE
  5
16
100
AcDbSymbolTableRecord
100
AcDbLinetypeTableRecord
  2
CONTINUOUS
 70
64
  3
Solid line
 72
65
 73
0
 40
0.0
  0
LTYPE
  5
1F5
100
AcDbSymbolTableRecord
100
AcDbLinetypeTableRecord
  2
CENTER
 70
64
  3
____ _ ____ _ ____ _ ____ _ ____ _ ____ _ ____
 72
65
 73
4
 40
0.6
 49
0.375
 74
0
 49
-0.075
 74
0
 49
0.075
 74
0
 49
-0.075
 74
0
  0
LTYPE
  5
1F6
100
AcDbSymbolTableRecord
100
AcDbLinetypeTableRecord
  2
HIDDEN
 70
64
  3
- - - - - - - - - - - - - - - - - - - -
 72
65
 73
2
 40
0.2
 49
0.1
 74
0
 49
-0.1
 74
0
  0
LTYPE
  5
1F7
100
AcDbSymbolTableRecord
100
AcDbLinetypeTableRecord
  2
PHANTOM
 70
64
  3
_____ _ _ _____ _ _ _____ _ _ _____
 72
65
 73
6
 40
0.8
 49
0.45
 74
0
 49
-0.05
 74
0
 49
0.1
 74
0
 49
-0.05
 74
0
 49
0.1
 74
0
 49
-0.05
 74
0
  0
LTYPE
  5
1F8
100
AcDbSymbolTableRecord
100
AcDbLinetypeTableRecord
  2
DOT
 70
64
  3
. . . . . . . . . . . . . . . . . . . .
 72
65
 73
2
 40
0.2
 49
0.1
 74
0
 49
-0.1
 74
0
  0
LTYPE
  5
1F9
100
AcDbSymbolTableRecord
100
AcDbLinetypeTableRecord
  2
DASHED
 70
64
  3
- - - - - - - - - - - - - - - - - - - -
 72
65
 73
2
 40
0.2
 49
0.1
 74
0
 49
-0.1
 74
0
  0
ENDTAB
  0
TABLE
  2
LAYER
  5
2
100
AcDbSymbolTable
 70
36
  0
LAYER
  5
10
100
AcDbSymbolTableRecord
100
AcDbLayerTableRecord
  2
0
 70
0
 62
7
  6
CONTINUOUS
370
-3
390
F
  0
LAYER
  5
1FA
100
AcDbSymbolTableRecord
100
AcDbLayerTableRecord
  2
DEFAULT_1
 70
0
 62
7
  6
CENTER
370
-3
390
F
  0
LAYER
  5
1FB
100
AcDbSymbolTableRecord
100
AcDbLayerTableRecord
  2
DEFAULT_2
 70
0
 62
8
  6
HIDDEN
370
-3
390
F
  0
LAYER
  5
1FC
100
AcDbSymbolTableRecord
100
AcDbLayerTableRecord
  2
DEFAULT_3
 70
0
 62
7
  6
PHANTOM
370
-3
390
F
  0
LAYER
  5
1FD
100
AcDbSymbolTableRecord
100
AcDbLayerTableRecord
  2
1-134
 70
0
 62
7
  6
CONTINUOUS
370
-3
390
F
  0
LAYER
  5
1FE
100
AcDbSymbolTableRecord
100
AcDbLayerTableRecord
  2
10851
 70
0
 62
7
  6
CONTINUOUS
370
-3
390
F
  0
LAYER
  5
1FF
100
AcDbSymbolTableRecord
100
AcDbLayerTableRecord
  2
10851_1
 70
0
 62
7
  6
CONTINUOUS
370
-3
390
F
  0
LAYER
  5
200
100
AcDbSymbolTableRecord
100
AcDbLayerTableRecord
  2
10851_2
 70
0
 62
7
  6
CONTINUOUS
370
-3
390
F
  0
LAYER
  5
201
100
AcDbSymbolTableRecord
100
AcDbLayerTableRecord
  2
10851_3
 70
0
 62
7
  6
CONTINUOUS
370
-3
390
F
  0
LAYER
  5
202
100
AcDbSymbolTableRecord
100
AcDbLayerTableRecord
  2
50359
 70
0
 62
7
  6
CONTINUOUS
370
-3
390
F
  0
LAYER
  5
203
100
AcDbSymbolTableRecord
100
AcDbLayerTableRecord
  2
50362
 70
0
 62
7
  6
CONTINUOUS
370
-3
390
F
  0
LAYER
  5
204
100
AcDbSymbolTableRecord
100
AcDbLayerTableRecord
  2
50677
 70
0
 62
7
  6
CONTINUOUS
370
-3
390
F
  0
LAYER
  5
205
100
AcDbSymbolTableRecord
100
AcDbLayerTableRecord
  2
50678
 70
0
 62
7
  6
CONTINUOUS
370
-3
390
F
  0
LAYER
  5
206
100
AcDbSymbolTableRecord
100
AcDbLayerTableRecord
  2
50728
 70
0
 62
7
  6
CONTINUOUS
370
-3
390
F
  0
LAYER
  5
207
100
AcDbSymbolTableRecord
100
AcDbLayerTableRecord
  2
50736
 70
0
 62
7
  6
CONTINUOUS
370
-3
390
F
  0
LAYER
  5
208
100
AcDbSymbolTableRecord
100
AcDbLayerTableRecord
  2
50743
 70
0
 62
7
  6
CONTINUOUS
370
-3
390
F
  0
LAYER
  5
209
100
AcDbSymbolTableRecord
100
AcDbLayerTableRecord
  2
6-030
 70
0
 62
7
  6
CONTINUOUS
370
-3
390
F
  0
LAYER
  5
20A
100
AcDbSymbolTableRecord
100
AcDbLayerTableRecord
  2
91022
 70
0
 62
7
  6
CONTINUOUS
370
-3
390
F
  0
LAYER
  5
20B
100
AcDbSymbolTableRecord
100
AcDbLayerTableRecord
  2
ALL_ASSEMBLY_MEMBERS
 70
0
 62
7
  6
CONTINUOUS
370
-3
390
F
  0
LAYER
  5
20C
100
AcDbSymbolTableRecord
100
AcDbLayerTableRecord
  2
COLOR147
 70
0
 62
7
  6
CONTINUOUS
370
-3
390
F
  0
LAYER
  5
20D
100
AcDbSymbolTableRecord
100
AcDbLayerTableRecord
  2
COLOR32
 70
0
 62
7
  6
CONTINUOUS
370
-3
390
F
  0
LAYER
  5
20E
100
AcDbSymbolTableRecord
100
AcDbLayerTableRecord
  2
COLOR54
 70
0
 62
7
  6
CONTINUOUS
370
-3
390
F
  0
LAYER
  5
20F
100
AcDbSymbolTableRecord
100
AcDbLayerTableRecord
  2
COLOR66
 70
0
 62
7
  6
CONTINUOUS
370
-3
390
F
  0
LAYER
  5
210
100
AcDbSymbolTableRecord
100
AcDbLayerTableRecord
  2
DEFAULT_COORDINATE_SYSTEM
 70
0
 62
7
  6
CONTINUOUS
370
-3
390
F
  0
LAYER
  5
211
100
AcDbSymbolTableRecord
100
AcDbLayerTableRecord
  2
DEFAULT_DATUM_AXES
 70
0
 62
7
  6
CONTINUOUS
370
-3
390
F
  0
LAYER
  5
212
100
AcDbSymbolTableRecord
100
AcDbLayerTableRecord
  2
DEFAULT_DATUM_PLANES
 70
0
 62
7
  6
CONTINUOUS
370
-3
390
F
  0
LAYER
  5
213
100
AcDbSymbolTableRecord
100
AcDbLayerTableRecord
  2
INTF_10851
 70
0
 62
7
  6
CONTINUOUS
370
-3
390
F
  0
LAYER
  5
214
100
AcDbSymbolTableRecord
100
AcDbLayerTableRecord
  2
INTF_50359
 70
0
 62
7
  6
CONTINUOUS
370
-3
390
F
  0
LAYER
  5
215
100
AcDbSymbolTableRecord
100
AcDbLayerTableRecord
  2
INTF_50362
 70
0
 62
7
  6
CONTINUOUS
370
-3
390
F
  0
LAYER
  5
216
100
AcDbSymbolTableRecord
100
AcDbLayerTableRecord
  2
INTF_50677
 70
0
 62
7
  6
CONTINUOUS
370
-3
390
F
  0
LAYER
  5
217
100
AcDbSymbolTableRecord
100
AcDbLayerTableRecord
  2
INTF_50678
 70
0
 62
7
  6
CONTINUOUS
370
-3
390
F
  0
LAYER
  5
218
100
AcDbSymbolTableRecord
100
AcDbLayerTableRecord
  2
INTF_50728
 70
0
 62
7
  6
CONTINUOUS
370
-3
390
F
  0
LAYER
  5
219
100
AcDbSymbolTableRecord
100
AcDbLayerTableRecord
  2
INTF_50736
 70
0
 62
7
  6
CONTINUOUS
370
-3
390
F
  0
LAYER
  5
21A
100
AcDbSymbolTableRecord
100
AcDbLayerTableRecord
  2
INTF_50743
 70
0
 62
7
  6
CONTINUOUS
370
-3
390
F
  0
LAYER
  5
21B
100
AcDbSymbolTableRecord
100
AcDbLayerTableRecord
  2
INTF_91022
 70
0
 62
7
  6
CONTINUOUS
370
-3
390
F
  0
LAYER
  5
21C
100
AcDbSymbolTableRecord
100
AcDbLayerTableRecord
  2
INTF_BLANK
 70
0
 62
7
  6
CONTINUOUS
370
-3
390
F
  0
LAYER
  5
21D
100
AcDbSymbolTableRecord
100
AcDbLayerTableRecord
  2
PLATED_SURFACE
 70
0
 62
7
  6
CONTINUOUS
370
-3
390
F
  0
LAYER
  5
21E
100
AcDbSymbolTableRecord
100
AcDbLayerTableRecord
  2
PLATED_SURFACE_1
 70
0
 62
7
  6
CONTINUOUS
370
-3
390
F
  0
LAYER
  5
21F
100
AcDbSymbolTableRecord
100
AcDbLayerTableRecord
  2
QUILT
 70
0
 62
7
  6
CONTINUOUS
370
-3
390
F
  0
LAYER
  5
220
100
AcDbSymbolTableRecord
100
AcDbLayerTableRecord
  2
WETTED_SURFACES
 70
0
 62
7
  6
CONTINUOUS
370
-3
390
F
  0
LAYER
  5
221
100
AcDbSymbolTableRecord
100
AcDbLayerTableRecord
  2
_BLACK_HOLE
 70
0
 62
7
  6
CONTINUOUS
370
-3
390
F
  0
ENDTAB
  0
TABLE
  2
STYLE
  5
3
100
AcDbSymbolTable
 70
1
  0
STYLE
  5
11
100
AcDbSymbolTableRecord
100
AcDbTextStyleTableRecord
  2
STANDARD
 70
0
 40
0.0
 41
0.8
 50
0.0
 71
0
 42
0.2
  3
txt
  4

  0
STYLE
  5
222
100
AcDbSymbolTableRecord
100
AcDbTextStyleTableRecord
  2
TEXTSTYLE_1
 70
0
 40
0.0
 41
0.8
 50
0.0
 71
0
 42
0.2
  3
gdt
  4

  0
ENDTAB
  0
TABLE
  2
VIEW
  5
6
100
AcDbSymbolTable
 70
0
  0
ENDTAB
  0
TABLE
  2
UCS
  5
7
100
AcDbSymbolTable
 70
0
  0
ENDTAB
  0
TABLE
  2
APPID
  5
9
100
AcDbSymbolTable
 70
1
  0
APPID
  5
223
100
AcDbSymbolTableRecord
100
AcDbRegAppTableRecord
  2
ACAD
 70
0
  0
ENDTAB
  0
TABLE
  2
BLOCK_RECORD
  5
1
100
AcDbSymbolTable
 70
0
  0
BLOCK_RECORD
  5
224
100
AcDbSymbolTableRecord
100
AcDbBlockTableRecord
  2
*Model_Space
  0
BLOCK_RECORD
  5
225
100
AcDbSymbolTableRecord
100
AcDbBlockTableRecord
  2
*Paper_Space
  0
BLOCK_RECORD
  5
226
100
AcDbSymbolTableRecord
100
AcDbBlockTableRecord
  2
_FILLED
  0
ENDTAB
  0
TABLE
  2
DIMSTYLE
  5
A
100
AcDbSymbolTable
 70
1
100
AcDbDimStyleTable
 71
0
  0
DIMSTYLE
105
227
100
AcDbSymbolTableRecord
100
AcDbDimStyleTableRecord
  2
STANDARD
 70
0
  3

  4

 40
1.0
 41
0.1
 42
0.0625
 43
0.38
 44
0.125
 45
0.0
 46
0.0
 47
0.001
 48
0.001
140
0.08
141
0.09
142
0.0
143
25.4
144
1.0
145
0.0
146
1.0
147
0.09
 71
1.0
 72
0.0
 73
1
 74
1
 75
0
 76
0
 77
0
 78
4
 79
1
170
1
171
2
172
0
173
0
174
0
175
0
176
0
177
0
178
0
270
2
179
3
271
3
272
3
273
2
274
2
275
0
280
0
281
0
282
0
283
1
284
4
285
0
286
0
287
3
288
0
340
11
278
46
341
226
342
226
343
226
344
226
  0
ENDTAB
  0
ENDSEC
  0
SECTION
  2
BLOCKS
  0
BLOCK
  5
20
100
AcDbEntity
  8
0
100
AcDbBlockBegin
  2
*Model_Space
 70
0
 10
0.0
 20
0.0
 30
0.0
  3
*Model_Space
  1

  0
ENDBLK
  5
21
100
AcDbEntity
  8
0
100
AcDbBlockEnd
  0
BLOCK
  5
1C
100
AcDbEntity
  8
0
100
AcDbBlockBegin
  2
*Paper_Space
 70
0
 10
0.0
 20
0.0
 30
0.0
  3
*Paper_Space
  1

  0
ENDBLK
  5
1D
100
AcDbEntity
  8
0
100
AcDbBlockEnd
  0
BLOCK
  5
228
100
AcDbEntity
  8
0
100
AcDbBlockBegin
  2
_FILLED
 70
64
 10
0.0
 20
0.0
  3
_FILLED
  1

  0
SOLID
  5
229
100
AcDbEntity
  8
0
  6
BYBLOCK
 62
0
100
AcDbTrace
 10
0.0
 20
0.0
 11
-1.0
 21
0.2
 12
-1.0
 22
-0.2
 13
-1.0
 23
-0.2
  0
ENDBLK
  5
22A
100
AcDbEntity
  8
0
  6
BYBLOCK
 62
0
100
AcDbBlockEnd
  0
ENDSEC
  0
SECTION
  2
ENTITIES
  0
MTEXT
  5
22B
100
AcDbEntity
  8
0
100
AcDbMText
 62
7
  6
CONTINUOUS
  7
STANDARD
 71
1
 72
1
 10
9.7255628882
 20
0.306556677
 30
0.0
 11
1.0
 21
0.0
 31
0.0
 73
2
 44
0.9
  1
SCALE: 1.875
 40
0.08
 41
0.768
  0
LINE
  5
22C
100
AcDbEntity
  8
0
100
AcDbLine
 62
7
  6
CONTINUOUS
 10
0.0
 20
0.0
 11
0.0
 21
8.5
  0
LINE
  5
22D
100
AcDbEntity
  8
0
100
AcDbLine
 62
7
  6
CONTINUOUS
 10
0.0
 20
0.0
 11
11.0
 21
0.0
  0
LINE
  5
22E
100
AcDbEntity
  8
0
100
AcDbLine
 62
7
  6
CONTINUOUS
 10
0.0
 20
8.5
 11
11.0
 21
8.5
  0
LINE
  5
22F
100
AcDbEntity
  8
0
100
AcDbLine
 62
7
  6
CONTINUOUS
 10
11.0
 20
0.0
 11
11.0
 21
8.5
  0
LINE
  5
230
100
AcDbEntity
  8
0
100
AcDbLine
 62
9
  6
CONTINUOUS
 10
5.0202840496
 20
0.2921733176
 11
6.3140715405
 21
0.2921733176
  0
LINE
  5
231
100
AcDbEntity
  8
0
100
AcDbLine
 62
7
  6
CONTINUOUS
 10
4.889052795
 20
0.4781127438
 11
6.445302795
 21
0.4781127438
  0
LINE
  5
232
100
AcDbEntity
  8
0
100
AcDbLine
 62
7
  6
CONTINUOUS
 10
4.851552795
 20
0.4997633789
 11
6.482802795
 21
0.4997633789
  0
LINE
  5
233
100
AcDbEntity
  8
0
100
AcDbLine
 62
7
  6
CONTINUOUS
 10
6.482802795
 20
0.5560133789
 11
4.851552795
 21
0.5560133789
  0
LINE
  5
234
100
AcDbEntity
  8
0
100
AcDbLine
 62
7
  6
CONTINUOUS
 10
6.445302795
 20
0.577664014
 11
4.889052795
 21
0.577664014
  0
LINE
  5
235
100
AcDbEntity
  8
0
100
AcDbLine
 62
7
  6
CONTINUOUS
 10
4.851552795
 20
0.671414014
 11
6.482802795
 21
0.671414014
  0
LINE
  5
236
100
AcDbEntity
  8
0
100
AcDbLine
 62
7
  6
CONTINUOUS
 10
4.889052795
 20
0.4781127438
 11
4.851552795
 21
0.4997633789
  0
LINE
  5
237
100
AcDbEntity
  8
0
100
AcDbLine
 62
7
  6
CONTINUOUS
 10
6.482802795
 20
1.627664014
 11
4.851552795
 21
1.627664014
  0
LINE
  5
238
100
AcDbEntity
  8
0
100
AcDbLine
 62
7
  6
CONTINUOUS
 10
6.482802795
 20
0.5560133789
 11
6.445302795
 21
0.577664014
  0
LINE
  5
239
100
AcDbEntity
  8
0
100
AcDbLine
 62
7
  6
CONTINUOUS
 10
4.7667087421
 20
7.0034471056
 11
4.6436069399
 21
6.8538468808
  0
LINE
  5
23A
100
AcDbEntity
  8
0
100
AcDbLine
 62
7
  6
CONTINUOUS
 10
4.889052795
 20
1.721414014
 11
6.445302795
 21
1.721414014
  0
LINE
  5
23B
100
AcDbEntity
  8
0
100
AcDbLine
 62
9
  6
CONTINUOUS
 10
4.810363904
 20
1.7862166301
 11
6.5239916861
 21
1.7862166301
  0
LINE
  5
23C
100
AcDbEntity
  8
0
100
AcDbLine
 62
9
  6
CONTINUOUS
 10
4.8342242302
 20
1.852664014
 11
6.5001313598
 21
1.852664014
  0
LINE
  5
23D
100
AcDbEntity
  8
0
100
AcDbLine
 62
7
  6
CONTINUOUS
 10
6.510390228
 20
1.890164014
 11
4.823965362
 21
1.890164014
  0
LINE
  5
23E
100
AcDbEntity
  8
0
100
AcDbLine
 62
9
  6
CONTINUOUS
 10
4.7889632495
 20
1.9411214326
 11
6.5453923406
 21
1.9411214326
  0
LINE
  5
23F
100
AcDbEntity
  8
0
100
AcDbLine
 62
7
  6
CONTINUOUS
 10
4.889052795
 20
1.721414014
 11
4.810363904
 21
1.7862166301
  0
LINE
  5
240
100
AcDbEntity
  8
0
100
AcDbLine
 62
7
  6
CONTINUOUS
 10
4.8810648886
 20
1.4249797285
 11
4.9145261419
 21
1.3789029032
  0
LINE
  5
241
100
AcDbEntity
  8
0
100
AcDbLine
 62
7
  6
CONTINUOUS
 10
4.889052795
 20
0.577664014
 11
4.851552795
 21
0.671414014
  0
LINE
  5
242
100
AcDbEntity
  8
0
100
AcDbLine
 62
9
  6
CONTINUOUS
 10
6.6413171577
 20
2.6547269185
 11
6.3269558677
 21
2.6547269185
  0
LINE
  5
243
100
AcDbEntity
  8
0
100
AcDbLine
 62
9
  6
CONTINUOUS
 10
5.0073997224
 20
2.6547269185
 11
4.6930384324
 21
2.6547269185
  0
LINE
  5
244
100
AcDbEntity
  8
0
100
AcDbLine
 62
7
  6
CONTINUOUS
 10
6.0054689684
 20
2.785476514
 11
5.3288866217
 21
2.785476514
  0
LINE
  5
245
100
AcDbEntity
  8
0
100
AcDbLine
 62
7
  6
CONTINUOUS
 10
6.4532907014
 20
0.8740982995
 11
6.4198294482
 21
0.9201751247
  0
LINE
  5
246
100
AcDbEntity
  8
0
100
AcDbLine
 62
7
  6
CONTINUOUS
 10
4.7199625096
 20
8.363601514
 11
4.7199625096
 21
7.308914014
  0
LINE
  5
247
100
AcDbEntity
  8
0
100
AcDbLine
 62
7
  6
CONTINUOUS
 10
5.3288866217
 20
2.785476514
 11
4.9905954483
 21
3.371414014
  0
LINE
  5
248
100
AcDbEntity
  8
0
100
AcDbLine
 62
7
  6
CONTINUOUS
 10
4.638903023
 20
4.8139182106
 11
4.7296094455
 21
4.2412203978
  0
LINE
  5
249
100
AcDbEntity
  8
0
100
AcDbLine
 62
7
  6
CONTINUOUS
 10
4.851552795
 20
0.4997633789
 11
4.851552795
 21
0.5560133789
  0
LINE
  5
24A
100
AcDbEntity
  8
0
100
AcDbLine
 62
7
  6
CONTINUOUS
 10
4.851552795
 20
0.671414014
 11
4.851552795
 21
0.7863603403
  0
LINE
  5
24B
100
AcDbEntity
  8
0
100
AcDbLine
 62
7
  6
CONTINUOUS
 10
4.851552795
 20
1.5126352779
 11
4.851552795
 21
1.627664014
  0
LINE
  5
24C
100
AcDbEntity
  8
0
100
AcDbLine
 62
7
  6
CONTINUOUS
 10
4.964052795
 20
1.852664014
 11
4.964052795
 21
1.890164014
  0
LINE
  5
24D
100
AcDbEntity
  8
0
100
AcDbLine
 62
7
  6
CONTINUOUS
 10
4.979052795
 20
7.177664014
 11
4.979052795
 21
7.308914014
  0
LINE
  5
24E
100
AcDbEntity
  8
0
100
AcDbLine
 62
7
  6
CONTINUOUS
 10
5.1935701523
 20
8.363601514
 11
5.1935701523
 21
7.308914014
  0
LINE
  5
24F
100
AcDbEntity
  8
0
100
AcDbLine
 62
7
  6
CONTINUOUS
 10
5.3288866217
 20
3.957351514
 11
6.0054689684
 21
3.957351514
  0
LINE
  5
250
100
AcDbEntity
  8
0
100
AcDbLine
 62
7
  6
CONTINUOUS
 10
4.7667087421
 20
7.0034471056
 11
4.7393059034
 21
7.1323673256
  0
LINE
  5
251
100
AcDbEntity
  8
0
100
AcDbLine
 62
7
  6
CONTINUOUS
 10
4.9905954483
 20
3.371414014
 11
5.3288866217
 21
3.957351514
  0
LINE
  5
252
100
AcDbEntity
  8
0
100
AcDbLine
 62
9
  6
CONTINUOUS
 10
4.692177795
 20
4.0869298353
 11
5.0061240105
 21
4.0869298353
  0
LINE
  5
253
100
AcDbEntity
  8
0
100
AcDbLine
 62
9
  6
CONTINUOUS
 10
6.3282317864
 20
4.0869298353
 11
6.642177795
 21
4.0869298353
  0
LINE
  5
254
100
AcDbEntity
  8
0
100
AcDbLine
 62
9
  6
CONTINUOUS
 10
6.6047461446
 20
4.2412203978
 11
6.1798207418
 21
4.2412203978
  0
LINE
  5
255
100
AcDbEntity
  8
0
100
AcDbLine
 62
9
  6
CONTINUOUS
 10
5.1545348483
 20
4.2412203978
 11
4.7296094455
 21
4.2412203978
  0
LINE
  5
256
100
AcDbEntity
  8
0
100
AcDbLine
 62
7
  6
CONTINUOUS
 10
6.482802795
 20
1.627664014
 11
6.445302795
 21
1.721414014
  0
LINE
  5
257
100
AcDbEntity
  8
0
100
AcDbLine
 62
7
  6
CONTINUOUS
 10
6.5950496867
 20
7.1323673256
 11
6.567646848
 21
7.0034471056
  0
LINE
  5
258
100
AcDbEntity
  8
0
100
AcDbLine
 62
7
  6
CONTINUOUS
 10
4.851552795
 20
1.627664014
 11
4.889052795
 21
1.721414014
  0
LINE
  5
259
100
AcDbEntity
  8
0
100
AcDbLine
 62
7
  6
CONTINUOUS
 10
6.0054689684
 20
3.957351514
 11
6.3437601417
 21
3.371414014
  0
LINE
  5
25A
100
AcDbEntity
  8
0
100
AcDbLine
 62
7
  6
CONTINUOUS
 10
6.1407854377
 20
8.363601514
 11
6.1407854377
 21
7.308914014
  0
LINE
  5
25B
100
AcDbEntity
  8
0
100
AcDbLine
 62
9
  6
CONTINUOUS
 10
6.6954525671
 20
4.8139182106
 11
4.638903023
 21
4.8139182106
  0
LINE
  5
25C
100
AcDbEntity
  8
0
100
AcDbLine
 62
9
  6
CONTINUOUS
 10
4.6691851676
 20
4.8566708717
 11
6.6651704224
 21
4.8566708717
  0
LINE
  5
25D
100
AcDbEntity
  8
0
100
AcDbLine
 62
7
  6
CONTINUOUS
 10
6.355302795
 20
7.177664014
 11
6.355302795
 21
7.308914014
  0
LINE
  5
25E
100
AcDbEntity
  8
0
100
AcDbLine
 62
7
  6
CONTINUOUS
 10
6.370302795
 20
1.852664014
 11
6.370302795
 21
1.890164014
  0
LINE
  5
25F
100
AcDbEntity
  8
0
100
AcDbLine
 62
7
  6
CONTINUOUS
 10
6.482802795
 20
0.4997633789
 11
6.482802795
 21
0.5560133789
  0
LINE
  5
260
100
AcDbEntity
  8
0
100
AcDbLine
 62
7
  6
CONTINUOUS
 10
6.482802795
 20
0.671414014
 11
6.482802795
 21
0.78644275
  0
LINE
  5
261
100
AcDbEntity
  8
0
100
AcDbLine
 62
7
  6
CONTINUOUS
 10
6.482802795
 20
1.5127176877
 11
6.482802795
 21
1.627664014
  0
LINE
  5
262
100
AcDbEntity
  8
0
100
AcDbLine
 62
9
  6
CONTINUOUS
 10
6.5868614413
 20
4.9787016415
 11
4.7474941487
 21
4.9787016415
  0
LINE
  5
263
100
AcDbEntity
  8
0
100
AcDbLine
 62
7
  6
CONTINUOUS
 10
6.6143930804
 20
8.363601514
 11
6.6143930804
 21
7.308914014
  0
LINE
  5
264
100
AcDbEntity
  8
0
100
AcDbLine
 62
7
  6
CONTINUOUS
 10
6.6047461446
 20
4.2412203978
 11
6.6954525671
 21
4.8139182106
  0
LINE
  5
265
100
AcDbEntity
  8
0
100
AcDbLine
 62
7
  6
CONTINUOUS
 10
6.3437601417
 20
3.371414014
 11
6.0054689684
 21
2.785476514
  0
LINE
  5
266
100
AcDbEntity
  8
0
100
AcDbLine
 62
7
  6
CONTINUOUS
 10
4.8810648886
 20
0.8740982995
 11
4.9145261419
 21
0.9201751247
  0
LINE
  5
267
100
AcDbEntity
  8
0
100
AcDbLine
 62
7
  6
CONTINUOUS
 10
6.445302795
 20
0.577664014
 11
6.482802795
 21
0.671414014
  0
LINE
  5
268
100
AcDbEntity
  8
0
100
AcDbLine
 62
7
  6
CONTINUOUS
 10
6.4532907014
 20
1.4249797285
 11
6.4198294482
 21
1.3789029032
  0
LINE
  5
269
100
AcDbEntity
  8
0
100
AcDbLine
 62
9
  6
CONTINUOUS
 10
4.7474941487
 20
6.6391263865
 11
6.5868614413
 21
6.6391263865
  0
LINE
  5
26A
100
AcDbEntity
  8
0
100
AcDbLine
 62
7
  6
CONTINUOUS
 10
6.445302795
 20
1.721414014
 11
6.5239916861
 21
1.7862166301
  0
LINE
  5
26B
100
AcDbEntity
  8
0
100
AcDbLine
 62
9
  6
CONTINUOUS
 10
6.6711608253
 20
6.7937084151
 11
4.6631947647
 21
6.7937084151
  0
LINE
  5
26C
100
AcDbEntity
  8
0
100
AcDbLine
 62
9
  6
CONTINUOUS
 10
4.6436069399
 20
6.8538468808
 11
6.6907486501
 21
6.8538468808
  0
LINE
  5
26D
100
AcDbEntity
  8
0
100
AcDbLine
 62
7
  6
CONTINUOUS
 10
6.6907486501
 20
6.8538468808
 11
6.567646848
 21
7.0034471056
  0
LINE
  5
26E
100
AcDbEntity
  8
0
100
AcDbLine
 62
7
  6
CONTINUOUS
 10
4.851552795
 20
0.5560133789
 11
4.889052795
 21
0.577664014
  0
LINE
  5
26F
100
AcDbEntity
  8
0
100
AcDbLine
 62
7
  6
CONTINUOUS
 10
4.7667087421
 20
7.0034471056
 11
6.567646848
 21
7.0034471056
  0
LINE
  5
270
100
AcDbEntity
  8
0
100
AcDbLine
 62
9
  6
CONTINUOUS
 10
6.5950496867
 20
7.1323673256
 11
4.7393059034
 21
7.1323673256
  0
LINE
  5
271
100
AcDbEntity
  8
0
100
AcDbLine
 62
7
  6
CONTINUOUS
 10
4.7759864384
 20
7.177664014
 11
6.5583691517
 21
7.177664014
  0
LINE
  5
272
100
AcDbEntity
  8
0
100
AcDbLine
 62
7
  6
CONTINUOUS
 10
6.6143930804
 20
7.308914014
 11
4.7199625096
 21
7.308914014
  0
LINE
  5
273
100
AcDbEntity
  8
0
100
AcDbLine
 62
7
  6
CONTINUOUS
 10
6.445302795
 20
0.4781127438
 11
6.482802795
 21
0.4997633789
  0
LINE
  5
274
100
AcDbEntity
  8
0
100
AcDbLine
 62
7
  6
CONTINUOUS
 10
6.6143930804
 20
8.363601514
 11
4.7199625096
 21
8.363601514
  0
ARC
  5
275
100
AcDbEntity
  8
0
100
AcDbCircle
 62
7
  6
CONTINUOUS
 10
4.5017774313
 20
1.149539014
 40
0.46875
100
AcDbArc
 50
35.9873668392
 51
324.0126331608
  0
ARC
  5
276
100
AcDbEntity
  8
0
100
AcDbCircle
 62
9
  6
CONTINUOUS
 10
4.5523099237
 20
1.1081083888
 40
0.4036811218
100
AcDbArc
 50
329.3684465893
 51
333.6660291333
  0
ARC
  5
277
100
AcDbEntity
  8
0
100
AcDbCircle
 62
9
  6
CONTINUOUS
 10
4.5823407824
 20
1.0904744922
 40
0.3688560032
100
AcDbArc
 50
324.0828869971
 51
329.348580415
  0
ARC
  5
278
100
AcDbEntity
  8
0
100
AcDbCircle
 62
9
  6
CONTINUOUS
 10
4.5568833157
 20
1.1934510071
 40
0.3984816464
100
AcDbArc
 50
26.3059195585
 51
30.659604719
  0
ARC
  5
279
100
AcDbEntity
  8
0
100
AcDbCircle
 62
7
  6
CONTINUOUS
 10
4.6187642128
 20
1.141204594
 40
0.4595995368
100
AcDbArc
 50
342.9532330616
 51
345.9255408259
  0
ARC
  5
27A
100
AcDbEntity
  8
0
100
AcDbCircle
 62
9
  6
CONTINUOUS
 10
4.6208382981
 20
1.1406677127
 40
0.4574576912
100
AcDbArc
 50
342.0647382393
 51
345.9275777749
  0
ARC
  5
27B
100
AcDbEntity
  8
0
100
AcDbCircle
 62
7
  6
CONTINUOUS
 10
4.6285259574
 20
1.1382825337
 40
0.4494100636
100
AcDbArc
 50
341.5029413918
 51
342.9445643439
  0
ARC
  5
27C
100
AcDbEntity
  8
0
100
AcDbCircle
 62
7
  6
CONTINUOUS
 10
4.6349773521
 20
1.1361442911
 40
0.4426135784
100
AcDbArc
 50
340.483292387
 51
341.5004866935
  0
ARC
  5
27D
100
AcDbEntity
  8
0
100
AcDbCircle
 62
9
  6
CONTINUOUS
 10
4.6373923745
 20
1.1354954137
 40
0.4401153254
100
AcDbArc
 50
340.6645155629
 51
342.0417286541
  0
ARC
  5
27E
100
AcDbEntity
  8
0
100
AcDbCircle
 62
9
  6
CONTINUOUS
 10
4.6493069991
 20
1.1313109309
 40
0.427487255
100
AcDbArc
 50
338.2131137555
 51
340.6649904344
  0
ARC
  5
27F
100
AcDbEntity
  8
0
100
AcDbCircle
 62
9
  6
CONTINUOUS
 10
4.6626162938
 20
1.1260819766
 40
0.413187887
100
AcDbArc
 50
336.8501207182
 51
338.2014155972
  0
ARC
  5
280
100
AcDbEntity
  8
0
100
AcDbCircle
 62
7
  6
CONTINUOUS
 10
4.6206174373
 20
1.1583890419
 40
0.457676561
100
AcDbArc
 50
14.0682676538
 51
17.052324922
  0
ARC
  5
281
100
AcDbEntity
  8
0
100
AcDbCircle
 62
9
  6
CONTINUOUS
 10
4.6231911273
 20
1.1590931982
 40
0.4550094397
100
AcDbArc
 50
14.0610510825
 51
17.5885232167
  0
ARC
  5
282
100
AcDbEntity
  8
0
100
AcDbCircle
 62
7
  6
CONTINUOUS
 10
4.6296836083
 20
1.1611658794
 40
0.4481946694
100
AcDbArc
 50
17.0528168584
 51
18.4947318221
  0
ARC
  5
283
100
AcDbEntity
  8
0
100
AcDbCircle
 62
9
  6
CONTINUOUS
 10
4.6327041407
 20
1.1620547333
 40
0.4450462374
100
AcDbArc
 50
17.5951592367
 51
17.9611848115
  0
ARC
  5
284
100
AcDbEntity
  8
0
100
AcDbCircle
 62
7
  6
CONTINUOUS
 10
4.6358819352
 20
1.1632445695
 40
0.4416570718
100
AcDbArc
 50
18.4940683691
 51
19.5181767315
  0
ARC
  5
285
100
AcDbEntity
  8
0
100
AcDbCircle
 62
9
  6
CONTINUOUS
 10
4.6370233157
 20
1.1634653089
 40
0.4405025719
100
AcDbArc
 50
17.9598949478
 51
18.8436817026
  0
ARC
  5
286
100
AcDbEntity
  8
0
100
AcDbCircle
 62
9
  6
CONTINUOUS
 10
4.6412409599
 20
1.1649047512
 40
0.4360460579
100
AcDbArc
 50
18.8436754781
 51
19.3503099992
  0
ARC
  5
287
100
AcDbEntity
  8
0
100
AcDbCircle
 62
9
  6
CONTINUOUS
 10
4.6444886354
 20
1.1660478524
 40
0.4326030838
100
AcDbArc
 50
19.3499877281
 51
19.845170816
  0
ARC
  5
288
100
AcDbEntity
  8
0
100
AcDbCircle
 62
9
  6
CONTINUOUS
 10
4.6535178313
 20
1.1693691784
 40
0.4229825827
100
AcDbArc
 50
19.8371983656
 51
21.8031192638
  0
ARC
  5
289
100
AcDbEntity
  8
0
100
AcDbCircle
 62
9
  6
CONTINUOUS
 10
4.6638958833
 20
1.1735254385
 40
0.4118032069
100
AcDbArc
 50
21.8025146846
 51
23.1666945462
  0
ARC
  5
28A
100
AcDbEntity
  8
0
100
AcDbCircle
 62
9
  6
CONTINUOUS
 10
4.5878534073
 20
1.2122224869
 40
0.3622687115
100
AcDbArc
 50
30.6035107203
 51
35.9650218675
  0
ARC
  5
28B
100
AcDbEntity
  8
0
100
AcDbCircle
 62
7
  6
CONTINUOUS
 10
4.0889209982
 20
2.2102698051
 40
0.75
100
AcDbArc
 50
338.9695227533
 51
36.3424046393
  0
ARC
  5
28C
100
AcDbEntity
  8
0
100
AcDbCircle
 62
9
  6
CONTINUOUS
 10
5.00706762
 20
1.1760281478
 40
0.3966749831
100
AcDbArc
 50
22.2023099857
 51
26.3148100204
  0
ARC
  5
28D
100
AcDbEntity
  8
0
100
AcDbCircle
 62
9
  6
CONTINUOUS
 10
5.0100814709
 20
1.1216867593
 40
0.3933695188
100
AcDbArc
 50
333.8795273093
 51
337.8156323065
  0
ARC
  5
28E
100
AcDbEntity
  8
0
100
AcDbCircle
 62
9
  6
CONTINUOUS
 10
5.0196824933
 20
1.1170530316
 40
0.3827090065
100
AcDbArc
 50
333.6527320712
 51
333.869577535
  0
ARC
  5
28F
100
AcDbEntity
  8
0
100
AcDbCircle
 62
9
  6
CONTINUOUS
 10
5.0306567048
 20
1.1875559905
 40
0.3704200855
100
AcDbArc
 50
26.3339708668
 51
30.6315534108
  0
ARC
  5
290
100
AcDbEntity
  8
0
100
AcDbCircle
 62
9
  6
CONTINUOUS
 10
5.0329091435
 20
1.1102811997
 40
0.3678509753
100
AcDbArc
 50
329.9087829261
 51
333.6836111541
  0
ARC
  5
291
100
AcDbEntity
  8
0
100
AcDbCircle
 62
9
  6
CONTINUOUS
 10
5.0440084419
 20
1.1039219422
 40
0.3550591614
100
AcDbArc
 50
329.3259538683
 51
329.8986592708
  0
ARC
  5
292
100
AcDbEntity
  8
0
100
AcDbCircle
 62
9
  6
CONTINUOUS
 10
5.0505498732
 20
1.1990597385
 40
0.3474415236
100
AcDbArc
 50
30.6706929038
 51
32.7795575228
  0
ARC
  5
293
100
AcDbEntity
  8
0
100
AcDbCircle
 62
7
  6
CONTINUOUS
 10
5.0533443263
 20
1.2004581571
 40
0.3394186271
100
AcDbArc
 50
63.6858181787
 51
64.4383924065
  0
ARC
  5
294
100
AcDbEntity
  8
0
100
AcDbCircle
 62
7
  6
CONTINUOUS
 10
5.0537371206
 20
1.0978110038
 40
0.3385194935
100
AcDbArc
 50
295.5603018287
 51
296.3235502927
  0
ARC
  5
295
100
AcDbEntity
  8
0
100
AcDbCircle
 62
9
  6
CONTINUOUS
 10
5.0595347032
 20
1.2047710008
 40
0.3367953206
100
AcDbArc
 50
32.7902175217
 51
33.5460857936
  0
ARC
  5
296
100
AcDbEntity
  8
0
100
AcDbCircle
 62
7
  6
CONTINUOUS
 10
5.0563145006
 20
1.2066648221
 40
0.3325378841
100
AcDbArc
 50
64.4386334453
 51
65.6270249977
  0
ARC
  5
297
100
AcDbEntity
  8
0
100
AcDbCircle
 62
7
  6
CONTINUOUS
 10
5.0569364304
 20
1.091076019
 40
0.3310632741
100
AcDbArc
 50
294.3696453112
 51
295.563708316
  0
ARC
  5
298
100
AcDbEntity
  8
0
100
AcDbCircle
 62
7
  6
CONTINUOUS
 10
4.7342957747
 20
1.2151092215
 40
0.3299661358
100
AcDbArc
 50
36.5420247338
 51
37.1915407368
  0
ARC
  5
299
100
AcDbEntity
  8
0
100
AcDbCircle
 62
7
  6
CONTINUOUS
 10
5.2482095002
 20
1.2153851547
 40
0.3237800798
100
AcDbArc
 50
140.6112397848
 51
141.4461736684
  0
ARC
  5
29A
100
AcDbEntity
  8
0
100
AcDbCircle
 62
7
  6
CONTINUOUS
 10
5.2477194624
 20
1.083296401
 40
0.3231497498
100
AcDbArc
 50
218.549255206
 51
219.3759817094
  0
ARC
  5
29B
100
AcDbEntity
  8
0
100
AcDbCircle
 62
7
  6
CONTINUOUS
 10
5.0618108727
 20
1.2188345192
 40
0.3191845557
100
AcDbArc
 50
65.6242244989
 51
68.2836982295
  0
ARC
  5
29C
100
AcDbEntity
  8
0
100
AcDbCircle
 62
7
  6
CONTINUOUS
 10
5.0630914274
 20
1.0772319476
 40
0.3159130076
100
AcDbArc
 50
291.7116242896
 51
294.3888275675
  0
ARC
  5
29D
100
AcDbEntity
  8
0
100
AcDbCircle
 62
9
  6
CONTINUOUS
 10
5.2264537371
 20
1.0718870469
 40
0.2988205618
100
AcDbArc
 50
219.3580086512
 51
220.2468545062
  0
ARC
  5
29E
100
AcDbEntity
  8
0
100
AcDbCircle
 62
9
  6
CONTINUOUS
 10
5.2261384407
 20
1.2274544801
 40
0.2984096729
100
AcDbArc
 50
139.8735111706
 51
140.6383473805
  0
ARC
  5
29F
100
AcDbEntity
  8
0
100
AcDbCircle
 62
7
  6
CONTINUOUS
 10
5.2165897917
 20
1.3066142924
 40
0.2295772273
100
AcDbArc
 50
117.1277064753
 51
118.8456840609
  0
ARC
  5
2A0
100
AcDbEntity
  8
0
100
AcDbCircle
 62
7
  6
CONTINUOUS
 10
5.2162083191
 20
0.991745748
 40
0.2287643001
100
AcDbArc
 50
241.1527579086
 51
242.8636220404
  0
ARC
  5
2A1
100
AcDbEntity
  8
0
100
AcDbCircle
 62
7
  6
CONTINUOUS
 10
5.0457323159
 20
0.4494135797
 40
0.1592862651
100
AcDbArc
 50
169.6201340777
 51
260.8067816086
  0
ARC
  5
2A2
100
AcDbEntity
  8
0
100
AcDbCircle
 62
7
  6
CONTINUOUS
 10
4.834202926
 20
1.815164014
 40
0.0375
100
AcDbArc
 50
90.0
 51
230.5275401516
  0
ARC
  5
2A3
100
AcDbEntity
  8
0
100
AcDbCircle
 62
7
  6
CONTINUOUS
 10
4.823965362
 20
1.927664014
 40
0.0375
100
AcDbArc
 50
158.9695227421
 51
270.0
  0
ARC
  5
2A4
100
AcDbEntity
  8
0
100
AcDbCircle
 62
7
  6
CONTINUOUS
 10
4.617177795
 20
5.808914014
 40
2.1375
100
AcDbArc
 50
337.1448062398
 51
22.8551937602
  0
ARC
  5
2A5
100
AcDbEntity
  8
0
100
AcDbCircle
 62
7
  6
CONTINUOUS
 10
4.5258987253
 20
4.2089557894
 40
0.20625
100
AcDbArc
 50
323.7264555496
 51
9.0
  0
ARC
  5
2A6
100
AcDbEntity
  8
0
100
AcDbCircle
 62
7
  6
CONTINUOUS
 10
4.7759864384
 20
7.140164014
 40
0.0375
100
AcDbArc
 50
90.0
 51
192.0000000025
  0
ARC
  5
2A7
100
AcDbEntity
  8
0
100
AcDbCircle
 62
7
  6
CONTINUOUS
 10
4.6725636664
 20
6.830019208
 40
0.0375
100
AcDbArc
 50
140.5499999995
 51
255.5321107568
  0
ARC
  5
2A8
100
AcDbEntity
  8
0
100
AcDbCircle
 62
7
  6
CONTINUOUS
 10
4.6759413357
 20
4.819784503
 40
0.0375
100
AcDbArc
 50
100.3793406087
 51
189.0000000002
  0
ARC
  5
2A9
100
AcDbEntity
  8
0
100
AcDbCircle
 62
7
  6
CONTINUOUS
 10
6.27930311
 20
1.0965570949
 40
0.327723324
100
AcDbArc
 50
243.5588351609
 51
244.5262415281
  0
ARC
  5
2AA
100
AcDbEntity
  8
0
100
AcDbCircle
 62
7
  6
CONTINUOUS
 10
6.2788121902
 20
1.2035294558
 40
0.3266017183
100
AcDbArc
 50
115.4716308261
 51
116.4497277898
  0
ARC
  5
2AB
100
AcDbEntity
  8
0
100
AcDbCircle
 62
7
  6
CONTINUOUS
 10
6.0861460899
 20
1.0836928732
 40
0.3237800798
100
AcDbArc
 50
320.6112397848
 51
321.4461736684
  0
ARC
  5
2AC
100
AcDbEntity
  8
0
100
AcDbCircle
 62
7
  6
CONTINUOUS
 10
6.0866361277
 20
1.215781627
 40
0.3231497497
100
AcDbArc
 50
38.5492552059
 51
39.3759817095
  0
ARC
  5
2AD
100
AcDbEntity
  8
0
100
AcDbCircle
 62
7
  6
CONTINUOUS
 10
6.2768773265
 20
1.0914948982
 40
0.3221099385
100
AcDbArc
 50
244.5285033394
 51
245.0777293205
  0
ARC
  5
2AE
100
AcDbEntity
  8
0
100
AcDbCircle
 62
7
  6
CONTINUOUS
 10
6.2765985472
 20
1.2081759259
 40
0.3214548844
100
AcDbArc
 50
114.9211302186
 51
115.4715964156
  0
ARC
  5
2AF
100
AcDbEntity
  8
0
100
AcDbCircle
 62
7
  6
CONTINUOUS
 10
6.2721167684
 20
1.0811450877
 40
0.3107178588
100
AcDbArc
 50
245.0696096779
 51
248.1566941463
  0
ARC
  5
2B0
100
AcDbEntity
  8
0
100
AcDbCircle
 62
7
  6
CONTINUOUS
 10
6.2706687317
 20
1.2212816834
 40
0.3070708072
100
AcDbArc
 50
111.8323091935
 51
114.948128475
  0
ARC
  5
2B1
100
AcDbEntity
  8
0
100
AcDbCircle
 62
9
  6
CONTINUOUS
 10
6.1079018529
 20
1.227190981
 40
0.2988205618
100
AcDbArc
 50
39.3580086512
 51
40.2468545062
  0
ARC
  5
2B2
100
AcDbEntity
  8
0
100
AcDbCircle
 62
9
  6
CONTINUOUS
 10
6.1082171493
 20
1.0716235478
 40
0.2984096729
100
AcDbArc
 50
319.8735111706
 51
320.6383473805
  0
ARC
  5
2B3
100
AcDbEntity
  8
0
100
AcDbCircle
 62
7
  6
CONTINUOUS
 10
6.1437524585
 20
1.0129587682
 40
0.2316645074
100
AcDbArc
 50
291.5868929421
 51
292.6184579701
  0
ARC
  5
2B4
100
AcDbEntity
  8
0
100
AcDbCircle
 62
7
  6
CONTINUOUS
 10
6.1438852982
 20
1.2864458056
 40
0.2313118346
100
AcDbArc
 50
67.3754982488
 51
68.4649820298
  0
ARC
  5
2B5
100
AcDbEntity
  8
0
100
AcDbCircle
 62
7
  6
CONTINUOUS
 10
6.1262139898
 20
1.3207556819
 40
0.2042291903
100
AcDbArc
 50
68.040811058
 51
73.1637581181
  0
ARC
  5
2B6
100
AcDbEntity
  8
0
100
AcDbCircle
 62
7
  6
CONTINUOUS
 10
6.1266069278
 20
0.9772078476
 40
0.2030486295
100
AcDbArc
 50
286.8202164795
 51
291.982650741
  0
ARC
  5
2B7
100
AcDbEntity
  8
0
100
AcDbCircle
 62
7
  6
CONTINUOUS
 10
6.2886232742
 20
0.4494135797
 40
0.1592862651
100
AcDbArc
 50
279.1932183914
 51
10.3798659223
  0
ARC
  5
2B8
100
AcDbEntity
  8
0
100
AcDbCircle
 62
7
  6
CONTINUOUS
 10
5.667177795
 20
3.371414014
 40
1.209375
100
AcDbArc
 50
323.6575953607
 51
36.2735444504
  0
ARC
  5
2B9
100
AcDbEntity
  8
0
100
AcDbCircle
 62
7
  6
CONTINUOUS
 10
5.667177795
 20
3.371414014
 40
1.209375
100
AcDbArc
 50
143.7264555496
 51
216.3424046393
  0
ARC
  5
2BA
100
AcDbEntity
  8
0
100
AcDbCircle
 62
9
  6
CONTINUOUS
 10
5.667177795
 20
3.371414014
 40
0.9741393627
100
AcDbArc
 50
312.632493044
 51
47.2656362209
  0
ARC
  5
2BB
100
AcDbEntity
  8
0
100
AcDbCircle
 62
9
  6
CONTINUOUS
 10
5.667177795
 20
3.371414014
 40
0.9741393627
100
AcDbArc
 50
132.7343548413
 51
227.3675069564
  0
CIRCLE
  5
2BC
100
AcDbEntity
  8
0
100
AcDbCircle
 62
7
  6
CONTINUOUS
 10
5.667177795
 20
3.371414014
 40
0.880712433
  0
CIRCLE
  5
2BD
100
AcDbEntity
  8
0
100
AcDbCircle
 62
9
  6
CONTINUOUS
 10
5.667177795
 20
3.371414014
 40
0.8782145456
  0
CIRCLE
  5
2BE
100
AcDbEntity
  8
0
100
AcDbCircle
 62
9
  6
CONTINUOUS
 10
5.667177795
 20
3.371414014
 40
0.843212433
  0
CIRCLE
  5
2BF
100
AcDbEntity
  8
0
100
AcDbCircle
 62
7
  6
CONTINUOUS
 10
5.667177795
 20
3.371414014
 40
0.5859375
  0
CIRCLE
  5
2C0
100
AcDbEntity
  8
0
100
AcDbCircle
 62
7
  6
CONTINUOUS
 10
5.667177795
 20
3.371414014
 40
0.358125
  0
CIRCLE
  5
2C1
100
AcDbEntity
  8
0
100
AcDbCircle
 62
7
  6
CONTINUOUS
 10
5.667177795
 20
3.371414014
 40
0.35625
  0
ARC
  5
2C2
100
AcDbEntity
  8
0
100
AcDbCircle
 62
7
  6
CONTINUOUS
 10
5.667177795
 20
3.289851514
 40
0.28125
100
AcDbArc
 50
295.650237055
 51
244.3498008982
  0
ARC
  5
2C3
100
AcDbEntity
  8
0
100
AcDbCircle
 62
7
  6
CONTINUOUS
 10
6.6000598154
 20
1.0839688065
 40
0.3299661359
100
AcDbArc
 50
216.5420247339
 51
217.1915407367
  0
ARC
  5
2C4
100
AcDbEntity
  8
0
100
AcDbCircle
 62
7
  6
CONTINUOUS
 10
6.5001526641
 20
1.815164014
 40
0.0375
100
AcDbArc
 50
309.4724598484
 51
90.0
  0
ARC
  5
2C5
100
AcDbEntity
  8
0
100
AcDbCircle
 62
7
  6
CONTINUOUS
 10
6.7137381527
 20
1.1406889861
 40
0.457676561
100
AcDbArc
 50
194.0682676538
 51
197.0523249221
  0
ARC
  5
2C6
100
AcDbEntity
  8
0
100
AcDbCircle
 62
9
  6
CONTINUOUS
 10
6.7111644628
 20
1.1399848298
 40
0.4550094397
100
AcDbArc
 50
194.0610510825
 51
197.5885232167
  0
ARC
  5
2C7
100
AcDbEntity
  8
0
100
AcDbCircle
 62
7
  6
CONTINUOUS
 10
6.7046719818
 20
1.1379121485
 40
0.4481946694
100
AcDbArc
 50
197.0528168584
 51
198.4947318221
  0
ARC
  5
2C8
100
AcDbEntity
  8
0
100
AcDbCircle
 62
9
  6
CONTINUOUS
 10
6.7016514493
 20
1.1370232946
 40
0.4450462373
100
AcDbArc
 50
197.5951592367
 51
197.9611848116
  0
ARC
  5
2C9
100
AcDbEntity
  8
0
100
AcDbCircle
 62
7
  6
CONTINUOUS
 10
6.6984736549
 20
1.1358334584
 40
0.4416570718
100
AcDbArc
 50
198.4940683691
 51
199.5181767315
  0
ARC
  5
2CA
100
AcDbEntity
  8
0
100
AcDbCircle
 62
9
  6
CONTINUOUS
 10
6.6973322744
 20
1.135612719
 40
0.4405025719
100
AcDbArc
 50
197.9598949478
 51
198.8436817026
  0
ARC
  5
2CB
100
AcDbEntity
  8
0
100
AcDbCircle
 62
9
  6
CONTINUOUS
 10
6.6931146301
 20
1.1341732767
 40
0.4360460579
100
AcDbArc
 50
198.8436754781
 51
199.3503099992
  0
ARC
  5
2CC
100
AcDbEntity
  8
0
100
AcDbCircle
 62
9
  6
CONTINUOUS
 10
6.6898669546
 20
1.1330301755
 40
0.4326030837
100
AcDbArc
 50
199.349987728
 51
199.8451708161
  0
ARC
  5
2CD
100
AcDbEntity
  8
0
100
AcDbCircle
 62
9
  6
CONTINUOUS
 10
6.6808377587
 20
1.1297088496
 40
0.4229825827
100
AcDbArc
 50
199.8371983656
 51
201.8031192638
  0
ARC
  5
2CE
100
AcDbEntity
  8
0
100
AcDbCircle
 62
9
  6
CONTINUOUS
 10
6.6704597068
 20
1.1255525894
 40
0.4118032069
100
AcDbArc
 50
201.8025146846
 51
203.1666945463
  0
ARC
  5
2CF
100
AcDbEntity
  8
0
100
AcDbCircle
 62
9
  6
CONTINUOUS
 10
6.7465021828
 20
1.086855541
 40
0.3622687115
100
AcDbArc
 50
210.6035107203
 51
215.9650218675
  0
ARC
  5
2D0
100
AcDbEntity
  8
0
100
AcDbCircle
 62
7
  6
CONTINUOUS
 10
6.7155913772
 20
1.1578734339
 40
0.4595995368
100
AcDbArc
 50
162.9532330615
 51
165.9255408259
  0
ARC
  5
2D1
100
AcDbEntity
  8
0
100
AcDbCircle
 62
9
  6
CONTINUOUS
 10
6.7143422693
 20
1.158192376
 40
0.4583109019
100
AcDbArc
 50
162.4218324563
 51
165.9262267418
  0
ARC
  5
2D2
100
AcDbEntity
  8
0
100
AcDbCircle
 62
7
  6
CONTINUOUS
 10
6.7058296327
 20
1.1607954943
 40
0.4494100636
100
AcDbArc
 50
161.5029413917
 51
162.9445643439
  0
ARC
  5
2D3
100
AcDbEntity
  8
0
100
AcDbCircle
 62
9
  6
CONTINUOUS
 10
6.7016499229
 20
1.1620552381
 40
0.4450446298
100
AcDbArc
 50
162.040706584
 51
162.4024331161
  0
ARC
  5
2D4
100
AcDbEntity
  8
0
100
AcDbCircle
 62
7
  6
CONTINUOUS
 10
6.699378238
 20
1.1629337368
 40
0.4426135785
100
AcDbArc
 50
160.4832923869
 51
161.5004866934
  0
ARC
  5
2D5
100
AcDbEntity
  8
0
100
AcDbCircle
 62
9
  6
CONTINUOUS
 10
6.6982489404
 20
1.1631602767
 40
0.4414686284
100
AcDbArc
 50
161.1529985859
 51
162.0410353804
  0
ARC
  5
2D6
100
AcDbEntity
  8
0
100
AcDbCircle
 62
9
  6
CONTINUOUS
 10
6.6936718376
 20
1.1647119342
 40
0.4366356782
100
AcDbArc
 50
160.661346632
 51
161.1516690092
  0
ARC
  5
2D7
100
AcDbEntity
  8
0
100
AcDbCircle
 62
9
  6
CONTINUOUS
 10
6.6903939137
 20
1.165860036
 40
0.433162507
100
AcDbArc
 50
160.1346032983
 51
160.6610603149
  0
ARC
  5
2D8
100
AcDbEntity
  8
0
100
AcDbCircle
 62
9
  6
CONTINUOUS
 10
6.6829876211
 20
1.168552087
 40
0.4252821469
100
AcDbArc
 50
158.2082608327
 51
160.1366392889
  0
ARC
  5
2D9
100
AcDbEntity
  8
0
100
AcDbCircle
 62
9
  6
CONTINUOUS
 10
6.6717392963
 20
1.1729960514
 40
0.413187887
100
AcDbArc
 50
156.8501207182
 51
158.2014155972
  0
ARC
  5
2DA
100
AcDbEntity
  8
0
100
AcDbCircle
 62
9
  6
CONTINUOUS
 10
6.7774722743
 20
1.1056270208
 40
0.3984816464
100
AcDbArc
 50
206.3059195585
 51
210.659604719
  0
ARC
  5
2DB
100
AcDbEntity
  8
0
100
AcDbCircle
 62
7
  6
CONTINUOUS
 10
6.8325781588
 20
1.149539014
 40
0.46875
100
AcDbArc
 50
215.9873668392
 51
144.0126331608
  0
ARC
  5
2DC
100
AcDbEntity
  8
0
100
AcDbCircle
 62
9
  6
CONTINUOUS
 10
6.7820456663
 20
1.1909696391
 40
0.4036811218
100
AcDbArc
 50
149.3684465892
 51
153.6660291333
  0
ARC
  5
2DD
100
AcDbEntity
  8
0
100
AcDbCircle
 62
9
  6
CONTINUOUS
 10
6.7520148076
 20
1.2086035358
 40
0.3688560032
100
AcDbArc
 50
144.0828869972
 51
149.348580415
  0
ARC
  5
2DE
100
AcDbEntity
  8
0
100
AcDbCircle
 62
7
  6
CONTINUOUS
 10
7.2454345919
 20
2.2102698051
 40
0.75
100
AcDbArc
 50
143.6575953607
 51
201.0304772467
  0
ARC
  5
2DF
100
AcDbEntity
  8
0
100
AcDbCircle
 62
7
  6
CONTINUOUS
 10
6.510390228
 20
1.927664014
 40
0.0375
100
AcDbArc
 50
270.0
 51
21.0304772613
  0
ARC
  5
2E0
100
AcDbEntity
  8
0
100
AcDbCircle
 62
7
  6
CONTINUOUS
 10
5.667177795
 20
4.2892134707
 40
4.0490494567
100
AcDbArc
 50
260.8067816086
 51
279.1932183914
  0
ARC
  5
2E1
100
AcDbEntity
  8
0
100
AcDbCircle
 62
7
  6
CONTINUOUS
 10
6.717177795
 20
5.808914014
 40
2.1375
100
AcDbArc
 50
157.1448062398
 51
202.8551937602
  0
ARC
  5
2E2
100
AcDbEntity
  8
0
100
AcDbCircle
 62
7
  6
CONTINUOUS
 10
6.8084568648
 20
4.2089557894
 40
0.20625
100
AcDbArc
 50
171.0
 51
216.2735444504
  0
ARC
  5
2E3
100
AcDbEntity
  8
0
100
AcDbCircle
 62
7
  6
CONTINUOUS
 10
6.5583691517
 20
7.140164014
 40
0.0375
100
AcDbArc
 50
347.999999998
 51
90.0
  0
ARC
  5
2E4
100
AcDbEntity
  8
0
100
AcDbCircle
 62
7
  6
CONTINUOUS
 10
6.6617919237
 20
6.830019208
 40
0.0375
100
AcDbArc
 50
284.4678892432
 51
39.4500000005
  0
ARC
  5
2E5
100
AcDbEntity
  8
0
100
AcDbCircle
 62
7
  6
CONTINUOUS
 10
6.6584142543
 20
4.819784503
 40
0.0375
100
AcDbArc
 50
350.9999999983
 51
79.6206593927
  0
SPLINE
  5
2E6
100
AcDbEntity
  8
0
100
AcDbSpline
 62
7
  6
CONTINUOUS
 70
0
 71
3
 72
17
 73
13
 74
0
 42
0.0000001
 43
0.0000001
 44
0.0000000001
 40
0.0
 40
0.0
 40
0.0
 40
0.0
 40
0.1312566439
 40
0.2601930054
 40
0.3238661947
 40
0.3870400154
 40
0.4497578104
 40
0.5120649736
 40
0.6355160844
 40
0.7577099588
 40
0.8790455661
 40
1.0
 40
1.0
 40
1.0
 40
1.0
 10
4.9979734512
 20
1.4208491658
 30
0.0
 10
5.0037649729
 20
1.42790237
 30
0.0
 10
5.0158481304
 20
1.4414028112
 30
0.0
 10
5.032353339
 20
1.4567723996
 30
0.0
 10
5.0462137493
 20
1.4679259975
 30
0.0
 10
5.0568816709
 20
1.4756763318
 30
0.0
 10
5.0678499426
 20
1.4828238086
 30
0.0
 10
5.082802176
 20
1.4914916745
 30
0.0
 10
5.1021599523
 20
1.5007478841
 30
0.0
 10
5.1263045037
 20
1.5091672394
 30
0.0
 10
5.151087839
 20
1.5147176538
 30
0.0
 10
5.1678900519
 20
1.5164615561
 30
0.0
 10
5.1762918607
 20
1.516832386
 30
0.0
  0
SPLINE
  5
2E7
100
AcDbEntity
  8
0
100
AcDbSpline
 62
7
  6
CONTINUOUS
 70
0
 71
3
 72
9
 73
5
 74
0
 42
0.0000001
 43
0.0000001
 44
0.0000000001
 40
0.0
 40
0.0
 40
0.0
 40
0.0
 40
0.5603072038
 40
1.0
 40
1.0
 40
1.0
 40
1.0
 10
4.9975003961
 20
0.8850148521
 30
0.0
 10
4.9987407355
 20
0.8849281628
 30
0.0
 10
5.0009516352
 20
0.8846792994
 30
0.0
 10
5.0031148804
 20
0.884163938
 30
0.0
 10
5.0040518395
 20
0.8838916839
 30
0.0
  0
SPLINE
  5
2E8
100
AcDbEntity
  8
0
100
AcDbSpline
 62
7
  6
CONTINUOUS
 70
0
 71
3
 72
17
 73
13
 74
0
 42
0.0000001
 43
0.0000001
 44
0.0000000001
 40
0.0
 40
0.0
 40
0.0
 40
0.0
 40
0.1209499415
 40
0.2422794583
 40
0.3644711865
 40
0.4879230551
 40
0.5502308768
 40
0.6129494169
 40
0.6761243182
 40
0.7397989018
 40
0.8687388456
 40
1.0
 40
1.0
 40
1.0
 40
1.0
 10
5.1762862475
 20
0.7822458584
 30
0.0
 10
5.1678819009
 20
0.7826169739
 30
0.0
 10
5.1510747329
 20
0.7843619701
 30
0.0
 10
5.1262842771
 20
0.789916261
 30
0.0
 10
5.1021329969
 20
0.7983411945
 30
0.0
 10
5.0827698825
 20
0.8076030821
 30
0.0
 10
5.0678137998
 20
0.81627634
 30
0.0
 10
5.056842913
 20
0.8234282813
 30
0.0
 10
5.046172632
 20
0.8311833826
 30
0.0
 10
5.0323093932
 20
0.8423437934
 30
0.0
 10
5.0158013669
 20
0.8577226016
 30
0.0
 10
5.0037168479
 20
0.8712308627
 30
0.0
 10
4.9979248404
 20
0.8782880899
 30
0.0
  0
SPLINE
  5
2E9
100
AcDbEntity
  8
0
100
AcDbSpline
 62
7
  6
CONTINUOUS
 70
0
 71
3
 72
11
 73
7
 74
0
 42
0.0000001
 43
0.0000001
 44
0.0000000001
 40
0.0
 40
0.0
 40
0.0
 40
0.0
 40
0.2579872917
 40
0.5109113202
 40
0.7582993653
 40
1.0
 40
1.0
 40
1.0
 40
1.0
 10
5.0521601744
 20
0.9882751846
 30
0.0
 10
5.0487962915
 20
0.9787855583
 30
0.0
 10
5.0414872795
 20
0.9602136955
 30
0.0
 10
5.0286677387
 20
0.9335115554
 30
0.0
 10
5.0141713771
 20
0.9084112598
 30
0.0
 10
5.0033202945
 20
0.8926773925
 30
0.0
 10
4.9976367163
 20
0.8851493852
 30
0.0
  0
SPLINE
  5
2EA
100
AcDbEntity
  8
0
100
AcDbSpline
 62
7
  6
CONTINUOUS
 70
0
 71
3
 72
20
 73
16
 74
0
 42
0.0000001
 43
0.0000001
 44
0.0000000001
 40
0.0
 40
0.0
 40
0.0
 40
0.0
 40
0.1349843807
 40
0.2010912413
 40
0.2662903517
 40
0.394074556
 40
0.5187912758
 40
0.5802037246
 40
0.641082062
 40
0.7015070244
 40
0.7615607968
 40
0.8213347054
 40
0.8809306818
 40
0.9404534037
 40
1.0
 40
1.0
 40
1.0
 40
1.0
 10
4.9976367163
 20
0.8851493852
 30
0.0
 10
4.9911725673
 20
0.8765874968
 30
0.0
 10
4.9809081908
 20
0.8642891827
 30
0.0
 10
4.9660892798
 20
0.8491682388
 30
0.0
 10
4.9508868663
 20
0.8352658768
 30
0.0
 10
4.9308287398
 20
0.8198299112
 30
0.0
 10
4.9092993644
 20
0.8070841316
 30
0.0
 10
4.8915047922
 20
0.7987644134
 30
0.0
 10
4.8779596972
 20
0.7934980675
 30
0.0
 10
4.8641928978
 20
0.7891915798
 30
0.0
 10
4.8502476593
 20
0.7858615867
 30
0.0
 10
4.8361685321
 20
0.7835247523
 30
0.0
 10
4.822000227
 20
0.7822006229
 30
0.0
 10
4.8077923727
 20
0.7818944833
 30
0.0
 10
4.7983314574
 20
0.7823644501
 30
0.0
 10
4.7936160214
 20
0.7827664567
 30
0.0
  0
SPLINE
  5
2EB
100
AcDbEntity
  8
0
100
AcDbSpline
 62
7
  6
CONTINUOUS
 70
0
 71
3
 72
20
 73
16
 74
0
 42
0.0000001
 43
0.0000001
 44
0.0000000001
 40
0.0
 40
0.0
 40
0.0
 40
0.0
 40
0.0595607492
 40
0.1190974327
 40
0.1787078703
 40
0.2384969505
 40
0.2985645979
 40
0.3590005444
 40
0.4198860079
 40
0.4813030784
 40
0.6060211548
 40
0.7337900047
 40
0.7989748018
 40
0.8650632994
 40
1.0
 40
1.0
 40
1.0
 40
1.0
 10
4.7936762171
 20
1.5163165882
 30
0.0
 10
4.7983758409
 20
1.516716046
 30
0.0
 10
4.8078048108
 20
1.5171831908
 30
0.0
 10
4.8219647068
 20
1.5168790616
 30
0.0
 10
4.8360854637
 20
1.5155622085
 30
0.0
 10
4.850118279
 20
1.5132407676
 30
0.0
 10
4.8640187899
 20
1.5099330984
 30
0.0
 10
4.8777425749
 20
1.5056553286
 30
0.0
 10
4.8912464388
 20
1.5004229684
 30
0.0
 10
4.9089886977
 20
1.4921566548
 30
0.0
 10
4.9304602965
 20
1.4794929371
 30
0.0
 10
4.9504734436
 20
1.4641525542
 30
0.0
 10
4.9656470704
 20
1.4503347276
 30
0.0
 10
4.9804411729
 20
1.4353055644
 30
0.0
 10
4.9906938717
 20
1.4230799141
 30
0.0
 10
4.9971531251
 20
1.4145676485
 30
0.0
  0
SPLINE
  5
2EC
100
AcDbEntity
  8
0
100
AcDbSpline
 62
7
  6
CONTINUOUS
 70
0
 71
3
 72
11
 73
7
 74
0
 42
0.0000001
 43
0.0000001
 44
0.0000000001
 40
0.0
 40
0.0
 40
0.0
 40
0.0
 40
0.2419436372
 40
0.4894130367
 40
0.7422550459
 40
1.0
 40
1.0
 40
1.0
 40
1.0
 10
4.9993972862
 20
1.4115750947
 30
0.0
 10
5.0048782125
 20
1.4041796495
 30
0.0
 10
5.0153479074
 20
1.3887530969
 30
0.0
 10
5.0293604544
 20
1.3642051851
 30
0.0
 10
5.0417783158
 20
1.3381469891
 30
0.0
 10
5.0488830075
 20
1.3200474985
 30
0.0
 10
5.0521594243
 20
1.3108047984
 30
0.0
  0
SPLINE
  5
2ED
100
AcDbEntity
  8
0
100
AcDbSpline
 62
7
  6
CONTINUOUS
 70
0
 71
3
 72
21
 73
17
 74
0
 42
0.0000001
 43
0.0000001
 44
0.0000000001
 40
0.0
 40
0.0
 40
0.0
 40
0.0
 40
0.1361712752
 40
0.2039992524
 40
0.271356502
 40
0.3380578458
 40
0.4039754994
 40
0.5329559151
 40
0.5958595741
 40
0.6575688317
 40
0.7180061251
 40
0.7771101528
 40
0.8348520277
 40
0.8912314399
 40
0.9462665086
 40
1.0
 40
1.0
 40
1.0
 40
1.0
 10
5.027979238
 20
1.149539014
 30
0.0
 10
5.027979238
 20
1.1648770593
 30
0.0
 10
5.0268628051
 20
1.187875542
 30
0.0
 10
5.0231702754
 20
1.2182249017
 30
0.0
 10
5.0193142822
 20
1.2406458258
 30
0.0
 10
5.0143790271
 20
1.2626340493
 30
0.0
 10
5.0064620188
 20
1.291025796
 30
0.0
 10
4.9964866654
 20
1.3183695017
 30
0.0
 10
4.9844597743
 20
1.3442920268
 30
0.0
 10
4.9746051073
 20
1.3626732266
 30
0.0
 10
4.9638886898
 20
1.3800651597
 30
0.0
 10
4.9523529436
 20
1.3963819972
 30
0.0
 10
4.9400512578
 20
1.411546162
 30
0.0
 10
4.9270458117
 20
1.4254925941
 30
0.0
 10
4.9133971245
 20
1.4381554195
 30
0.0
 10
4.9037938449
 20
1.4457869825
 30
0.0
 10
4.8989069677
 20
1.4493577395
 30
0.0
  0
SPLINE
  5
2EE
100
AcDbEntity
  8
0
100
AcDbSpline
 62
7
  6
CONTINUOUS
 70
0
 71
3
 72
11
 73
7
 74
0
 42
0.0000001
 43
0.0000001
 44
0.0000000001
 40
0.0
 40
0.0
 40
0.0
 40
0.0
 40
0.2579809459
 40
0.5101051693
 40
0.7571320456
 40
1.0
 40
1.0
 40
1.0
 40
1.0
 10
4.8989069677
 20
1.4493577395
 30
0.0
 10
4.8937601867
 20
1.4531184038
 30
0.0
 10
4.8832606059
 20
1.4601254791
 30
0.0
 10
4.8668059215
 20
1.4690798905
 30
0.0
 10
4.8499228803
 20
1.4762985142
 30
0.0
 10
4.8383554839
 20
1.4799445795
 30
0.0
 10
4.8325479976
 20
1.48145584
 30
0.0
  0
SPLINE
  5
2EF
100
AcDbEntity
  8
0
100
AcDbSpline
 62
7
  6
CONTINUOUS
 70
0
 71
3
 72
11
 73
7
 74
0
 42
0.0000001
 43
0.0000001
 44
0.0000000001
 40
0.0
 40
0.0
 40
0.0
 40
0.0
 40
0.2428687031
 40
0.489896111
 40
0.7420201957
 40
1.0
 40
1.0
 40
1.0
 40
1.0
 10
4.8325609234
 20
0.817625552
 30
0.0
 10
4.8383672686
 20
0.8191369825
 30
0.0
 10
4.8499323668
 20
0.8227831512
 30
0.0
 10
4.8668120617
 20
0.8300012387
 30
0.0
 10
4.8832635319
 20
0.8389544426
 30
0.0
 10
4.8937611357
 20
0.8459603176
 30
0.0
 10
4.8989069677
 20
0.8497202884
 30
0.0
  0
SPLINE
  5
2F0
100
AcDbEntity
  8
0
100
AcDbSpline
 62
7
  6
CONTINUOUS
 70
0
 71
3
 72
21
 73
17
 74
0
 42
0.0000001
 43
0.0000001
 44
0.0000000001
 40
0.0
 40
0.0
 40
0.0
 40
0.0
 40
0.0537334914
 40
0.1087685601
 40
0.1651479723
 40
0.2228898472
 40
0.2819938749
 40
0.3424311683
 40
0.4041404259
 40
0.4670440849
 40
0.5960245006
 40
0.6619421542
 40
0.728643498
 40
0.7960007476
 40
0.8638287248
 40
1.0
 40
1.0
 40
1.0
 40
1.0
 10
4.8989069677
 20
0.8497202884
 30
0.0
 10
4.9037938449
 20
0.8532910455
 30
0.0
 10
4.9133971245
 20
0.8609226085
 30
0.0
 10
4.9270458117
 20
0.8735854338
 30
0.0
 10
4.9400512578
 20
0.8875318659
 30
0.0
 10
4.9523529436
 20
0.9026960308
 30
0.0
 10
4.9638886898
 20
0.9190128682
 30
0.0
 10
4.9746051073
 20
0.9364048013
 30
0.0
 10
4.9844597743
 20
0.9547860011
 30
0.0
 10
4.9964866654
 20
0.9807085262
 30
0.0
 10
5.0064620188
 20
1.008052232
 30
0.0
 10
5.0143790271
 20
1.0364439786
 30
0.0
 10
5.0193142822
 20
1.0584322021
 30
0.0
 10
5.0231702754
 20
1.0808531262
 30
0.0
 10
5.0268628051
 20
1.111202486
 30
0.0
 10
5.027979238
 20
1.1342009686
 30
0.0
 10
5.027979238
 20
1.149539014
 30
0.0
  0
SPLINE
  5
2F1
100
AcDbEntity
  8
0
100
AcDbSpline
 62
7
  6
CONTINUOUS
 70
0
 71
3
 72
11
 73
7
 74
0
 42
0.0000001
 43
0.0000001
 44
0.0000000001
 40
0.0
 40
0.0
 40
0.0
 40
0.0
 40
0.2579872917
 40
0.5109113202
 40
0.7582993653
 40
1.0
 40
1.0
 40
1.0
 40
1.0
 10
6.2821954157
 20
1.3108028433
 30
0.0
 10
6.2855592986
 20
1.3202924696
 30
0.0
 10
6.2928683106
 20
1.3388643324
 30
0.0
 10
6.3056878514
 20
1.3655664725
 30
0.0
 10
6.320184213
 20
1.3906667682
 30
0.0
 10
6.3310352955
 20
1.4064006354
 30
0.0
 10
6.3367188737
 20
1.4139286428
 30
0.0
  0
SPLINE
  5
2F2
100
AcDbEntity
  8
0
100
AcDbSpline
 62
7
  6
CONTINUOUS
 70
0
 71
3
 72
20
 73
16
 74
0
 42
0.0000001
 43
0.0000001
 44
0.0000000001
 40
0.0
 40
0.0
 40
0.0
 40
0.0
 40
0.1349843807
 40
0.2010912413
 40
0.2662903517
 40
0.394074556
 40
0.5187912758
 40
0.5802037246
 40
0.641082062
 40
0.7015070244
 40
0.7615607968
 40
0.8213347054
 40
0.8809306818
 40
0.9404534037
 40
1.0
 40
1.0
 40
1.0
 40
1.0
 10
6.3367188737
 20
1.4139286428
 30
0.0
 10
6.3431830228
 20
1.4224905312
 30
0.0
 10
6.3534473992
 20
1.4347888453
 30
0.0
 10
6.3682663103
 20
1.4499097891
 30
0.0
 10
6.3834687238
 20
1.4638121511
 30
0.0
 10
6.4035268503
 20
1.4792481168
 30
0.0
 10
6.4250562256
 20
1.4919938964
 30
0.0
 10
6.4428507979
 20
1.5003136146
 30
0.0
 10
6.4563958929
 20
1.5055799605
 30
0.0
 10
6.4701626923
 20
1.5098864481
 30
0.0
 10
6.4841079307
 20
1.5132164412
 30
0.0
 10
6.4981870579
 20
1.5155532756
 30
0.0
 10
6.512355363
 20
1.5168774051
 30
0.0
 10
6.5265632174
 20
1.5171835447
 30
0.0
 10
6.5360241326
 20
1.5167135778
 30
0.0
 10
6.5407395686
 20
1.5163115713
 30
0.0
  0
SPLINE
  5
2F3
100
AcDbEntity
  8
0
100
AcDbSpline
 62
7
  6
CONTINUOUS
 70
0
 71
3
 72
20
 73
16
 74
0
 42
0.0000001
 43
0.0000001
 44
0.0000000001
 40
0.0
 40
0.0
 40
0.0
 40
0.0
 40
0.0595607492
 40
0.1190974327
 40
0.1787078703
 40
0.2384969505
 40
0.2985645979
 40
0.3590005444
 40
0.4198860079
 40
0.4813030784
 40
0.6060211548
 40
0.7337900047
 40
0.7989748018
 40
0.8650632994
 40
1.0
 40
1.0
 40
1.0
 40
1.0
 10
6.5406793729
 20
0.7827614397
 30
0.0
 10
6.5359797491
 20
0.7823619819
 30
0.0
 10
6.5265507793
 20
0.7818948371
 30
0.0
 10
6.5123908832
 20
0.7821989663
 30
0.0
 10
6.4982701264
 20
0.7835158195
 30
0.0
 10
6.4842373111
 20
0.7858372603
 30
0.0
 10
6.4703368001
 20
0.7891449295
 30
0.0
 10
6.4566130151
 20
0.7934226994
 30
0.0
 10
6.4431091513
 20
0.7986550596
 30
0.0
 10
6.4253668924
 20
0.8069213731
 30
0.0
 10
6.4038952936
 20
0.8195850909
 30
0.0
 10
6.3838821464
 20
0.8349254738
 30
0.0
 10
6.3687085197
 20
0.8487433004
 30
0.0
 10
6.3539144172
 20
0.8637724636
 30
0.0
 10
6.3436617184
 20
0.8759981139
 30
0.0
 10
6.337202465
 20
0.8845103795
 30
0.0
  0
SPLINE
  5
2F4
100
AcDbEntity
  8
0
100
AcDbSpline
 62
7
  6
CONTINUOUS
 70
0
 71
3
 72
11
 73
7
 74
0
 42
0.0000001
 43
0.0000001
 44
0.0000000001
 40
0.0
 40
0.0
 40
0.0
 40
0.0
 40
0.2419436372
 40
0.4894130367
 40
0.7422550459
 40
1.0
 40
1.0
 40
1.0
 40
1.0
 10
6.3349583038
 20
0.8875029332
 30
0.0
 10
6.3294773776
 20
0.8948983784
 30
0.0
 10
6.3190076826
 20
0.910324931
 30
0.0
 10
6.3049951357
 20
0.9348728428
 30
0.0
 10
6.2925772743
 20
0.9609310388
 30
0.0
 10
6.2854725825
 20
0.9790305295
 30
0.0
 10
6.2821961658
 20
0.9882732295
 30
0.0
  0
SPLINE
  5
2F5
100
AcDbEntity
  8
0
100
AcDbSpline
 62
7
  6
CONTINUOUS
 70
0
 71
3
 72
12
 73
8
 74
0
 42
0.0000001
 43
0.0000001
 44
0.0000000001
 40
0.0
 40
0.0
 40
0.0
 40
0.0
 40
0.2575544772
 40
0.5095468947
 40
0.6337170034
 40
0.7567982106
 40
1.0
 40
1.0
 40
1.0
 40
1.0
 10
6.3363821389
 20
0.8782288622
 30
0.0
 10
6.3292154613
 20
0.8695009245
 30
0.0
 10
6.3141124663
 20
0.8529661007
 30
0.0
 10
6.2931042121
 20
0.834674669
 30
0.0
 10
6.2753319705
 20
0.8218697533
 30
0.0
 10
6.257114923
 20
0.8104225279
 30
0.0
 10
6.2426927056
 20
0.8032136312
 30
0.0
 10
6.2328489408
 20
0.7991124195
 30
0.0
  0
SPLINE
  5
2F6
100
AcDbEntity
  8
0
100
AcDbSpline
 62
7
  6
CONTINUOUS
 70
0
 71
3
 72
9
 73
5
 74
0
 42
0.0000001
 43
0.0000001
 44
0.0000000001
 40
0.0
 40
0.0
 40
0.0
 40
0.0
 40
0.5016497451
 40
1.0
 40
1.0
 40
1.0
 40
1.0
 10
6.2289845751
 20
0.7975430531
 30
0.0
 10
6.221064421
 20
0.7944095127
 30
0.0
 10
6.2049150505
 20
0.7890353921
 30
0.0
 10
6.1882492003
 20
0.7855673227
 30
0.0
 10
6.1798782585
 20
0.7843327974
 30
0.0
  0
SPLINE
  5
2F7
100
AcDbEntity
  8
0
100
AcDbSpline
 62
7
  6
CONTINUOUS
 70
0
 71
3
 72
9
 73
5
 74
0
 42
0.0000001
 43
0.0000001
 44
0.0000000001
 40
0.0
 40
0.0
 40
0.0
 40
0.0
 40
0.5603072038
 40
1.0
 40
1.0
 40
1.0
 40
1.0
 10
6.336855194
 20
1.4140631759
 30
0.0
 10
6.3356148546
 20
1.4141498651
 30
0.0
 10
6.3334039548
 20
1.4143987285
 30
0.0
 10
6.3312407097
 20
1.41491409
 30
0.0
 10
6.3303037506
 20
1.415186344
 30
0.0
  0
SPLINE
  5
2F8
100
AcDbEntity
  8
0
100
AcDbSpline
 62
7
  6
CONTINUOUS
 70
0
 71
3
 72
9
 73
5
 74
0
 42
0.0000001
 43
0.0000001
 44
0.0000000001
 40
0.0
 40
0.0
 40
0.0
 40
0.0
 40
0.4983546418
 40
1.0
 40
1.0
 40
1.0
 40
1.0
 10
6.1798871868
 20
1.5147440742
 30
0.0
 10
6.1882228714
 20
1.5135144175
 30
0.0
 10
6.2048188194
 20
1.5100643595
 30
0.0
 10
6.2209034025
 20
1.5047238051
 30
0.0
 10
6.2287928894
 20
1.5016105466
 30
0.0
  0
SPLINE
  5
2F9
100
AcDbEntity
  8
0
100
AcDbSpline
 62
7
  6
CONTINUOUS
 70
0
 71
3
 72
12
 73
8
 74
0
 42
0.0000001
 43
0.0000001
 44
0.0000000001
 40
0.0
 40
0.0
 40
0.0
 40
0.0
 40
0.2431984074
 40
0.366278405
 40
0.4904480321
 40
0.7424417023
 40
1.0
 40
1.0
 40
1.0
 40
1.0
 10
6.2328686677
 20
1.4999572216
 30
0.0
 10
6.2427160477
 20
1.4958534558
 30
0.0
 10
6.2571433927
 20
1.4886400626
 30
0.0
 10
6.2753661685
 20
1.4771854124
 30
0.0
 10
6.2931436737
 20
1.4643721233
 30
0.0
 10
6.3141573109
 20
1.446068735
 30
0.0
 10
6.3292630458
 20
1.4295233718
 30
0.0
 10
6.3364307497
 20
1.420789938
 30
0.0
  0
SPLINE
  5
2FA
100
AcDbEntity
  8
0
100
AcDbSpline
 62
7
  6
CONTINUOUS
 70
0
 71
3
 72
23
 73
19
 74
0
 42
0.0000001
 43
0.0000001
 44
0.0000000001
 40
0.0
 40
0.0
 40
0.0
 40
0.0
 40
0.0713742116
 40
0.1384154069
 40
0.201684893
 40
0.2618239994
 40
0.3195525216
 40
0.3756572236
 40
0.4309687853
 40
0.4863290465
 40
0.5425543128
 40
0.6002981726
 40
0.6598091174
 40
0.7213795304
 40
0.7854734176
 40
0.8527254154
 40
0.9239268239
 40
1.0
 40
1.0
 40
1.0
 40
1.0
 10
6.6711608253
 20
6.7937084151
 30
0.0
 10
6.6664718419
 20
6.7924985647
 30
0.0
 10
6.657449893
 20
6.7898584099
 30
0.0
 10
6.6446323864
 20
6.7850263222
 30
0.0
 10
6.6329597386
 20
6.7794429639
 30
0.0
 10
6.6224116237
 20
6.7730965504
 30
0.0
 10
6.6129688518
 20
6.7659759422
 30
0.0
 10
6.6046140555
 20
6.7580722688
 30
0.0
 10
6.5973300242
 20
6.7493798917
 30
0.0
 10
6.5910975232
 20
6.7398959063
 30
0.0
 10
6.5858981444
 20
6.7296260409
 30
0.0
 10
6.5817142202
 20
6.7186005523
 30
0.0
 10
6.5786839557
 20
6.7068252619
 30
0.0
 10
6.5769752306
 20
6.6943490055
 30
0.0
 10
6.5767580194
 20
6.6812301583
 30
0.0
 10
6.5782020267
 20
6.6675294738
 30
0.0
 10
6.581473473
 20
6.6533124476
 30
0.0
 10
6.5848567499
 20
6.6438825285
 30
0.0
 10
6.5868614413
 20
6.6391263865
 30
0.0
  0
SPLINE
  5
2FB
100
AcDbEntity
  8
0
100
AcDbSpline
 62
7
  6
CONTINUOUS
 70
0
 71
3
 72
23
 73
19
 74
0
 42
0.0000001
 43
0.0000001
 44
0.0000000001
 40
0.0
 40
0.0
 40
0.0
 40
0.0
 40
0.0760731761
 40
0.1472745846
 40
0.2145265824
 40
0.2786204696
 40
0.3401908826
 40
0.3997018274
 40
0.4574456872
 40
0.5136709535
 40
0.5690312147
 40
0.6243427764
 40
0.6804474784
 40
0.7381760006
 40
0.798315107
 40
0.8615845931
 40
0.9286257884
 40
1.0
 40
1.0
 40
1.0
 40
1.0
 10
4.7474941487
 20
6.6391263865
 30
0.0
 10
4.7494988402
 20
6.6438825285
 30
0.0
 10
4.752882117
 20
6.6533124476
 30
0.0
 10
4.7561535634
 20
6.6675294738
 30
0.0
 10
4.7575975707
 20
6.6812301583
 30
0.0
 10
4.7573803595
 20
6.6943490055
 30
0.0
 10
4.7556716344
 20
6.7068252619
 30
0.0
 10
4.7526413699
 20
6.7186005523
 30
0.0
 10
4.7484574456
 20
6.7296260409
 30
0.0
 10
4.7432580669
 20
6.7398959063
 30
0.0
 10
4.7370255658
 20
6.7493798917
 30
0.0
 10
4.7297415346
 20
6.7580722688
 30
0.0
 10
4.7213867383
 20
6.7659759422
 30
0.0
 10
4.7119439664
 20
6.7730965504
 30
0.0
 10
4.7013958514
 20
6.7794429639
 30
0.0
 10
4.6897232037
 20
6.7850263222
 30
0.0
 10
4.6769056971
 20
6.7898584099
 30
0.0
 10
4.6678837481
 20
6.7924985647
 30
0.0
 10
4.6631947647
 20
6.7937084151
 30
0.0
  0
SPLINE
  5
2FC
100
AcDbEntity
  8
0
100
AcDbSpline
 62
7
  6
CONTINUOUS
 70
0
 71
3
 72
25
 73
21
 74
0
 42
0.0000001
 43
0.0000001
 44
0.0000000001
 40
0.0
 40
0.0
 40
0.0
 40
0.0
 40
0.0749054679
 40
0.1447928104
 40
0.210222207
 40
0.2718435923
 40
0.3304013334
 40
0.3867287618
 40
0.4417284685
 40
0.4963376943
 40
0.5237995363
 40
0.5515077586
 40
0.5795692181
 40
0.6080588045
 40
0.6663665381
 40
0.7266758568
 40
0.7894224206
 40
0.8552717468
 40
0.9251075319
 40
1.0
 40
1.0
 40
1.0
 40
1.0
 10
4.6691851676
 20
4.8566708717
 30
0.0
 10
4.6733646466
 20
4.8574363919
 30
0.0
 10
4.6814028307
 20
4.8591575151
 30
0.0
 10
4.6928663234
 20
4.8624828854
 30
0.0
 10
4.7033177601
 20
4.8664685022
 30
0.0
 10
4.7127790529
 20
4.8711262787
 30
0.0
 10
4.7212706994
 20
4.8764681136
 30
0.0
 10
4.7288108855
 20
4.8825047244
 30
0.0
 10
4.7354161076
 20
4.8892428867
 30
0.0
 10
4.7401491889
 20
4.8954381142
 30
0.0
 10
4.7434690292
 20
4.9007101277
 30
0.0
 10
4.7457465489
 20
4.9048489395
 30
0.0
 10
4.7478090232
 20
4.9091635081
 30
0.0
 10
4.7502894613
 20
4.9151912091
 30
0.0
 10
4.7527898507
 20
4.9231744897
 30
0.0
 10
4.7546560655
 20
4.9333182327
 30
0.0
 10
4.7552412479
 20
4.9440480727
 30
0.0
 10
4.7543735841
 20
4.9553038563
 30
0.0
 10
4.7518850086
 20
4.9670205496
 30
0.0
 10
4.7491441915
 20
4.9747869054
 30
0.0
 10
4.7474941487
 20
4.9787016415
 30
0.0
  0
SPLINE
  5
2FD
100
AcDbEntity
  8
0
100
AcDbSpline
 62
7
  6
CONTINUOUS
 70
0
 71
3
 72
25
 73
21
 74
0
 42
0.0000001
 43
0.0000001
 44
0.0000000001
 40
0.0
 40
0.0
 40
0.0
 40
0.0
 40
0.0748924681
 40
0.1447282532
 40
0.2105775794
 40
0.2733241432
 40
0.3336334619
 40
0.3919411955
 40
0.4204307819
 40
0.4484922414
 40
0.4762004637
 40
0.5036623057
 40
0.5582715315
 40
0.6132712382
 40
0.6695986666
 40
0.7281564077
 40
0.789777793
 40
0.8552071896
 40
0.9250945321
 40
1.0
 40
1.0
 40
1.0
 40
1.0
 10
6.5868614413
 20
4.9787016415
 30
0.0
 10
6.5852113986
 20
4.9747869054
 30
0.0
 10
6.5824705815
 20
4.9670205496
 30
0.0
 10
6.5799820059
 20
4.9553038563
 30
0.0
 10
6.5791143422
 20
4.9440480727
 30
0.0
 10
6.5796995246
 20
4.9333182327
 30
0.0
 10
6.5815657394
 20
4.9231744897
 30
0.0
 10
6.5840661288
 20
4.9151912091
 30
0.0
 10
6.5865465669
 20
4.9091635081
 30
0.0
 10
6.5886090412
 20
4.9048489395
 30
0.0
 10
6.5908865609
 20
4.9007101277
 30
0.0
 10
6.5942064012
 20
4.8954381142
 30
0.0
 10
6.5989394825
 20
4.8892428867
 30
0.0
 10
6.6055447045
 20
4.8825047244
 30
0.0
 10
6.6130848907
 20
4.8764681136
 30
0.0
 10
6.6215765372
 20
4.8711262787
 30
0.0
 10
6.63103783
 20
4.8664685022
 30
0.0
 10
6.6414892667
 20
4.8624828854
 30
0.0
 10
6.6529527593
 20
4.8591575151
 30
0.0
 10
6.6609909435
 20
4.8574363919
 30
0.0
 10
6.6651704224
 20
4.8566708717
 30
0.0
  0
SPLINE
  5
2FE
100
AcDbEntity
  8
0
100
AcDbSpline
 62
7
  6
CONTINUOUS
 70
0
 71
3
 72
9
 73
5
 74
0
 42
0.0000001
 43
0.0000001
 44
0.0000000001
 40
0.0
 40
0.0
 40
0.0
 40
0.0
 40
0.235945076
 40
1.0
 40
1.0
 40
1.0
 40
1.0
 10
5.0904438266
 20
0.765164014
 30
0.0
 10
5.0976588219
 20
0.765164014
 30
0.0
 10
5.128235783
 20
0.7669093783
 30
0.0
 10
5.1582510915
 20
0.7750900541
 30
0.0
 10
5.1799587861
 20
0.7837305868
 30
0.0
  0
SPLINE
  5
2FF
100
AcDbEntity
  8
0
100
AcDbSpline
 62
7
  6
CONTINUOUS
 70
0
 71
3
 72
39
 73
35
 74
0
 42
0.0000001
 43
0.0000001
 44
0.0000000001
 40
0.0
 40
0.0
 40
0.0
 40
0.0
 40
0.028113907
 40
0.0569635851
 40
0.086472963
 40
0.1165614772
 40
0.1471471264
 40
0.1781541625
 40
0.2411466316
 40
0.2730570912
 40
0.305161213
 40
0.3374169443
 40
0.3698009082
 40
0.4022796378
 40
0.4348165507
 40
0.4511039538
 40
0.4674007521
 40
0.5000048738
 40
0.5326089678
 40
0.5489057319
 40
0.565193089
 40
0.5977298836
 40
0.6302084629
 40
0.6625922294
 40
0.6948476903
 40
0.7269514541
 40
0.7588614655
 40
0.8218527498
 40
0.8528590092
 40
0.8834437401
 40
0.9135311838
 40
0.9430393323
 40
0.9718876246
 40
1.0
 40
1.0
 40
1.0
 40
1.0
 10
5.2038500817
 20
0.7943945468
 30
0.0
 10
5.2112802536
 20
0.7980703143
 30
0.0
 10
5.2260691232
 20
0.8060672617
 30
0.0
 10
5.247636508
 20
0.8197006075
 30
0.0
 10
5.2687425012
 20
0.8350510513
 30
0.0
 10
5.2892304716
 20
0.8520290752
 30
0.0
 10
5.3089485244
 20
0.8705491065
 30
0.0
 10
5.3341308141
 20
0.8973182107
 30
0.0
 10
5.3569944879
 20
0.9267210636
 30
0.0
 10
5.3770205608
 20
0.9583909191
 30
0.0
 10
5.3905597998
 20
0.9833668192
 30
0.0
 10
5.4023850346
 20
1.0093524562
 30
0.0
 10
5.4123223701
 20
1.0362376732
 30
0.0
 10
5.4202379181
 20
1.0638725508
 30
0.0
 10
5.4250489436
 20
1.0873853861
 30
0.0
 10
5.4277635461
 20
1.1063988242
 30
0.0
 10
5.4297025689
 20
1.1255269176
 30
0.0
 10
5.4306708304
 20
1.149567798
 30
0.0
 10
5.4296987617
 20
1.1736085151
 30
0.0
 10
5.4277567004
 20
1.1927362684
 30
0.0
 10
5.4250390725
 20
1.2117492154
 30
0.0
 10
5.4202243236
 20
1.2352611926
 30
0.0
 10
5.4123045052
 20
1.2628946999
 30
0.0
 10
5.4023632157
 20
1.2897782547
 30
0.0
 10
5.3905344086
 20
1.3157619924
 30
0.0
 10
5.3769919423
 20
1.3407357775
 30
0.0
 10
5.3569620488
 20
1.3724025178
 30
0.0
 10
5.3340951322
 20
1.4018019345
 30
0.0
 10
5.3089101218
 20
1.4285673126
 30
0.0
 10
5.2891903839
 20
1.4470843577
 30
0.0
 10
5.2687010332
 20
1.4640592295
 30
0.0
 10
5.2475939603
 20
1.4794063435
 30
0.0
 10
5.2260257943
 20
1.4930361698
 30
0.0
 10
5.2112365532
 20
1.5010306278
 30
0.0
 10
5.2038062532
 20
1.5047051175
 30
0.0
  0
SPLINE
  5
300
100
AcDbEntity
  8
0
100
AcDbSpline
 62
7
  6
CONTINUOUS
 70
0
 71
3
 72
11
 73
7
 74
0
 42
0.0000001
 43
0.0000001
 44
0.0000000001
 40
0.0
 40
0.0
 40
0.0
 40
0.0
 40
0.2644556669
 40
0.4566128162
 40
0.6433172182
 40
1.0
 40
1.0
 40
1.0
 40
1.0
 10
5.1799127009
 20
1.5153656959
 30
0.0
 10
5.1723881693
 20
1.5183593498
 30
0.0
 10
5.1591841257
 20
1.5230196254
 30
0.0
 10
5.140144983
 20
1.5281378406
 30
0.0
 10
5.1180328674
 20
1.5324766478
 30
0.0
 10
5.1013661935
 20
1.533914014
 30
0.0
 10
5.0904438266
 20
1.533914014
 30
0.0
  0
SPLINE
  5
301
100
AcDbEntity
  8
0
100
AcDbSpline
 62
7
  6
CONTINUOUS
 70
0
 71
3
 72
11
 73
7
 74
0
 42
0.0000001
 43
0.0000001
 44
0.0000000001
 40
0.0
 40
0.0
 40
0.0
 40
0.0
 40
0.2356483451
 40
0.4808920908
 40
0.7357474774
 40
1.0
 40
1.0
 40
1.0
 40
1.0
 10
6.2439117634
 20
1.524539014
 30
0.0
 10
6.2368565255
 20
1.524539014
 30
0.0
 10
6.2224494606
 20
1.5237155621
 30
0.0
 10
6.200667338
 20
1.520218212
 30
0.0
 10
6.1784828886
 20
1.5144765415
 30
0.0
 10
6.1638164262
 20
1.5092692814
 30
0.0
 10
6.1564717542
 20
1.5063282252
 30
0.0
  0
SPLINE
  5
302
100
AcDbEntity
  8
0
100
AcDbSpline
 62
7
  6
CONTINUOUS
 70
0
 71
3
 72
43
 73
39
 74
0
 42
0.0000001
 43
0.0000001
 44
0.0000000001
 40
0.0
 40
0.0
 40
0.0
 40
0.0
 40
0.0280785392
 40
0.056892041
 40
0.0863666061
 40
0.1164234559
 40
0.1469824684
 40
0.1779692671
 40
0.2093186648
 40
0.2409741481
 40
0.2728855437
 40
0.3049979286
 40
0.3372688263
 40
0.3696734578
 40
0.3859186038
 40
0.4021833494
 40
0.434749973
 40
0.4510533346
 40
0.4673664915
 40
0.5000040597
 40
0.5326416203
 40
0.5489547629
 40
0.565258098
 40
0.5978246251
 40
0.6140892984
 40
0.6303343572
 40
0.6627387785
 40
0.695009432
 40
0.727121528
 40
0.7590325701
 40
0.7906876147
 40
0.8220364714
 40
0.8530226154
 40
0.8835808548
 40
0.9136368098
 40
0.9431103555
 40
0.9719227164
 40
1.0
 40
1.0
 40
1.0
 40
1.0
 10
6.1333397311
 20
1.4959443084
 30
0.0
 10
6.1261260106
 20
1.4923559812
 30
0.0
 10
6.1117706154
 20
1.484549594
 30
0.0
 10
6.0908436469
 20
1.4712424553
 30
0.0
 10
6.0703731694
 20
1.4562598749
 30
0.0
 10
6.0505109579
 20
1.4396879295
 30
0.0
 10
6.0314062183
 20
1.4216107445
 30
0.0
 10
6.0132084046
 20
1.4021100477
 30
0.0
 10
5.9960661616
 20
1.3812654434
 30
0.0
 10
5.9801284678
 20
1.3591569478
 30
0.0
 10
5.9655474206
 20
1.335871071
 30
0.0
 10
5.9524744014
 20
1.3115039521
 30
0.0
 10
5.941064612
 20
1.2861584205
 30
0.0
 10
5.9330860199
 20
1.2643282959
 30
0.0
 10
5.9276778481
 20
1.2464999053
 30
0.0
 10
5.9229332318
 20
1.2284359948
 30
0.0
 10
5.9192252491
 20
1.210094703
 30
0.0
 10
5.9166122263
 20
1.191570226
 30
0.0
 10
5.9147456591
 20
1.1729348132
 30
0.0
 10
5.9138134957
 20
1.1495158575
 30
0.0
 10
5.9147488888
 20
1.1260970365
 30
0.0
 10
5.9166179621
 20
1.1074618897
 30
0.0
 10
5.9192334046
 20
1.0889377948
 30
0.0
 10
5.9229436786
 20
1.0705970271
 30
0.0
 10
5.9276904812
 20
1.0525337673
 30
0.0
 10
5.9331007643
 20
1.0347061285
 30
0.0
 10
5.9410818859
 20
1.0128770955
 30
0.0
 10
5.9524945379
 20
0.9875330885
 30
0.0
 10
5.9655702037
 20
0.9631676808
 30
0.0
 10
5.9801536528
 20
0.9398836771
 30
0.0
 10
5.9960934732
 20
0.9177771893
 30
0.0
 10
6.0132375777
 20
0.8969347251
 30
0.0
 10
6.0314369988
 20
0.8774363023
 30
0.0
 10
6.0505431013
 20
0.8593615277
 30
0.0
 10
6.0704064356
 20
0.8427921309
 30
0.0
 10
6.0908777952
 20
0.8278122382
 30
0.0
 10
6.1118054037
 20
0.8145079294
 30
0.0
 10
6.1261611013
 20
0.8067035333
 30
0.0
 10
6.1333749274
 20
0.8031162276
 30
0.0
  0
SPLINE
  5
303
100
AcDbEntity
  8
0
100
AcDbSpline
 62
7
  6
CONTINUOUS
 70
0
 71
3
 72
11
 73
7
 74
0
 42
0.0000001
 43
0.0000001
 44
0.0000000001
 40
0.0
 40
0.0
 40
0.0
 40
0.0
 40
0.2642477198
 40
0.5191010292
 40
0.7643461824
 40
1.0
 40
1.0
 40
1.0
 40
1.0
 10
6.156508128
 20
0.7927352577
 30
0.0
 10
6.1638498523
 20
0.7897964999
 30
0.0
 10
6.1785103414
 20
0.7845933368
 30
0.0
 10
6.2006854782
 20
0.7788562642
 30
0.0
 10
6.2224584473
 20
0.7753617652
 30
0.0
 10
6.2368594356
 20
0.774539014
 30
0.0
 10
6.2439117634
 20
0.774539014
 30
0.0
  0
SPLINE
  5
304
100
AcDbEntity
  8
0
100
AcDbSpline
 62
9
  6
CONTINUOUS
 70
0
 71
3
 72
12
 73
8
 74
0
 42
0.0000001
 43
0.0000001
 44
0.0000000001
 40
0.0
 40
0.0
 40
0.0
 40
0.0
 40
0.2588433394
 40
0.5134968897
 40
0.6385243969
 40
0.7615921291
 40
1.0
 40
1.0
 40
1.0
 40
1.0
 10
5.0061297275
 20
4.0869298353
 30
0.0
 10
5.0211075785
 20
4.0978641958
 30
0.0
 10
5.0496713014
 20
4.1211653095
 30
0.0
 10
5.0823334643
 20
4.1532725887
 30
0.0
 10
5.1064760696
 20
4.1800121346
 30
0.0
 10
5.1288841159
 20
4.2067170516
 30
0.0
 10
5.144562442
 20
4.227353523
 30
0.0
 10
5.1545348483
 20
4.2412203978
 30
0.0
  0
SPLINE
  5
305
100
AcDbEntity
  8
0
100
AcDbSpline
 62
9
  6
CONTINUOUS
 70
0
 71
3
 72
12
 73
8
 74
0
 42
0.0000001
 43
0.0000001
 44
0.0000000001
 40
0.0
 40
0.0
 40
0.0
 40
0.0
 40
0.2384078472
 40
0.3614757979
 40
0.4865035955
 40
0.7411565417
 40
1.0
 40
1.0
 40
1.0
 40
1.0
 10
6.1798207418
 20
4.2412203978
 30
0.0
 10
6.1897931464
 20
4.2273535243
 30
0.0
 10
6.2054715537
 20
4.2067170986
 30
0.0
 10
6.2278795546
 20
4.1800121021
 30
0.0
 10
6.2520219429
 20
4.1532723742
 30
0.0
 10
6.2846843187
 20
4.1211652598
 30
0.0
 10
6.3132483824
 20
4.0978647249
 30
0.0
 10
6.3282258572
 20
4.0869298353
 30
0.0
  0
SPLINE
  5
306
100
AcDbEntity
  8
0
100
AcDbSpline
 62
9
  6
CONTINUOUS
 70
0
 71
3
 72
10
 73
6
 74
0
 42
0.0000001
 43
0.0000001
 44
0.0000000001
 40
0.0
 40
0.0
 40
0.0
 40
0.0
 40
0.2435308913
 40
0.4919049317
 40
1.0
 40
1.0
 40
1.0
 40
1.0
 10
5.151693189
 20
4.1063182332
 30
0.0
 10
5.1399333587
 20
4.10434465
 30
0.0
 10
5.1161606624
 20
4.1004676435
 30
0.0
 10
5.0677230936
 20
4.0933066982
 30
0.0
 10
5.0309091352
 20
4.0890256448
 30
0.0
 10
5.0061194917
 20
4.086925406
 30
0.0
  0
SPLINE
  5
307
100
AcDbEntity
  8
0
100
AcDbSpline
 62
9
  6
CONTINUOUS
 70
0
 71
3
 72
10
 73
6
 74
0
 42
0.0000001
 43
0.0000001
 44
0.0000000001
 40
0.0
 40
0.0
 40
0.0
 40
0.0
 40
0.5081133747
 40
0.756477379
 40
1.0
 40
1.0
 40
1.0
 40
1.0
 10
6.3282387852
 20
4.0869229729
 30
0.0
 10
6.3034480271
 20
4.0890264768
 30
0.0
 10
6.2666331376
 20
4.0933083404
 30
0.0
 10
6.2181944217
 20
4.1004682211
 30
0.0
 10
6.1944220633
 20
4.104344678
 30
0.0
 10
6.1826624007
 20
4.1063182331
 30
0.0
  0
SPLINE
  5
308
100
AcDbEntity
  8
0
100
AcDbSpline
 62
9
  6
CONTINUOUS
 70
0
 71
3
 72
9
 73
5
 74
0
 42
0.0000001
 43
0.0000001
 44
0.0000000001
 40
0.0
 40
0.0
 40
0.0
 40
0.0
 40
0.2483885242
 40
1.0
 40
1.0
 40
1.0
 40
1.0
 10
6.1826599145
 20
4.1063110497
 30
0.0
 10
6.1789200518
 20
4.1069377563
 30
0.0
 10
6.163884927
 20
4.1095884567
 30
0.0
 10
6.1489341779
 20
4.1127047558
 30
0.0
 10
6.1377411004
 20
4.1152301568
 30
0.0
  0
SPLINE
  5
309
100
AcDbEntity
  8
0
100
AcDbSpline
 62
9
  6
CONTINUOUS
 70
0
 71
3
 72
9
 73
5
 74
0
 42
0.0000001
 43
0.0000001
 44
0.0000000001
 40
0.0
 40
0.0
 40
0.0
 40
0.0
 40
0.2517265227
 40
1.0
 40
1.0
 40
1.0
 40
1.0
 10
5.1966143983
 20
4.1152301737
 30
0.0
 10
5.1928657071
 20
4.1143843812
 30
0.0
 10
5.1779556745
 20
4.111106504
 30
0.0
 10
5.1629619349
 20
4.1081989673
 30
0.0
 10
5.1516956913
 20
4.1063110155
 30
0.0
  0
SPLINE
  5
30A
100
AcDbEntity
  8
0
100
AcDbSpline
 62
9
  6
CONTINUOUS
 70
0
 71
3
 72
17
 73
13
 74
0
 42
0.0000001
 43
0.0000001
 44
0.0000000001
 40
0.0
 40
0.0
 40
0.0
 40
0.0
 40
0.0922118396
 40
0.1953684006
 40
0.2511886329
 40
0.3097381631
 40
0.434469458
 40
0.5004000881
 40
0.5683614523
 40
0.7090677369
 40
0.853966654
 40
1.0
 40
1.0
 40
1.0
 40
1.0
 10
5.1516975058
 20
4.1063129641
 30
0.0
 10
5.1536162191
 20
4.1100910548
 30
0.0
 10
5.1571320976
 20
4.1183810187
 30
0.0
 10
5.1603717278
 20
4.1294849903
 30
0.0
 10
5.1624057552
 20
4.1392756685
 30
0.0
 10
5.1640893914
 20
4.1501372848
 30
0.0
 10
5.1650005219
 20
4.1615733189
 30
0.0
 10
5.1651450419
 20
4.1734596221
 30
0.0
 10
5.1647505063
 20
4.1860755028
 30
0.0
 10
5.163217998
 20
4.2022708072
 30
0.0
 10
5.159763057
 20
4.2218214183
 30
0.0
 10
5.1564479275
 20
4.23478852
 30
0.0
 10
5.1545389801
 20
4.2412219069
 30
0.0
  0
SPLINE
  5
30B
100
AcDbEntity
  8
0
100
AcDbSpline
 62
9
  6
CONTINUOUS
 70
0
 71
3
 72
19
 73
15
 74
0
 42
0.0000001
 43
0.0000001
 44
0.0000000001
 40
0.0
 40
0.0
 40
0.0
 40
0.0
 40
0.0484052587
 40
0.099385395
 40
0.20890489
 40
0.2673926392
 40
0.3281443744
 40
0.3909340856
 40
0.4555270491
 40
0.5216708794
 40
0.5890499193
 40
0.7261068476
 40
0.8639623738
 40
1.0
 40
1.0
 40
1.0
 40
1.0
 10
6.1826623
 20
4.1063182111
 30
0.0
 10
6.1816549748
 20
4.1083014861
 30
0.0
 10
6.1797351273
 20
4.112450445
 30
0.0
 10
6.1762853486
 20
4.1214147301
 30
0.0
 10
6.1735665739
 20
4.1311331912
 30
0.0
 10
6.1715712219
 20
4.141457615
 30
0.0
 10
6.1704112545
 20
4.1497458132
 30
0.0
 10
6.1696319731
 20
4.1583593644
 30
0.0
 10
6.1692452331
 20
4.1672474928
 30
0.0
 10
6.1692624113
 20
4.1763548019
 30
0.0
 10
6.1698145706
 20
4.1887797838
 30
0.0
 10
6.1714681706
 20
4.2044407726
 30
0.0
 10
6.1748881485
 20
4.2230295648
 30
0.0
 10
6.1780423823
 20
4.2352271628
 30
0.0
 10
6.1798207579
 20
4.2412203899
 30
0.0
  0
SPLINE
  5
30C
100
AcDbEntity
  8
0
100
AcDbSpline
 62
9
  6
CONTINUOUS
 70
0
 71
3
 72
14
 73
10
 74
0
 42
0.0000001
 43
0.0000001
 44
0.0000000001
 40
0.0
 40
0.0
 40
0.0
 40
0.0
 40
0.244959614
 40
0.3681420017
 40
0.4920988483
 40
0.6170666102
 40
0.7432560082
 40
0.8708384679
 40
1.0
 40
1.0
 40
1.0
 40
1.0
 10
5.0073997224
 20
2.6547269186
 30
0.0
 10
5.0331514156
 20
2.6462587455
 30
0.0
 10
5.0718550977
 20
2.633538129
 30
0.0
 10
5.1237159785
 20
2.6169206954
 30
0.0
 10
5.1630225674
 20
2.6046430778
 30
0.0
 10
5.2027629601
 20
2.5926435153
 30
0.0
 10
5.2430308267
 20
2.5810113221
 30
0.0
 10
5.2839211464
 20
2.5698777745
 30
0.0
 10
5.3114704474
 20
2.5629186929
 30
0.0
 10
5.3253649488
 20
2.5595647171
 30
0.0
  0
SPLINE
  5
30D
100
AcDbEntity
  8
0
100
AcDbSpline
 62
9
  6
CONTINUOUS
 70
0
 71
3
 72
14
 73
10
 74
0
 42
0.0000001
 43
0.0000001
 44
0.0000000001
 40
0.0
 40
0.0
 40
0.0
 40
0.0
 40
0.129161509
 40
0.2567439052
 40
0.3829332571
 40
0.5079010262
 40
0.6318578892
 40
0.7550403006
 40
1.0
 40
1.0
 40
1.0
 40
1.0
 10
6.0089913659
 20
2.5595649366
 30
0.0
 10
6.0228858315
 20
2.5629189107
 30
0.0
 10
6.0504350596
 20
2.569877977
 30
0.0
 10
6.0913252744
 20
2.5810114858
 30
0.0
 10
6.1315930404
 20
2.5926436424
 30
0.0
 10
6.1713333377
 20
2.6046431845
 30
0.0
 10
6.2106398473
 20
2.6169207585
 30
0.0
 10
6.2625006302
 20
2.6335381362
 30
0.0
 10
6.3012042345
 20
2.6462587304
 30
0.0
 10
6.3269558677
 20
2.6547269186
 30
0.0
  0
SPLINE
  5
30E
100
AcDbEntity
  8
0
100
AcDbSpline
 62
9
  6
CONTINUOUS
 70
0
 71
3
 72
15
 73
11
 74
0
 42
0.0000001
 43
0.0000001
 44
0.0000000001
 40
0.0
 40
0.0
 40
0.0
 40
0.0
 40
0.1285544086
 40
0.2569694328
 40
0.3847361593
 40
0.5113618404
 40
0.6364719619
 40
0.7597858065
 40
0.8810406816
 40
1.0
 40
1.0
 40
1.0
 40
1.0
 10
4.9632640142
 20
1.149539014
 30
0.0
 10
4.9632640142
 20
1.1397752737
 30
0.0
 10
4.9627328505
 20
1.120254326
 30
0.0
 10
4.9603644467
 20
1.0911161682
 30
0.0
 10
4.9564406122
 20
1.0622929651
 30
0.0
 10
4.9509708848
 20
1.0339779658
 30
0.0
 10
4.9439872931
 20
1.0063462036
 30
0.0
 10
4.9355406793
 20
0.9795524959
 30
0.0
 10
4.9256759134
 20
0.953747549
 30
0.0
 10
4.9181082956
 20
0.9371308131
 30
0.0
 10
4.9140984616
 20
0.9290343763
 30
0.0
  0
SPLINE
  5
30F
100
AcDbEntity
  8
0
100
AcDbSpline
 62
9
  6
CONTINUOUS
 70
0
 71
3
 72
17
 73
13
 74
0
 42
0.0000001
 43
0.0000001
 44
0.0000000001
 40
0.0
 40
0.0
 40
0.0
 40
0.0
 40
0.1311453018
 40
0.2618955052
 40
0.3268566947
 40
0.391394527
 40
0.4554334641
 40
0.5189121486
 40
0.6439288246
 40
0.7660255734
 40
0.8848215438
 40
1.0
 40
1.0
 40
1.0
 40
1.0
 10
4.9829746688
 20
1.149539014
 30
0.0
 10
4.9829746688
 20
1.1389096094
 30
0.0
 10
4.9822199698
 20
1.1176759231
 30
0.0
 10
4.9794169558
 20
1.0913094175
 30
0.0
 10
4.976060368
 20
1.0704807762
 30
0.0
 10
4.9729986233
 20
1.0550924216
 30
0.0
 10
4.9693970061
 20
1.0399447207
 30
0.0
 10
4.9639185621
 20
1.0202194948
 30
0.0
 10
4.9558081023
 20
0.9963591597
 30
0.0
 10
4.9440413521
 20
0.969100275
 30
0.0
 10
4.9304161174
 20
0.943621498
 30
0.0
 10
4.9200118565
 20
0.9277285617
 30
0.0
 10
4.9145261437
 20
0.920175122
 30
0.0
  0
SPLINE
  5
310
100
AcDbEntity
  8
0
100
AcDbSpline
 62
9
  6
CONTINUOUS
 70
0
 71
3
 72
11
 73
7
 74
0
 42
0.0000001
 43
0.0000001
 44
0.0000000001
 40
0.0
 40
0.0
 40
0.0
 40
0.0
 40
0.2518644637
 40
0.5032952986
 40
0.7530542041
 40
1.0
 40
1.0
 40
1.0
 40
1.0
 10
5.079179302
 20
1.149539014
 30
0.0
 10
5.079179302
 20
1.1393578028
 30
0.0
 10
5.0785617305
 20
1.1190077238
 30
0.0
 10
5.0758108836
 20
1.0886734794
 30
0.0
 10
5.0712558648
 20
1.0587577484
 30
0.0
 10
5.0669957317
 20
1.039120209
 30
0.0
 10
5.0645672999
 20
1.0294377159
 30
0.0
  0
SPLINE
  5
311
100
AcDbEntity
  8
0
100
AcDbSpline
 62
9
  6
CONTINUOUS
 70
0
 71
3
 72
12
 73
8
 74
0
 42
0.0000001
 43
0.0000001
 44
0.0000000001
 40
0.0
 40
0.0
 40
0.0
 40
0.0
 40
0.2550345023
 40
0.3821294461
 40
0.5084285555
 40
0.757333819
 40
1.0
 40
1.0
 40
1.0
 40
1.0
 10
5.4077505076
 20
1.149539014
 30
0.0
 10
5.4077505076
 20
1.1648900489
 30
0.0
 10
5.4066801593
 20
1.1879097568
 30
0.0
 10
5.4031400137
 20
1.2183155398
 30
0.0
 10
5.3982342229
 20
1.2481598894
 30
0.0
 10
5.3895722707
 20
1.2843894212
 30
0.0
 10
5.379853146
 20
1.3124003477
 30
0.0
 10
5.3743312756
 20
1.3259229425
 30
0.0
  0
SPLINE
  5
312
100
AcDbEntity
  8
0
100
AcDbSpline
 62
9
  6
CONTINUOUS
 70
0
 71
3
 72
23
 73
19
 74
0
 42
0.0000001
 43
0.0000001
 44
0.0000000001
 40
0.0
 40
0.0
 40
0.0
 40
0.0
 40
0.0625773135
 40
0.1240575372
 40
0.1846455135
 40
0.2445736035
 40
0.3040874495
 40
0.3634461239
 40
0.4229185894
 40
0.482766029
 40
0.5432361086
 40
0.6045635522
 40
0.6669589379
 40
0.7305956799
 40
0.7956179307
 40
0.8621449522
 40
0.9302585092
 40
1.0
 40
1.0
 40
1.0
 40
1.0
 10
5.2493447972
 20
1.4779685094
 30
0.0
 10
5.2442108253
 20
1.4808152111
 30
0.0
 10
5.2337941054
 20
1.4860417518
 30
0.0
 10
5.2176751342
 20
1.4924426936
 30
0.0
 10
5.201281569
 20
1.4972963457
 30
0.0
 10
5.1846924179
 20
1.5005888635
 30
0.0
 10
5.1679821824
 20
1.5023057268
 30
0.0
 10
5.1512267502
 20
1.5024298503
 30
0.0
 10
5.134504495
 20
1.5009586158
 30
0.0
 10
5.117891608
 20
1.497909502
 30
0.0
 10
5.1014629355
 20
1.4932970958
 30
0.0
 10
5.0852956285
 20
1.4871342825
 30
0.0
 10
5.0694635381
 20
1.4794514383
 30
0.0
 10
5.0540339968
 20
1.4702928949
 30
0.0
 10
5.0390753896
 20
1.4597000929
 30
0.0
 10
5.0246591012
 20
1.4477136324
 30
0.0
 10
5.010848519
 20
1.4343914358
 30
0.0
 10
5.0021838823
 20
1.4247751923
 30
0.0
 10
4.9979673833
 20
1.4197727098
 30
0.0
  0
SPLINE
  5
313
100
AcDbEntity
  8
0
100
AcDbSpline
 62
9
  6
CONTINUOUS
 70
0
 71
3
 72
20
 73
16
 74
0
 42
0.0000001
 43
0.0000001
 44
0.0000000001
 40
0.0
 40
0.0
 40
0.0
 40
0.0
 40
0.1378292408
 40
0.2048535816
 40
0.270643946
 40
0.398717337
 40
0.5227688998
 40
0.5835936733
 40
0.643772542
 40
0.7034537511
 40
0.7627918095
 40
0.8219479031
 40
0.8810898966
 40
0.9403864885
 40
1.0
 40
1.0
 40
1.0
 40
1.0
 10
6.3359820077
 20
1.4202535905
 30
0.0
 10
6.3293206754
 20
1.4281226706
 30
0.0
 10
6.3187959838
 20
1.4393168862
 30
0.0
 10
6.3036952366
 20
1.4528149264
 30
0.0
 10
6.2883847886
 20
1.4649323679
 30
0.0
 10
6.2684034356
 20
1.4779506097
 30
0.0
 10
6.2472039805
 20
1.4880654092
 30
0.0
 10
6.229900817
 20
1.4941576832
 30
0.0
 10
6.2168504834
 20
1.4977206094
 30
0.0
 10
6.2036839641
 20
1.5002985333
 30
0.0
 10
6.1904381816
 20
1.5018843827
 30
0.0
 10
6.1771509051
 20
1.5024710843
 30
0.0
 10
6.1638601963
 20
1.5020508315
 30
0.0
 10
6.1506055387
 20
1.5006300849
 30
0.0
 10
6.1418468788
 20
1.4990260548
 30
0.0
 10
6.1374928424
 20
1.4980631255
 30
0.0
  0
SPLINE
  5
314
100
AcDbEntity
  8
0
100
AcDbSpline
 62
9
  6
CONTINUOUS
 70
0
 71
3
 72
12
 73
8
 74
0
 42
0.0000001
 43
0.0000001
 44
0.0000000001
 40
0.0
 40
0.0
 40
0.0
 40
0.0
 40
0.2429938261
 40
0.4919662844
 40
0.6182153832
 40
0.7452158988
 40
1.0
 40
1.0
 40
1.0
 40
1.0
 10
5.9585087429
 20
1.3221580074
 30
0.0
 10
5.953235356
 20
1.3088681262
 30
0.0
 10
5.9439549481
 20
1.2813895453
 30
0.0
 10
5.9356842851
 20
1.2459090455
 30
0.0
 10
5.9310031768
 20
1.2167212928
 30
0.0
 10
5.9276261009
 20
1.1870123512
 30
0.0
 10
5.9266050824
 20
1.1645306463
 30
0.0
 10
5.9266050824
 20
1.149539014
 30
0.0
  0
SPLINE
  5
315
100
AcDbEntity
  8
0
100
AcDbSpline
 62
9
  6
CONTINUOUS
 70
0
 71
3
 72
15
 73
11
 74
0
 42
0.0000001
 43
0.0000001
 44
0.0000000001
 40
0.0
 40
0.0
 40
0.0
 40
0.0
 40
0.1189593184
 40
0.2402141935
 40
0.3635280381
 40
0.4886381596
 40
0.6152638407
 40
0.7430305672
 40
0.8714455914
 40
1.0
 40
1.0
 40
1.0
 40
1.0
 10
4.9140984616
 20
1.3700436516
 30
0.0
 10
4.9181082956
 20
1.3619472149
 30
0.0
 10
4.9256759134
 20
1.3453304789
 30
0.0
 10
4.9355406793
 20
1.319525532
 30
0.0
 10
4.9439872931
 20
1.2927318244
 30
0.0
 10
4.9509708848
 20
1.2651000622
 30
0.0
 10
4.9564406122
 20
1.2367850628
 30
0.0
 10
4.9603644467
 20
1.2079618598
 30
0.0
 10
4.9627328505
 20
1.1788237019
 30
0.0
 10
4.9632640142
 20
1.1593027542
 30
0.0
 10
4.9632640142
 20
1.149539014
 30
0.0
  0
SPLINE
  5
316
100
AcDbEntity
  8
0
100
AcDbSpline
 62
9
  6
CONTINUOUS
 70
0
 71
3
 72
17
 73
13
 74
0
 42
0.0000001
 43
0.0000001
 44
0.0000000001
 40
0.0
 40
0.0
 40
0.0
 40
0.0
 40
0.1151784562
 40
0.2339744266
 40
0.3560711754
 40
0.4810878514
 40
0.5445665359
 40
0.608605473
 40
0.6731433053
 40
0.7381044948
 40
0.8688546982
 40
1.0
 40
1.0
 40
1.0
 40
1.0
 10
4.9145261437
 20
1.3789029059
 30
0.0
 10
4.9200118565
 20
1.3713494663
 30
0.0
 10
4.9304161174
 20
1.3554565299
 30
0.0
 10
4.9440413521
 20
1.329977753
 30
0.0
 10
4.9558081023
 20
1.3027188682
 30
0.0
 10
4.9639185621
 20
1.2788585332
 30
0.0
 10
4.9693970061
 20
1.2591333072
 30
0.0
 10
4.9729986233
 20
1.2439856063
 30
0.0
 10
4.976060368
 20
1.2285972518
 30
0.0
 10
4.9794169558
 20
1.2077686105
 30
0.0
 10
4.9822199698
 20
1.1814021048
 30
0.0
 10
4.9829746688
 20
1.1601684186
 30
0.0
 10
4.9829746688
 20
1.149539014
 30
0.0
  0
SPLINE
  5
317
100
AcDbEntity
  8
0
100
AcDbSpline
 62
9
  6
CONTINUOUS
 70
0
 71
3
 72
23
 73
19
 74
0
 42
0.0000001
 43
0.0000001
 44
0.0000000001
 40
0.0
 40
0.0
 40
0.0
 40
0.0
 40
0.0697416695
 40
0.1378555858
 40
0.204383132
 40
0.2694060412
 40
0.3330435379
 40
0.3954397282
 40
0.4567679657
 40
0.5172387547
 40
0.5770867536
 40
0.6365595594
 40
0.6959182811
 40
0.7554318232
 40
0.8153592171
 40
0.8759460679
 40
0.9374247092
 40
1.0
 40
1.0
 40
1.0
 40
1.0
 10
4.9979673833
 20
0.8793053182
 30
0.0
 10
5.0021834068
 20
0.8743033998
 30
0.0
 10
5.0108470403
 20
0.8646881976
 30
0.0
 10
5.0246559378
 20
0.8513673044
 30
0.0
 10
5.0390704142
 20
0.8393818276
 30
0.0
 10
5.0540271087
 20
0.8287896764
 30
0.0
 10
5.06945466
 20
0.8196314373
 30
0.0
 10
5.0852847061
 20
0.8119485375
 30
0.0
 10
5.1014499371
 20
0.8057852898
 30
0.0
 10
5.1178765353
 20
0.8011720826
 30
0.0
 10
5.1344873736
 20
0.7981217959
 30
0.0
 10
5.1512076314
 20
0.7966490121
 30
0.0
 10
5.1679611473
 20
0.7967712024
 30
0.0
 10
5.1846695744
 20
0.7984857899
 30
0.0
 10
5.2012570481
 20
0.8017756898
 30
0.0
 10
5.2176490935
 20
0.8066263881
 30
0.0
 10
5.2337667337
 20
0.8130240507
 30
0.0
 10
5.2441827359
 20
0.8182482666
 30
0.0
 10
5.2493163831
 20
0.8210937662
 30
0.0
  0
SPLINE
  5
318
100
AcDbEntity
  8
0
100
AcDbSpline
 62
9
  6
CONTINUOUS
 70
0
 71
3
 72
12
 73
8
 74
0
 42
0.0000001
 43
0.0000001
 44
0.0000000001
 40
0.0
 40
0.0
 40
0.0
 40
0.0
 40
0.242666181
 40
0.4915714445
 40
0.6178705539
 40
0.7449654977
 40
1.0
 40
1.0
 40
1.0
 40
1.0
 10
5.3743312756
 20
0.9731550854
 30
0.0
 10
5.379853146
 20
0.9866776802
 30
0.0
 10
5.3895722707
 20
1.0146886067
 30
0.0
 10
5.3982342229
 20
1.0509181386
 30
0.0
 10
5.4031400137
 20
1.0807624882
 30
0.0
 10
5.4066801593
 20
1.1111682711
 30
0.0
 10
5.4077505076
 20
1.1341879791
 30
0.0
 10
5.4077505076
 20
1.149539014
 30
0.0
  0
SPLINE
  5
319
100
AcDbEntity
  8
0
100
AcDbSpline
 62
9
  6
CONTINUOUS
 70
0
 71
3
 72
11
 73
7
 74
0
 42
0.0000001
 43
0.0000001
 44
0.0000000001
 40
0.0
 40
0.0
 40
0.0
 40
0.0
 40
0.2469457959
 40
0.4967047014
 40
0.7481355363
 40
1.0
 40
1.0
 40
1.0
 40
1.0
 10
5.0645672999
 20
1.269640312
 30
0.0
 10
5.0669957317
 20
1.259957819
 30
0.0
 10
5.0712558648
 20
1.2403202796
 30
0.0
 10
5.0758108836
 20
1.2104045485
 30
0.0
 10
5.0785617305
 20
1.1800703041
 30
0.0
 10
5.079179302
 20
1.1597202252
 30
0.0
 10
5.079179302
 20
1.149539014
 30
0.0
  0
SPLINE
  5
31A
100
AcDbEntity
  8
0
100
AcDbSpline
 62
9
  6
CONTINUOUS
 70
0
 71
3
 72
29
 73
25
 74
0
 42
0.0000001
 43
0.0000001
 44
0.0000000001
 40
0.0
 40
0.0
 40
0.0
 40
0.0
 40
0.0630892419
 40
0.1257905837
 40
0.1882499565
 40
0.2505539105
 40
0.2817002619
 40
0.3128429573
 40
0.3439832382
 40
0.3751409637
 40
0.4063417192
 40
0.4375682315
 40
0.4999995666
 40
0.5624310902
 40
0.5936577715
 40
0.6248586878
 40
0.6560165326
 40
0.6871568937
 40
0.7182996405
 40
0.7494460241
 40
0.8117500094
 40
0.8742093727
 40
0.9369106881
 40
1.0
 40
1.0
 40
1.0
 40
1.0
 10
6.3269557473
 20
2.6547275149
 30
0.0
 10
6.3011730368
 20
2.6394681642
 30
0.0
 10
6.2497192351
 20
2.6091210844
 30
0.0
 10
6.1719150468
 20
2.565077361
 30
0.0
 10
6.093035843
 20
2.5237588982
 30
0.0
 10
6.0257619872
 20
2.4927225831
 30
0.0
 10
5.9708339843
 20
2.4706986618
 30
0.0
 10
5.9290376034
 20
2.4557765646
 30
0.0
 10
5.8866299388
 20
2.4426645631
 30
0.0
 10
5.8436154573
 20
2.4315823303
 30
0.0
 10
5.8000361162
 20
2.4227548245
 30
0.0
 10
5.741349339
 20
2.4141404569
 30
0.0
 10
5.6671783309
 20
2.4095839262
 30
0.0
 10
5.5930072424
 20
2.4141404313
 30
0.0
 10
5.5343202118
 20
2.4227547652
 30
0.0
 10
5.4907406501
 20
2.4315822574
 30
0.0
 10
5.4477259921
 20
2.4426644924
 30
0.0
 10
5.4053182058
 20
2.4557765042
 30
0.0
 10
5.3635217468
 20
2.4706986145
 30
0.0
 10
5.3085936895
 20
2.4927225467
 30
0.0
 10
5.241319803
 20
2.5237588569
 30
0.0
 10
5.1624406009
 20
2.5650773197
 30
0.0
 10
5.0846364226
 20
2.6091210935
 30
0.0
 10
5.033182599
 20
2.6394681762
 30
0.0
 10
5.0073998427
 20
2.6547275149
 30
0.0
  0
SPLINE
  5
31B
100
AcDbEntity
  8
0
100
AcDbSpline
 62
7
  6
CONTINUOUS
 70
0
 71
3
 72
15
 73
11
 74
0
 42
0.0000001
 43
0.0000001
 44
0.0000000001
 40
0.0
 40
0.0
 40
0.0
 40
0.0
 40
0.1304380053
 40
0.2570024014
 40
0.3805845584
 40
0.5023136788
 40
0.6237200689
 40
0.7462753967
 40
0.8712966737
 40
1.0
 40
1.0
 40
1.0
 40
1.0
 10
5.0904438266
 20
1.533914014
 30
0.0
 10
5.0834115903
 20
1.533914014
 30
0.0
 10
5.0695407048
 20
1.5331405432
 30
0.0
 10
5.0492883832
 20
1.5295546183
 30
0.0
 10
5.0300860397
 20
1.5235984932
 30
0.0
 10
5.0120793871
 20
1.5152988311
 30
0.0
 10
4.9953475642
 20
1.5047701621
 30
0.0
 10
4.9799296163
 20
1.4921205734
 30
0.0
 10
4.9658550631
 20
1.477452173
 30
0.0
 10
4.9574941179
 20
1.4665902819
 30
0.0
 10
4.9535302989
 20
1.4608952041
 30
0.0
  0
SPLINE
  5
31C
100
AcDbEntity
  8
0
100
AcDbSpline
 62
7
  6
CONTINUOUS
 70
0
 71
3
 72
15
 73
11
 74
0
 42
0.0000001
 43
0.0000001
 44
0.0000000001
 40
0.0
 40
0.0
 40
0.0
 40
0.0
 40
0.1287006188
 40
0.2537203797
 40
0.3762753524
 40
0.4976823405
 40
0.6194124029
 40
0.742995504
 40
0.8695609908
 40
1.0
 40
1.0
 40
1.0
 40
1.0
 10
4.9535413098
 20
0.8381669518
 30
0.0
 10
4.9575050801
 20
0.8324730274
 30
0.0
 10
4.9658658564
 20
0.8216133612
 30
0.0
 10
4.9799398109
 20
0.8069480977
 30
0.0
 10
4.9953568798
 20
0.7943013092
 30
0.0
 10
5.0120874852
 20
0.7837750409
 30
0.0
 10
5.0300925209
 20
0.7754772471
 30
0.0
 10
5.0492929099
 20
0.7695224258
 30
0.0
 10
5.0695430375
 20
0.765937312
 30
0.0
 10
5.0834123759
 20
0.765164014
 30
0.0
 10
5.0904438266
 20
0.765164014
 30
0.0
  0
SPLINE
  5
31D
100
AcDbEntity
  8
0
100
AcDbSpline
 62
7
  6
CONTINUOUS
 70
0
 71
3
 72
9
 73
5
 74
0
 42
0.0000001
 43
0.0000001
 44
0.0000000001
 40
0.0
 40
0.0
 40
0.0
 40
0.0
 40
0.4957872225
 40
1.0
 40
1.0
 40
1.0
 40
1.0
 10
5.1489685692
 20
0.7732721889
 30
0.0
 10
5.142623962
 20
0.7751413968
 30
0.0
 10
5.1300031291
 20
0.7795354181
 30
0.0
 10
5.1178528954
 20
0.7850951227
 30
0.0
 10
5.1118666284
 20
0.7881630459
 30
0.0
  0
SPLINE
  5
31E
100
AcDbEntity
  8
0
100
AcDbSpline
 62
7
  6
CONTINUOUS
 70
0
 71
3
 72
9
 73
5
 74
0
 42
0.0000001
 43
0.0000001
 44
0.0000000001
 40
0.0
 40
0.0
 40
0.0
 40
0.0
 40
0.4944379934
 40
1.0
 40
1.0
 40
1.0
 40
1.0
 10
5.1058350228
 20
0.7913690017
 30
0.0
 10
5.099980825
 20
0.7945930509
 30
0.0
 10
5.0884183469
 20
0.8016290044
 30
0.0
 10
5.077473679
 20
0.8095887734
 30
0.0
 10
5.072107513
 20
0.8138199459
 30
0.0
  0
SPLINE
  5
31F
100
AcDbEntity
  8
0
100
AcDbSpline
 62
7
  6
CONTINUOUS
 70
0
 71
3
 72
9
 73
5
 74
0
 42
0.0000001
 43
0.0000001
 44
0.0000000001
 40
0.0
 40
0.0
 40
0.0
 40
0.0
 40
0.5055662985
 40
1.0
 40
1.0
 40
1.0
 40
1.0
 10
5.0720809454
 20
1.4852371273
 30
0.0
 10
5.0774502883
 20
1.4894719252
 30
0.0
 10
5.0884016321
 20
1.4974383112
 30
0.0
 10
5.0999716717
 20
1.5044797197
 30
0.0
 10
5.1058297458
 20
1.5077061011
 30
0.0
  0
SPLINE
  5
320
100
AcDbEntity
  8
0
100
AcDbSpline
 62
7
  6
CONTINUOUS
 70
0
 71
3
 72
9
 73
5
 74
0
 42
0.0000001
 43
0.0000001
 44
0.0000000001
 40
0.0
 40
0.0
 40
0.0
 40
0.0
 40
0.5042074621
 40
1.0
 40
1.0
 40
1.0
 40
1.0
 10
5.1119082389
 20
1.5109362829
 30
0.0
 10
5.1178881697
 20
1.5139994034
 30
0.0
 10
5.1300252384
 20
1.5195507321
 30
0.0
 10
5.1426317124
 20
1.5239389618
 30
0.0
 10
5.1489690734
 20
1.5258060215
 30
0.0
  0
SPLINE
  5
321
100
AcDbEntity
  8
0
100
AcDbSpline
 62
9
  6
CONTINUOUS
 70
0
 71
3
 72
15
 73
11
 74
0
 42
0.0000001
 43
0.0000001
 44
0.0000000001
 40
0.0
 40
0.0
 40
0.0
 40
0.0
 40
0.1285544086
 40
0.2569694328
 40
0.3847361593
 40
0.5113618404
 40
0.6364719619
 40
0.7597858065
 40
0.8810406816
 40
1.0
 40
1.0
 40
1.0
 40
1.0
 10
6.3710915758
 20
1.149539014
 30
0.0
 10
6.3710915758
 20
1.1593027542
 30
0.0
 10
6.3716227396
 20
1.1788237019
 30
0.0
 10
6.3739911434
 20
1.2079618598
 30
0.0
 10
6.3779149778
 20
1.2367850628
 30
0.0
 10
6.3833847053
 20
1.2651000622
 30
0.0
 10
6.390368297
 20
1.2927318244
 30
0.0
 10
6.3988149108
 20
1.319525532
 30
0.0
 10
6.4086796767
 20
1.3453304789
 30
0.0
 10
6.4162472944
 20
1.3619472149
 30
0.0
 10
6.4202571284
 20
1.3700436516
 30
0.0
  0
SPLINE
  5
322
100
AcDbEntity
  8
0
100
AcDbSpline
 62
7
  6
CONTINUOUS
 70
0
 71
3
 72
21
 73
17
 74
0
 42
0.0000001
 43
0.0000001
 44
0.0000000001
 40
0.0
 40
0.0
 40
0.0
 40
0.0
 40
0.1361712752
 40
0.2039992524
 40
0.271356502
 40
0.3380578458
 40
0.4039754994
 40
0.5329559151
 40
0.5958595741
 40
0.6575688317
 40
0.7180061251
 40
0.7771101528
 40
0.8348520277
 40
0.8912314399
 40
0.9462665086
 40
1.0
 40
1.0
 40
1.0
 40
1.0
 10
6.306376352
 20
1.149539014
 30
0.0
 10
6.306376352
 20
1.1342009686
 30
0.0
 10
6.307492785
 20
1.111202486
 30
0.0
 10
6.3111853147
 20
1.0808531262
 30
0.0
 10
6.3150413079
 20
1.0584322021
 30
0.0
 10
6.3199765629
 20
1.0364439786
 30
0.0
 10
6.3278935712
 20
1.008052232
 30
0.0
 10
6.3378689247
 20
0.9807085262
 30
0.0
 10
6.3498958157
 20
0.9547860011
 30
0.0
 10
6.3597504828
 20
0.9364048013
 30
0.0
 10
6.3704669003
 20
0.9190128682
 30
0.0
 10
6.3820026465
 20
0.9026960308
 30
0.0
 10
6.3943043323
 20
0.8875318659
 30
0.0
 10
6.4073097783
 20
0.8735854338
 30
0.0
 10
6.4209584655
 20
0.8609226085
 30
0.0
 10
6.4305617452
 20
0.8532910455
 30
0.0
 10
6.4354486224
 20
0.8497202884
 30
0.0
  0
SPLINE
  5
323
100
AcDbEntity
  8
0
100
AcDbSpline
 62
7
  6
CONTINUOUS
 70
0
 71
3
 72
11
 73
7
 74
0
 42
0.0000001
 43
0.0000001
 44
0.0000000001
 40
0.0
 40
0.0
 40
0.0
 40
0.0
 40
0.2579809459
 40
0.5101051693
 40
0.7571320456
 40
1.0
 40
1.0
 40
1.0
 40
1.0
 10
6.4354486224
 20
0.8497202884
 30
0.0
 10
6.4405954034
 20
0.8459596241
 30
0.0
 10
6.4510949841
 20
0.8389525489
 30
0.0
 10
6.4675496686
 20
0.8299981375
 30
0.0
 10
6.4844327097
 20
0.8227795138
 30
0.0
 10
6.4960001061
 20
0.8191334485
 30
0.0
 10
6.5018075924
 20
0.8176221879
 30
0.0
  0
SPLINE
  5
324
100
AcDbEntity
  8
0
100
AcDbSpline
 62
7
  6
CONTINUOUS
 70
0
 71
3
 72
11
 73
7
 74
0
 42
0.0000001
 43
0.0000001
 44
0.0000000001
 40
0.0
 40
0.0
 40
0.0
 40
0.0
 40
0.2428687031
 40
0.489896111
 40
0.7420201957
 40
1.0
 40
1.0
 40
1.0
 40
1.0
 10
6.5017946667
 20
1.4814524759
 30
0.0
 10
6.4959883215
 20
1.4799410454
 30
0.0
 10
6.4844232232
 20
1.4762948767
 30
0.0
 10
6.4675435284
 20
1.4690767893
 30
0.0
 10
6.4510920581
 20
1.4601235853
 30
0.0
 10
6.4405944543
 20
1.4531177104
 30
0.0
 10
6.4354486224
 20
1.4493577395
 30
0.0
  0
SPLINE
  5
325
100
AcDbEntity
  8
0
100
AcDbSpline
 62
7
  6
CONTINUOUS
 70
0
 71
3
 72
21
 73
17
 74
0
 42
0.0000001
 43
0.0000001
 44
0.0000000001
 40
0.0
 40
0.0
 40
0.0
 40
0.0
 40
0.0537334914
 40
0.1087685601
 40
0.1651479723
 40
0.2228898472
 40
0.2819938749
 40
0.3424311683
 40
0.4041404259
 40
0.4670440849
 40
0.5960245006
 40
0.6619421542
 40
0.728643498
 40
0.7960007476
 40
0.8638287248
 40
1.0
 40
1.0
 40
1.0
 40
1.0
 10
6.4354486224
 20
1.4493577395
 30
0.0
 10
6.4305617452
 20
1.4457869825
 30
0.0
 10
6.4209584655
 20
1.4381554195
 30
0.0
 10
6.4073097783
 20
1.4254925941
 30
0.0
 10
6.3943043323
 20
1.411546162
 30
0.0
 10
6.3820026465
 20
1.3963819972
 30
0.0
 10
6.3704669003
 20
1.3800651597
 30
0.0
 10
6.3597504828
 20
1.3626732266
 30
0.0
 10
6.3498958157
 20
1.3442920268
 30
0.0
 10
6.3378689247
 20
1.3183695017
 30
0.0
 10
6.3278935712
 20
1.291025796
 30
0.0
 10
6.3199765629
 20
1.2626340493
 30
0.0
 10
6.3150413079
 20
1.2406458258
 30
0.0
 10
6.3111853147
 20
1.2182249017
 30
0.0
 10
6.307492785
 20
1.187875542
 30
0.0
 10
6.306376352
 20
1.1648770593
 30
0.0
 10
6.306376352
 20
1.149539014
 30
0.0
  0
SPLINE
  5
326
100
AcDbEntity
  8
0
100
AcDbSpline
 62
9
  6
CONTINUOUS
 70
0
 71
3
 72
17
 73
13
 74
0
 42
0.0000001
 43
0.0000001
 44
0.0000000001
 40
0.0
 40
0.0
 40
0.0
 40
0.0
 40
0.1311453018
 40
0.2618955052
 40
0.3268566947
 40
0.391394527
 40
0.4554334641
 40
0.5189121486
 40
0.6439288246
 40
0.7660255734
 40
0.8848215438
 40
1.0
 40
1.0
 40
1.0
 40
1.0
 10
6.3513809213
 20
1.149539014
 30
0.0
 10
6.3513809213
 20
1.1601684186
 30
0.0
 10
6.3521356203
 20
1.1814021048
 30
0.0
 10
6.3549386342
 20
1.2077686105
 30
0.0
 10
6.3582952221
 20
1.2285972518
 30
0.0
 10
6.3613569667
 20
1.2439856063
 30
0.0
 10
6.364958584
 20
1.2591333072
 30
0.0
 10
6.370437028
 20
1.2788585332
 30
0.0
 10
6.3785474877
 20
1.3027188682
 30
0.0
 10
6.3903142379
 20
1.329977753
 30
0.0
 10
6.4039394727
 20
1.3554565299
 30
0.0
 10
6.4143437336
 20
1.3713494663
 30
0.0
 10
6.4198294463
 20
1.3789029059
 30
0.0
  0
SPLINE
  5
327
100
AcDbEntity
  8
0
100
AcDbSpline
 62
9
  6
CONTINUOUS
 70
0
 71
3
 72
11
 73
7
 74
0
 42
0.0000001
 43
0.0000001
 44
0.0000000001
 40
0.0
 40
0.0
 40
0.0
 40
0.0
 40
0.2518644637
 40
0.5032952986
 40
0.7530542041
 40
1.0
 40
1.0
 40
1.0
 40
1.0
 10
6.255176288
 20
1.149539014
 30
0.0
 10
6.255176288
 20
1.1597202252
 30
0.0
 10
6.2557938596
 20
1.1800703041
 30
0.0
 10
6.2585447065
 20
1.2104045485
 30
0.0
 10
6.2630997253
 20
1.2403202796
 30
0.0
 10
6.2673598584
 20
1.259957819
 30
0.0
 10
6.2697882901
 20
1.269640312
 30
0.0
  0
SPLINE
  5
328
100
AcDbEntity
  8
0
100
AcDbSpline
 62
9
  6
CONTINUOUS
 70
0
 71
3
 72
15
 73
11
 74
0
 42
0.0000001
 43
0.0000001
 44
0.0000000001
 40
0.0
 40
0.0
 40
0.0
 40
0.0
 40
0.1189593184
 40
0.2402141935
 40
0.3635280381
 40
0.4886381596
 40
0.6152638407
 40
0.7430305672
 40
0.8714455914
 40
1.0
 40
1.0
 40
1.0
 40
1.0
 10
6.4202571284
 20
0.9290343763
 30
0.0
 10
6.4162472944
 20
0.9371308131
 30
0.0
 10
6.4086796767
 20
0.953747549
 30
0.0
 10
6.3988149108
 20
0.9795524959
 30
0.0
 10
6.390368297
 20
1.0063462036
 30
0.0
 10
6.3833847053
 20
1.0339779658
 30
0.0
 10
6.3779149778
 20
1.0622929651
 30
0.0
 10
6.3739911434
 20
1.0911161682
 30
0.0
 10
6.3716227396
 20
1.120254326
 30
0.0
 10
6.3710915758
 20
1.1397752737
 30
0.0
 10
6.3710915758
 20
1.149539014
 30
0.0
  0
SPLINE
  5
329
100
AcDbEntity
  8
0
100
AcDbSpline
 62
9
  6
CONTINUOUS
 70
0
 71
3
 72
17
 73
13
 74
0
 42
0.0000001
 43
0.0000001
 44
0.0000000001
 40
0.0
 40
0.0
 40
0.0
 40
0.0
 40
0.1151784562
 40
0.2339744266
 40
0.3560711754
 40
0.4810878514
 40
0.5445665359
 40
0.608605473
 40
0.6731433053
 40
0.7381044948
 40
0.8688546982
 40
1.0
 40
1.0
 40
1.0
 40
1.0
 10
6.4198294463
 20
0.920175122
 30
0.0
 10
6.4143437336
 20
0.9277285617
 30
0.0
 10
6.4039394727
 20
0.943621498
 30
0.0
 10
6.3903142379
 20
0.969100275
 30
0.0
 10
6.3785474877
 20
0.9963591597
 30
0.0
 10
6.370437028
 20
1.0202194948
 30
0.0
 10
6.364958584
 20
1.0399447207
 30
0.0
 10
6.3613569667
 20
1.0550924216
 30
0.0
 10
6.3582952221
 20
1.0704807762
 30
0.0
 10
6.3549386342
 20
1.0913094175
 30
0.0
 10
6.3521356203
 20
1.1176759231
 30
0.0
 10
6.3513809213
 20
1.1389096094
 30
0.0
 10
6.3513809213
 20
1.149539014
 30
0.0
  0
SPLINE
  5
32A
100
AcDbEntity
  8
0
100
AcDbSpline
 62
9
  6
CONTINUOUS
 70
0
 71
3
 72
12
 73
8
 74
0
 42
0.0000001
 43
0.0000001
 44
0.0000000001
 40
0.0
 40
0.0
 40
0.0
 40
0.0
 40
0.2547840129
 40
0.3817844951
 40
0.5080335761
 40
0.7570060582
 40
1.0
 40
1.0
 40
1.0
 40
1.0
 10
5.9266050824
 20
1.149539014
 30
0.0
 10
5.9266050824
 20
1.1345475097
 30
0.0
 10
5.9276260836
 20
1.1120659966
 30
0.0
 10
5.931003102
 20
1.0823573035
 30
0.0
 10
5.9356841312
 20
1.0531697853
 30
0.0
 10
5.9439546561
 20
1.0176895537
 30
0.0
 10
5.9532349094
 20
0.9902111641
 30
0.0
 10
5.9585082087
 20
0.9769213669
 30
0.0
  0
SPLINE
  5
32B
100
AcDbEntity
  8
0
100
AcDbSpline
 62
9
  6
CONTINUOUS
 70
0
 71
3
 72
20
 73
16
 74
0
 42
0.0000001
 43
0.0000001
 44
0.0000000001
 40
0.0
 40
0.0
 40
0.0
 40
0.0
 40
0.0595948785
 40
0.1188724838
 40
0.1779959295
 40
0.2371347343
 40
0.2964575075
 40
0.3561261225
 40
0.4162957319
 40
0.4771151837
 40
0.6011689038
 40
0.7292628062
 40
0.7950705872
 40
0.8621166119
 40
1.0
 40
1.0
 40
1.0
 40
1.0
 10
6.1374882773
 20
0.8010159121
 30
0.0
 10
6.1418532176
 20
0.8000504545
 30
0.0
 10
6.1506339819
 20
0.7984429755
 30
0.0
 10
6.1639222939
 20
0.7970220508
 30
0.0
 10
6.1772466676
 20
0.796606726
 30
0.0
 10
6.1905673082
 20
0.7972034309
 30
0.0
 10
6.2038458729
 20
0.7988042515
 30
0.0
 10
6.2170443048
 20
0.8014020758
 30
0.0
 10
6.2301254068
 20
0.804989757
 30
0.0
 10
6.2474684774
 20
0.8111219709
 30
0.0
 10
6.2687136208
 20
0.8212986516
 30
0.0
 10
6.2887311437
 20
0.8343905812
 30
0.0
 10
6.3040651984
 20
0.8465742245
 30
0.0
 10
6.3191870771
 20
0.8601449051
 30
0.0
 10
6.3297222205
 20
0.8713967475
 30
0.0
 10
6.3363882067
 20
0.8793053182
 30
0.0
  0
SPLINE
  5
32C
100
AcDbEntity
  8
0
100
AcDbSpline
 62
7
  6
CONTINUOUS
 70
0
 71
3
 72
15
 73
11
 74
0
 42
0.0000001
 43
0.0000001
 44
0.0000000001
 40
0.0
 40
0.0
 40
0.0
 40
0.0
 40
0.1302561137
 40
0.2568350975
 40
0.3805866201
 40
0.5025547872
 40
0.6241584664
 40
0.7467875936
 40
0.8716818281
 40
1.0
 40
1.0
 40
1.0
 40
1.0
 10
6.2439117634
 20
0.774539014
 30
0.0
 10
6.2506136391
 20
0.774539014
 30
0.0
 10
6.263841942
 20
0.7752587253
 30
0.0
 10
6.2831827663
 20
0.7785920507
 30
0.0
 10
6.3015729582
 20
0.7841293316
 30
0.0
 10
6.3188791089
 20
0.7918505632
 30
0.0
 10
6.3350242488
 20
0.8016571343
 30
0.0
 10
6.3499699848
 20
0.8134496899
 30
0.0
 10
6.3636844632
 20
0.8271380167
 30
0.0
 10
6.3718836276
 20
0.8372964805
 30
0.0
 10
6.3757808978
 20
0.8426256339
 30
0.0
  0
SPLINE
  5
32D
100
AcDbEntity
  8
0
100
AcDbSpline
 62
7
  6
CONTINUOUS
 70
0
 71
3
 72
15
 73
11
 74
0
 42
0.0000001
 43
0.0000001
 44
0.0000000001
 40
0.0
 40
0.0
 40
0.0
 40
0.0
 40
0.1283202956
 40
0.2532157207
 40
0.375845343
 40
0.4974488933
 40
0.619416166
 40
0.743166435
 40
0.8697444442
 40
1.0
 40
1.0
 40
1.0
 40
1.0
 10
6.3757886097
 20
1.4564418515
 30
0.0
 10
6.3718912791
 20
1.4617717874
 30
0.0
 10
6.3636919432
 20
1.471931751
 30
0.0
 10
6.349976985
 20
1.4856221982
 30
0.0
 10
6.3350305331
 20
1.497416585
 30
0.0
 10
6.3188844801
 20
1.5072246851
 30
0.0
 10
6.3015772627
 20
1.5149471848
 30
0.0
 10
6.2831858048
 20
1.5204853719
 30
0.0
 10
6.263843521
 20
1.5238192012
 30
0.0
 10
6.2506141769
 20
1.524539014
 30
0.0
 10
6.2439117634
 20
1.524539014
 30
0.0
  0
SPLINE
  5
32E
100
AcDbEntity
  8
0
100
AcDbSpline
 62
9
  6
CONTINUOUS
 70
0
 71
3
 72
11
 73
7
 74
0
 42
0.0000001
 43
0.0000001
 44
0.0000000001
 40
0.0
 40
0.0
 40
0.0
 40
0.0
 40
0.2469457959
 40
0.4967047014
 40
0.7481355363
 40
1.0
 40
1.0
 40
1.0
 40
1.0
 10
6.2697882901
 20
1.0294377159
 30
0.0
 10
6.2673598584
 20
1.039120209
 30
0.0
 10
6.2630997253
 20
1.0587577484
 30
0.0
 10
6.2585447065
 20
1.0886734794
 30
0.0
 10
6.2557938596
 20
1.1190077238
 30
0.0
 10
6.255176288
 20
1.1393578028
 30
0.0
 10
6.255176288
 20
1.149539014
 30
0.0
  0
SPLINE
  5
32F
100
AcDbEntity
  8
0
100
AcDbSpline
 62
9
  6
CONTINUOUS
 70
0
 71
3
 72
43
 73
39
 74
0
 42
0.0000001
 43
0.0000001
 44
0.0000000001
 40
0.0
 40
0.0
 40
0.0
 40
0.0
 40
0.0279027042
 40
0.0564038325
 40
0.0854746744
 40
0.1150834022
 40
0.1300788907
 40
0.1451958935
 40
0.1604298673
 40
0.175775667
 40
0.1912277985
 40
0.2067811742
 40
0.2381740273
 40
0.2699284213
 40
0.3020355377
 40
0.3344901842
 40
0.3672389282
 40
0.400220314
 40
0.4333790998
 40
0.5000000604
 40
0.5666210087
 40
0.5997797758
 40
0.6327611469
 40
0.6655098981
 40
0.697964584
 40
0.7300717354
 40
0.761826123
 40
0.7932189453
 40
0.8087723017
 40
0.824224414
 40
0.8395701964
 40
0.8548041563
 40
0.8699211478
 40
0.8849166271
 40
0.9145253421
 40
0.9435961763
 40
0.9720972997
 40
1.0
 40
1.0
 40
1.0
 40
1.0
 10
6.1798207418
 20
4.2412203978
 30
0.0
 10
6.1707072048
 20
4.2451557576
 30
0.0
 10
6.1522065385
 20
4.2529306946
 30
0.0
 10
6.1239874278
 20
4.264264697
 30
0.0
 10
6.0950603402
 20
4.2754570353
 30
0.0
 10
6.0705232185
 20
4.2846753648
 30
0.0
 10
6.0505946326
 20
4.2920432215
 30
0.0
 10
6.0354465042
 20
4.2975933565
 30
0.0
 10
6.0201700742
 20
4.3031554631
 30
0.0
 10
6.0047664439
 20
4.3087165911
 30
0.0
 10
5.9892286639
 20
4.3142404301
 30
0.0
 10
5.9682623156
 20
4.3215363393
 30
0.0
 10
5.9416998195
 20
4.3303967326
 30
0.0
 10
5.9092963447
 20
4.3403334821
 30
0.0
 10
5.8762284191
 20
4.3493437187
 30
0.0
 10
5.8424944297
 20
4.3571653611
 30
0.0
 10
5.8081763507
 20
4.3637281689
 30
0.0
 10
5.7733737531
 20
4.3689473139
 30
0.0
 10
5.7264015541
 20
4.3740106475
 30
0.0
 10
5.6671777252
 20
4.3765314469
 30
0.0
 10
5.6079538983
 20
4.3740106938
 30
0.0
 10
5.560981719
 20
4.3689473221
 30
0.0
 10
5.5261791395
 20
4.363728118
 30
0.0
 10
5.4918610551
 20
4.3571652845
 30
0.0
 10
5.4581270162
 20
4.3493437352
 30
0.0
 10
5.4250590182
 20
4.3403336718
 30
0.0
 10
5.3926555152
 20
4.3303970135
 30
0.0
 10
5.3660930326
 20
4.3215366417
 30
0.0
 10
5.3451267214
 20
4.3142407006
 30
0.0
 10
5.3295889806
 20
4.3087168105
 30
0.0
 10
5.3141853982
 20
4.3031556024
 30
0.0
 10
5.298909028
 20
4.2975933758
 30
0.0
 10
5.2837609441
 20
4.2920431551
 30
0.0
 10
5.2638324009
 20
4.284675217
 30
0.0
 10
5.2392953068
 20
4.2754568448
 30
0.0
 10
5.2103682212
 20
4.2642645271
 30
0.0
 10
5.1821490888
 20
4.252930595
 30
0.0
 10
5.1636483983
 20
4.2451557238
 30
0.0
 10
5.1545348483
 20
4.2412203978
 30
0.0
  0
ENDSEC
  0
SECTION
  2
OBJECTS
  0
DICTIONARY
  5
C
100
AcDbDictionary
280
0
281
1
  3
ACAD_GROUP
350
D
  3
ACAD_MLINESTYLE
350
17
  3
ACAD_LAYOUT
350
1A
  3
ACAD_PLOTSETTINGS
350
19
  3
ACAD_PLOTSTYLENAME
350
E
  0
DICTIONARY
  5
D
102
{ACAD_REACTORS
330
C
102
}
100
AcDbDictionary
280
0
281
1
  0
ACDBDICTIONARYWDFLT
  5
E
102
{ACAD_REACTORS
330
C
102
}
100
AcDbDictionary
281
1
  3
Normal
350
F
100
AcDbDictionaryWithDefault
340
F
  0
DICTIONARY
  5
17
102
{ACAD_REACTORS
330
C
102
}
100
AcDbDictionary
280
0
281
1
  3
Standard
350
18
  0
DICTIONARY
  5
19
102
{ACAD_REACTORS
330
C
102
}
100
AcDbDictionary
281
1
  0
DICTIONARY
  5
1A
102
{ACAD_REACTORS
330
C
102
}
100
AcDbDictionary
281
1
  3
Model
350
330
  3
Layout1
350
331
  0
ACDBPLACEHOLDER
  5
F
102
{ACAD_REACTORS
330
E
102
}
  0
MLINESTYLE
  5
18
102
{ACAD_REACTORS
330
17
102
}
100
AcDbMlineStyle
  2
STANDARD
 70
0
  3

 62
256
 51
90.0
 52
90.0
 71
2
 49
0.5
 62
256
  6
BYLAYER
 49
-0.5
 62
256
  6
BYLAYER
  0
LAYOUT
  5
330
102
{ACAD_REACTORS
330
1A
102
}
100
AcDbPlotSettings
  1

  2
none_device
  4
ANSI_A_(11.00_x_8.50_Inches)
  6

 40
0.0
 41
0.0
 42
0.0
 43
0.0
 44
279.4
 45
215.9
 46
0.0
 47
0.0
 48
0.0
 49
0.0
140
0.0
141
0.0
142
1.0
143
1.0
 70
1024
 72
0
 73
0
 74
0
  7

 75
0
147
1.0
148
0.0
149
0.0
100
AcDbLayout
  1
Model
 70
0
 71
0
 10
0.0
 20
0.0
 11
11.0
 21
8.5
 12
0.0
 22
0.0
 32
0.0
 14
0.0
 24
0.0
 34
0.0
 15
0.0
 25
0.0
 35
0.0
146
0.0
 13
0.0
 23
0.0
 33
0.0
 16
1.0
 26
0.0
 36
0.0
 17
0.0
 27
1.0
 37
0.0
 76
0
330
224
345
0
346
0
  0
LAYOUT
  5
331
102
{ACAD_REACTORS
330
1A
102
}
100
AcDbPlotSettings
  1

  2
none_device
  4
ANSI_A_(11.00_x_8.50_Inches)
  6

 40
0.0
 41
0.0
 42
0.0
 43
0.0
 44
279.4
 45
215.9
 46
0.0
 47
0.0
 48
0.0
 49
0.0
140
0.0
141
0.0
142
1.0
143
1.0
 70
0
 72
0
 73
0
 74
0
  7

 75
0
147
1.0
148
0.0
149
0.0
100
AcDbLayout
  1
Layout1
 70
0
 71
1
 10
0.0
 20
0.0
 11
11.0
 21
8.5
 12
0.0
 22
0.0
 32
0.0
 14
0.0
 24
0.0
 34
0.0
 15
0.0
 25
0.0
 35
0.0
146
0.0
 13
0.0
 23
0.0
 33
0.0
 16
1.0
 26
0.0
 36
0.0
 17
0.0
 27
1.0
 37
0.0
 76
0
330
225
345
0
346
0
  0
ENDSEC
  0
EOF
