999
DXF file: C:\Prowork\plots\403x_front.dxf
999
Pro/ENGINEER 2018500 by Parametric Technology Corporation
  0
SECTION
  2
HEADER
  9
$ACADVER
  1
AC1032
  9
$DWGCODEPAGE
  3
ANSI_1252
  9
$EXTMAX
 10
11.0
 20
8.5
 30
0.0
  9
$EXTMIN
 10
0.0
 20
0.0
 30
0.0
  9
$LIMMIN
 10
0.0
 20
0.0
  9
$LIMMAX
 10
11.0
 20
8.5
  9
$VIEWCTR
 10
5.5
 20
4.25
  9
$VIEWSIZE
 40
8.5
  9
$CLAYER
  8
0
  9
$LTSCALE
 40
0.605
  9
$CELTYPE
  6
BYLAYER
  9
$DIMSCALE
 40
1.0
  9
$DIMASZ
 40
0.1
  9
$DIMEXO
 40
0.0625
  9
$DIMDLI
 40
0.418
  9
$DIMEXE
 40
0.125
  9
$DIMCEN
 40
0.099
  9
$DIMLFAC
 40
1.0
  9
$DIMBLK
  1
_FILLED
  9
$DIMALT
 70
1
  9
$DIMALTD
 70
2
  9
$DIMALTTD
 70
2
  9
$DIMALTF
 40
25.4
  9
$DIMTXT
 40
0.08
  9
$DIMTOL
 70
1
  9
$DIMLIM
 70
0
  9
$DIMTFAC
 40
1.0
  9
$DIMTP
 40
0.001
  9
$DIMTM
 40
0.001
  9
$DIMGAP
 40
0.09
  9
$DIMDSEP
 70
46
  9
$AUNITS
 70
0
  9
$PDMODE
 70
3
  9
$PDSIZE
 40
0.06
  9
$HANDSEED
  5
2CC
  9
$TILEMODE
 70
1
  9
$MEASUREMENT
 70
0
  9
$INSUNITS
 70
1
  0
ENDSEC
  0
SECTION
  2
CLASSES
  0
CLASS
  1
ACDBDICTIONARYWDFLT
  2
AcDbDictionaryWithDefault
  3
AutoCAD 2000
 90
0
 91
1
280
0
281
0
  0
CLASS
  1
ACDBPLACEHOLDER
  2
AcDbPlaceHolder
  3
AutoCAD 2000
 90
0
 91
1
280
0
281
0
  0
CLASS
  1
LAYOUT
  2
AcDbLayout
  3
AutoCAD 2000
 90
0
 91
0
280
0
281
0
  0
ENDSEC
  0
SECTION
  2
TABLES
  0
TABLE
  2
VPORT
  5
8
100
AcDbSymbolTable
 70
2
  0
VPORT
  5
1F4
100
AcDbSymbolTableRecord
100
AcDbViewportTableRecord
  2
*ACTIVE
 70
0
 10
0.0
 20
0.0
 11
1.0
 21
1.0
 12
5.5
 22
4.25
 13
0.0
 23
0.0
 14
1.0
 24
1.0
 15
0.0
 25
0.0
 16
0.0
 26
0.0
 36
1.0
 17
0.0
 27
0.0
 37
0.0
 40
8.5
 41
1.2941176471
 42
50.0
 43
0.0
 44
0.0
 50
0.0
 51
0.0
 71
0
 72
100
 73
1
 74
1
 75
0
 76
0
 77
0
 78
0
  0
ENDTAB
  0
TABLE
  2
LTYPE
  5
5
100
AcDbSymbolTable
 70
6
  0
LTYPE
  5
14
100
AcDbSymbolTableRecord
100
AcDbLinetypeTableRecord
  2
BYBLOCK
 70
0
  3

 72
65
 73
0
 40
0.0
  0
LTYPE
  5
15
100
AcDbSymbolTableRecord
100
AcDbLinetypeTableRecord
  2
BYLAYER
 70
0
  3

 72
65
 73
0
 40
0.0
  0
LTYPE
  5
16
100
AcDbSymbolTableRecord
100
AcDbLinetypeTableRecord
  2
CONTINUOUS
 70
64
  3
Solid line
 72
65
 73
0
 40
0.0
  0
LTYPE
  5
1F5
100
AcDbSymbolTableRecord
100
AcDbLinetypeTableRecord
  2
CENTER
 70
64
  3
____ _ ____ _ ____ _ ____ _ ____ _ ____ _ ____
 72
65
 73
4
 40
0.6
 49
0.375
 74
0
 49
-0.075
 74
0
 49
0.075
 74
0
 49
-0.075
 74
0
  0
LTYPE
  5
1F6
100
AcDbSymbolTableRecord
100
AcDbLinetypeTableRecord
  2
HIDDEN
 70
64
  3
- - - - - - - - - - - - - - - - - - - -
 72
65
 73
2
 40
0.2
 49
0.1
 74
0
 49
-0.1
 74
0
  0
LTYPE
  5
1F7
100
AcDbSymbolTableRecord
100
AcDbLinetypeTableRecord
  2
PHANTOM
 70
64
  3
_____ _ _ _____ _ _ _____ _ _ _____
 72
65
 73
6
 40
0.8
 49
0.45
 74
0
 49
-0.05
 74
0
 49
0.1
 74
0
 49
-0.05
 74
0
 49
0.1
 74
0
 49
-0.05
 74
0
  0
LTYPE
  5
1F8
100
AcDbSymbolTableRecord
100
AcDbLinetypeTableRecord
  2
DOT
 70
64
  3
. . . . . . . . . . . . . . . . . . . .
 72
65
 73
2
 40
0.2
 49
0.1
 74
0
 49
-0.1
 74
0
  0
LTYPE
  5
1F9
100
AcDbSymbolTableRecord
100
AcDbLinetypeTableRecord
  2
DASHED
 70
64
  3
- - - - - - - - - - - - - - - - - - - -
 72
65
 73
2
 40
0.2
 49
0.1
 74
0
 49
-0.1
 74
0
  0
ENDTAB
  0
TABLE
  2
LAYER
  5
2
100
AcDbSymbolTable
 70
36
  0
LAYER
  5
10
100
AcDbSymbolTableRecord
100
AcDbLayerTableRecord
  2
0
 70
0
 62
7
  6
CONTINUOUS
370
-3
390
F
  0
LAYER
  5
1FA
100
AcDbSymbolTableRecord
100
AcDbLayerTableRecord
  2
DEFAULT_1
 70
0
 62
7
  6
CENTER
370
-3
390
F
  0
LAYER
  5
1FB
100
AcDbSymbolTableRecord
100
AcDbLayerTableRecord
  2
DEFAULT_2
 70
0
 62
8
  6
HIDDEN
370
-3
390
F
  0
LAYER
  5
1FC
100
AcDbSymbolTableRecord
100
AcDbLayerTableRecord
  2
DEFAULT_3
 70
0
 62
7
  6
PHANTOM
370
-3
390
F
  0
LAYER
  5
1FD
100
AcDbSymbolTableRecord
100
AcDbLayerTableRecord
  2
50350
 70
0
 62
7
  6
CONTINUOUS
370
-3
390
F
  0
LAYER
  5
1FE
100
AcDbSymbolTableRecord
100
AcDbLayerTableRecord
  2
50356
 70
0
 62
7
  6
CONTINUOUS
370
-3
390
F
  0
LAYER
  5
1FF
100
AcDbSymbolTableRecord
100
AcDbLayerTableRecord
  2
50359
 70
0
 62
7
  6
CONTINUOUS
370
-3
390
F
  0
LAYER
  5
200
100
AcDbSymbolTableRecord
100
AcDbLayerTableRecord
  2
50362
 70
0
 62
7
  6
CONTINUOUS
370
-3
390
F
  0
LAYER
  5
201
100
AcDbSymbolTableRecord
100
AcDbLayerTableRecord
  2
50663
 70
0
 62
7
  6
CONTINUOUS
370
-3
390
F
  0
LAYER
  5
202
100
AcDbSymbolTableRecord
100
AcDbLayerTableRecord
  2
50664
 70
0
 62
7
  6
CONTINUOUS
370
-3
390
F
  0
LAYER
  5
203
100
AcDbSymbolTableRecord
100
AcDbLayerTableRecord
  2
50668
 70
0
 62
7
  6
CONTINUOUS
370
-3
390
F
  0
LAYER
  5
204
100
AcDbSymbolTableRecord
100
AcDbLayerTableRecord
  2
50675
 70
0
 62
7
  6
CONTINUOUS
370
-3
390
F
  0
LAYER
  5
205
100
AcDbSymbolTableRecord
100
AcDbLayerTableRecord
  2
50677
 70
0
 62
7
  6
CONTINUOUS
370
-3
390
F
  0
LAYER
  5
206
100
AcDbSymbolTableRecord
100
AcDbLayerTableRecord
  2
50678
 70
0
 62
7
  6
CONTINUOUS
370
-3
390
F
  0
LAYER
  5
207
100
AcDbSymbolTableRecord
100
AcDbLayerTableRecord
  2
6-403
 70
0
 62
7
  6
CONTINUOUS
370
-3
390
F
  0
LAYER
  5
208
100
AcDbSymbolTableRecord
100
AcDbLayerTableRecord
  2
92000
 70
0
 62
7
  6
CONTINUOUS
370
-3
390
F
  0
LAYER
  5
209
100
AcDbSymbolTableRecord
100
AcDbLayerTableRecord
  2
ALL_FEATURES_4
 70
0
 62
7
  6
CONTINUOUS
370
-3
390
F
  0
LAYER
  5
20A
100
AcDbSymbolTableRecord
100
AcDbLayerTableRecord
  2
DEFAULT_COORDINATE_SYSTEM
 70
0
 62
7
  6
CONTINUOUS
370
-3
390
F
  0
LAYER
  5
20B
100
AcDbSymbolTableRecord
100
AcDbLayerTableRecord
  2
DEFAULT_DATUM_AXES
 70
0
 62
7
  6
CONTINUOUS
370
-3
390
F
  0
LAYER
  5
20C
100
AcDbSymbolTableRecord
100
AcDbLayerTableRecord
  2
DEFAULT_DATUM_PLANES
 70
0
 62
7
  6
CONTINUOUS
370
-3
390
F
  0
LAYER
  5
20D
100
AcDbSymbolTableRecord
100
AcDbLayerTableRecord
  2
DEFAULT_SURFACES
 70
0
 62
7
  6
CONTINUOUS
370
-3
390
F
  0
LAYER
  5
20E
100
AcDbSymbolTableRecord
100
AcDbLayerTableRecord
  2
INTF_50350
 70
0
 62
7
  6
CONTINUOUS
370
-3
390
F
  0
LAYER
  5
20F
100
AcDbSymbolTableRecord
100
AcDbLayerTableRecord
  2
INTF_50356
 70
0
 62
7
  6
CONTINUOUS
370
-3
390
F
  0
LAYER
  5
210
100
AcDbSymbolTableRecord
100
AcDbLayerTableRecord
  2
INTF_50359
 70
0
 62
7
  6
CONTINUOUS
370
-3
390
F
  0
LAYER
  5
211
100
AcDbSymbolTableRecord
100
AcDbLayerTableRecord
  2
INTF_50362
 70
0
 62
7
  6
CONTINUOUS
370
-3
390
F
  0
LAYER
  5
212
100
AcDbSymbolTableRecord
100
AcDbLayerTableRecord
  2
INTF_50663
 70
0
 62
7
  6
CONTINUOUS
370
-3
390
F
  0
LAYER
  5
213
100
AcDbSymbolTableRecord
100
AcDbLayerTableRecord
  2
INTF_50664
 70
0
 62
7
  6
CONTINUOUS
370
-3
390
F
  0
LAYER
  5
214
100
AcDbSymbolTableRecord
100
AcDbLayerTableRecord
  2
INTF_50668
 70
0
 62
7
  6
CONTINUOUS
370
-3
390
F
  0
LAYER
  5
215
100
AcDbSymbolTableRecord
100
AcDbLayerTableRecord
  2
INTF_50675
 70
0
 62
7
  6
CONTINUOUS
370
-3
390
F
  0
LAYER
  5
216
100
AcDbSymbolTableRecord
100
AcDbLayerTableRecord
  2
INTF_50677
 70
0
 62
7
  6
CONTINUOUS
370
-3
390
F
  0
LAYER
  5
217
100
AcDbSymbolTableRecord
100
AcDbLayerTableRecord
  2
INTF_50678
 70
0
 62
7
  6
CONTINUOUS
370
-3
390
F
  0
LAYER
  5
218
100
AcDbSymbolTableRecord
100
AcDbLayerTableRecord
  2
INTF_92000
 70
0
 62
7
  6
CONTINUOUS
370
-3
390
F
  0
LAYER
  5
219
100
AcDbSymbolTableRecord
100
AcDbLayerTableRecord
  2
INTF_BLANK
 70
0
 62
7
  6
CONTINUOUS
370
-3
390
F
  0
LAYER
  5
21A
100
AcDbSymbolTableRecord
100
AcDbLayerTableRecord
  2
PLATED_SURFACE
 70
0
 62
7
  6
CONTINUOUS
370
-3
390
F
  0
LAYER
  5
21B
100
AcDbSymbolTableRecord
100
AcDbLayerTableRecord
  2
PLATED_SURFACE_1
 70
0
 62
7
  6
CONTINUOUS
370
-3
390
F
  0
LAYER
  5
21C
100
AcDbSymbolTableRecord
100
AcDbLayerTableRecord
  2
_BLACK_HOLE
 70
0
 62
7
  6
CONTINUOUS
370
-3
390
F
  0
ENDTAB
  0
TABLE
  2
STYLE
  5
3
100
AcDbSymbolTable
 70
1
  0
STYLE
  5
11
100
AcDbSymbolTableRecord
100
AcDbTextStyleTableRecord
  2
STANDARD
 70
0
 40
0.0
 41
0.8
 50
0.0
 71
0
 42
0.2
  3
txt
  4

  0
STYLE
  5
21D
100
AcDbSymbolTableRecord
100
AcDbTextStyleTableRecord
  2
TEXTSTYLE_1
 70
0
 40
0.0
 41
0.8
 50
0.0
 71
0
 42
0.2
  3
gdt
  4

  0
ENDTAB
  0
TABLE
  2
VIEW
  5
6
100
AcDbSymbolTable
 70
0
  0
ENDTAB
  0
TABLE
  2
UCS
  5
7
100
AcDbSymbolTable
 70
0
  0
ENDTAB
  0
TABLE
  2
APPID
  5
9
100
AcDbSymbolTable
 70
1
  0
APPID
  5
21E
100
AcDbSymbolTableRecord
100
AcDbRegAppTableRecord
  2
ACAD
 70
0
  0
ENDTAB
  0
TABLE
  2
BLOCK_RECORD
  5
1
100
AcDbSymbolTable
 70
0
  0
BLOCK_RECORD
  5
21F
100
AcDbSymbolTableRecord
100
AcDbBlockTableRecord
  2
*Model_Space
  0
BLOCK_RECORD
  5
220
100
AcDbSymbolTableRecord
100
AcDbBlockTableRecord
  2
*Paper_Space
  0
BLOCK_RECORD
  5
221
100
AcDbSymbolTableRecord
100
AcDbBlockTableRecord
  2
_FILLED
  0
ENDTAB
  0
TABLE
  2
DIMSTYLE
  5
A
100
AcDbSymbolTable
 70
1
100
AcDbDimStyleTable
 71
0
  0
DIMSTYLE
105
222
100
AcDbSymbolTableRecord
100
AcDbDimStyleTableRecord
  2
STANDARD
 70
0
  3

  4

 40
1.0
 41
0.1
 42
0.0625
 43
0.38
 44
0.125
 45
0.0
 46
0.0
 47
0.001
 48
0.001
140
0.08
141
0.09
142
0.0
143
25.4
144
1.0
145
0.0
146
1.0
147
0.09
 71
1.0
 72
0.0
 73
1
 74
1
 75
0
 76
0
 77
0
 78
4
 79
1
170
1
171
2
172
0
173
0
174
0
175
0
176
0
177
0
178
0
270
2
179
3
271
3
272
3
273
2
274
2
275
0
280
0
281
0
282
0
283
1
284
4
285
0
286
0
287
3
288
0
340
11
278
46
341
221
342
221
343
221
344
221
  0
ENDTAB
  0
ENDSEC
  0
SECTION
  2
BLOCKS
  0
BLOCK
  5
20
100
AcDbEntity
  8
0
100
AcDbBlockBegin
  2
*Model_Space
 70
0
 10
0.0
 20
0.0
 30
0.0
  3
*Model_Space
  1

  0
ENDBLK
  5
21
100
AcDbEntity
  8
0
100
AcDbBlockEnd
  0
BLOCK
  5
1C
100
AcDbEntity
  8
0
100
AcDbBlockBegin
  2
*Paper_Space
 70
0
 10
0.0
 20
0.0
 30
0.0
  3
*Paper_Space
  1

  0
ENDBLK
  5
1D
100
AcDbEntity
  8
0
100
AcDbBlockEnd
  0
BLOCK
  5
223
100
AcDbEntity
  8
0
100
AcDbBlockBegin
  2
_FILLED
 70
64
 10
0.0
 20
0.0
  3
_FILLED
  1

  0
SOLID
  5
224
100
AcDbEntity
  8
0
  6
BYBLOCK
 62
0
100
AcDbTrace
 10
0.0
 20
0.0
 11
-1.0
 21
0.2
 12
-1.0
 22
-0.2
 13
-1.0
 23
-0.2
  0
ENDBLK
  5
225
100
AcDbEntity
  8
0
  6
BYBLOCK
 62
0
100
AcDbBlockEnd
  0
ENDSEC
  0
SECTION
  2
ENTITIES
  0
MTEXT
  5
226
100
AcDbEntity
  8
0
100
AcDbMText
 62
7
  6
CONTINUOUS
  7
STANDARD
 71
1
 72
1
 10
9.6563858696
 20
0.3757336957
 30
0.0
 11
1.0
 21
0.0
 31
0.0
 73
2
 44
0.9
  1
SCALE: 3.00
 40
0.08
 41
0.704
  0
LINE
  5
227
100
AcDbEntity
  8
0
100
AcDbLine
 62
7
  6
CONTINUOUS
 10
0.0
 20
0.0
 11
0.0
 21
8.5
  0
LINE
  5
228
100
AcDbEntity
  8
0
100
AcDbLine
 62
7
  6
CONTINUOUS
 10
0.0
 20
0.0
 11
11.0
 21
0.0
  0
LINE
  5
229
100
AcDbEntity
  8
0
100
AcDbLine
 62
7
  6
CONTINUOUS
 10
0.0
 20
8.5
 11
11.0
 21
8.5
  0
LINE
  5
22A
100
AcDbEntity
  8
0
100
AcDbLine
 62
7
  6
CONTINUOUS
 10
11.0
 20
0.0
 11
11.0
 21
8.5
  0
LINE
  5
22B
100
AcDbEntity
  8
0
100
AcDbLine
 62
9
  6
CONTINUOUS
 10
3.2311062067
 20
2.5947019297
 11
4.1095845891
 21
1.7162235473
  0
LINE
  5
22C
100
AcDbEntity
  8
0
100
AcDbLine
 62
9
  6
CONTINUOUS
 10
4.1095845891
 20
6.2885996432
 11
3.2311062067
 21
5.4101212608
  0
LINE
  5
22D
100
AcDbEntity
  8
0
100
AcDbLine
 62
7
  6
CONTINUOUS
 10
4.6735442547
 20
5.6342698968
 11
4.6742375449
 21
5.6350766086
  0
LINE
  5
22E
100
AcDbEntity
  8
0
100
AcDbLine
 62
7
  6
CONTINUOUS
 10
4.7500510723
 20
5.6782462203
 11
4.7508357599
 21
5.6791532123
  0
LINE
  5
22F
100
AcDbEntity
  8
0
100
AcDbLine
 62
7
  6
CONTINUOUS
 10
4.6735442547
 20
5.7592798907
 11
4.6742839513
 21
5.7601131708
  0
LINE
  5
230
100
AcDbEntity
  8
0
100
AcDbLine
 62
7
  6
CONTINUOUS
 10
4.7062656932
 20
5.7784115953
 11
4.6742841391
 21
5.7599230161
  0
LINE
  5
231
100
AcDbEntity
  8
0
100
AcDbLine
 62
7
  6
CONTINUOUS
 10
4.7508357599
 20
5.6791532123
 11
4.6742377419
 21
5.6348704545
  0
LINE
  5
232
100
AcDbEntity
  8
0
100
AcDbLine
 62
7
  6
CONTINUOUS
 10
4.7505990293
 20
5.5541660194
 11
4.7389128762
 21
5.5474115953
  0
LINE
  5
233
100
AcDbEntity
  8
0
100
AcDbLine
 62
7
  6
CONTINUOUS
 10
4.2047942547
 20
3.4725100724
 11
4.2047942547
 21
4.5323131181
  0
LINE
  5
234
100
AcDbEntity
  8
0
100
AcDbLine
 62
7
  6
CONTINUOUS
 10
4.7505990293
 20
5.5541660194
 11
4.7498258764
 21
5.5532715687
  0
LINE
  5
235
100
AcDbEntity
  8
0
100
AcDbLine
 62
9
  6
CONTINUOUS
 10
4.9428077714
 20
5.5256025047
 11
4.994690284
 21
5.5695965953
  0
LINE
  5
236
100
AcDbEntity
  8
0
100
AcDbLine
 62
7
  6
CONTINUOUS
 10
5.4422942547
 20
2.5301684088
 11
5.0764788478
 21
2.7413720324
  0
LINE
  5
237
100
AcDbEntity
  8
0
100
AcDbLine
 62
7
  6
CONTINUOUS
 10
5.4422942547
 20
2.5301684088
 11
5.5172942547
 21
2.4868671386
  0
LINE
  5
238
100
AcDbEntity
  8
0
100
AcDbLine
 62
7
  6
CONTINUOUS
 10
5.0764788387
 20
5.2634511528
 11
5.4422942547
 21
5.4746547817
  0
LINE
  5
239
100
AcDbEntity
  8
0
100
AcDbLine
 62
9
  6
CONTINUOUS
 10
5.1692814102
 20
2.8285821765
 11
4.3434648359
 21
3.6543987508
  0
LWPOLYLINE
  5
23A
100
AcDbEntity
  8
0
100
AcDbPolyline
 62
7
  6
CONTINUOUS
 90
19
 70
0
 10
4.2652974842
 20
4.4271379925
 10
4.2810599443
 20
4.3962766854
 10
4.3020726426
 20
4.3498011512
 10
4.3204478044
 20
4.3021277446
 10
4.3360630545
 20
4.2535745687
 10
4.3488819613
 20
4.2043056225
 10
4.3589086987
 20
4.1543080026
 10
4.3660884462
 20
4.1038158842
 10
4.3703919213
 20
4.0530811304
 10
4.3718193497
 20
4.0021024161
 10
4.3703569298
 20
3.9511246984
 10
4.3660186306
 20
3.9003929052
 10
4.358804222
 20
3.8499057055
 10
4.3487431714
 20
3.7999150071
 10
4.335890462
 20
3.7506549259
 10
4.3202418867
 20
3.7021124787
 10
4.3018339864
 20
3.6544516577
 10
4.2807893862
 20
3.6079905631
 10
4.2652974447
 20
3.5776846006
  0
LINE
  5
23B
100
AcDbEntity
  8
0
100
AcDbLine
 62
7
  6
CONTINUOUS
 10
4.5797942547
 20
5.7784115953
 11
4.5797942547
 21
7.0354115953
  0
LINE
  5
23C
100
AcDbEntity
  8
0
100
AcDbLine
 62
7
  6
CONTINUOUS
 10
4.6735442547
 20
5.6129297573
 11
4.6735442547
 21
5.6340757579
  0
LINE
  5
23D
100
AcDbEntity
  8
0
100
AcDbLine
 62
7
  6
CONTINUOUS
 10
4.6735442547
 20
5.7380839708
 11
4.6735442547
 21
5.7590747628
  0
LINE
  5
23E
100
AcDbEntity
  8
0
100
AcDbLine
 62
7
  6
CONTINUOUS
 10
4.7498258764
 20
5.5689015687
 11
4.7498258764
 21
5.5532715687
  0
LINE
  5
23F
100
AcDbEntity
  8
0
100
AcDbLine
 62
7
  6
CONTINUOUS
 10
4.7500510726
 20
5.6938767726
 11
4.7500510723
 21
5.6782462203
  0
LINE
  5
240
100
AcDbEntity
  8
0
100
AcDbLine
 62
9
  6
CONTINUOUS
 10
4.3434648359
 20
4.3504244397
 11
5.1692814102
 21
5.176241014
  0
LINE
  5
241
100
AcDbEntity
  8
0
100
AcDbLine
 62
7
  6
CONTINUOUS
 10
6.2837355253
 20
5.755487022
 11
6.3233867139
 21
5.7784115953
  0
LINE
  5
242
100
AcDbEntity
  8
0
100
AcDbLine
 62
7
  6
CONTINUOUS
 10
6.2837945331
 20
5.6304590966
 11
6.3602740202
 21
5.6746709637
  0
LWPOLYLINE
  5
243
100
AcDbEntity
  8
0
100
AcDbPolyline
 62
7
  6
CONTINUOUS
 90
10
 70
0
 10
5.9420206519
 20
5.2544083657
 10
5.9111593448
 20
5.2386459056
 10
5.8646838106
 20
5.2176332073
 10
5.817010404
 20
5.1992580456
 10
5.7684572281
 20
5.1836427954
 10
5.7191882819
 20
5.1708238886
 10
5.669190662
 20
5.1607971512
 10
5.6186985436
 20
5.1536174037
 10
5.5679637898
 20
5.1493139286
 10
5.5164391356
 20
5.1478868532
  0
LINE
  5
244
100
AcDbEntity
  8
0
100
AcDbLine
 62
7
  6
CONTINUOUS
 10
4.8047942547
 20
5.4381780663
 11
4.8047942547
 21
5.5474115953
  0
LINE
  5
245
100
AcDbEntity
  8
0
100
AcDbLine
 62
9
  6
CONTINUOUS
 10
4.994690284
 20
5.5695965953
 11
4.994690284
 21
5.5852265953
  0
LINE
  5
246
100
AcDbEntity
  8
0
100
AcDbLine
 62
7
  6
CONTINUOUS
 10
6.2837945331
 20
5.6304590966
 11
6.2845734538
 21
5.6313603848
  0
LINE
  5
247
100
AcDbEntity
  8
0
100
AcDbLine
 62
7
  6
CONTINUOUS
 10
6.2837355253
 20
5.755487022
 11
6.2845196145
 21
5.7563939935
  0
LINE
  5
248
100
AcDbEntity
  8
0
100
AcDbLine
 62
7
  6
CONTINUOUS
 10
6.3610442547
 20
5.5503732161
 11
6.3603066117
 21
5.5495411773
  0
LINE
  5
249
100
AcDbEntity
  8
0
100
AcDbLine
 62
7
  6
CONTINUOUS
 10
6.3610442546
 20
5.6753832823
 11
6.3602741591
 21
5.6745330695
  0
LINE
  5
24A
100
AcDbEntity
  8
0
100
AcDbLine
 62
7
  6
CONTINUOUS
 10
5.5172942547
 20
5.92344335
 11
5.5172942547
 21
6.8903798405
  0
LINE
  5
24B
100
AcDbEntity
  8
0
100
AcDbLine
 62
7
  6
CONTINUOUS
 10
4.6735442547
 20
5.6128782144
 11
4.6742254249
 21
5.6120786645
  0
LINE
  5
24C
100
AcDbEntity
  8
0
100
AcDbLine
 62
7
  6
CONTINUOUS
 10
4.6735442547
 20
5.7378882946
 11
4.6742997355
 21
5.737046176
  0
LINE
  5
24D
100
AcDbEntity
  8
0
100
AcDbLine
 62
7
  6
CONTINUOUS
 10
4.7498258764
 20
5.5689015687
 11
4.7506038601
 21
5.568002927
  0
LINE
  5
24E
100
AcDbEntity
  8
0
100
AcDbLine
 62
7
  6
CONTINUOUS
 10
6.2297942547
 20
5.5474115953
 11
6.2297942547
 21
5.4381780663
  0
LINE
  5
24F
100
AcDbEntity
  8
0
100
AcDbLine
 62
7
  6
CONTINUOUS
 10
6.2845196146
 20
5.7407638289
 11
6.2845196145
 21
5.7563939935
  0
LINE
  5
250
100
AcDbEntity
  8
0
100
AcDbLine
 62
7
  6
CONTINUOUS
 10
6.2845734538
 20
5.6157303848
 11
6.2845734538
 21
5.6313603848
  0
LINE
  5
251
100
AcDbEntity
  8
0
100
AcDbLine
 62
7
  6
CONTINUOUS
 10
4.6742254881
 20
5.6121453927
 11
4.7506038601
 21
5.568002927
  0
LINE
  5
252
100
AcDbEntity
  8
0
100
AcDbLine
 62
9
  6
CONTINUOUS
 10
4.994690284
 20
5.5852265953
 11
4.9428077714
 21
5.6292206858
  0
LINE
  5
253
100
AcDbEntity
  8
0
100
AcDbLine
 62
7
  6
CONTINUOUS
 10
6.3610442547
 20
5.5504277735
 11
6.3610442547
 21
5.5715937493
  0
LINE
  5
254
100
AcDbEntity
  8
0
100
AcDbLine
 62
7
  6
CONTINUOUS
 10
6.3610442547
 20
5.6755568783
 11
6.3610442547
 21
5.6965690894
  0
LINE
  5
255
100
AcDbEntity
  8
0
100
AcDbLine
 62
7
  6
CONTINUOUS
 10
6.4547942547
 20
5.7784115953
 11
6.4547942547
 21
7.0354115953
  0
LWPOLYLINE
  5
256
100
AcDbEntity
  8
0
100
AcDbPolyline
 62
7
  6
CONTINUOUS
 90
9
 70
0
 10
5.4331464931
 20
5.151828853
 10
5.4152755647
 20
5.1536872193
 10
5.3647883649
 20
5.1609016279
 10
5.3147976665
 20
5.1709626785
 10
5.2655375853
 20
5.1838153879
 10
5.2169951381
 20
5.1994639633
 10
5.1693343171
 20
5.2178718635
 10
5.1228732225
 20
5.2389164637
 10
5.09256726
 20
5.2544084052
  0
LINE
  5
257
100
AcDbEntity
  8
0
100
AcDbLine
 62
7
  6
CONTINUOUS
 10
4.6742999056
 20
5.7372166746
 11
4.7508331584
 21
5.6929714861
  0
LINE
  5
258
100
AcDbEntity
  8
0
100
AcDbLine
 62
9
  6
CONTINUOUS
 10
5.8653070991
 20
5.176241014
 11
6.6911236734
 21
4.3504244397
  0
LWPOLYLINE
  5
259
100
AcDbEntity
  8
0
100
AcDbPolyline
 62
7
  6
CONTINUOUS
 90
19
 70
0
 10
6.7692910261
 20
3.577684839
 10
6.7537995405
 20
3.6079898744
 10
6.7327551334
 20
3.6544503708
 10
6.7143473606
 20
3.7021105668
 10
6.6986988432
 20
3.7506523734
 10
6.6858461215
 20
3.7999118043
 10
6.675784988
 20
3.8499018435
 10
6.6685704248
 20
3.900388384
 10
6.6642318993
 20
3.9511195267
 10
6.6627691815
 20
4.002096603
 10
6.6641962411
 20
4.0530746944
 10
6.6684992788
 20
4.1038088525
 10
6.6756785202
 20
4.1543004026
 10
6.6857046862
 20
4.2042974915
 10
6.6985229604
 20
4.253565952
 10
6.7141375161
 20
4.3021186859
 10
6.7325119246
 20
4.3497917002
 10
6.7535238192
 20
4.3962669037
 10
6.7692909967
 20
4.4271379069
  0
LINE
  5
25A
100
AcDbEntity
  8
0
100
AcDbLine
 62
7
  6
CONTINUOUS
 10
6.8297942547
 20
4.5323131181
 11
6.8297942547
 21
3.4725100724
  0
LINE
  5
25B
100
AcDbEntity
  8
0
100
AcDbLine
 62
9
  6
CONTINUOUS
 10
6.6911236734
 20
3.6543987508
 11
5.8653070991
 21
2.8285821765
  0
LWPOLYLINE
  5
25C
100
AcDbEntity
  8
0
100
AcDbPolyline
 62
7
  6
CONTINUOUS
 90
19
 70
0
 10
5.0925678574
 20
2.7504148248
 10
5.1234291645
 20
2.7661772849
 10
5.1699046987
 20
2.7871899832
 10
5.2175781053
 20
2.8055651449
 10
5.2661312812
 20
2.8211803951
 10
5.3154002274
 20
2.8339993019
 10
5.3653978473
 20
2.8440260393
 10
5.4158899657
 20
2.8512057868
 10
5.4666247195
 20
2.8555092619
 10
5.5176034338
 20
2.8569366903
 10
5.5685811515
 20
2.8554742704
 10
5.6193129447
 20
2.8511359712
 10
5.6698001444
 20
2.8439215626
 10
5.7197908428
 20
2.833860512
 10
5.769050924
 20
2.8210078026
 10
5.8175933712
 20
2.8053592272
 10
5.8652541922
 20
2.786951327
 10
5.9117152868
 20
2.7659067268
 10
5.9420212493
 20
2.7504147853
  0
LINE
  5
25D
100
AcDbEntity
  8
0
100
AcDbLine
 62
7
  6
CONTINUOUS
 10
5.5922942547
 20
5.4746547817
 11
5.9581096615
 21
5.2634511581
  0
LINE
  5
25E
100
AcDbEntity
  8
0
100
AcDbLine
 62
7
  6
CONTINUOUS
 10
5.9581096706
 20
2.7413720377
 11
5.5922942547
 21
2.5301684088
  0
LINE
  5
25F
100
AcDbEntity
  8
0
100
AcDbLine
 62
7
  6
CONTINUOUS
 10
5.5172942547
 20
2.4868671386
 11
5.5922942547
 21
2.5301684088
  0
LINE
  5
260
100
AcDbEntity
  8
0
100
AcDbLine
 62
7
  6
CONTINUOUS
 10
6.3517138177
 20
5.5474115953
 11
6.2297942547
 21
5.5474115953
  0
LINE
  5
261
100
AcDbEntity
  8
0
100
AcDbLine
 62
7
  6
CONTINUOUS
 10
4.8047942547
 20
5.5474115953
 11
4.7389221185
 21
5.5474115953
  0
LINE
  5
262
100
AcDbEntity
  8
0
100
AcDbLine
 62
7
  6
CONTINUOUS
 10
6.4547942549
 20
5.7784115953
 11
4.5797942544
 21
5.7784115953
  0
LINE
  5
263
100
AcDbEntity
  8
0
100
AcDbLine
 62
7
  6
CONTINUOUS
 10
6.3610442546
 20
5.5717649096
 11
6.3603733669
 21
5.5725584678
  0
LINE
  5
264
100
AcDbEntity
  8
0
100
AcDbLine
 62
7
  6
CONTINUOUS
 10
6.3603731836
 20
5.5723635437
 11
6.2837901165
 21
5.6166355058
  0
LINE
  5
265
100
AcDbEntity
  8
0
100
AcDbLine
 62
7
  6
CONTINUOUS
 10
6.3603270519
 20
5.6973908075
 11
6.2837347777
 21
5.7416712846
  0
LINE
  5
266
100
AcDbEntity
  8
0
100
AcDbLine
 62
7
  6
CONTINUOUS
 10
6.3610442546
 20
5.6967748903
 11
6.3603272506
 21
5.6975952893
  0
LINE
  5
267
100
AcDbEntity
  8
0
100
AcDbLine
 62
9
  6
CONTINUOUS
 10
7.8034823026
 20
5.4101212608
 11
6.9250039202
 21
6.2885996432
  0
LINE
  5
268
100
AcDbEntity
  8
0
100
AcDbLine
 62
9
  6
CONTINUOUS
 10
6.9250039202
 20
1.7162235473
 11
7.8034823026
 21
2.5947019297
  0
LINE
  5
269
100
AcDbEntity
  8
0
100
AcDbLine
 62
7
  6
CONTINUOUS
 10
6.4547942549
 20
7.0354115953
 11
4.5797942544
 21
7.0354115953
  0
ARC
  5
26A
100
AcDbEntity
  8
0
100
AcDbCircle
 62
7
  6
CONTINUOUS
 10
4.8695317062
 20
7.258044132
 40
2.2726171344
100
AcDbArc
 50
298.1588700824
 51
334.7495244142
  0
ARC
  5
26B
100
AcDbEntity
  8
0
100
AcDbCircle
 62
7
  6
CONTINUOUS
 10
4.8695317062
 20
0.7467790585
 40
2.2726171344
100
AcDbArc
 50
25.2504755858
 51
61.841116168
  0
ARC
  5
26C
100
AcDbEntity
  8
0
100
AcDbCircle
 62
7
  6
CONTINUOUS
 10
2.2616617179
 20
4.6501741437
 40
2.2726171344
100
AcDbArc
 50
295.2504755858
 51
331.841116168
  0
ARC
  5
26D
100
AcDbEntity
  8
0
100
AcDbCircle
 62
7
  6
CONTINUOUS
 10
2.2616617179
 20
3.3546490468
 40
2.2726171344
100
AcDbArc
 50
28.1588700825
 51
64.7495244142
  0
ARC
  5
26E
100
AcDbEntity
  8
0
100
AcDbCircle
 62
7
  6
CONTINUOUS
 10
5.5167422563
 20
6.0366902846
 40
0.8887974888
100
AcDbArc
 50
264.6027695909
 51
269.9808773391
  0
ARC
  5
26F
100
AcDbEntity
  8
0
100
AcDbCircle
 62
7
  6
CONTINUOUS
 10
3.51264653
 20
1.9977638706
 40
0.66
100
AcDbArc
 50
115.2504755858
 51
334.7495244142
  0
ARC
  5
270
100
AcDbEntity
  8
0
100
AcDbCircle
 62
7
  6
CONTINUOUS
 10
3.51264653
 20
6.0070593199
 40
0.66
100
AcDbArc
 50
25.2504755858
 51
244.7495244142
  0
ARC
  5
271
100
AcDbEntity
  8
0
100
AcDbCircle
 62
7
  6
CONTINUOUS
 10
2.2639456767
 20
146.6428750946
 40
140.9112967087
100
AcDbArc
 50
271.3229578648
 51
271.4771421458
  0
ARC
  5
272
100
AcDbEntity
  8
0
100
AcDbCircle
 62
7
  6
CONTINUOUS
 10
4.7960134712
 20
47.2402450089
 40
41.9549129914
100
AcDbArc
 50
271.5016272526
 51
271.6840868026
  0
ARC
  5
273
100
AcDbEntity
  8
0
100
AcDbCircle
 62
7
  6
CONTINUOUS
 10
6.9021173077
 20
-59.3635931875
 40
65.0223665822
100
AcDbArc
 50
91.2203552567
 51
91.7269894366
  0
ARC
  5
274
100
AcDbEntity
  8
0
100
AcDbCircle
 62
7
  6
CONTINUOUS
 10
5.8842616546
 20
-19.8925132237
 40
25.2277772008
100
AcDbArc
 50
91.5909569768
 51
92.0531331637
  0
ARC
  5
275
100
AcDbEntity
  8
0
100
AcDbCircle
 62
7
  6
CONTINUOUS
 10
8.7729267915
 20
3.3546490468
 40
2.2726171344
100
AcDbArc
 50
115.2504755858
 51
151.8411321568
  0
ARC
  5
276
100
AcDbEntity
  8
0
100
AcDbCircle
 62
7
  6
CONTINUOUS
 10
8.7729267915
 20
4.6501741437
 40
2.2726171344
100
AcDbArc
 50
208.1588780736
 51
244.7495244142
  0
ARC
  5
277
100
AcDbEntity
  8
0
100
AcDbCircle
 62
7
  6
CONTINUOUS
 10
6.1650568031
 20
0.7467790585
 40
2.2726171344
100
AcDbArc
 50
118.1588700824
 51
154.7495244142
  0
ARC
  5
278
100
AcDbEntity
  8
0
100
AcDbCircle
 62
7
  6
CONTINUOUS
 10
6.1650568031
 20
7.258044132
 40
2.2726171344
100
AcDbArc
 50
205.2504755858
 51
241.841116168
  0
CIRCLE
  5
279
100
AcDbEntity
  8
0
100
AcDbCircle
 62
7
  6
CONTINUOUS
 10
5.5172942547
 20
4.0024115953
 40
0.696
  0
ARC
  5
27A
100
AcDbEntity
  8
0
100
AcDbCircle
 62
7
  6
CONTINUOUS
 10
7.5219419793
 20
6.0070593199
 40
0.66
100
AcDbArc
 50
295.2504755858
 51
154.7495244142
  0
ARC
  5
27B
100
AcDbEntity
  8
0
100
AcDbCircle
 62
7
  6
CONTINUOUS
 10
7.5219419793
 20
1.9977638706
 40
0.66
100
AcDbArc
 50
205.2504755858
 51
64.7495244142
  0
CIRCLE
  5
27C
100
AcDbEntity
  8
0
100
AcDbCircle
 62
7
  6
CONTINUOUS
 10
5.5172942547
 20
4.0024115953
 40
0.525
  0
ARC
  5
27D
100
AcDbEntity
  8
0
100
AcDbCircle
 62
7
  6
CONTINUOUS
 10
5.5172942547
 20
5.3447509711
 40
0.15
100
AcDbArc
 50
60.0
 51
120.0
  0
ARC
  5
27E
100
AcDbEntity
  8
0
100
AcDbCircle
 62
7
  6
CONTINUOUS
 10
5.5172942547
 20
2.6600722194
 40
0.15
100
AcDbArc
 50
240.0
 51
300.0
  0
SPLINE
  5
27F
100
AcDbEntity
  8
0
100
AcDbSpline
 62
9
  6
CONTINUOUS
 70
0
 71
3
 72
27
 73
23
 74
0
 42
0.0000001
 43
0.0000001
 44
0.0000000001
 40
0.0
 40
0.0
 40
0.0
 40
0.0
 40
0.2119077994
 40
0.4052136477
 40
0.5766113135
 40
0.6530612945
 40
0.7227942455
 40
0.7854178269
 40
0.8406237606
 40
0.8881247671
 40
0.9276335504
 40
0.9443010742
 40
0.9588627991
 40
0.9712828087
 40
0.981525186
 40
0.9895540129
 40
0.9927271204
 40
0.9953333707
 40
0.9973682739
 40
0.9988273398
 40
0.9997060786
 40
1.0
 40
1.0
 40
1.0
 40
1.0
 10
5.8653045709
 20
2.8285825205
 30
0.0
 10
5.870751352
 20
2.8230889812
 30
0.0
 10
5.8811560855
 20
2.8125735354
 30
0.0
 10
5.8959331808
 20
2.7975819784
 30
0.0
 10
5.9072186753
 20
2.7860924097
 30
0.0
 10
5.9153322532
 20
2.7778107302
 30
0.0
 10
5.9206623889
 20
2.7723612192
 30
0.0
 10
5.9254462173
 20
2.7674622172
 30
0.0
 10
5.9296595864
 20
2.7631405536
 30
0.0
 10
5.9332810383
 20
2.7594203261
 30
0.0
 10
5.9359191268
 20
2.756706279
 30
0.0
 10
5.9377180196
 20
2.7548534915
 30
0.0
 10
5.9388276299
 20
2.753709826
 30
0.0
 10
5.9397735719
 20
2.7527341832
 30
0.0
 10
5.9405532142
 20
2.7519294914
 30
0.0
 10
5.9410977981
 20
2.7513670866
 30
0.0
 10
5.9414483214
 20
2.7510048159
 30
0.0
 10
5.9416467355
 20
2.7507998446
 30
0.0
 10
5.9418013855
 20
2.7506396066
 30
0.0
 10
5.9419127201
 20
2.7505251924
 30
0.0
 10
5.9419788218
 20
2.7504554881
 30
0.0
 10
5.9420092614
 20
2.7504253469
 30
0.0
 10
5.9420164315
 20
2.7504173642
 30
0.0
  0
SPLINE
  5
280
100
AcDbEntity
  8
0
100
AcDbSpline
 62
9
  6
CONTINUOUS
 70
0
 71
3
 72
20
 73
16
 74
0
 42
0.0000001
 43
0.0000001
 44
0.0000000001
 40
0.0
 40
0.0
 40
0.0
 40
0.0
 40
0.1607642544
 40
0.3142743292
 40
0.3878914364
 40
0.4591937541
 40
0.5280148279
 40
0.5941886989
 40
0.6575347203
 40
0.71781095
 40
0.7747592455
 40
0.8281206396
 40
0.9229814879
 40
0.9638756465
 40
1.0
 40
1.0
 40
1.0
 40
1.0
 10
6.1911713795
 20
3.8283266033
 30
0.0
 10
6.218446939
 20
3.8204616918
 30
0.0
 10
6.2716733939
 20
3.8047586669
 30
0.0
 10
6.3371058855
 20
3.7845097166
 30
0.0
 10
6.3872715928
 20
3.7683786663
 30
0.0
 10
6.4231114903
 20
3.7565497924
 30
0.0
 10
6.457608733
 20
3.7448500549
 30
0.0
 10
6.4906751196
 20
3.7333094754
 30
0.0
 10
6.5222093946
 20
3.7219624796
 30
0.0
 10
6.5521070172
 20
3.7108827982
 30
0.0
 10
6.5802511876
 20
3.7001489372
 30
0.0
 10
6.6139759264
 20
3.6869152826
 30
0.0
 10
6.6448876408
 20
3.6742770413
 30
0.0
 10
6.6728168577
 20
3.6623998913
 30
0.0
 10
6.6852860688
 20
3.65697122
 30
0.0
 10
6.6911231976
 20
3.6543992741
 30
0.0
  0
SPLINE
  5
281
100
AcDbEntity
  8
0
100
AcDbSpline
 62
9
  6
CONTINUOUS
 70
0
 71
3
 72
20
 73
16
 74
0
 42
0.0000001
 43
0.0000001
 44
0.0000000001
 40
0.0
 40
0.0
 40
0.0
 40
0.0
 40
0.0361240067
 40
0.0770177057
 40
0.1718781066
 40
0.2252398514
 40
0.2821887955
 40
0.3424657753
 40
0.4058124513
 40
0.471986725
 40
0.5408079548
 40
0.6121102271
 40
0.6857271328
 40
0.8392365171
 40
1.0
 40
1.0
 40
1.0
 40
1.0
 10
5.8653071523
 20
2.828582461
 30
0.0
 10
5.8627352298
 20
2.8344195368
 30
0.0
 10
5.8573066113
 20
2.8468886231
 30
0.0
 10
5.8454295417
 20
2.8748176503
 30
0.0
 10
5.8327913432
 20
2.9057292945
 30
0.0
 10
5.8195576599
 20
2.9394541466
 30
0.0
 10
5.8088236898
 20
2.9675986223
 30
0.0
 10
5.7977438775
 20
2.9974966003
 30
0.0
 10
5.7863967638
 20
3.0290311901
 30
0.0
 10
5.7748561028
 20
3.062097794
 30
0.0
 10
5.7631563276
 20
3.0965951393
 30
0.0
 10
5.7513274544
 20
3.1324350402
 30
0.0
 10
5.7351964564
 20
3.1826006187
 30
0.0
 10
5.7149476116
 20
3.2480328719
 30
0.0
 10
5.6992446915
 20
3.3012591181
 30
0.0
 10
5.6913798364
 20
3.328534567
 30
0.0
  0
SPLINE
  5
282
100
AcDbEntity
  8
0
100
AcDbSpline
 62
9
  6
CONTINUOUS
 70
0
 71
3
 72
21
 73
17
 74
0
 42
0.0000001
 43
0.0000001
 44
0.0000000001
 40
0.0
 40
0.0
 40
0.0
 40
0.0
 40
0.1504978232
 40
0.2240597666
 40
0.2963522725
 40
0.3672684086
 40
0.4366832005
 40
0.5044354587
 40
0.5703600343
 40
0.6342919381
 40
0.6960305643
 40
0.8116043097
 40
0.8647361342
 40
0.9142167656
 40
0.9594924167
 40
1.0
 40
1.0
 40
1.0
 40
1.0
 10
6.1911715693
 20
4.1764959921
 30
0.0
 10
6.2166754335
 20
4.1839618505
 30
0.0
 10
6.2546176584
 20
4.1951728694
 30
0.0
 10
6.3046936253
 20
4.2103611991
 30
0.0
 10
6.3412556097
 20
4.2216888787
 30
0.0
 10
6.3770360854
 20
4.2330616212
 30
0.0
 10
6.4119576543
 20
4.2444858719
 30
0.0
 10
6.4459455185
 20
4.2559253851
 30
0.0
 10
6.4789164099
 20
4.2673472097
 30
0.0
 10
6.5107808741
 20
4.2787148826
 30
0.0
 10
6.5507622443
 20
4.2934151106
 30
0.0
 10
6.5887630527
 20
4.3079713636
 30
0.0
 10
6.6245528608
 20
4.3222327813
 30
0.0
 10
6.6487232812
 20
4.3321182505
 30
0.0
 10
6.6707290492
 20
4.3414040732
 30
0.0
 10
6.6846021137
 20
4.3474868619
 30
0.0
 10
6.6911236734
 20
4.3504244397
 30
0.0
  0
SPLINE
  5
283
100
AcDbEntity
  8
0
100
AcDbSpline
 62
9
  6
CONTINUOUS
 70
0
 71
3
 72
27
 73
23
 74
0
 42
0.0000001
 43
0.0000001
 44
0.0000000001
 40
0.0
 40
0.0
 40
0.0
 40
0.0
 40
0.0002940083
 40
0.0011728225
 40
0.0026319529
 40
0.0046669099
 40
0.0072732039
 40
0.0104463455
 40
0.0184752133
 40
0.0287175984
 40
0.0411375864
 40
0.0556992637
 40
0.0723667179
 40
0.1118753101
 40
0.1593760808
 40
0.2145817632
 40
0.2772051073
 40
0.3469378634
 40
0.4233877077
 40
0.5947853161
 40
0.7880914632
 40
1.0
 40
1.0
 40
1.0
 40
1.0
 10
6.7692886257
 20
3.5776893236
 30
0.0
 10
6.7692811413
 20
3.5776970169
 30
0.0
 10
6.7692497799
 20
3.5777261955
 30
0.0
 10
6.7691812406
 20
3.5777935216
 30
0.0
 10
6.7690661566
 20
3.5779041698
 30
0.0
 10
6.7689062064
 20
3.5780591285
 30
0.0
 10
6.7687011187
 20
3.5782574292
 30
0.0
 10
6.7683388975
 20
3.5786080116
 30
0.0
 10
6.7677764547
 20
3.5791525624
 30
0.0
 10
6.7669717753
 20
3.5799322222
 30
0.0
 10
6.7659961264
 20
3.5808781584
 30
0.0
 10
6.7648524637
 20
3.5819877686
 30
0.0
 10
6.7629996791
 20
3.5837866553
 30
0.0
 10
6.7602856391
 20
3.5864247354
 30
0.0
 10
6.7565654206
 20
3.5900461751
 30
0.0
 10
6.7522437664
 20
3.5942595324
 30
0.0
 10
6.7473447719
 20
3.5990433513
 30
0.0
 10
6.7418952648
 20
3.6043734819
 30
0.0
 10
6.7336135793
 20
3.6124870649
 30
0.0
 10
6.7221239866
 20
3.6237725839
 30
0.0
 10
6.7071323772
 20
3.6385497338
 30
0.0
 10
6.6966168859
 20
3.6489545149
 30
0.0
 10
6.6911233177
 20
3.6544013259
 30
0.0
  0
SPLINE
  5
284
100
AcDbEntity
  8
0
100
AcDbSpline
 62
9
  6
CONTINUOUS
 70
0
 71
3
 72
20
 73
16
 74
0
 42
0.0000001
 43
0.0000001
 44
0.0000000001
 40
0.0
 40
0.0
 40
0.0
 40
0.0
 40
0.1202903902
 40
0.2433257585
 40
0.3057074592
 40
0.3685363848
 40
0.4317134969
 40
0.4951437995
 40
0.5587357473
 40
0.6223901102
 40
0.6860034287
 40
0.7494724006
 40
0.81269889
 40
0.875595308
 40
1.0
 40
1.0
 40
1.0
 40
1.0
 10
6.6911237413
 20
3.6543987761
 30
0.0
 10
6.6806751171
 20
3.6809800557
 30
0.0
 10
6.6620110025
 20
3.7357531116
 30
0.0
 10
6.6449303671
 20
3.8064111161
 30
0.0
 10
6.63510815
 20
3.8645478447
 30
0.0
 10
6.62971398
 20
3.9089680772
 30
0.0
 10
6.6263751404
 20
3.9538389809
 30
0.0
 10
6.6251399827
 20
3.9989989824
 30
0.0
 10
6.6260567223
 20
4.0442799713
 30
0.0
 10
6.629108561
 20
4.0895105122
 30
0.0
 10
6.6342792205
 20
4.1345188204
 30
0.0
 10
6.6415523381
 20
4.1791324482
 30
0.0
 10
6.6509131594
 20
4.2231831213
 30
0.0
 10
6.6660150366
 20
4.2807329317
 30
0.0
 10
6.6803176318
 20
4.322933938
 30
0.0
 10
6.6911236229
 20
4.3504243825
 30
0.0
  0
SPLINE
  5
285
100
AcDbEntity
  8
0
100
AcDbSpline
 62
9
  6
CONTINUOUS
 70
0
 71
3
 72
23
 73
19
 74
0
 42
0.0000001
 43
0.0000001
 44
0.0000000001
 40
0.0
 40
0.0
 40
0.0
 40
0.0
 40
0.1870755129
 40
0.3651568576
 40
0.5314549755
 40
0.6818064314
 40
0.7494988239
 40
0.8111037836
 40
0.8656512157
 40
0.9121720816
 40
0.9497286307
 40
0.9648630309
 40
0.9774180093
 40
0.9872809356
 40
0.9943483855
 40
0.9968216127
 40
0.9985878985
 40
1.0
 40
1.0
 40
1.0
 40
1.0
 10
6.6911236734
 20
4.3504244397
 30
0.0
 10
6.6959719932
 20
4.3552337368
 30
0.0
 10
6.7054435028
 20
4.3646130838
 30
0.0
 10
6.7192527733
 20
4.3782393653
 30
0.0
 10
6.7321327996
 20
4.3908986696
 30
0.0
 10
6.7421565062
 20
4.4007154162
 30
0.0
 10
6.7494589942
 20
4.4078486425
 30
0.0
 10
6.7542635095
 20
4.4125344208
 30
0.0
 10
6.7585175486
 20
4.4166771963
 30
0.0
 10
6.7621460468
 20
4.4202055885
 30
0.0
 10
6.7647429222
 20
4.4227271983
 30
0.0
 10
6.7664545931
 20
4.4243877348
 30
0.0
 10
6.7674340626
 20
4.4253373895
 30
0.0
 10
6.7682191569
 20
4.4260985166
 30
0.0
 10
6.7687023142
 20
4.4265664131
 30
0.0
 10
6.7690329673
 20
4.4268873729
 30
0.0
 10
6.769121069
 20
4.4269719036
 30
0.0
 10
6.7693203681
 20
4.4271667235
 30
0.0
 10
6.7692838824
 20
4.4271303101
 30
0.0
  0
SPLINE
  5
286
100
AcDbEntity
  8
0
100
AcDbSpline
 62
9
  6
CONTINUOUS
 70
0
 71
3
 72
32
 73
28
 74
0
 42
0.0000001
 43
0.0000001
 44
0.0000000001
 40
0.0
 40
0.0
 40
0.0
 40
0.0
 40
0.0000884017
 40
0.0003534771
 40
0.0007952244
 40
0.0014136419
 40
0.0031804806
 40
0.0056539794
 40
0.0088341245
 40
0.0127207969
 40
0.0173084424
 40
0.0225835507
 40
0.0351395837
 40
0.0502757531
 40
0.0678789171
 40
0.0878359351
 40
0.1100336674
 40
0.1343574497
 40
0.1889025894
 40
0.2505046764
 40
0.3181959632
 40
0.3910878099
 40
0.4685474392
 40
0.5499937298
 40
0.6348461054
 40
0.8129267495
 40
1.0
 40
1.0
 40
1.0
 40
1.0
 10
5.0925748978
 20
2.7504216264
 30
0.0
 10
5.0925773528
 20
2.7504237209
 30
0.0
 10
5.0925858258
 20
2.7504335273
 30
0.0
 10
5.0926065205
 20
2.7504538488
 30
0.0
 10
5.0926399131
 20
2.7504888815
 30
0.0
 10
5.0927119071
 20
2.7505628024
 30
0.0
 10
5.0928352265
 20
2.7506902936
 30
0.0
 10
5.0930238171
 20
2.7508847342
 30
0.0
 10
5.0932661813
 20
2.7511348297
 30
0.0
 10
5.0935622899
 20
2.7514403079
 30
0.0
 10
5.0939116192
 20
2.7518007055
 30
0.0
 10
5.0944812524
 20
2.7523883007
 30
0.0
 10
5.0953190297
 20
2.7532522567
 30
0.0
 10
5.0964703839
 20
2.754439004
 30
0.0
 10
5.0978102557
 20
2.7558192769
 30
0.0
 10
5.0993301733
 20
2.7573840306
 30
0.0
 10
5.1010216261
 20
2.7591241809
 30
0.0
 10
5.1035940957
 20
2.7617687703
 30
0.0
 10
5.1071715984
 20
2.7654424343
 30
0.0
 10
5.111857136
 20
2.770246801
 30
0.0
 10
5.1170144423
 20
2.775526572
 30
0.0
 10
5.1225810758
 20
2.7812157119
 30
0.0
 10
5.1285041096
 20
2.787258619
 30
0.0
 10
5.1347384706
 20
2.7936077375
 30
0.0
 10
5.1435548633
 20
2.8025693067
 30
0.0
 10
5.1550928782
 20
2.814262324
 30
0.0
 10
5.1644721719
 20
2.8237338536
 30
0.0
 10
5.1692814102
 20
2.8285821765
 30
0.0
  0
SPLINE
  5
287
100
AcDbEntity
  8
0
100
AcDbSpline
 62
9
  6
CONTINUOUS
 70
0
 71
3
 72
23
 73
19
 74
0
 42
0.0000001
 43
0.0000001
 44
0.0000000001
 40
0.0
 40
0.0
 40
0.0
 40
0.0
 40
0.0608556352
 40
0.1223535119
 40
0.184406791
 40
0.2469339867
 40
0.3098554711
 40
0.373074522
 40
0.4364893348
 40
0.5000000865
 40
0.5635108353
 40
0.6269256396
 40
0.6901446764
 40
0.7530661414
 40
0.8155933123
 40
0.8776465615
 40
0.9391444037
 40
1.0
 40
1.0
 40
1.0
 40
1.0
 10
5.8653072171
 20
2.8285824195
 30
0.0
 10
5.8518582488
 20
2.8338689716
 30
0.0
 10
5.8245654944
 20
2.843866493
 30
0.0
 10
5.7827812778
 20
2.8570138725
 30
0.0
 10
5.7400478897
 20
2.8683131315
 30
0.0
 10
5.6965028264
 20
2.8776763493
 30
0.0
 10
5.6522904142
 20
2.8850154018
 30
0.0
 10
5.6075735979
 20
2.8902994138
 30
0.0
 10
5.5625188834
 20
2.8934959676
 30
0.0
 10
5.5172940201
 20
2.8945723928
 30
0.0
 10
5.4720691592
 20
2.8934959524
 30
0.0
 10
5.4270144518
 20
2.8902993838
 30
0.0
 10
5.3822976471
 20
2.8850153583
 30
0.0
 10
5.338085251
 20
2.8776762938
 30
0.0
 10
5.2945402078
 20
2.8683130661
 30
0.0
 10
5.2518068435
 20
2.8570137998
 30
0.0
 10
5.210022654
 20
2.843866416
 30
0.0
 10
5.1827299186
 20
2.8338688934
 30
0.0
 10
5.1692809603
 20
2.8285823413
 30
0.0
  0
SPLINE
  5
288
100
AcDbEntity
  8
0
100
AcDbSpline
 62
9
  6
CONTINUOUS
 70
0
 71
3
 72
11
 73
7
 74
0
 42
0.0000001
 43
0.0000001
 44
0.0000000001
 40
0.0
 40
0.0
 40
0.0
 40
0.0
 40
0.2431320905
 40
0.4921922291
 40
0.7450241216
 40
1.0
 40
1.0
 40
1.0
 40
1.0
 10
5.3889379795
 20
4.5114791151
 30
0.0
 10
5.3999519524
 20
4.4703801724
 30
0.0
 10
5.4217702822
 20
4.387051811
 30
0.0
 10
5.453768726
 20
4.2606560668
 30
0.0
 10
5.4855789357
 20
4.1320770262
 30
0.0
 10
5.5066925848
 20
4.0457530413
 30
0.0
 10
5.5172942864
 20
4.0024088931
 30
0.0
  0
SPLINE
  5
289
100
AcDbEntity
  8
0
100
AcDbSpline
 62
9
  6
CONTINUOUS
 70
0
 71
3
 72
21
 73
17
 74
0
 42
0.0000001
 43
0.0000001
 44
0.0000000001
 40
0.0
 40
0.0
 40
0.0
 40
0.0
 40
0.126889953
 40
0.1902953653
 40
0.253638705
 40
0.3168931353
 40
0.380032069
 40
0.4430316293
 40
0.5058700495
 40
0.5685255763
 40
0.6309764117
 40
0.6932007064
 40
0.7551745105
 40
0.8168695831
 40
0.8782574531
 40
1.0
 40
1.0
 40
1.0
 40
1.0
 10
5.5172906674
 20
4.002408008
 30
0.0
 10
5.49574255
 20
4.0077737226
 30
0.0
 10
5.4634051085
 20
4.0157322698
 30
0.0
 10
5.4202868065
 20
4.0262710297
 30
0.0
 10
5.3879846903
 20
4.0341584726
 30
0.0
 10
5.3557324742
 20
4.0420536664
 30
0.0
 10
5.3235507989
 20
4.0499838868
 30
0.0
 10
5.2914539819
 20
4.0579539625
 30
0.0
 10
5.2594514287
 20
4.0659524417
 30
0.0
 10
5.2275530484
 20
4.0739715529
 30
0.0
 10
5.1957686308
 20
4.0820030619
 30
0.0
 10
5.1641078836
 20
4.0900369402
 30
0.0
 10
5.1325835155
 20
4.0980704676
 30
0.0
 10
5.1012172082
 20
4.1061313883
 30
0.0
 10
5.0597518004
 20
4.1169171282
 30
0.0
 10
5.0287820347
 20
4.1251642422
 30
0.0
 10
5.0082265783
 20
4.1307669059
 30
0.0
  0
SPLINE
  5
28A
100
AcDbEntity
  8
0
100
AcDbSpline
 62
9
  6
CONTINUOUS
 70
0
 71
3
 72
11
 73
7
 74
0
 42
0.0000001
 43
0.0000001
 44
0.0000000001
 40
0.0
 40
0.0
 40
0.0
 40
0.0
 40
0.2431288481
 40
0.4921842693
 40
0.7450122297
 40
1.0
 40
1.0
 40
1.0
 40
1.0
 10
5.6456505402
 20
3.4933440738
 30
0.0
 10
5.6346366464
 20
3.5344425912
 30
0.0
 10
5.6128185899
 20
3.6177698694
 30
0.0
 10
5.5808205801
 20
3.744164007
 30
0.0
 10
5.5490100999
 20
3.8727440018
 30
0.0
 10
5.5278960655
 20
3.9590696194
 30
0.0
 10
5.5172938653
 20
4.0024159351
 30
0.0
  0
SPLINE
  5
28B
100
AcDbEntity
  8
0
100
AcDbSpline
 62
9
  6
CONTINUOUS
 70
0
 71
3
 72
11
 73
7
 74
0
 42
0.0000001
 43
0.0000001
 44
0.0000000001
 40
0.0
 40
0.0
 40
0.0
 40
0.0
 40
0.2549835069
 40
0.5078138654
 40
0.7568705217
 40
1.0
 40
1.0
 40
1.0
 40
1.0
 10
5.5172982284
 20
4.0024097091
 30
0.0
 10
5.5606431109
 20
3.9918078677
 30
0.0
 10
5.6469669943
 20
3.970694247
 30
0.0
 10
5.7755447685
 20
3.9388842893
 30
0.0
 10
5.9019375602
 20
3.9068866295
 30
0.0
 10
5.9852637859
 20
3.8850688372
 30
0.0
 10
6.0263617331
 20
3.8740550835
 30
0.0
  0
SPLINE
  5
28C
100
AcDbEntity
  8
0
100
AcDbSpline
 62
9
  6
CONTINUOUS
 70
0
 71
3
 72
11
 73
7
 74
0
 42
0.0000001
 43
0.0000001
 44
0.0000000001
 40
0.0
 40
0.0
 40
0.0
 40
0.0
 40
0.2431284443
 40
0.4921832228
 40
0.7450088757
 40
1.0
 40
1.0
 40
1.0
 40
1.0
 10
5.0082267349
 20
3.8740553197
 30
0.0
 10
5.0493252034
 20
3.8850691655
 30
0.0
 10
5.1326523297
 20
3.9068871665
 30
0.0
 10
5.2590459172
 20
3.9388850959
 30
0.0
 10
5.3876260141
 20
3.9706956014
 30
0.0
 10
5.4739518338
 20
3.9918096773
 30
0.0
 10
5.5172987294
 20
4.002412026
 30
0.0
  0
SPLINE
  5
28D
100
AcDbEntity
  8
0
100
AcDbSpline
 62
9
  6
CONTINUOUS
 70
0
 71
3
 72
21
 73
17
 74
0
 42
0.0000001
 43
0.0000001
 44
0.0000000001
 40
0.0
 40
0.0
 40
0.0
 40
0.0
 40
0.1268899585
 40
0.1902953728
 40
0.2536387148
 40
0.3168931475
 40
0.3800320832
 40
0.4430316442
 40
0.5058700635
 40
0.5685255881
 40
0.6309764204
 40
0.693200712
 40
0.7551745138
 40
0.8168695849
 40
0.878257454
 40
1.0
 40
1.0
 40
1.0
 40
1.0
 10
5.5173003178
 20
4.0024055321
 30
0.0
 10
5.51193407
 20
3.9808576256
 30
0.0
 10
5.5039748003
 20
3.9485204787
 30
0.0
 10
5.4934352843
 20
3.9054025176
 30
0.0
 10
5.485547392
 20
3.8731006282
 30
0.0
 10
5.4776518785
 20
3.8408486072
 30
0.0
 10
5.4697214867
 20
3.8086670912
 30
0.0
 10
5.4617513715
 20
3.7765704014
 30
0.0
 10
5.4537529449
 20
3.744567953
 30
0.0
 10
5.4457339435
 20
3.7126696634
 30
0.0
 10
5.4377025663
 20
3.6808853308
 30
0.0
 10
5.4296688037
 20
3.6492246721
 30
0.0
 10
5.4216353496
 20
3.6177004026
 30
0.0
 10
5.4135744769
 20
3.5863341993
 30
0.0
 10
5.4027887825
 20
3.5448689331
 30
0.0
 10
5.3945417013
 20
3.5138992736
 30
0.0
 10
5.3889390761
 20
3.4933438833
 30
0.0
  0
SPLINE
  5
28E
100
AcDbEntity
  8
0
100
AcDbSpline
 62
9
  6
CONTINUOUS
 70
0
 71
3
 72
21
 73
17
 74
0
 42
0.0000001
 43
0.0000001
 44
0.0000000001
 40
0.0
 40
0.0
 40
0.0
 40
0.0
 40
0.1268900172
 40
0.1902954993
 40
0.253638916
 40
0.3168934163
 40
0.3800323921
 40
0.4430319407
 40
0.5058703033
 40
0.5685257397
 40
0.6309764665
 40
0.6932006509
 40
0.755174372
 40
0.8168694024
 40
0.8782572772
 40
1.0
 40
1.0
 40
1.0
 40
1.0
 10
5.5172942908
 20
4.0024115591
 30
0.0
 10
5.5388425181
 20
4.0077773391
 30
0.0
 10
5.5711800618
 20
4.0157362647
 30
0.0
 10
5.6142985418
 20
4.0262753884
 30
0.0
 10
5.6466008623
 20
4.0341628559
 30
0.0
 10
5.6788533785
 20
4.0420576609
 30
0.0
 10
5.7110354969
 20
4.0499868489
 30
0.0
 10
5.7431328253
 20
4.0579555312
 30
0.0
 10
5.7751359046
 20
4.0659524708
 30
0.0
 10
5.8070347777
 20
4.073970113
 30
0.0
 10
5.8388196108
 20
4.0820004273
 30
0.0
 10
5.870480641
 20
4.0900336408
 30
0.0
 10
5.9020051574
 20
4.0980670797
 30
0.0
 10
5.9333715212
 20
4.1061283484
 30
0.0
 10
5.9748369294
 20
4.1169150369
 30
0.0
 10
6.0058065992
 20
4.1251632631
 30
0.0
 10
6.0263619789
 20
4.1307667306
 30
0.0
  0
SPLINE
  5
28F
100
AcDbEntity
  8
0
100
AcDbSpline
 62
9
  6
CONTINUOUS
 70
0
 71
3
 72
21
 73
17
 74
0
 42
0.0000001
 43
0.0000001
 44
0.0000000001
 40
0.0
 40
0.0
 40
0.0
 40
0.0
 40
0.1217424383
 40
0.1831302878
 40
0.2448253528
 40
0.3067991545
 40
0.3690234479
 40
0.4314742855
 40
0.4941298174
 40
0.5569682459
 40
0.6199678196
 40
0.683106775
 40
0.7463612286
 40
0.809704592
 40
0.8731100265
 40
1.0
 40
1.0
 40
1.0
 40
1.0
 10
5.6456495651
 20
4.5114792716
 30
0.0
 10
5.6400472551
 20
4.4909236269
 30
0.0
 10
5.6318006476
 20
4.4599535828
 30
0.0
 10
5.621015221
 20
4.4184878946
 30
0.0
 10
5.6129542724
 20
4.3871214311
 30
0.0
 10
5.6049203799
 20
4.3555969885
 30
0.0
 10
5.5968857038
 20
4.3239362737
 30
0.0
 10
5.5888531463
 20
4.2921519489
 30
0.0
 10
5.5808329312
 20
4.2602536718
 30
0.0
 10
5.5728334869
 20
4.2282511829
 30
0.0
 10
5.5648627687
 20
4.196154345
 30
0.0
 10
5.5569324556
 20
4.1639725089
 30
0.0
 10
5.549037716
 20
4.1317199961
 30
0.0
 10
5.5411512487
 20
4.0994174561
 30
0.0
 10
5.5306144792
 20
4.0562984245
 30
0.0
 10
5.5226581819
 20
4.0239602499
 30
0.0
 10
5.5172942908
 20
4.0024115591
 30
0.0
  0
SPLINE
  5
290
100
AcDbEntity
  8
0
100
AcDbSpline
 62
9
  6
CONTINUOUS
 70
0
 71
3
 72
23
 73
19
 74
0
 42
0.0000001
 43
0.0000001
 44
0.0000000001
 40
0.0
 40
0.0
 40
0.0
 40
0.0
 40
0.060855629
 40
0.1223535002
 40
0.1844067745
 40
0.2469339664
 40
0.3098554477
 40
0.3730744965
 40
0.4364893079
 40
0.5000000592
 40
0.5635108086
 40
0.6269256142
 40
0.6901446533
 40
0.7530661213
 40
0.8155932962
 40
0.8776465501
 40
0.9391443976
 40
1.0
 40
1.0
 40
1.0
 40
1.0
 10
4.3434650965
 20
3.6543986243
 30
0.0
 10
4.3487516488
 20
3.6678475913
 30
0.0
 10
4.3587491706
 20
3.6951403433
 30
0.0
 10
4.3718965508
 20
3.7369245568
 30
0.0
 10
4.3831958107
 20
3.7796579423
 30
0.0
 10
4.3925590295
 20
3.8232030037
 30
0.0
 10
4.3998980829
 20
3.8674154146
 30
0.0
 10
4.4051820956
 20
3.9121322304
 30
0.0
 10
4.4083786499
 20
3.9571869451
 30
0.0
 10
4.4094550753
 20
4.0024118092
 30
0.0
 10
4.4083786346
 20
4.0476366715
 30
0.0
 10
4.4051820654
 20
4.092691381
 30
0.0
 10
4.3998980385
 20
4.1374081882
 30
0.0
 10
4.3925589722
 20
4.1816205874
 30
0.0
 10
4.383195742
 20
4.2251656339
 30
0.0
 10
4.3718964724
 20
4.2678990019
 30
0.0
 10
4.3587490846
 20
4.3096831954
 30
0.0
 10
4.348751559
 20
4.3369759333
 30
0.0
 10
4.3434650052
 20
4.3504248929
 30
0.0
  0
SPLINE
  5
291
100
AcDbEntity
  8
0
100
AcDbSpline
 62
9
  6
CONTINUOUS
 70
0
 71
3
 72
32
 73
28
 74
0
 42
0.0000001
 43
0.0000001
 44
0.0000000001
 40
0.0
 40
0.0
 40
0.0
 40
0.0
 40
0.0000884017
 40
0.0003534771
 40
0.0007952244
 40
0.0014136419
 40
0.0031804806
 40
0.0056539794
 40
0.0088341245
 40
0.0127207969
 40
0.0173084424
 40
0.0225835507
 40
0.0351395837
 40
0.0502757531
 40
0.0678789171
 40
0.0878359351
 40
0.1100336674
 40
0.1343574497
 40
0.1889025894
 40
0.2505046764
 40
0.3181959632
 40
0.3910878099
 40
0.4685474392
 40
0.5499937298
 40
0.6348461054
 40
0.8129267494
 40
1.0
 40
1.0
 40
1.0
 40
1.0
 10
5.9420136115
 20
5.2544015641
 30
0.0
 10
5.9420111566
 20
5.2543994696
 30
0.0
 10
5.9420026836
 20
5.2543896632
 30
0.0
 10
5.9419819889
 20
5.2543693417
 30
0.0
 10
5.9419485963
 20
5.254334309
 30
0.0
 10
5.9418766022
 20
5.2542603881
 30
0.0
 10
5.9417532828
 20
5.2541328969
 30
0.0
 10
5.9415646922
 20
5.2539384563
 30
0.0
 10
5.941322328
 20
5.2536883609
 30
0.0
 10
5.9410262194
 20
5.2533828826
 30
0.0
 10
5.9406768902
 20
5.253022485
 30
0.0
 10
5.9401072569
 20
5.2524348898
 30
0.0
 10
5.9392694796
 20
5.2515709338
 30
0.0
 10
5.9381181254
 20
5.2503841865
 30
0.0
 10
5.9367782536
 20
5.2490039137
 30
0.0
 10
5.935258336
 20
5.2474391599
 30
0.0
 10
5.9335668833
 20
5.2456990096
 30
0.0
 10
5.9309944137
 20
5.2430544202
 30
0.0
 10
5.9274169109
 20
5.2393807562
 30
0.0
 10
5.9227313733
 20
5.2345763895
 30
0.0
 10
5.9175740671
 20
5.2292966185
 30
0.0
 10
5.9120074335
 20
5.2236074786
 30
0.0
 10
5.9060843998
 20
5.2175645715
 30
0.0
 10
5.8998500387
 20
5.211215453
 30
0.0
 10
5.891033646
 20
5.2022538838
 30
0.0
 10
5.8794956311
 20
5.1905608665
 30
0.0
 10
5.8701163374
 20
5.1810893369
 30
0.0
 10
5.8653070991
 20
5.176241014
 30
0.0
  0
SPLINE
  5
292
100
AcDbEntity
  8
0
100
AcDbSpline
 62
9
  6
CONTINUOUS
 70
0
 71
3
 72
32
 73
28
 74
0
 42
0.0000001
 43
0.0000001
 44
0.0000000001
 40
0.0
 40
0.0
 40
0.0
 40
0.0
 40
0.0000884017
 40
0.0003534771
 40
0.0007952244
 40
0.0014136419
 40
0.0031804806
 40
0.0056539794
 40
0.0088341245
 40
0.0127207969
 40
0.0173084425
 40
0.0225835507
 40
0.0351395837
 40
0.0502757531
 40
0.0678789171
 40
0.0878359351
 40
0.1100336674
 40
0.1343574497
 40
0.1889025894
 40
0.2505046764
 40
0.3181959632
 40
0.3910878099
 40
0.4685474392
 40
0.5499937298
 40
0.6348461054
 40
0.8129267494
 40
1.0
 40
1.0
 40
1.0
 40
1.0
 10
4.2653042858
 20
4.4271309521
 30
0.0
 10
4.2653063803
 20
4.4271284971
 30
0.0
 10
4.2653161867
 20
4.4271200241
 30
0.0
 10
4.2653365082
 20
4.4270993294
 30
0.0
 10
4.265371541
 20
4.4270659369
 30
0.0
 10
4.2654454618
 20
4.4269939428
 30
0.0
 10
4.265572953
 20
4.4268706234
 30
0.0
 10
4.2657673936
 20
4.4266820328
 30
0.0
 10
4.2660174891
 20
4.4264396686
 30
0.0
 10
4.2663229673
 20
4.42614356
 30
0.0
 10
4.266683365
 20
4.4257942307
 30
0.0
 10
4.2672709601
 20
4.4252245975
 30
0.0
 10
4.2681349161
 20
4.4243868202
 30
0.0
 10
4.2693216634
 20
4.423235466
 30
0.0
 10
4.2707019363
 20
4.4218955942
 30
0.0
 10
4.27226669
 20
4.4203756766
 30
0.0
 10
4.2740068403
 20
4.4186842238
 30
0.0
 10
4.2766514297
 20
4.4161117543
 30
0.0
 10
4.2803250938
 20
4.4125342515
 30
0.0
 10
4.2851294604
 20
4.4078487139
 30
0.0
 10
4.2904092314
 20
4.4026914076
 30
0.0
 10
4.2960983714
 20
4.3971247741
 30
0.0
 10
4.3021412784
 20
4.3912017404
 30
0.0
 10
4.3084903969
 20
4.3849673793
 30
0.0
 10
4.3174519661
 20
4.3761509866
 30
0.0
 10
4.3291449834
 20
4.3646129717
 30
0.0
 10
4.338616513
 20
4.355233678
 30
0.0
 10
4.3434648359
 20
4.3504244397
 30
0.0
  0
SPLINE
  5
293
100
AcDbEntity
  8
0
100
AcDbSpline
 62
7
  6
CONTINUOUS
 70
0
 71
3
 72
18
 73
14
 74
0
 42
0.0000001
 43
0.0000001
 44
0.0000000001
 40
0.0
 40
0.0
 40
0.0
 40
0.0
 40
0.253443535
 40
0.3164451532
 40
0.379286881
 40
0.5044503172
 40
0.566800934
 40
0.6290084324
 40
0.6910789025
 40
0.7530288209
 40
0.8148856486
 40
0.8766662267
 40
1.0
 40
1.0
 40
1.0
 40
1.0
 10
5.5172942547
 20
5.92344335
 30
0.0
 10
5.5536118214
 20
5.902475393
 30
0.0
 10
5.5999896167
 20
5.8779615648
 30
0.0
 10
5.6572325044
 20
5.852223044
 30
0.0
 10
5.6955658357
 20
5.8362276092
 30
0.0
 10
5.7344880837
 20
5.8219530077
 30
0.0
 10
5.773951667
 20
5.8096837293
 30
0.0
 10
5.8037517805
 20
5.8015606414
 30
0.0
 10
5.8337678769
 20
5.7945609232
 30
0.0
 10
5.8639763576
 20
5.7887410735
 30
0.0
 10
5.8943510362
 20
5.7841627675
 30
0.0
 10
5.9349864367
 20
5.7797654301
 30
0.0
 10
5.9656368906
 20
5.7784115953
 30
0.0
 10
5.9860442547
 20
5.7784115953
 30
0.0
  0
SPLINE
  5
294
100
AcDbEntity
  8
0
100
AcDbSpline
 62
7
  6
CONTINUOUS
 70
0
 71
3
 72
18
 73
14
 74
0
 42
0.0000001
 43
0.0000001
 44
0.0000000001
 40
0.0
 40
0.0
 40
0.0
 40
0.0
 40
0.1233337995
 40
0.1851144101
 40
0.2469712733
 40
0.308921201
 40
0.3709916645
 40
0.4331991573
 40
0.4955497764
 40
0.6207131925
 40
0.6835549111
 40
0.746556527
 40
1.0
 40
1.0
 40
1.0
 40
1.0
 10
5.0485442547
 20
5.7784115953
 30
0.0
 10
5.0689516231
 20
5.7784115953
 30
0.0
 10
5.0996020864
 20
5.7797654404
 30
0.0
 10
5.1402375017
 20
5.7841627816
 30
0.0
 10
5.1706121956
 20
5.7887410712
 30
0.0
 10
5.2008206827
 20
5.7945609229
 30
0.0
 10
5.2308367763
 20
5.801560651
 30
0.0
 10
5.2606368854
 20
5.8096837483
 30
0.0
 10
5.3001004658
 20
5.8219530224
 30
0.0
 10
5.3390227101
 20
5.8362276212
 30
0.0
 10
5.3773560355
 20
5.8522230567
 30
0.0
 10
5.4345989077
 20
5.8779615819
 30
0.0
 10
5.4809766968
 20
5.9024753982
 30
0.0
 10
5.5172942547
 20
5.92344335
 30
0.0
  0
SPLINE
  5
295
100
AcDbEntity
  8
0
100
AcDbSpline
 62
7
  6
CONTINUOUS
 70
0
 71
3
 72
18
 73
14
 74
0
 42
0.0000001
 43
0.0000001
 44
0.0000000001
 40
0.0
 40
0.0
 40
0.0
 40
0.0
 40
0.253443535
 40
0.3164451532
 40
0.379286881
 40
0.5044503172
 40
0.566800934
 40
0.6290084324
 40
0.6910789025
 40
0.7530288209
 40
0.8148856486
 40
0.8766662267
 40
1.0
 40
1.0
 40
1.0
 40
1.0
 10
4.5797942547
 20
5.92344335
 30
0.0
 10
4.6161118214
 20
5.902475393
 30
0.0
 10
4.6624896167
 20
5.8779615648
 30
0.0
 10
4.7197325044
 20
5.852223044
 30
0.0
 10
4.7580658357
 20
5.8362276092
 30
0.0
 10
4.7969880837
 20
5.8219530077
 30
0.0
 10
4.836451667
 20
5.8096837293
 30
0.0
 10
4.8662517805
 20
5.8015606414
 30
0.0
 10
4.8962678769
 20
5.7945609232
 30
0.0
 10
4.9264763576
 20
5.7887410735
 30
0.0
 10
4.9568510362
 20
5.7841627675
 30
0.0
 10
4.9974864367
 20
5.7797654301
 30
0.0
 10
5.0281368906
 20
5.7784115953
 30
0.0
 10
5.0485442547
 20
5.7784115953
 30
0.0
  0
SPLINE
  5
296
100
AcDbEntity
  8
0
100
AcDbSpline
 62
7
  6
CONTINUOUS
 70
0
 71
3
 72
18
 73
14
 74
0
 42
0.0000001
 43
0.0000001
 44
0.0000000001
 40
0.0
 40
0.0
 40
0.0
 40
0.0
 40
0.1233337993
 40
0.1851144097
 40
0.2469712728
 40
0.3089212006
 40
0.3709916641
 40
0.4331991568
 40
0.4955497758
 40
0.6207131921
 40
0.6835549109
 40
0.7465565268
 40
1.0
 40
1.0
 40
1.0
 40
1.0
 10
5.0485442547
 20
7.0354115953
 30
0.0
 10
5.0281368863
 20
7.0354115953
 30
0.0
 10
4.9974864231
 20
7.0340577493
 30
0.0
 10
4.956851008
 20
7.0296604071
 30
0.0
 10
4.9264763142
 20
7.0250821172
 30
0.0
 10
4.8962678271
 20
7.019262266
 30
0.0
 10
4.8662517333
 20
7.0122625387
 30
0.0
 10
4.836451624
 20
7.0041394422
 30
0.0
 10
4.7969880435
 20
6.9918701685
 30
0.0
 10
4.7580657993
 20
6.9775955693
 30
0.0
 10
4.7197324741
 20
6.9616001334
 30
0.0
 10
4.6624896019
 20
6.935861608
 30
0.0
 10
4.6161118125
 20
6.9113477923
 30
0.0
 10
4.5797942547
 20
6.8903798405
 30
0.0
  0
SPLINE
  5
297
100
AcDbEntity
  8
0
100
AcDbSpline
 62
7
  6
CONTINUOUS
 70
0
 71
3
 72
18
 73
14
 74
0
 42
0.0000001
 43
0.0000001
 44
0.0000000001
 40
0.0
 40
0.0
 40
0.0
 40
0.0
 40
0.1233337993
 40
0.1851144097
 40
0.2469712728
 40
0.3089212006
 40
0.3709916641
 40
0.4331991568
 40
0.4955497758
 40
0.6207131921
 40
0.6835549109
 40
0.7465565268
 40
1.0
 40
1.0
 40
1.0
 40
1.0
 10
5.9860442547
 20
7.0354115953
 30
0.0
 10
5.9656368863
 20
7.0354115953
 30
0.0
 10
5.9349864231
 20
7.0340577493
 30
0.0
 10
5.894351008
 20
7.0296604071
 30
0.0
 10
5.8639763142
 20
7.0250821172
 30
0.0
 10
5.8337678271
 20
7.019262266
 30
0.0
 10
5.8037517333
 20
7.0122625387
 30
0.0
 10
5.773951624
 20
7.0041394422
 30
0.0
 10
5.7344880435
 20
6.9918701685
 30
0.0
 10
5.6955657993
 20
6.9775955693
 30
0.0
 10
5.6572324741
 20
6.9616001334
 30
0.0
 10
5.5999896019
 20
6.935861608
 30
0.0
 10
5.5536118125
 20
6.9113477923
 30
0.0
 10
5.5172942547
 20
6.8903798405
 30
0.0
  0
SPLINE
  5
298
100
AcDbEntity
  8
0
100
AcDbSpline
 62
7
  6
CONTINUOUS
 70
0
 71
3
 72
18
 73
14
 74
0
 42
0.0000001
 43
0.0000001
 44
0.0000000001
 40
0.0
 40
0.0
 40
0.0
 40
0.0
 40
0.2534435349
 40
0.3164451529
 40
0.3792868805
 40
0.5044503166
 40
0.5668009334
 40
0.6290084319
 40
0.691078902
 40
0.7530288204
 40
0.8148856482
 40
0.8766662265
 40
1.0
 40
1.0
 40
1.0
 40
1.0
 10
5.5172942547
 20
6.8903798405
 30
0.0
 10
5.4809766879
 20
6.9113477975
 30
0.0
 10
5.4345988929
 20
6.9358616263
 30
0.0
 10
5.3773560052
 20
6.9616001469
 30
0.0
 10
5.3390226737
 20
6.9775955813
 30
0.0
 10
5.3001004256
 20
6.9918701823
 30
0.0
 10
5.2606368425
 20
7.0041394612
 30
0.0
 10
5.2308367291
 20
7.0122625499
 30
0.0
 10
5.2008206328
 20
7.0192622689
 30
0.0
 10
5.1706121522
 20
7.0250821191
 30
0.0
 10
5.1402374735
 20
7.0296604247
 30
0.0
 10
5.0996020728
 20
7.0340577612
 30
0.0
 10
5.0689516188
 20
7.0354115953
 30
0.0
 10
5.0485442547
 20
7.0354115953
 30
0.0
  0
SPLINE
  5
299
100
AcDbEntity
  8
0
100
AcDbSpline
 62
7
  6
CONTINUOUS
 70
0
 71
3
 72
18
 73
14
 74
0
 42
0.0000001
 43
0.0000001
 44
0.0000000001
 40
0.0
 40
0.0
 40
0.0
 40
0.0
 40
0.1233337995
 40
0.1851144101
 40
0.2469712733
 40
0.308921201
 40
0.3709916645
 40
0.4331991573
 40
0.4955497764
 40
0.6207131925
 40
0.6835549111
 40
0.746556527
 40
1.0
 40
1.0
 40
1.0
 40
1.0
 10
5.9860442547
 20
5.7784115953
 30
0.0
 10
6.0064516231
 20
5.7784115953
 30
0.0
 10
6.0371020864
 20
5.7797654404
 30
0.0
 10
6.0777375017
 20
5.7841627816
 30
0.0
 10
6.1081121956
 20
5.7887410712
 30
0.0
 10
6.1383206827
 20
5.7945609229
 30
0.0
 10
6.1683367763
 20
5.801560651
 30
0.0
 10
6.1981368854
 20
5.8096837483
 30
0.0
 10
6.2376004658
 20
5.8219530224
 30
0.0
 10
6.2765227101
 20
5.8362276212
 30
0.0
 10
6.3148560355
 20
5.8522230567
 30
0.0
 10
6.3720989077
 20
5.8779615819
 30
0.0
 10
6.4184766968
 20
5.9024753982
 30
0.0
 10
6.4547942547
 20
5.92344335
 30
0.0
  0
SPLINE
  5
29A
100
AcDbEntity
  8
0
100
AcDbSpline
 62
7
  6
CONTINUOUS
 70
0
 71
3
 72
18
 73
14
 74
0
 42
0.0000001
 43
0.0000001
 44
0.0000000001
 40
0.0
 40
0.0
 40
0.0
 40
0.0
 40
0.2534435349
 40
0.3164451529
 40
0.3792868805
 40
0.5044503166
 40
0.5668009334
 40
0.6290084319
 40
0.691078902
 40
0.7530288204
 40
0.8148856482
 40
0.8766662265
 40
1.0
 40
1.0
 40
1.0
 40
1.0
 10
6.4547942547
 20
6.8903798405
 30
0.0
 10
6.4184766879
 20
6.9113477975
 30
0.0
 10
6.3720988929
 20
6.9358616263
 30
0.0
 10
6.3148560052
 20
6.9616001469
 30
0.0
 10
6.2765226737
 20
6.9775955813
 30
0.0
 10
6.2376004256
 20
6.9918701823
 30
0.0
 10
6.1981368425
 20
7.0041394612
 30
0.0
 10
6.1683367291
 20
7.0122625499
 30
0.0
 10
6.1383206328
 20
7.0192622689
 30
0.0
 10
6.1081121522
 20
7.0250821191
 30
0.0
 10
6.0777374735
 20
7.0296604247
 30
0.0
 10
6.0371020728
 20
7.0340577612
 30
0.0
 10
6.0064516188
 20
7.0354115953
 30
0.0
 10
5.9860442547
 20
7.0354115953
 30
0.0
  0
SPLINE
  5
29B
100
AcDbEntity
  8
0
100
AcDbSpline
 62
9
  6
CONTINUOUS
 70
0
 71
3
 72
27
 73
23
 74
0
 42
0.0000001
 43
0.0000001
 44
0.0000000001
 40
0.0
 40
0.0
 40
0.0
 40
0.0
 40
0.2119077994
 40
0.4052136477
 40
0.5766113135
 40
0.6530612945
 40
0.7227942455
 40
0.7854178269
 40
0.8406237606
 40
0.8881247671
 40
0.9276335504
 40
0.9443010742
 40
0.9588627991
 40
0.9712828087
 40
0.981525186
 40
0.9895540129
 40
0.9927271204
 40
0.9953333707
 40
0.9973682739
 40
0.9988273398
 40
0.9997060786
 40
1.0
 40
1.0
 40
1.0
 40
1.0
 10
4.3434651799
 20
3.654401279
 30
0.0
 10
4.3379716406
 20
3.6489544979
 30
0.0
 10
4.3274561949
 20
3.6385497644
 30
0.0
 10
4.3124646378
 20
3.6237726691
 30
0.0
 10
4.3009750692
 20
3.6124871746
 30
0.0
 10
4.2926933896
 20
3.6043735967
 30
0.0
 10
4.2872438786
 20
3.599043461
 30
0.0
 10
4.2823448767
 20
3.5942596326
 30
0.0
 10
4.278023213
 20
3.5900462635
 30
0.0
 10
4.2743029855
 20
3.5864248116
 30
0.0
 10
4.2715889384
 20
3.5837867231
 30
0.0
 10
4.2697361509
 20
3.5819878303
 30
0.0
 10
4.2685924855
 20
3.58087822
 30
0.0
 10
4.2676168426
 20
3.579932278
 30
0.0
 10
4.2668121508
 20
3.5791526357
 30
0.0
 10
4.266249746
 20
3.5786080518
 30
0.0
 10
4.2658874753
 20
3.5782575285
 30
0.0
 10
4.265682504
 20
3.5780591144
 30
0.0
 10
4.265522266
 20
3.5779044644
 30
0.0
 10
4.2654078519
 20
3.5777931298
 30
0.0
 10
4.2653381476
 20
3.5777270281
 30
0.0
 10
4.2653080063
 20
3.5776965886
 30
0.0
 10
4.2653000236
 20
3.5776894184
 30
0.0
  0
SPLINE
  5
29C
100
AcDbEntity
  8
0
100
AcDbSpline
 62
9
  6
CONTINUOUS
 70
0
 71
3
 72
21
 73
17
 74
0
 42
0.0000001
 43
0.0000001
 44
0.0000000001
 40
0.0
 40
0.0
 40
0.0
 40
0.0
 40
0.1504963822
 40
0.224058744
 40
0.2963522359
 40
0.3672697763
 40
0.4366863876
 40
0.5044398411
 40
0.5703636162
 40
0.6342913186
 40
0.696023266
 40
0.811588711
 40
0.8647243659
 40
0.9142151139
 40
0.9594982563
 40
1.0
 40
1.0
 40
1.0
 40
1.0
 10
5.343209721
 20
3.3285343184
 30
0.0
 10
5.3357474369
 20
3.3030296535
 30
0.0
 10
5.324538018
 20
3.2650870953
 30
0.0
 10
5.3093479423
 20
3.2150116234
 30
0.0
 10
5.2980178779
 20
3.1784498289
 30
0.0
 10
5.2866428599
 20
3.1426692693
 30
0.0
 10
5.2752167714
 20
3.1077474551
 30
0.0
 10
5.2637765175
 20
3.0737594043
 30
0.0
 10
5.2523558856
 20
3.0407887919
 30
0.0
 10
5.2409922004
 20
3.0089250774
 30
0.0
 10
5.2263004882
 20
2.9689441701
 30
0.0
 10
5.2117521997
 20
2.9309423255
 30
0.0
 10
5.1974862585
 20
2.8951531826
 30
0.0
 10
5.1875908405
 20
2.870982714
 30
0.0
 10
5.1782975914
 20
2.8489778175
 30
0.0
 10
5.172215444
 20
2.8351042063
 30
0.0
 10
5.1692814102
 20
2.8285821765
 30
0.0
  0
SPLINE
  5
29D
100
AcDbEntity
  8
0
100
AcDbSpline
 62
9
  6
CONTINUOUS
 70
0
 71
3
 72
20
 73
16
 74
0
 42
0.0000001
 43
0.0000001
 44
0.0000000001
 40
0.0
 40
0.0
 40
0.0
 40
0.0
 40
0.036124375
 40
0.0770180149
 40
0.1718777853
 40
0.225239305
 40
0.2821881351
 40
0.3424650732
 40
0.4058117411
 40
0.4719860095
 40
0.5408072391
 40
0.6121095269
 40
0.6857264746
 40
0.8392360671
 40
1.0
 40
1.0
 40
1.0
 40
1.0
 10
4.3434651263
 20
3.6543986476
 30
0.0
 10
4.3493022626
 20
3.6569705946
 30
0.0
 10
4.3617714
 20
3.6623992343
 30
0.0
 10
4.3897003766
 20
3.6742762822
 30
0.0
 10
4.4206118737
 20
3.6869144182
 30
0.0
 10
4.4543365667
 20
3.7001480435
 30
0.0
 10
4.4824809777
 20
3.7108819991
 30
0.0
 10
4.5123789244
 20
3.7219618174
 30
0.0
 10
4.5439134986
 20
3.7333089511
 30
0.0
 10
4.5769800915
 20
3.7448496419
 30
0.0
 10
4.6114774295
 20
3.75654945
 30
0.0
 10
4.6473173328
 20
3.768378355
 30
0.0
 10
4.6974829503
 20
3.784509394
 30
0.0
 10
4.762915327
 20
3.8047582717
 30
0.0
 10
4.8161417076
 20
3.8204611586
 30
0.0
 10
4.8434172502
 20
3.8283259812
 30
0.0
  0
SPLINE
  5
29E
100
AcDbEntity
  8
0
100
AcDbSpline
 62
9
  6
CONTINUOUS
 70
0
 71
3
 72
21
 73
17
 74
0
 42
0.0000001
 43
0.0000001
 44
0.0000000001
 40
0.0
 40
0.0
 40
0.0
 40
0.0
 40
0.1504946426
 40
0.2240566218
 40
0.2963501499
 40
0.3672682245
 40
0.4366859486
 40
0.5044406733
 40
0.5703653078
 40
0.6342928623
 40
0.6960238616
 40
0.8115888474
 40
0.8647265744
 40
0.9142208557
 40
0.9595048873
 40
1.0
 40
1.0
 40
1.0
 40
1.0
 10
4.8434170746
 20
4.1764964856
 30
0.0
 10
4.8179118877
 20
4.1839559095
 30
0.0
 10
4.7799689011
 20
4.1951626159
 30
0.0
 10
4.7298934365
 20
4.2103514898
 30
0.0
 10
4.6933316519
 20
4.2216817305
 30
0.0
 10
4.6575510832
 20
4.2330577321
 30
0.0
 10
4.622629282
 20
4.2444855456
 30
0.0
 10
4.5886412697
 20
4.2559277308
 30
0.0
 10
4.5556708264
 20
4.2673499364
 30
0.0
 10
4.5238073791
 20
4.2787142575
 30
0.0
 10
4.4838265162
 20
4.293405301
 30
0.0
 10
4.4458240985
 20
4.3079524811
 30
0.0
 10
4.4100348593
 20
4.3222206819
 30
0.0
 10
4.3858644582
 20
4.3321193039
 30
0.0
 10
4.3638604007
 20
4.3414135295
 30
0.0
 10
4.34998685
 20
4.3474932226
 30
0.0
 10
4.3434648359
 20
4.3504244397
 30
0.0
  0
SPLINE
  5
29F
100
AcDbEntity
  8
0
100
AcDbSpline
 62
9
  6
CONTINUOUS
 70
0
 71
3
 72
20
 73
16
 74
0
 42
0.0000001
 43
0.0000001
 44
0.0000000001
 40
0.0
 40
0.0
 40
0.0
 40
0.0
 40
0.036124374
 40
0.0770180139
 40
0.1718777889
 40
0.2252393137
 40
0.2821881503
 40
0.3424650953
 40
0.4058117695
 40
0.471986043
 40
0.540807276
 40
0.612109565
 40
0.6857265115
 40
0.8392360927
 40
1.0
 40
1.0
 40
1.0
 40
1.0
 10
5.1692813072
 20
5.1762407236
 30
0.0
 10
5.1718532542
 20
5.1704035874
 30
0.0
 10
5.1772818939
 20
5.1579344502
 30
0.0
 10
5.1891589421
 20
5.130005473
 30
0.0
 10
5.2017970787
 20
5.0990939743
 30
0.0
 10
5.2150307047
 20
5.0653692786
 30
0.0
 10
5.2257646612
 20
5.0372248644
 30
0.0
 10
5.2368444804
 20
5.0073269143
 30
0.0
 10
5.2481916151
 20
4.9757923371
 30
0.0
 10
5.2597323067
 20
4.9427257416
 30
0.0
 10
5.2714321153
 20
4.908228402
 30
0.0
 10
5.2832610205
 20
4.8723884981
 30
0.0
 10
5.2993920591
 20
4.8222228826
 30
0.0
 10
5.3196409349
 20
4.7567905123
 30
0.0
 10
5.3353438198
 20
4.7035641379
 30
0.0
 10
5.3432086408
 20
4.6762885996
 30
0.0
  0
SPLINE
  5
2A0
100
AcDbEntity
  8
0
100
AcDbSpline
 62
9
  6
CONTINUOUS
 70
0
 71
3
 72
21
 73
17
 74
0
 42
0.0000001
 43
0.0000001
 44
0.0000000001
 40
0.0
 40
0.0
 40
0.0
 40
0.0
 40
0.0405078242
 40
0.0857836649
 40
0.1352644227
 40
0.1883962996
 40
0.3039699422
 40
0.3657084375
 40
0.4296401726
 40
0.4955645669
 40
0.563316664
 40
0.6327313451
 40
0.7036474438
 40
0.775939977
 40
0.8495019904
 40
1.0
 40
1.0
 40
1.0
 40
1.0
 10
5.8653070991
 20
5.176241014
 30
0.0
 10
5.8623694541
 20
5.1697194383
 30
0.0
 10
5.8562865353
 20
5.1558463483
 30
0.0
 10
5.8470005451
 20
5.1338405454
 30
0.0
 10
5.8371149488
 20
5.1096701078
 30
0.0
 10
5.8228534439
 20
5.0738803216
 30
0.0
 10
5.8082972434
 20
5.0358795278
 30
0.0
 10
5.7935972423
 20
4.9958981515
 30
0.0
 10
5.7822298561
 20
4.9640336766
 30
0.0
 10
5.7708083716
 20
4.9310627645
 30
0.0
 10
5.75936919
 20
4.8970748748
 30
0.0
 10
5.7479452038
 20
4.862153279
 30
0.0
 10
5.7365725927
 20
4.826372786
 30
0.0
 10
5.7252449141
 20
4.7898107922
 30
0.0
 10
5.7100564413
 20
4.7397348191
 30
0.0
 10
5.6988451897
 20
4.701792618
 30
0.0
 10
5.6913791467
 20
4.6762887748
 30
0.0
  0
SPLINE
  5
2A1
100
AcDbEntity
  8
0
100
AcDbSpline
 62
9
  6
CONTINUOUS
 70
0
 71
3
 72
20
 73
16
 74
0
 42
0.0000001
 43
0.0000001
 44
0.0000000001
 40
0.0
 40
0.0
 40
0.0
 40
0.0
 40
0.1244045334
 40
0.1873008876
 40
0.2505273243
 40
0.3139962552
 40
0.3776095445
 40
0.44126389
 40
0.5048558326
 40
0.5682861422
 40
0.6314632732
 40
0.6942922293
 40
0.7566739717
 40
0.8797094556
 40
1.0
 40
1.0
 40
1.0
 40
1.0
 10
5.8653070419
 20
5.1762409641
 30
0.0
 10
5.8378166324
 20
5.1654349872
 30
0.0
 10
5.7956156773
 20
5.1511324069
 30
0.0
 10
5.7380659324
 20
5.1360305387
 30
0.0
 10
5.6940152977
 20
5.1266697175
 30
0.0
 10
5.6494017004
 20
5.1193965953
 30
0.0
 10
5.6043934143
 20
5.1142259274
 30
0.0
 10
5.5591628866
 20
5.1111740779
 30
0.0
 10
5.5138819018
 20
5.1102573264
 30
0.0
 10
5.4687218952
 20
5.1114924723
 30
0.0
 10
5.4238509774
 20
5.1148313013
 30
0.0
 10
5.3794307223
 20
5.1202254632
 30
0.0
 10
5.3212939478
 20
5.1300476751
 30
0.0
 10
5.2506358687
 20
5.1471283167
 30
0.0
 10
5.1958627509
 20
5.1657924484
 30
0.0
 10
5.1692814372
 20
5.1762410859
 30
0.0
  0
SPLINE
  5
2A2
100
AcDbEntity
  8
0
100
AcDbSpline
 62
9
  6
CONTINUOUS
 70
0
 71
3
 72
27
 73
23
 74
0
 42
0.0000001
 43
0.0000001
 44
0.0000000001
 40
0.0
 40
0.0
 40
0.0
 40
0.0
 40
0.2119077994
 40
0.4052136477
 40
0.5766113135
 40
0.6530612945
 40
0.7227942455
 40
0.7854178269
 40
0.8406237606
 40
0.8881247671
 40
0.9276335504
 40
0.9443010742
 40
0.9588627991
 40
0.9712828087
 40
0.981525186
 40
0.9895540129
 40
0.9927271204
 40
0.9953333707
 40
0.9973682739
 40
0.9988273398
 40
0.9997060786
 40
1.0
 40
1.0
 40
1.0
 40
1.0
 10
5.1692839384
 20
5.17624067
 30
0.0
 10
5.1638371573
 20
5.1817342093
 30
0.0
 10
5.1534324238
 20
5.1922496551
 30
0.0
 10
5.1386553285
 20
5.2072412121
 30
0.0
 10
5.127369834
 20
5.2187307808
 30
0.0
 10
5.1192562561
 20
5.2270124603
 30
0.0
 10
5.1139261204
 20
5.2324619713
 30
0.0
 10
5.109142292
 20
5.2373609733
 30
0.0
 10
5.1049289229
 20
5.2416826369
 30
0.0
 10
5.101307471
 20
5.2454028644
 30
0.0
 10
5.0986693825
 20
5.2481169115
 30
0.0
 10
5.0968704897
 20
5.249969699
 30
0.0
 10
5.0957608794
 20
5.2511133645
 30
0.0
 10
5.0948149374
 20
5.2520890073
 30
0.0
 10
5.0940352951
 20
5.2528936991
 30
0.0
 10
5.0934907112
 20
5.2534561039
 30
0.0
 10
5.0931401879
 20
5.2538183746
 30
0.0
 10
5.0929417738
 20
5.2540233459
 30
0.0
 10
5.0927871238
 20
5.2541835839
 30
0.0
 10
5.0926757892
 20
5.2542979981
 30
0.0
 10
5.0926096875
 20
5.2543677023
 30
0.0
 10
5.092579248
 20
5.2543978436
 30
0.0
 10
5.0925720778
 20
5.2544058263
 30
0.0
  0
SPLINE
  5
2A3
100
AcDbEntity
  8
0
100
AcDbSpline
 62
7
  6
CONTINUOUS
 70
0
 71
3
 72
11
 73
7
 74
0
 42
0.0000001
 43
0.0000001
 44
0.0000000001
 40
0.0
 40
0.0
 40
0.0
 40
0.0
 40
0.1862421959
 40
0.4030971863
 40
0.6707255969
 40
1.0
 40
1.0
 40
1.0
 40
1.0
 10
6.2845718187
 20
5.6157304662
 30
0.0
 10
6.2845717606
 20
5.6158076392
 30
0.0
 10
6.2845319376
 20
5.61597568
 30
0.0
 10
6.2843710101
 20
5.6162071302
 30
0.0
 10
6.2841177367
 20
5.6164325345
 30
0.0
 10
6.2839092337
 20
5.6165669831
 30
0.0
 10
6.2837912351
 20
5.6166354848
 30
0.0
  0
SPLINE
  5
2A4
100
AcDbEntity
  8
0
100
AcDbSpline
 62
7
  6
CONTINUOUS
 70
0
 71
3
 72
11
 73
7
 74
0
 42
0.0000001
 43
0.0000001
 44
0.0000000001
 40
0.0
 40
0.0
 40
0.0
 40
0.0
 40
0.185499669
 40
0.4020661491
 40
0.6699319318
 40
1.0
 40
1.0
 40
1.0
 40
1.0
 10
6.2845428406
 20
5.7407638968
 30
0.0
 10
6.2845425325
 20
5.7408413418
 30
0.0
 10
6.2845016688
 20
5.7410100689
 30
0.0
 10
6.284338357
 20
5.7412420345
 30
0.0
 10
6.2840817464
 20
5.7414679771
 30
0.0
 10
6.283870672
 20
5.741602674
 30
0.0
 10
6.2837511927
 20
5.7416713342
 30
0.0
  0
SPLINE
  5
2A5
100
AcDbEntity
  8
0
100
AcDbSpline
 62
7
  6
CONTINUOUS
 70
0
 71
3
 72
11
 73
7
 74
0
 42
0.0000001
 43
0.0000001
 44
0.0000000001
 40
0.0
 40
0.0
 40
0.0
 40
0.0
 40
0.3299002759
 40
0.5978199185
 40
0.8145445834
 40
1.0
 40
1.0
 40
1.0
 40
1.0
 10
4.7508356345
 20
5.6929714967
 30
0.0
 10
4.7507162761
 20
5.6930400169
 30
0.0
 10
4.7505053296
 20
5.6931744578
 30
0.0
 10
4.7502485887
 20
5.6933998586
 30
0.0
 10
4.7500846394
 20
5.6936310939
 30
0.0
 10
4.750042639
 20
5.6937993686
 30
0.0
 10
4.7500417065
 20
5.6938767313
 30
0.0
  0
SPLINE
  5
2A6
100
AcDbEntity
  8
0
100
AcDbSpline
 62
7
  6
CONTINUOUS
 70
0
 71
3
 72
39
 73
35
 74
0
 42
0.0000001
 43
0.0000001
 44
0.0000000001
 40
0.0
 40
0.0
 40
0.0
 40
0.0
 40
0.031870391
 40
0.0656633278
 40
0.1382907474
 40
0.2163444822
 40
0.2981547965
 40
0.3820874573
 40
0.4665094816
 40
0.5496680505
 40
0.6298937954
 40
0.7056805656
 40
0.7414179934
 40
0.7754450603
 40
0.8075699449
 40
0.8376449706
 40
0.8655317802
 40
0.8910950874
 40
0.9142253861
 40
0.9348264832
 40
0.9528024559
 40
0.960774804
 40
0.9680522292
 40
0.974621408
 40
0.9804691882
 40
0.9855826944
 40
0.9899496012
 40
0.9935645359
 40
0.9950920754
 40
0.9964345799
 40
0.9975936759
 40
0.9985716057
 40
0.9993717706
 40
1.0
 40
1.0
 40
1.0
 40
1.0
 10
4.994690284
 20
5.5852265953
 30
0.0
 10
5.0083889729
 20
5.5857121204
 30
0.0
 10
5.0366138955
 20
5.5866791186
 30
0.0
 10
5.0960608881
 20
5.5886043877
 30
0.0
 10
5.17536663
 20
5.5909847821
 30
0.0
 10
5.2753210539
 20
5.593776934
 30
0.0
 10
5.3801395111
 20
5.5965721526
 30
0.0
 10
5.487697807
 20
5.5993698165
 30
0.0
 10
5.5958361287
 20
5.6021691995
 30
0.0
 10
5.7023796033
 20
5.6049681483
 30
0.0
 10
5.8052078407
 20
5.607764971
 30
0.0
 10
5.8876445372
 20
5.6101337573
 30
0.0
 10
5.9502161189
 20
5.6120483182
 30
0.0
 10
5.9940156224
 20
5.6134559444
 30
0.0
 10
6.0353784068
 20
5.6148643538
 30
0.0
 10
6.0740987005
 20
5.6162720303
 30
0.0
 10
6.1099949676
 20
5.6176780021
 30
0.0
 10
6.142901947
 20
5.6190820944
 30
0.0
 10
6.1726723991
 20
5.6204836072
 30
0.0
 10
6.1991756995
 20
5.6218821951
 30
0.0
 10
6.2191603942
 20
5.623087058
 30
0.0
 10
6.2334172106
 20
5.6240647609
 30
0.0
 10
6.242775136
 20
5.6247678141
 30
0.0
 10
6.2512165527
 20
5.6254699595
 30
0.0
 10
6.258723814
 20
5.6261709082
 30
0.0
 10
6.2652795218
 20
5.6268697942
 30
0.0
 10
6.2708688195
 20
5.6275664962
 30
0.0
 10
6.2749143122
 20
5.628173258
 30
0.0
 10
6.2776591568
 20
5.6286696157
 30
0.0
 10
6.2793565127
 20
5.6290200468
 30
0.0
 10
6.2808119517
 20
5.6293695328
 30
0.0
 10
6.2820269965
 20
5.629717762
 30
0.0
 10
6.2830027839
 20
5.6300642542
 30
0.0
 10
6.2835619933
 20
5.6303237229
 30
0.0
 10
6.283795749
 20
5.6304592416
 30
0.0
  0
SPLINE
  5
2A7
100
AcDbEntity
  8
0
100
AcDbSpline
 62
7
  6
CONTINUOUS
 70
0
 71
3
 72
35
 73
31
 74
0
 42
0.0000001
 43
0.0000001
 44
0.0000000001
 40
0.0
 40
0.0
 40
0.0
 40
0.0
 40
0.2231418942
 40
0.3257217886
 40
0.4218646047
 40
0.511249243
 40
0.5936453791
 40
0.6688680277
 40
0.7367330477
 40
0.7970587054
 40
0.8496972927
 40
0.873097957
 40
0.8945342182
 40
0.9139925584
 40
0.9314599907
 40
0.9469243422
 40
0.9603751409
 40
0.9718103938
 40
0.9767743973
 40
0.9812377882
 40
0.9852028546
 40
0.9886730387
 40
0.9916536942
 40
0.9941535565
 40
0.9961878532
 40
0.9977855498
 40
0.9984391439
 40
0.9990116094
 40
0.9995227256
 40
1.0
 40
1.0
 40
1.0
 40
1.0
 10
4.9425330654
 20
5.6292206858
 30
0.0
 10
4.9224528457
 20
5.6285655362
 30
0.0
 10
4.8931426283
 20
5.6275764806
 30
0.0
 10
4.8551849281
 20
5.6261844121
 30
0.0
 10
4.8292645133
 20
5.6251715797
 30
0.0
 10
4.8051629271
 20
5.6241569558
 30
0.0
 10
4.7829467817
 20
5.6231408418
 30
0.0
 10
4.7626703921
 20
5.6221246529
 30
0.0
 10
4.7443838158
 20
5.6211095246
 30
0.0
 10
4.7281340063
 20
5.6200963565
 30
0.0
 10
4.7158869558
 20
5.6192240775
 30
0.0
 10
4.7071390174
 20
5.618517686
 30
0.0
 10
4.7013724003
 20
5.618009344
 30
0.0
 10
4.6961421953
 20
5.617501575
 30
0.0
 10
4.6914524008
 20
5.6169944641
 30
0.0
 10
4.6873068768
 20
5.6164883427
 30
0.0
 10
4.6837089369
 20
5.615983261
 30
0.0
 10
4.6810567245
 20
5.615545825
 30
0.0
 10
4.6792122151
 20
5.6151900306
 30
0.0
 10
4.6780333094
 20
5.6149361839
 30
0.0
 10
4.6769922587
 20
5.6146827046
 30
0.0
 10
4.6760889644
 20
5.6144296742
 30
0.0
 10
4.6753232923
 20
5.6141772676
 30
0.0
 10
4.6746944297
 20
5.6139255896
 30
0.0
 10
4.6742018595
 20
5.6136747298
 30
0.0
 10
4.673883045
 20
5.6134525295
 30
0.0
 10
4.6737049931
 20
5.6132699096
 30
0.0
 10
4.6736147583
 20
5.6131410643
 30
0.0
 10
4.6735592915
 20
5.6130106143
 30
0.0
 10
4.6735463959
 20
5.6129212708
 30
0.0
 10
4.6735462594
 20
5.612878299
 30
0.0
  0
SPLINE
  5
2A8
100
AcDbEntity
  8
0
100
AcDbSpline
 62
7
  6
CONTINUOUS
 70
0
 71
3
 72
43
 73
39
 74
0
 42
0.0000001
 43
0.0000001
 44
0.0000000001
 40
0.0
 40
0.0
 40
0.0
 40
0.0
 40
0.0978124521
 40
0.1948221892
 40
0.2899331046
 40
0.3822071156
 40
0.4707964366
 40
0.5548689287
 40
0.6336102188
 40
0.7062435941
 40
0.7720883515
 40
0.8022584919
 40
0.8304967369
 40
0.8567402245
 40
0.8809262565
 40
0.9029922681
 40
0.9228817763
 40
0.9405541054
 40
0.9559715289
 40
0.9628230902
 40
0.969097151
 40
0.9747893148
 40
0.9798961446
 40
0.9844165392
 40
0.9883501427
 40
0.9916972918
 40
0.9931514483
 40
0.9944597832
 40
0.9956229351
 40
0.9966419066
 40
0.9975183015
 40
0.998254782
 40
0.9988560275
 40
0.9993309295
 40
0.9995266134
 40
0.9996991429
 40
0.9998543069
 40
1.0
 40
1.0
 40
1.0
 40
1.0
 10
5.5172942547
 20
5.6655225047
 30
0.0
 10
5.544838931
 20
5.6661879004
 30
0.0
 10
5.5997028038
 20
5.6674895421
 30
0.0
 10
5.6813511995
 20
5.6694120388
 30
0.0
 10
5.7614387616
 20
5.6713462871
 30
0.0
 10
5.8391533429
 20
5.6732937739
 30
0.0
 10
5.9137575464
 20
5.6752397479
 30
0.0
 10
5.9845485363
 20
5.6771797573
 30
0.0
 10
6.0508432171
 20
5.6791168505
 30
0.0
 10
6.1120009934
 20
5.6810536279
 30
0.0
 10
6.1594786762
 20
5.6827089091
 30
0.0
 10
6.194453911
 20
5.6840464563
 30
0.0
 10
6.2182795911
 20
5.6850197317
 30
0.0
 10
6.24041814
 20
5.6859922998
 30
0.0
 10
6.2608162726
 20
5.686964037
 30
0.0
 10
6.2794224026
 20
5.6879347997
 30
0.0
 10
6.2961910241
 20
5.6889045512
 30
0.0
 10
6.3110834174
 20
5.6898726396
 30
0.0
 10
6.3223037803
 20
5.6907064469
 30
0.0
 10
6.3303156846
 20
5.6913819629
 30
0.0
 10
6.3355941773
 20
5.6918680812
 30
0.0
 10
6.340378978
 20
5.6923537042
 30
0.0
 10
6.3446670422
 20
5.6928388283
 30
0.0
 10
6.3484563483
 20
5.6933230648
 30
0.0
 10
6.3517455174
 20
5.6938062201
 30
0.0
 10
6.3541706883
 20
5.6942244853
 30
0.0
 10
6.3558578743
 20
5.6945646268
 30
0.0
 10
6.3569368302
 20
5.6948073736
 30
0.0
 10
6.3578898643
 20
5.6950497715
 30
0.0
 10
6.3587169945
 20
5.6952917517
 30
0.0
 10
6.3594182838
 20
5.6955331579
 30
0.0
 10
6.3599944098
 20
5.6957739358
 30
0.0
 10
6.3604458208
 20
5.6960140306
 30
0.0
 10
6.3607374488
 20
5.6962265972
 30
0.0
 10
6.3608999139
 20
5.6964008743
 30
0.0
 10
6.3609823157
 20
5.6965241165
 30
0.0
 10
6.361032727
 20
5.6966487511
 30
0.0
 10
6.3610442442
 20
5.6967338501
 30
0.0
 10
6.3610442546
 20
5.6967748903
 30
0.0
  0
SPLINE
  5
2A9
100
AcDbEntity
  8
0
100
AcDbSpline
 62
7
  6
CONTINUOUS
 70
0
 71
3
 72
43
 73
39
 74
0
 42
0.0000001
 43
0.0000001
 44
0.0000000001
 40
0.0
 40
0.0
 40
0.0
 40
0.0
 40
0.0978124669
 40
0.194822227
 40
0.2899331716
 40
0.3822071877
 40
0.4707964997
 40
0.5548690008
 40
0.6336103116
 40
0.7062436941
 40
0.7720884435
 40
0.8022585789
 40
0.8304968204
 40
0.8567403056
 40
0.8809263358
 40
0.9029923449
 40
0.9228818485
 40
0.9405541708
 40
0.9559715853
 40
0.9628231415
 40
0.9690971967
 40
0.9747893547
 40
0.9798961788
 40
0.9844165675
 40
0.9883501653
 40
0.9916973086
 40
0.9931514624
 40
0.9944597945
 40
0.9956229437
 40
0.9966419127
 40
0.9975183052
 40
0.9982547836
 40
0.9988560272
 40
0.9993309281
 40
0.9995266118
 40
0.9996991414
 40
0.9998543059
 40
1.0
 40
1.0
 40
1.0
 40
1.0
 10
5.5172942547
 20
5.7691406858
 30
0.0
 10
5.4897488494
 20
5.7685059801
 30
0.0
 10
5.4348846016
 20
5.7672196318
 30
0.0
 10
5.3532371617
 20
5.7652560058
 30
0.0
 10
5.2731500454
 20
5.7633029594
 30
0.0
 10
5.1954352317
 20
5.7613646006
 30
0.0
 10
5.1208308059
 20
5.759426928
 30
0.0
 10
5.0500398387
 20
5.7574857001
 30
0.0
 10
4.9837452316
 20
5.755545727
 30
0.0
 10
4.9225874576
 20
5.7536087316
 30
0.0
 10
4.8751097518
 20
5.7519541362
 30
0.0
 10
4.8401345096
 20
5.7506168802
 30
0.0
 10
4.81630883
 20
5.7496436551
 30
0.0
 10
4.7941702846
 20
5.7486710458
 30
0.0
 10
4.7737721577
 20
5.7476992202
 30
0.0
 10
4.7551660343
 20
5.7467283732
 30
0.0
 10
4.7383974186
 20
5.7457585859
 30
0.0
 10
4.7235050311
 20
5.7447904944
 30
0.0
 10
4.7122846729
 20
5.7439567021
 30
0.0
 10
4.7042727726
 20
5.7432812022
 30
0.0
 10
4.6989942833
 20
5.7427950957
 30
0.0
 10
4.6942094864
 20
5.7423094828
 30
0.0
 10
4.6899214262
 20
5.7418243658
 30
0.0
 10
4.6861321244
 20
5.7413401337
 30
0.0
 10
4.6828429598
 20
5.7408569807
 30
0.0
 10
4.6804177929
 20
5.7404387157
 30
0.0
 10
4.6787306103
 20
5.7400985735
 30
0.0
 10
4.6776516569
 20
5.7398558258
 30
0.0
 10
4.6766986254
 20
5.7396134268
 30
0.0
 10
4.6758714978
 20
5.7393714452
 30
0.0
 10
4.6751702112
 20
5.7391300373
 30
0.0
 10
4.6745940878
 20
5.7388892576
 30
0.0
 10
4.6741426794
 20
5.7386491608
 30
0.0
 10
4.6738510538
 20
5.7384365923
 30
0.0
 10
4.6736885908
 20
5.7382623137
 30
0.0
 10
4.6736061905
 20
5.7381390704
 30
0.0
 10
4.6735557807
 20
5.7380144346
 30
0.0
 10
4.6735442646
 20
5.737929335
 30
0.0
 10
4.6735442547
 20
5.7378882946
 30
0.0
  0
SPLINE
  5
2AA
100
AcDbEntity
  8
0
100
AcDbSpline
 62
7
  6
CONTINUOUS
 70
0
 71
3
 72
16
 73
12
 74
0
 42
0.0000001
 43
0.0000001
 44
0.0000000001
 40
0.0
 40
0.0
 40
0.0
 40
0.0
 40
0.1683498444
 40
0.3257374268
 40
0.4712889258
 40
0.6041489077
 40
0.7237594554
 40
0.8298094804
 40
0.9219974346
 40
0.9627955327
 40
1.0
 40
1.0
 40
1.0
 40
1.0
 10
4.9944919634
 20
5.5695965953
 30
0.0
 10
4.9826899867
 20
5.5691789236
 30
0.0
 10
4.9598553516
 20
5.5683472383
 30
0.0
 10
4.9268205536
 20
5.5670590141
 30
0.0
 10
4.8962772825
 20
5.5657715561
 30
0.0
 10
4.8683864949
 20
5.5644850384
 30
0.0
 10
4.8432697773
 20
5.5632002435
 30
0.0
 10
4.8210101262
 20
5.5619183964
 30
0.0
 10
4.8042783763
 20
5.5608136329
 30
0.0
 10
4.79237349
 20
5.5599176144
 30
0.0
 10
4.7869202555
 20
5.5594675197
 30
0.0
 10
4.7843203174
 20
5.5592407359
 30
0.0
  0
SPLINE
  5
2AB
100
AcDbEntity
  8
0
100
AcDbSpline
 62
7
  6
CONTINUOUS
 70
0
 71
3
 72
18
 73
14
 74
0
 42
0.0000001
 43
0.0000001
 44
0.0000000001
 40
0.0
 40
0.0
 40
0.0
 40
0.0
 40
0.2026310313
 40
0.383448865
 40
0.5421834982
 40
0.6785805647
 40
0.7924166309
 40
0.8408521334
 40
0.8836669551
 40
0.9209051038
 40
0.9526297354
 40
0.9789388391
 40
1.0
 40
1.0
 40
1.0
 40
1.0
 10
4.7843203174
 20
5.5592407359
 30
0.0
 10
4.7820190198
 20
5.5590400015
 30
0.0
 10
4.7776656777
 20
5.558642219
 30
0.0
 10
4.7715166579
 20
5.5580128646
 30
0.0
 10
4.7661269131
 20
5.5573851076
 30
0.0
 10
4.7615064968
 20
5.5567593553
 30
0.0
 10
4.7581445741
 20
5.5562156856
 30
0.0
 10
4.7558489989
 20
5.5557711976
 30
0.0
 10
4.7544181924
 20
5.5554565196
 30
0.0
 10
4.7531829242
 20
5.5551425583
 30
0.0
 10
4.7521423195
 20
5.5548295091
 30
0.0
 10
4.7512957175
 20
5.5545177107
 30
0.0
 10
4.7508061155
 20
5.5542861093
 30
0.0
 10
4.7505981994
 20
5.5541660273
 30
0.0
  0
SPLINE
  5
2AC
100
AcDbEntity
  8
0
100
AcDbSpline
 62
7
  6
CONTINUOUS
 70
0
 71
3
 72
34
 73
30
 74
0
 42
0.0000001
 43
0.0000001
 44
0.0000000001
 40
0.0
 40
0.0
 40
0.0
 40
0.0
 40
0.222931628
 40
0.3254360887
 40
0.4214785955
 40
0.5107039638
 40
0.5928903132
 40
0.6679088536
 40
0.7356332994
 40
0.7959381623
 40
0.8486842361
 40
0.8721714483
 40
0.8937071872
 40
0.9132713247
 40
0.930844374
 40
0.9464078356
 40
0.9599448112
 40
0.9714434328
 40
0.9809141153
 40
0.984897756
 40
0.9883866696
 40
0.9913884153
 40
0.9939144716
 40
0.9959836877
 40
0.9976299739
 40
0.9983149412
 40
0.9989242117
 40
0.9994773042
 40
1.0
 40
1.0
 40
1.0
 40
1.0
 10
4.9944919634
 20
5.5852265953
 30
0.0
 10
4.97623271
 20
5.5845804007
 30
0.0
 10
4.9495792223
 20
5.5835954462
 30
0.0
 10
4.9150645267
 20
5.5821993717
 30
0.0
 10
4.8915016327
 20
5.5811823157
 30
0.0
 10
4.8696055764
 20
5.5801656967
 30
0.0
 10
4.8494345294
 20
5.5791498399
 30
0.0
 10
4.8310279777
 20
5.5781352946
 30
0.0
 10
4.8144176346
 20
5.5771222708
 30
0.0
 10
4.7996363303
 20
5.5761110163
 30
0.0
 10
4.7884797743
 20
5.5752405649
 30
0.0
 10
4.7804979934
 20
5.574535408
 30
0.0
 10
4.7752290136
 20
5.5740275771
 30
0.0
 10
4.7704471369
 20
5.5735202566
 30
0.0
 10
4.7661576658
 20
5.5730136114
 30
0.0
 10
4.7623658832
 20
5.5725078683
 30
0.0
 10
4.759076638
 20
5.5720036204
 30
0.0
 10
4.7562933548
 20
5.5715007135
 30
0.0
 10
4.7542948438
 20
5.5710626127
 30
0.0
 10
4.7529531284
 20
5.5707038674
 30
0.0
 10
4.7521325088
 20
5.5704509518
 30
0.0
 10
4.7514375698
 20
5.5701986264
 30
0.0
 10
4.7508672866
 20
5.569946836
 30
0.0
 10
4.7504207959
 20
5.5696955897
 30
0.0
 10
4.7501333711
 20
5.569473298
 30
0.0
 10
4.7499737875
 20
5.5692916841
 30
0.0
 10
4.7498926846
 20
5.5691628815
 30
0.0
 10
4.7498431972
 20
5.569032839
 30
0.0
 10
4.7498318872
 20
5.5689443509
 30
0.0
 10
4.7498318336
 20
5.5689015127
 30
0.0
  0
SPLINE
  5
2AD
100
AcDbEntity
  8
0
100
AcDbSpline
 62
7
  6
CONTINUOUS
 70
0
 71
3
 72
27
 73
23
 74
0
 42
0.0000001
 43
0.0000001
 44
0.0000000001
 40
0.0
 40
0.0
 40
0.0
 40
0.0
 40
0.0208944646
 40
0.0437028518
 40
0.0683191471
 40
0.0946371183
 40
0.1519409961
 40
0.2147236886
 40
0.2820120279
 40
0.3527376193
 40
0.4257833595
 40
0.5000001563
 40
0.5742169535
 40
0.6472626848
 40
0.7179882688
 40
0.785276591
 40
0.8480592614
 40
0.9053630889
 40
0.9316810736
 40
0.9562973946
 40
0.9791057469
 40
1.0
 40
1.0
 40
1.0
 40
1.0
 10
6.2297942547
 20
5.539126613
 30
0.0
 10
6.2198753794
 20
5.5386803468
 30
0.0
 10
6.1991264437
 20
5.5378049609
 30
0.0
 10
6.166685287
 20
5.5365647792
 30
0.0
 10
6.1316649885
 20
5.5353301696
 30
0.0
 10
6.0802590083
 20
5.5336306236
 30
0.0
 10
6.0107206366
 20
5.531514062
 30
0.0
 10
5.9217157688
 20
5.5290357324
 30
0.0
 10
5.8263306178
 20
5.5265610852
 30
0.0
 10
5.7260670938
 20
5.5240826182
 30
0.0
 10
5.6225103087
 20
5.5216016254
 30
0.0
 10
5.5172940631
 20
5.5191206144
 30
0.0
 10
5.412077819
 20
5.5166397234
 30
0.0
 10
5.3085210333
 20
5.5141590694
 30
0.0
 10
5.2082575351
 20
5.5116801808
 30
0.0
 10
5.1128724392
 20
5.5092042821
 30
0.0
 10
5.0238675397
 20
5.5067288026
 30
0.0
 10
4.954329112
 20
5.5046147049
 30
0.0
 10
4.9029233437
 20
5.5029087914
 30
0.0
 10
4.8679032724
 20
5.5016677286
 30
0.0
 10
4.8354623049
 20
5.500425484
 30
0.0
 10
4.8147132808
 20
5.4995553993
 30
0.0
 10
4.8047942547
 20
5.4991147585
 30
0.0
  0
SPLINE
  5
2AE
100
AcDbEntity
  8
0
100
AcDbSpline
 62
7
  6
CONTINUOUS
 70
0
 71
3
 72
12
 73
8
 74
0
 42
0.0000001
 43
0.0000001
 44
0.0000000001
 40
0.0
 40
0.0
 40
0.0
 40
0.0
 40
0.2205967996
 40
0.3385636732
 40
0.4614703314
 40
0.7216347613
 40
1.0
 40
1.0
 40
1.0
 40
1.0
 10
4.8047942547
 20
5.5205065775
 30
0.0
 10
4.8149192367
 20
5.5209622386
 30
0.0
 10
4.8304611849
 20
5.5216057465
 30
0.0
 10
4.8516472695
 20
5.5224286131
 30
0.0
 10
4.8746510679
 20
5.5232919781
 30
0.0
 10
4.9050212309
 20
5.5243745071
 30
0.0
 10
4.9297501468
 20
5.5251961
 30
0.0
 10
4.9425330654
 20
5.5256025047
 30
0.0
  0
SPLINE
  5
2AF
100
AcDbEntity
  8
0
100
AcDbSpline
 62
7
  6
CONTINUOUS
 70
0
 71
3
 72
51
 73
47
 74
0
 42
0.0000001
 43
0.0000001
 44
0.0000000001
 40
0.0
 40
0.0
 40
0.0
 40
0.0
 40
0.0325578314
 40
0.0671138219
 40
0.1034554458
 40
0.1413713075
 40
0.1806578829
 40
0.2211147837
 40
0.3047179607
 40
0.3904282378
 40
0.4764402306
 40
0.5609493287
 40
0.6020863381
 40
0.6421873435
 40
0.6810401084
 40
0.7184450052
 40
0.754204049
 40
0.788125257
 40
0.8200367303
 40
0.8497708217
 40
0.8771647346
 40
0.9020814444
 40
0.9243926737
 40
0.9439735709
 40
0.952709081
 40
0.9607276743
 40
0.9680192535
 40
0.9745738242
 40
0.9803815561
 40
0.985434548
 40
0.9876768897
 40
0.9897293653
 40
0.9915917394
 40
0.9932638737
 40
0.9947457772
 40
0.9960376932
 40
0.9971402622
 40
0.9980548499
 40
0.9984425221
 40
0.9987844895
 40
0.9990816691
 40
0.9993355014
 40
0.9995483544
 40
0.9997243431
 40
0.9998707677
 40
1.0
 40
1.0
 40
1.0
 40
1.0
 10
4.9425330654
 20
5.5256025047
 30
0.0
 10
4.9579356132
 20
5.5261115711
 30
0.0
 10
4.9896877045
 20
5.5271096447
 30
0.0
 10
5.0386365927
 20
5.5285383101
 30
0.0
 10
5.0901228517
 20
5.5299605354
 30
0.0
 10
5.1438488412
 20
5.5313925435
 30
0.0
 10
5.1995232342
 20
5.5328320419
 30
0.0
 10
5.27681746
 20
5.5347765727
 30
0.0
 10
5.376081296
 20
5.5371803591
 30
0.0
 10
5.496903652
 20
5.5400324548
 30
0.0
 10
5.6181548499
 20
5.542888219
 30
0.0
 10
5.7183125872
 20
5.5452877281
 30
0.0
 10
5.7967436346
 20
5.5472228392
 30
0.0
 10
5.8535693404
 20
5.5486609505
 30
0.0
 10
5.9086279053
 20
5.5500989701
 30
0.0
 10
5.9616305295
 20
5.5515365254
 30
0.0
 10
6.0122979682
 20
5.5529735226
 30
0.0
 10
6.0603640587
 20
5.5544101873
 30
0.0
 10
6.1055769763
 20
5.5558459289
 30
0.0
 10
6.1476986443
 20
5.5572803834
 30
0.0
 10
6.1865073727
 20
5.5587139118
 30
0.0
 10
6.2218000415
 20
5.5601454177
 30
0.0
 10
6.2533912491
 20
5.5615739947
 30
0.0
 10
6.2773240709
 20
5.5628036176
 30
0.0
 10
6.2944940928
 20
5.5637999957
 30
0.0
 10
6.3058532949
 20
5.5645179717
 30
0.0
 10
6.3161779733
 20
5.5652351866
 30
0.0
 10
6.3254534759
 20
5.5659513666
 30
0.0
 10
6.3336659322
 20
5.56666633
 30
0.0
 10
6.3398377216
 20
5.5672826917
 30
0.0
 10
6.344234232
 20
5.5677819417
 30
0.0
 10
6.3471265385
 20
5.5681410545
 30
0.0
 10
6.3497467215
 20
5.5684998258
 30
0.0
 10
6.3520941202
 20
5.5688581691
 30
0.0
 10
6.354168094
 20
5.5692159436
 30
0.0
 10
6.3559681853
 20
5.5695728403
 30
0.0
 10
6.3574938544
 20
5.5699287018
 30
0.0
 10
6.3585900384
 20
5.570238332
 30
0.0
 10
6.3593262353
 20
5.5704914255
 30
0.0
 10
6.3597783323
 20
5.5706704468
 30
0.0
 10
6.3601617003
 20
5.5708492307
 30
0.0
 10
6.3604766271
 20
5.5710278994
 30
0.0
 10
6.3607237067
 20
5.5712068308
 30
0.0
 10
6.3609036613
 20
5.5713873593
 30
0.0
 10
6.3610163984
 20
5.5715723255
 30
0.0
 10
6.3610431006
 20
5.5717037443
 30
0.0
 10
6.3610428873
 20
5.5717649149
 30
0.0
  0
SPLINE
  5
2B0
100
AcDbEntity
  8
0
100
AcDbSpline
 62
7
  6
CONTINUOUS
 70
0
 71
3
 72
13
 73
9
 74
0
 42
0.0000001
 43
0.0000001
 44
0.0000000001
 40
0.0
 40
0.0
 40
0.0
 40
0.0
 40
0.3485540978
 40
0.4953334208
 40
0.6247081935
 40
0.7378158008
 40
0.8363526686
 40
1.0
 40
1.0
 40
1.0
 40
1.0
 10
6.3597062897
 20
5.5514932791
 30
0.0
 10
6.3598924085
 20
5.5514150541
 30
0.0
 10
6.3601535253
 20
5.5512944618
 30
0.0
 10
6.3604658294
 20
5.5511111164
 30
0.0
 10
6.3606506927
 20
5.5509816199
 30
0.0
 10
6.3608002269
 20
5.5508514938
 30
0.0
 10
6.3609436096
 20
5.5506882786
 30
0.0
 10
6.3610137754
 20
5.5505458864
 30
0.0
 10
6.3610291148
 20
5.5504523479
 30
0.0
  0
SPLINE
  5
2B1
100
AcDbEntity
  8
0
100
AcDbSpline
 62
7
  6
CONTINUOUS
 70
0
 71
3
 72
19
 73
15
 74
0
 42
0.0000001
 43
0.0000001
 44
0.0000000001
 40
0.0
 40
0.0
 40
0.0
 40
0.0
 40
0.0331226026
 40
0.0712857354
 40
0.1143263326
 40
0.1620778887
 40
0.2143140521
 40
0.2707502559
 40
0.3310993032
 40
0.3950730685
 40
0.5327293723
 40
0.6813346816
 40
0.8380915372
 40
1.0
 40
1.0
 40
1.0
 40
1.0
 10
6.2296818791
 20
5.4987979342
 30
0.0
 10
6.2226570043
 20
5.4983084716
 30
0.0
 10
6.2075317495
 20
5.4973478133
 30
0.0
 10
6.1832628728
 20
5.4960035418
 30
0.0
 10
6.1558798497
 20
5.4946552677
 30
0.0
 10
6.1255017159
 20
5.4933059931
 30
0.0
 10
6.0922731291
 20
5.4919564311
 30
0.0
 10
6.0563643199
 20
5.4906057509
 30
0.0
 10
6.0179584764
 20
5.4892541439
 30
0.0
 10
5.9622920571
 20
5.4874053985
 30
0.0
 10
5.8878666215
 20
5.4851179746
 30
0.0
 10
5.793718583
 20
5.4824331254
 30
0.0
 10
5.6944126093
 20
5.4797456686
 30
0.0
 10
5.6266872331
 20
5.4779703317
 30
0.0
 10
5.5922769668
 20
5.477074011
 30
0.0
  0
LINE
  5
2B2
100
AcDbEntity
  8
0
100
AcDbLine
 62
7
  6
CONTINUOUS
 10
5.5922769668
 20
5.477074011
 11
5.5880426896
 21
5.476963745
  0
SPLINE
  5
2B3
100
AcDbEntity
  8
0
100
AcDbSpline
 62
7
  6
CONTINUOUS
 70
0
 71
3
 72
19
 73
15
 74
0
 42
0.0000001
 43
0.0000001
 44
0.0000000001
 40
0.0
 40
0.0
 40
0.0
 40
0.0
 40
0.1619740381
 40
0.318729439
 40
0.4673123622
 40
0.6049469181
 40
0.6688936556
 40
0.7291989102
 40
0.7855910144
 40
0.8378043179
 40
0.8855746117
 40
0.9286669636
 40
0.9668763889
 40
1.0
 40
1.0
 40
1.0
 40
1.0
 10
5.4395696172
 20
5.4731079289
 30
0.0
 10
5.4052925745
 20
5.4722145002
 30
0.0
 10
5.3378431627
 20
5.470444736
 30
0.0
 10
5.2389528866
 20
5.4677667191
 30
0.0
 10
5.1452169983
 20
5.4650911218
 30
0.0
 10
5.0711248495
 20
5.4628106433
 30
0.0
 10
5.0157160544
 20
5.4609676027
 30
0.0
 10
4.9774987636
 20
5.4596204835
 30
0.0
 10
4.9417669508
 20
5.4582744285
 30
0.0
 10
4.9086906674
 20
5.4569293613
 30
0.0
 10
4.8784323483
 20
5.4555845898
 30
0.0
 10
4.8511416727
 20
5.4542410311
 30
0.0
 10
4.8269555846
 20
5.4529015521
 30
0.0
 10
4.8118850219
 20
5.4519437191
 30
0.0
 10
4.8048900369
 20
5.4514552563
 30
0.0
  0
SPLINE
  5
2B4
100
AcDbEntity
  8
0
100
AcDbSpline
 62
7
  6
CONTINUOUS
 70
0
 71
3
 72
19
 73
15
 74
0
 42
0.0000001
 43
0.0000001
 44
0.0000000001
 40
0.0
 40
0.0
 40
0.0
 40
0.0
 40
0.0333318083
 40
0.071616333
 40
0.1146977463
 40
0.1624181214
 40
0.2145694189
 40
0.2708812781
 40
0.3310792157
 40
0.3948881961
 40
0.5322267974
 40
0.6806403605
 40
0.837519262
 40
1.0
 40
1.0
 40
1.0
 40
1.0
 10
6.2296818791
 20
5.4831679342
 30
0.0
 10
6.2228563563
 20
5.4826923616
 30
0.0
 10
6.2081850049
 20
5.481758102
 30
0.0
 10
6.1846771046
 20
5.4804488461
 30
0.0
 10
6.1582117785
 20
5.4791358113
 30
0.0
 10
6.1288969399
 20
5.4778216498
 30
0.0
 10
6.0968637977
 20
5.4765074141
 30
0.0
 10
6.0622674309
 20
5.475192167
 30
0.0
 10
6.0252764976
 20
5.4738760915
 30
0.0
 10
5.9716598943
 20
5.4720758512
 30
0.0
 10
5.8999394425
 20
5.4698478244
 30
0.0
 10
5.8091174999
 20
5.4672324546
 30
0.0
 10
5.7131326438
 20
5.464615059
 30
0.0
 10
5.6475999388
 20
5.462888712
 30
0.0
 10
5.6142586538
 20
5.4620174638
 30
0.0
  0
SPLINE
  5
2B5
100
AcDbEntity
  8
0
100
AcDbSpline
 62
7
  6
CONTINUOUS
 70
0
 71
3
 72
19
 73
15
 74
0
 42
0.0000001
 43
0.0000001
 44
0.0000000001
 40
0.0
 40
0.0
 40
0.0
 40
0.0
 40
0.1620175749
 40
0.3183427129
 40
0.4662576112
 40
0.6032590514
 40
0.6669683026
 40
0.7271222231
 40
0.7834723837
 40
0.8357735824
 40
0.8837820723
 40
0.9272817514
 40
0.9660835104
 40
1.0
 40
1.0
 40
1.0
 40
1.0
 10
5.4111993906
 20
5.4567369093
 30
0.0
 10
5.3785839624
 20
5.4558830238
 30
0.0
 10
5.3144994167
 20
5.4541907108
 30
0.0
 10
5.2206409269
 20
5.451624822
 30
0.0
 10
5.1318220415
 20
5.4490602202
 30
0.0
 10
5.0616507884
 20
5.4468754062
 30
0.0
 10
5.0091482908
 20
5.44511077
 30
0.0
 10
4.9728803981
 20
5.443820463
 30
0.0
 10
4.9389113321
 20
5.4425310445
 30
0.0
 10
4.9073899238
 20
5.4412424162
 30
0.0
 10
4.8784586341
 20
5.4399539285
 30
0.0
 10
4.8522487011
 20
5.4386663975
 30
0.0
 10
4.8288802065
 20
5.4373822805
 30
0.0
 10
4.8142647784
 20
5.4364674972
 30
0.0
 10
4.8074506551
 20
5.4360020841
 30
0.0
  0
SPLINE
  5
2B6
100
AcDbEntity
  8
0
100
AcDbSpline
 62
7
  6
CONTINUOUS
 70
0
 71
3
 72
49
 73
45
 74
0
 42
0.0000001
 43
0.0000001
 44
0.0000000001
 40
0.0
 40
0.0
 40
0.0
 40
0.0
 40
0.0324944486
 40
0.0669831629
 40
0.141173261
 40
0.2209343733
 40
0.3044962616
 40
0.3901307711
 40
0.4760969918
 40
0.5605318027
 40
0.6016222065
 40
0.6416966089
 40
0.6805572694
 40
0.7179942401
 40
0.7537903168
 40
0.7877292909
 40
0.8196264265
 40
0.8493330487
 40
0.8767026084
 40
0.901601411
 40
0.9239237893
 40
0.9435680557
 40
0.9523540436
 40
0.9604310044
 40
0.9677847036
 40
0.9744010316
 40
0.9802660726
 40
0.9853662288
 40
0.9876254003
 40
0.9896888383
 40
0.9915569368
 40
0.993230708
 40
0.9947113441
 40
0.9960003214
 40
0.9970995948
 40
0.998011986
 40
0.9983995085
 40
0.9987422805
 40
0.9990415148
 40
0.9992990011
 40
0.9995175115
 40
0.9997015338
 40
0.9998584777
 40
1.0
 40
1.0
 40
1.0
 40
1.0
 10
4.994690284
 20
5.5695965953
 30
0.0
 10
5.0086706246
 20
5.570092103
 30
0.0
 10
5.0374905507
 20
5.5710787966
 30
0.0
 10
5.0982350466
 20
5.573042863
 30
0.0
 10
5.1793237286
 20
5.5754700038
 30
0.0
 10
5.2815354166
 20
5.5783165178
 30
0.0
 10
5.3886757274
 20
5.5811664164
 30
0.0
 10
5.4984882268
 20
5.5840189001
 30
0.0
 10
5.6086766099
 20
5.5868729569
 30
0.0
 10
5.6996937629
 20
5.5892717538
 30
0.0
 10
5.770959486
 20
5.5912056851
 30
0.0
 10
5.8226114307
 20
5.5926424886
 30
0.0
 10
5.8726899367
 20
5.5940786622
 30
0.0
 10
5.9209258198
 20
5.5955144089
 30
0.0
 10
5.967041914
 20
5.596949779
 30
0.0
 10
6.0107718429
 20
5.598385535
 30
0.0
 10
6.0518787073
 20
5.599821664
 30
0.0
 10
6.0901555993
 20
5.6012564308
 30
0.0
 10
6.1254174555
 20
5.6026892321
 30
0.0
 10
6.1574975953
 20
5.6041197655
 30
0.0
 10
6.1862484132
 20
5.6055474421
 30
0.0
 10
6.2080635752
 20
5.6067750421
 30
0.0
 10
6.2237487862
 20
5.6077696002
 30
0.0
 10
6.2341495953
 20
5.6084870551
 30
0.0
 10
6.2436139784
 20
5.609203855
 30
0.0
 10
6.2521232097
 20
5.6099196717
 30
0.0
 10
6.2596585516
 20
5.6106341943
 30
0.0
 10
6.2653186447
 20
5.6112500414
 30
0.0
 10
6.2693444559
 20
5.6117492893
 30
0.0
 10
6.2719853893
 20
5.6121082907
 30
0.0
 10
6.2743718081
 20
5.6124669795
 30
0.0
 10
6.276504288
 20
5.6128252384
 30
0.0
 10
6.2783836391
 20
5.613182935
 30
0.0
 10
6.2800108665
 20
5.6135397891
 30
0.0
 10
6.2813868868
 20
5.6138956632
 30
0.0
 10
6.2823731298
 20
5.6142053352
 30
0.0
 10
6.2830337999
 20
5.614458219
 30
0.0
 10
6.2834394973
 20
5.6146372725
 30
0.0
 10
6.2837833191
 20
5.6148161719
 30
0.0
 10
6.2840656786
 20
5.6149950938
 30
0.0
 10
6.2842871611
 20
5.6151744537
 30
0.0
 10
6.2844482825
 20
5.6153554825
 30
0.0
 10
6.2845484093
 20
5.6155402633
 30
0.0
 10
6.2845718647
 20
5.6156695398
 30
0.0
 10
6.2845718187
 20
5.6157304662
 30
0.0
  0
SPLINE
  5
2B7
100
AcDbEntity
  8
0
100
AcDbSpline
 62
7
  6
CONTINUOUS
 70
0
 71
3
 72
14
 73
10
 74
0
 42
0.0000001
 43
0.0000001
 44
0.0000000001
 40
0.0
 40
0.0
 40
0.0
 40
0.0
 40
0.096453359
 40
0.2028096806
 40
0.3182370387
 40
0.4418784552
 40
0.5728666487
 40
0.7102392097
 40
1.0
 40
1.0
 40
1.0
 40
1.0
 10
6.195961065
 20
5.4126909327
 30
0.0
 10
6.1807726933
 20
5.4120868741
 30
0.0
 10
6.148833116
 20
5.4109028289
 30
0.0
 10
6.0987094649
 20
5.4092169103
 30
0.0
 10
6.0442993485
 20
5.407517804
 30
0.0
 10
5.9860058239
 20
5.4058133725
 30
0.0
 10
5.9242524815
 20
5.4041096383
 30
0.0
 10
5.8363267408
 20
5.4017991108
 30
0.0
 10
5.7690341465
 20
5.400130378
 30
0.0
 10
5.723383355
 20
5.3990202875
 30
0.0
  0
SPLINE
  5
2B8
100
AcDbEntity
  8
0
100
AcDbSpline
 62
7
  6
CONTINUOUS
 70
0
 71
3
 72
13
 73
9
 74
0
 42
0.0000001
 43
0.0000001
 44
0.0000000001
 40
0.0
 40
0.0
 40
0.0
 40
0.0
 40
0.2806033686
 40
0.5442847008
 40
0.6680720117
 40
0.7856690007
 40
0.8965020832
 40
1.0
 40
1.0
 40
1.0
 40
1.0
 10
5.2934786855
 20
5.3887687585
 30
0.0
 10
5.2557161075
 20
5.3878452945
 30
0.0
 10
5.1824690545
 20
5.3860211951
 30
0.0
 10
5.0925668728
 20
5.3836424112
 30
0.0
 10
5.0246040096
 20
5.3817134566
 30
0.0
 10
4.9772107969
 20
5.3802987459
 30
0.0
 10
4.9325500017
 20
5.3788891893
 30
0.0
 10
4.9037136852
 20
5.3779217601
 30
0.0
 10
4.8897896625
 20
5.3774347705
 30
0.0
  0
SPLINE
  5
2B9
100
AcDbEntity
  8
0
100
AcDbSpline
 62
7
  6
CONTINUOUS
 70
0
 71
3
 72
14
 73
10
 74
0
 42
0.0000001
 43
0.0000001
 44
0.0000000001
 40
0.0
 40
0.0
 40
0.0
 40
0.0
 40
0.0989742487
 40
0.2070405121
 40
0.3234105908
 40
0.4472831465
 40
0.5778282713
 40
0.7141090785
 40
1.0
 40
1.0
 40
1.0
 40
1.0
 10
4.8600683343
 20
5.3977297947
 30
0.0
 10
4.875636174
 20
5.3983160994
 30
0.0
 10
4.9082043464
 20
5.399479393
 30
0.0
 10
4.9590831513
 20
5.4011418938
 30
0.0
 10
5.0138830472
 20
5.4028015284
 30
0.0
 10
5.072222686
 20
5.4044615664
 30
0.0
 10
5.1336974831
 20
5.4061235528
 30
0.0
 10
5.2206677586
 20
5.4083778295
 30
0.0
 10
5.287098921
 20
5.4100121569
 30
0.0
 10
5.3320859667
 20
5.4110994395
 30
0.0
  0
SPLINE
  5
2BA
100
AcDbEntity
  8
0
100
AcDbSpline
 62
7
  6
CONTINUOUS
 70
0
 71
3
 72
14
 73
10
 74
0
 42
0.0000001
 43
0.0000001
 44
0.0000000001
 40
0.0
 40
0.0
 40
0.0
 40
0.0
 40
0.296461713
 40
0.4363611565
 40
0.5688363912
 40
0.692595382
 40
0.8064688206
 40
0.9093088086
 40
1.0
 40
1.0
 40
1.0
 40
1.0
 10
5.6878190881
 20
5.4195512127
 30
0.0
 10
5.7410346046
 20
5.4208323463
 30
0.0
 10
5.8193615351
 20
5.4227543918
 30
0.0
 10
5.9214635726
 20
5.4254253483
 30
0.0
 10
5.9925640759
 20
5.4273841689
 30
0.0
 10
6.0589897356
 20
5.4293392148
 30
0.0
 10
6.1200915746
 20
5.4313018634
 30
0.0
 10
6.1752521591
 20
5.4332761643
 30
0.0
 10
6.2099739837
 20
5.4346622081
 30
0.0
 10
6.2262431691
 20
5.4353562175
 30
0.0
  0
SPLINE
  5
2BB
100
AcDbEntity
  8
0
100
AcDbSpline
 62
7
  6
CONTINUOUS
 70
0
 71
3
 72
13
 73
9
 74
0
 42
0.0000001
 43
0.0000001
 44
0.0000000001
 40
0.0
 40
0.0
 40
0.0
 40
0.0
 40
0.0996066513
 40
0.2076062923
 40
0.323509437
 40
0.446745538
 40
0.7126243182
 40
1.0
 40
1.0
 40
1.0
 40
1.0
 10
6.1319948428
 20
5.3685968477
 30
0.0
 10
6.1208228594
 20
5.3681128375
 30
0.0
 10
6.0975354089
 20
5.3671526758
 30
0.0
 10
6.0612424483
 20
5.3657716234
 30
0.0
 10
6.0222949293
 20
5.3643901953
 30
0.0
 10
5.9656299561
 20
5.3624996885
 30
0.0
 10
5.8897187452
 20
5.3601632657
 30
0.0
 10
5.8276322252
 20
5.358390549
 30
0.0
 10
5.7953821252
 20
5.3574931284
 30
0.0
  0
SPLINE
  5
2BC
100
AcDbEntity
  8
0
100
AcDbSpline
 62
7
  6
CONTINUOUS
 70
0
 71
3
 72
11
 73
7
 74
0
 42
0.0000001
 43
0.0000001
 44
0.0000000001
 40
0.0
 40
0.0
 40
0.0
 40
0.0
 40
0.2759277782
 40
0.5363519954
 40
0.7785511511
 40
1.0
 40
1.0
 40
1.0
 40
1.0
 10
5.2124088738
 20
5.3419885159
 30
0.0
 10
5.1888893927
 20
5.3413244446
 30
0.0
 10
5.1431726835
 20
5.3400062451
 30
0.0
 10
5.0768151453
 20
5.3379791981
 30
0.0
 10
5.0151053773
 20
5.3359540405
 30
0.0
 10
4.975594517
 20
5.334538918
 30
0.0
 10
4.9567247673
 20
5.3338226589
 30
0.0
  0
SPLINE
  5
2BD
100
AcDbEntity
  8
0
100
AcDbSpline
 62
7
  6
CONTINUOUS
 70
0
 71
3
 72
11
 73
7
 74
0
 42
0.0000001
 43
0.0000001
 44
0.0000000001
 40
0.0
 40
0.0
 40
0.0
 40
0.0
 40
0.2152681935
 40
0.4560417828
 40
0.7188425272
 40
1.0
 40
1.0
 40
1.0
 40
1.0
 10
6.1071335185
 20
5.351925806
 30
0.0
 10
6.0866182428
 20
5.351094194
 30
0.0
 10
6.0431517624
 20
5.349461414
 30
0.0
 10
5.9746277971
 20
5.3471548284
 30
0.0
 10
5.8998162889
 20
5.3448429462
 30
0.0
 10
5.8479556221
 20
5.3433425946
 30
0.0
 10
5.8211497175
 20
5.3425854436
 30
0.0
  0
LINE
  5
2BE
100
AcDbEntity
  8
0
100
AcDbLine
 62
7
  6
CONTINUOUS
 10
5.0488876371
 20
5.2787841207
 11
5.1054886171
 21
5.2803469566
  0
SPLINE
  5
2BF
100
AcDbEntity
  8
0
100
AcDbSpline
 62
7
  6
CONTINUOUS
 70
0
 71
3
 72
38
 73
34
 74
0
 42
0.0000001
 43
0.0000001
 44
0.0000000001
 40
0.0
 40
0.0
 40
0.0
 40
0.0
 40
0.0006241403
 40
0.0013783142
 40
0.0022662216
 40
0.0032900339
 40
0.0057500242
 40
0.0087644933
 40
0.012335781
 40
0.0164646504
 40
0.0211510385
 40
0.0263943938
 40
0.0321928235
 40
0.0385425013
 40
0.0528789578
 40
0.0693699252
 40
0.0879806532
 40
0.1086755707
 40
0.1314087264
 40
0.1561228181
 40
0.1827598365
 40
0.2112616826
 40
0.2415687765
 40
0.307308178
 40
0.3793683242
 40
0.4571077818
 40
0.5397939187
 40
0.6266719419
 40
0.7169686437
 40
0.7631539203
 40
0.809898047
 40
0.904581195
 40
1.0
 40
1.0
 40
1.0
 40
1.0
 10
4.6742395174
 20
5.6350766128
 30
0.0
 10
4.6743913683
 20
5.6351647639
 30
0.0
 10
4.6747398822
 20
5.6353366423
 30
0.0
 10
4.675332969
 20
5.6355714821
 30
0.0
 10
4.6760453646
 20
5.6358069778
 30
0.0
 10
4.6772288549
 20
5.6361424147
 30
0.0
 10
4.6790117668
 20
5.6365508551
 30
0.0
 10
4.6815133791
 20
5.6370192168
 30
0.0
 10
4.6844910742
 20
5.637489271
 30
0.0
 10
4.6879437776
 20
5.6379607697
 30
0.0
 10
4.6918705638
 20
5.638433151
 30
0.0
 10
4.6962699428
 20
5.6389061445
 30
0.0
 10
4.7011396089
 20
5.6393795879
 30
0.0
 10
4.7085611235
 20
5.6400383292
 30
0.0
 10
4.7189884375
 20
5.6408509196
 30
0.0
 10
4.7328645095
 20
5.6417936955
 30
0.0
 10
4.7485328641
 20
5.6427382271
 30
0.0
 10
4.7659600261
 20
5.6436839282
 30
0.0
 10
4.7851064233
 20
5.6446304256
 30
0.0
 10
4.8059262703
 20
5.6455777903
 30
0.0
 10
4.8283704823
 20
5.6465257986
 30
0.0
 10
4.8523893957
 20
5.6474743781
 30
0.0
 10
4.8874031464
 20
5.6487750029
 30
0.0
 10
4.9346674639
 20
5.6503864102
 30
0.0
 10
4.9952734461
 20
5.6522742432
 30
0.0
 10
5.0606489973
 20
5.6541622753
 30
0.0
 10
5.1301946324
 20
5.6560534774
 30
0.0
 10
5.2032739472
 20
5.6579505431
 30
0.0
 10
5.2660898965
 20
5.6595189225
 30
0.0
 10
5.3176197023
 20
5.6607733147
 30
0.0
 10
5.3703836474
 20
5.6620365385
 30
0.0
 10
5.436994588
 20
5.6636053715
 30
0.0
 10
5.4904589161
 20
5.6648742446
 30
0.0
 10
5.5172942547
 20
5.6655225047
 30
0.0
  0
SPLINE
  5
2C0
100
AcDbEntity
  8
0
100
AcDbSpline
 62
7
  6
CONTINUOUS
 70
0
 71
3
 72
64
 73
60
 74
0
 42
0.0000001
 43
0.0000001
 44
0.0000000001
 40
0.0
 40
0.0
 40
0.0
 40
0.0
 40
0.0001577664
 40
0.0003431182
 40
0.0005745143
 40
0.0008616607
 40
0.0012096235
 40
0.001621225
 40
0.0020981547
 40
0.0026414899
 40
0.0039299414
 40
0.0054903409
 40
0.0073246232
 40
0.0094339408
 40
0.0118189891
 40
0.0144794994
 40
0.017414355
 40
0.0206223056
 40
0.0278521198
 40
0.0361579003
 40
0.0455280973
 40
0.0559489082
 40
0.0673904358
 40
0.0798150336
 40
0.0931849259
 40
0.107462281
 40
0.1385958904
 40
0.1729650726
 40
0.2103322024
 40
0.2503870821
 40
0.2927238678
 40
0.3369316396
 40
0.3826077818
 40
0.429352011
 40
0.476748567
 40
0.5243629445
 40
0.57176253
 40
0.6185278574
 40
0.6642433979
 40
0.7085013233
 40
0.7509012989
 40
0.7910471572
 40
0.8285553616
 40
0.8630525098
 40
0.8942627007
 40
0.9219785507
 40
0.9344575511
 40
0.9459722941
 40
0.9564875204
 40
0.9659680827
 40
0.9743796892
 40
0.981702324
 40
0.9879295566
 40
0.9906307934
 40
0.993056375
 40
0.9952059383
 40
0.9970793575
 40
0.9986769134
 40
1.0
 40
1.0
 40
1.0
 40
1.0
 10
4.7500417065
 20
5.6938767313
 30
0.0
 10
4.7500407347
 20
5.6939573506
 30
0.0
 10
4.7500825413
 20
5.6941343504
 30
0.0
 10
4.7502565875
 20
5.6943763252
 30
0.0
 10
4.7505313501
 20
5.694611564
 30
0.0
 10
4.7509088833
 20
5.6948451613
 30
0.0
 10
4.751390729
 20
5.6950788607
 30
0.0
 10
4.7519780916
 20
5.6953129592
 30
0.0
 10
4.7526714907
 20
5.6955475181
 30
0.0
 10
4.7538038167
 20
5.6958798744
 30
0.0
 10
4.7554900542
 20
5.6962859693
 30
0.0
 10
4.7578377691
 20
5.6967524843
 30
0.0
 10
4.760611652
 20
5.6972205098
 30
0.0
 10
4.7638117936
 20
5.6976898474
 30
0.0
 10
4.7674380149
 20
5.6981599953
 30
0.0
 10
4.771489163
 20
5.6986307941
 30
0.0
 10
4.7759633291
 20
5.6991021658
 30
0.0
 10
4.7827658533
 20
5.6997576308
 30
0.0
 10
4.792310641
 20
5.7005667696
 30
0.0
 10
4.8050039981
 20
5.7015057951
 30
0.0
 10
4.8193319136
 20
5.7024462852
 30
0.0
 10
4.8352653609
 20
5.7033870603
 30
0.0
 10
4.8527621516
 20
5.7043284487
 30
0.0
 10
4.8717679979
 20
5.7052705356
 30
0.0
 10
4.8922246849
 20
5.7062131823
 30
0.0
 10
4.9222362163
 20
5.7075083858
 30
0.0
 10
4.9629756959
 20
5.7091131546
 30
0.0
 10
5.0155129459
 20
5.7109920023
 30
0.0
 10
5.0726119416
 20
5.7128725026
 30
0.0
 10
5.1337847197
 20
5.7147538108
 30
0.0
 10
5.1984548546
 20
5.7166365845
 30
0.0
 10
5.2659988522
 20
5.7185189795
 30
0.0
 10
5.3357960682
 20
5.7204016116
 30
0.0
 10
5.4072234319
 20
5.7222852818
 30
0.0
 10
5.4796416201
 20
5.7241701467
 30
0.0
 10
5.5523948201
 20
5.726055571
 30
0.0
 10
5.6248253294
 20
5.7279409515
 30
0.0
 10
5.6962851455
 20
5.729825503
 30
0.0
 10
5.7661389151
 20
5.7317086269
 30
0.0
 10
5.8337610155
 20
5.7335904507
 30
0.0
 10
5.8985356536
 20
5.7354717592
 30
0.0
 10
5.9598593726
 20
5.7373534618
 30
0.0
 10
6.0171424743
 20
5.7392330822
 30
0.0
 10
6.069856512
 20
5.7411110679
 30
0.0
 10
6.1175628708
 20
5.7429864896
 30
0.0
 10
6.1540185342
 20
5.7445952608
 30
0.0
 10
6.1804122169
 20
5.7458974276
 30
0.0
 10
6.1980226334
 20
5.7468388369
 30
0.0
 10
6.2140984096
 20
5.7477792854
 30
0.0
 10
6.2285854643
 20
5.7487184045
 30
0.0
 10
6.2414372813
 20
5.7496563752
 30
0.0
 10
6.2526215704
 20
5.7505930712
 30
0.0
 10
6.2608873665
 20
5.7514039692
 30
0.0
 10
6.2666522388
 20
5.7520637957
 30
0.0
 10
6.2703410161
 20
5.7525342873
 30
0.0
 10
6.2736030342
 20
5.7530038963
 30
0.0
 10
6.276437226
 20
5.7534722725
 30
0.0
 10
6.278842636
 20
5.7539390247
 30
0.0
 10
6.2802964775
 20
5.7542801093
 30
0.0
 10
6.2809493784
 20
5.754455897
 30
0.0
  0
LINE
  5
2C1
100
AcDbEntity
  8
0
100
AcDbLine
 62
7
  6
CONTINUOUS
 10
6.2809493784
 20
5.754455897
 11
6.2837584488
 21
5.7554870838
  0
SPLINE
  5
2C2
100
AcDbEntity
  8
0
100
AcDbSpline
 62
7
  6
CONTINUOUS
 70
0
 71
3
 72
12
 73
8
 74
0
 42
0.0000001
 43
0.0000001
 44
0.0000000001
 40
0.0
 40
0.0
 40
0.0
 40
0.0
 40
0.0802414975
 40
0.1728108175
 40
0.3961104971
 40
0.6715682757
 40
1.0
 40
1.0
 40
1.0
 40
1.0
 10
4.7508159174
 20
5.6791531288
 30
0.0
 10
4.7509347939
 20
5.6792222289
 30
0.0
 10
4.7511980832
 20
5.6793585879
 30
0.0
 10
4.7518207124
 20
5.6796296932
 30
0.0
 10
4.7527801937
 20
5.6799597157
 30
0.0
 10
4.754146835
 20
5.6803373719
 30
0.0
 10
4.7551556032
 20
5.6805695204
 30
0.0
 10
4.7557058273
 20
5.6806878127
 30
0.0
  0
SPLINE
  5
2C3
100
AcDbEntity
  8
0
100
AcDbSpline
 62
7
  6
CONTINUOUS
 70
0
 71
3
 72
64
 73
60
 74
0
 42
0.0000001
 43
0.0000001
 44
0.0000000001
 40
0.0
 40
0.0
 40
0.0
 40
0.0
 40
0.0015921211
 40
0.0034541783
 40
0.0055872193
 40
0.0079918492
 40
0.0106676396
 40
0.0136134677
 40
0.0203102047
 40
0.0280715951
 40
0.0368865266
 40
0.0467434555
 40
0.057621923
 40
0.0694865905
 40
0.0823005999
 40
0.1106289087
 40
0.1423270506
 40
0.1771577572
 40
0.2148840205
 40
0.2551745409
 40
0.2976282024
 40
0.3418449077
 40
0.387432685
 40
0.4339997616
 40
0.4811354198
 40
0.5284145726
 40
0.5754163836
 40
0.6217325669
 40
0.6669576647
 40
0.710694959
 40
0.7525536821
 40
0.7921482473
 40
0.8291049256
 40
0.8630629116
 40
0.8937645864
 40
0.907831283
 40
0.9210081296
 40
0.9332648623
 40
0.9445671125
 40
0.9548804568
 40
0.9641705871
 40
0.9724045619
 40
0.979565172
 40
0.9827410942
 40
0.9856465322
 40
0.9882809052
 40
0.9906437343
 40
0.9927346962
 40
0.9945537169
 40
0.996101161
 40
0.9973786525
 40
0.9979173434
 40
0.9983902374
 40
0.9987984452
 40
0.9991436808
 40
0.9994287713
 40
0.9996587404
 40
0.9998431335
 40
1.0
 40
1.0
 40
1.0
 40
1.0
 10
4.7557058273
 20
5.6806878127
 30
0.0
 10
4.7565001833
 20
5.6808585906
 30
0.0
 10
4.7582313157
 20
5.6811931386
 30
0.0
 10
4.7610447593
 20
5.6816576559
 30
0.0
 10
4.7642775631
 20
5.6821232617
 30
0.0
 10
4.767929261
 20
5.6825896421
 30
0.0
 10
4.7719986713
 20
5.6830566756
 30
0.0
 10
4.7782513224
 20
5.6837082519
 30
0.0
 10
4.7870970656
 20
5.6845112834
 30
0.0
 10
4.7989376848
 20
5.6854416251
 30
0.0
 10
4.8123952637
 20
5.6863737949
 30
0.0
 10
4.8274468742
 20
5.6873068611
 30
0.0
 10
4.8440575265
 20
5.6882400936
 30
0.0
 10
4.8621793796
 20
5.6891741812
 30
0.0
 10
4.8891996965
 20
5.6904638726
 30
0.0
 10
4.9263383744
 20
5.6920571061
 30
0.0
 10
4.9747111189
 20
5.6939174547
 30
0.0
 10
5.0278829959
 20
5.6957814521
 30
0.0
 10
5.0854422338
 20
5.6976466037
 30
0.0
 10
5.1468935504
 20
5.69951289
 30
0.0
 10
5.211658537
 20
5.7013802115
 30
0.0
 10
5.279127953
 20
5.7032470721
 30
0.0
 10
5.3486973282
 20
5.705114351
 30
0.0
 10
5.4197568239
 20
5.7069827402
 30
0.0
 10
5.491679743
 20
5.7088522221
 30
0.0
 10
5.5638245826
 20
5.710722151
 30
0.0
 10
5.6355510837
 20
5.7125919224
 30
0.0
 10
5.7062290047
 20
5.7144607801
 30
0.0
 10
5.7752403931
 20
5.716328195
 30
0.0
 10
5.8419761863
 20
5.718194421
 30
0.0
 10
5.9058373989
 20
5.7200603211
 30
0.0
 10
5.9662367049
 20
5.721926523
 30
0.0
 10
6.0226020722
 20
5.7237904236
 30
0.0
 10
6.0744265003
 20
5.7256531551
 30
0.0
 10
6.1145714513
 20
5.7272456624
 30
0.0
 10
6.1441146992
 20
5.7285307858
 30
0.0
 10
6.1642511963
 20
5.7294656943
 30
0.0
 10
6.1829753264
 20
5.7303998895
 30
0.0
 10
6.2002362101
 20
5.731333398
 30
0.0
 10
6.2159807968
 20
5.7322660222
 30
0.0
 10
6.2301566484
 20
5.7331972111
 30
0.0
 10
6.2427197404
 20
5.7341276573
 30
0.0
 10
6.2521630745
 20
5.7349302664
 30
0.0
 10
6.2588895622
 20
5.7355804653
 30
0.0
 10
6.2633128836
 20
5.7360480511
 30
0.0
 10
6.2673187858
 20
5.7365151503
 30
0.0
 10
6.2709060173
 20
5.7369816203
 30
0.0
 10
6.2740733487
 20
5.7374472483
 30
0.0
 10
6.2768197807
 20
5.7379115521
 30
0.0
 10
6.2791444512
 20
5.7383743481
 30
0.0
 10
6.2808139758
 20
5.7387772594
 30
0.0
 10
6.2819349209
 20
5.739106961
 30
0.0
 10
6.2826213755
 20
5.7393396337
 30
0.0
 10
6.2832029596
 20
5.7395718425
 30
0.0
 10
6.2836802489
 20
5.7398036518
 30
0.0
 10
6.2840544817
 20
5.7400353502
 30
0.0
 10
6.2843272217
 20
5.7402686495
 30
0.0
 10
6.2845005184
 20
5.740508433
 30
0.0
 10
6.284543159
 20
5.7406838438
 30
0.0
 10
6.2845428406
 20
5.7407638968
 30
0.0
  0
SPLINE
  5
2C4
100
AcDbEntity
  8
0
100
AcDbSpline
 62
7
  6
CONTINUOUS
 70
0
 71
3
 72
38
 73
34
 74
0
 42
0.0000001
 43
0.0000001
 44
0.0000000001
 40
0.0
 40
0.0
 40
0.0
 40
0.0
 40
0.0006465961
 40
0.0014237022
 40
0.002334649
 40
0.0033814129
 40
0.0058866566
 40
0.0089451524
 40
0.0125590463
 40
0.0167290071
 40
0.0214549222
 40
0.026736199
 40
0.0325707611
 40
0.0389547353
 40
0.0533543177
 40
0.0699012072
 40
0.0885607778
 40
0.1092975099
 40
0.1320650787
 40
0.1568063132
 40
0.1834634421
 40
0.2119786063
 40
0.2422923203
 40
0.308025075
 40
0.3800541788
 40
0.4577401222
 40
0.5403526647
 40
0.627140112
 40
0.7173323933
 40
0.7634612963
 40
0.8101467763
 40
0.9047073279
 40
1.0
 40
1.0
 40
1.0
 40
1.0
 10
6.3602720196
 20
5.6745330528
 30
0.0
 10
6.3601127113
 20
5.6744452942
 30
0.0
 10
6.3597498828
 20
5.6742740154
 30
0.0
 10
6.3591361621
 20
5.6740393815
 30
0.0
 10
6.3584034125
 20
5.6738041233
 30
0.0
 10
6.3571931848
 20
5.6734695314
 30
0.0
 10
6.3553780204
 20
5.6730617233
 30
0.0
 10
6.3528388724
 20
5.6725938149
 30
0.0
 10
6.349825065
 20
5.672124279
 30
0.0
 10
6.3463376762
 20
5.6716533609
 30
0.0
 10
6.342377656
 20
5.6711815924
 30
0.0
 10
6.3379465443
 20
5.670709245
 30
0.0
 10
6.3330467107
 20
5.6702364562
 30
0.0
 10
6.325588164
 20
5.6695788709
 30
0.0
 10
6.3151185919
 20
5.6687675465
 30
0.0
 10
6.3011965622
 20
5.6678260203
 30
0.0
 10
6.285488475
 20
5.666882729
 30
0.0
 10
6.2680278453
 20
5.6659382354
 30
0.0
 10
6.2488542875
 20
5.6649929034
 30
0.0
 10
6.2280135732
 20
5.6640467571
 30
0.0
 10
6.2055546048
 20
5.6631000853
 30
0.0
 10
6.1815268749
 20
5.6621530281
 30
0.0
 10
6.1465129551
 20
5.6608550198
 30
0.0
 10
6.099262224
 20
5.6592468983
 30
0.0
 10
6.0386882129
 20
5.6573606077
 30
0.0
 10
5.9733640711
 20
5.655470628
 30
0.0
 10
5.9038869125
 20
5.6535814826
 30
0.0
 10
5.8308903703
 20
5.6517019777
 30
0.0
 10
5.7681514733
 20
5.6501440693
 30
0.0
 10
5.7166890339
 20
5.6488805013
 30
0.0
 10
5.6639981598
 20
5.6475889651
 30
0.0
 10
5.5974817997
 20
5.6459732502
 30
0.0
 10
5.54409241
 20
5.6447309962
 30
0.0
 10
5.5172942547
 20
5.6441306858
 30
0.0
  0
SPLINE
  5
2C5
100
AcDbEntity
  8
0
100
AcDbSpline
 62
7
  6
CONTINUOUS
 70
0
 71
3
 72
14
 73
10
 74
0
 42
0.0000001
 43
0.0000001
 44
0.0000000001
 40
0.0
 40
0.0
 40
0.0
 40
0.0
 40
0.0679662633
 40
0.1516886636
 40
0.2516084978
 40
0.3679713707
 40
0.5009216836
 40
0.6505468498
 40
1.0
 40
1.0
 40
1.0
 40
1.0
 10
6.3603252258
 20
5.6975952972
 30
0.0
 10
6.3601479639
 20
5.6976964877
 30
0.0
 10
6.3597354754
 20
5.6978925184
 30
0.0
 10
6.3590276207
 20
5.6981580595
 30
0.0
 10
6.3581665268
 20
5.698424522
 30
0.0
 10
6.3571521128
 20
5.6986916622
 30
0.0
 10
6.3559841654
 20
5.6989593413
 30
0.0
 10
6.3541238254
 20
5.699336556
 30
0.0
 10
6.3526459442
 20
5.6995884284
 30
0.0
 10
6.3516093899
 20
5.6997524456
 30
0.0
  0
SPLINE
  5
2C6
100
AcDbEntity
  8
0
100
AcDbSpline
 62
7
  6
CONTINUOUS
 70
0
 71
3
 72
30
 73
26
 74
0
 42
0.0000001
 43
0.0000001
 44
0.0000000001
 40
0.0
 40
0.0
 40
0.0
 40
0.0
 40
0.0018307189
 40
0.0041053037
 40
0.0068358684
 40
0.0100289898
 40
0.0136884454
 40
0.0178164609
 40
0.0274824809
 40
0.0390320362
 40
0.0524650097
 40
0.067778463
 40
0.0849613701
 40
0.1039972931
 40
0.1248691997
 40
0.1720511045
 40
0.2263659597
 40
0.2876586622
 40
0.3557133937
 40
0.4302947071
 40
0.511166683
 40
0.5980798256
 40
0.6907338622
 40
0.7888163146
 40
1.0
 40
1.0
 40
1.0
 40
1.0
 10
4.6742860256
 20
5.7601131827
 30
0.0
 10
4.6744780387
 20
5.7602211038
 30
0.0
 10
4.6749273205
 20
5.7604294805
 30
0.0
 10
4.6757006651
 20
5.7607107001
 30
0.0
 10
4.6766462671
 20
5.7609930151
 30
0.0
 10
4.6777641938
 20
5.7612761294
 30
0.0
 10
4.6790546795
 20
5.7615598671
 30
0.0
 10
4.6811162702
 20
5.7619600943
 30
0.0
 10
4.6841264473
 20
5.7624503619
 30
0.0
 10
4.6882570401
 20
5.7630150026
 30
0.0
 10
4.6930723181
 20
5.7635812288
 30
0.0
 10
4.6985692447
 20
5.7641486462
 30
0.0
 10
4.7047433751
 20
5.7647168708
 30
0.0
 10
4.7115887318
 20
5.7652858218
 30
0.0
 10
4.7220370563
 20
5.7660778238
 30
0.0
 10
4.7367277487
 20
5.7670544254
 30
0.0
 10
4.7562811715
 20
5.7681872715
 30
0.0
 10
4.7783495332
 20
5.7693218166
 30
0.0
 10
4.8028590247
 20
5.7704582212
 30
0.0
 10
4.829726437
 20
5.7715959089
 30
0.0
 10
4.8588646298
 20
5.7727344378
 30
0.0
 10
4.8901787709
 20
5.7738732283
 30
0.0
 10
4.9235648474
 20
5.7750127231
 30
0.0
 10
4.9718968705
 20
5.7765716869
 30
0.0
 10
5.0090898101
 20
5.7776818523
 30
0.0
 10
5.0344879249
 20
5.7784125757
 30
0.0
  0
SPLINE
  5
2C7
100
AcDbEntity
  8
0
100
AcDbSpline
 62
7
  6
CONTINUOUS
 70
0
 71
3
 72
14
 73
10
 74
0
 42
0.0000001
 43
0.0000001
 44
0.0000000001
 40
0.0
 40
0.0
 40
0.0
 40
0.0
 40
0.0686148228
 40
0.1527968558
 40
0.2529815756
 40
0.3694182419
 40
0.5022586983
 40
0.6515994596
 40
1.0
 40
1.0
 40
1.0
 40
1.0
 10
6.3602960092
 20
5.5495403929
 30
0.0
 10
6.3601193091
 20
5.5494406374
 30
0.0
 10
6.3597097548
 20
5.5492471646
 30
0.0
 10
6.3590087415
 20
5.5489846832
 30
0.0
 10
6.3581585951
 20
5.548721429
 30
0.0
 10
6.3571591542
 20
5.548457642
 30
0.0
 10
6.3560101391
 20
5.5481934632
 30
0.0
 10
6.3541826515
 20
5.5478215379
 30
0.0
 10
6.3527313862
 20
5.5475732046
 30
0.0
 10
6.3517138177
 20
5.5474115953
 30
0.0
  0
SPLINE
  5
2C8
100
AcDbEntity
  8
0
100
AcDbSpline
 62
7
  6
CONTINUOUS
 70
0
 71
3
 72
14
 73
10
 74
0
 42
0.0000001
 43
0.0000001
 44
0.0000000001
 40
0.0
 40
0.0
 40
0.0
 40
0.0
 40
0.0687750315
 40
0.1531072523
 40
0.2534094535
 40
0.3699137181
 40
0.5027575282
 40
0.6520245923
 40
1.0
 40
1.0
 40
1.0
 40
1.0
 10
4.6743018438
 20
5.7370461615
 30
0.0
 10
4.6744814599
 20
5.7369462657
 30
0.0
 10
4.6748971316
 20
5.7367525148
 30
0.0
 10
4.6756076969
 20
5.7364895023
 30
0.0
 10
4.676468477
 20
5.7362256194
 30
0.0
 10
4.6774795376
 20
5.7359610939
 30
0.0
 10
4.6786410607
 20
5.7356960572
 30
0.0
 10
4.6804867795
 20
5.7353228343
 30
0.0
 10
4.6819520125
 20
5.7350732539
 30
0.0
 10
4.6829791192
 20
5.7349107321
 30
0.0
  0
SPLINE
  5
2C9
100
AcDbEntity
  8
0
100
AcDbSpline
 62
7
  6
CONTINUOUS
 70
0
 71
3
 72
13
 73
9
 74
0
 42
0.0000001
 43
0.0000001
 44
0.0000000001
 40
0.0
 40
0.0
 40
0.0
 40
0.0
 40
0.075685089
 40
0.1649701191
 40
0.2682336599
 40
0.3857083943
 40
0.6638122131
 40
1.0
 40
1.0
 40
1.0
 40
1.0
 10
4.6742254744
 20
5.6120786777
 30
0.0
 10
4.6743504817
 20
5.6120052603
 30
0.0
 10
4.6746323008
 20
5.6118611291
 30
0.0
 10
4.6751062322
 20
5.6116619926
 30
0.0
 10
4.6756658172
 20
5.6114624806
 30
0.0
 10
4.6765788393
 20
5.6111799997
 30
0.0
 10
4.6779381481
 20
5.610834753
 30
0.0
 10
4.6790899584
 20
5.6105932176
 30
0.0
 10
4.6797219884
 20
5.610469857
 30
0.0
  0
ENDSEC
  0
SECTION
  2
OBJECTS
  0
DICTIONARY
  5
C
100
AcDbDictionary
280
0
281
1
  3
ACAD_GROUP
350
D
  3
ACAD_MLINESTYLE
350
17
  3
ACAD_LAYOUT
350
1A
  3
ACAD_PLOTSETTINGS
350
19
  3
ACAD_PLOTSTYLENAME
350
E
  0
DICTIONARY
  5
D
102
{ACAD_REACTORS
330
C
102
}
100
AcDbDictionary
280
0
281
1
  0
ACDBDICTIONARYWDFLT
  5
E
102
{ACAD_REACTORS
330
C
102
}
100
AcDbDictionary
281
1
  3
Normal
350
F
100
AcDbDictionaryWithDefault
340
F
  0
DICTIONARY
  5
17
102
{ACAD_REACTORS
330
C
102
}
100
AcDbDictionary
280
0
281
1
  3
Standard
350
18
  0
DICTIONARY
  5
19
102
{ACAD_REACTORS
330
C
102
}
100
AcDbDictionary
281
1
  0
DICTIONARY
  5
1A
102
{ACAD_REACTORS
330
C
102
}
100
AcDbDictionary
281
1
  3
Model
350
2CA
  3
Layout1
350
2CB
  0
ACDBPLACEHOLDER
  5
F
102
{ACAD_REACTORS
330
E
102
}
  0
MLINESTYLE
  5
18
102
{ACAD_REACTORS
330
17
102
}
100
AcDbMlineStyle
  2
STANDARD
 70
0
  3

 62
256
 51
90.0
 52
90.0
 71
2
 49
0.5
 62
256
  6
BYLAYER
 49
-0.5
 62
256
  6
BYLAYER
  0
LAYOUT
  5
2CA
102
{ACAD_REACTORS
330
1A
102
}
100
AcDbPlotSettings
  1

  2
none_device
  4
ANSI_A_(11.00_x_8.50_Inches)
  6

 40
0.0
 41
0.0
 42
0.0
 43
0.0
 44
279.4
 45
215.9
 46
0.0
 47
0.0
 48
0.0
 49
0.0
140
0.0
141
0.0
142
1.0
143
1.0
 70
1024
 72
0
 73
0
 74
0
  7

 75
0
147
1.0
148
0.0
149
0.0
100
AcDbLayout
  1
Model
 70
0
 71
0
 10
0.0
 20
0.0
 11
11.0
 21
8.5
 12
0.0
 22
0.0
 32
0.0
 14
0.0
 24
0.0
 34
0.0
 15
0.0
 25
0.0
 35
0.0
146
0.0
 13
0.0
 23
0.0
 33
0.0
 16
1.0
 26
0.0
 36
0.0
 17
0.0
 27
1.0
 37
0.0
 76
0
330
21F
345
0
346
0
  0
LAYOUT
  5
2CB
102
{ACAD_REACTORS
330
1A
102
}
100
AcDbPlotSettings
  1

  2
none_device
  4
ANSI_A_(11.00_x_8.50_Inches)
  6

 40
0.0
 41
0.0
 42
0.0
 43
0.0
 44
279.4
 45
215.9
 46
0.0
 47
0.0
 48
0.0
 49
0.0
140
0.0
141
0.0
142
1.0
143
1.0
 70
0
 72
0
 73
0
 74
0
  7

 75
0
147
1.0
148
0.0
149
0.0
100
AcDbLayout
  1
Layout1
 70
0
 71
1
 10
0.0
 20
0.0
 11
11.0
 21
8.5
 12
0.0
 22
0.0
 32
0.0
 14
0.0
 24
0.0
 34
0.0
 15
0.0
 25
0.0
 35
0.0
146
0.0
 13
0.0
 23
0.0
 33
0.0
 16
1.0
 26
0.0
 36
0.0
 17
0.0
 27
1.0
 37
0.0
 76
0
330
220
345
0
346
0
  0
ENDSEC
  0
EOF
