999
DXF file: C:\Prowork\plots\403x_right.dxf
999
Pro/ENGINEER 2018500 by Parametric Technology Corporation
  0
SECTION
  2
HEADER
  9
$ACADVER
  1
AC1032
  9
$DWGCODEPAGE
  3
ANSI_1252
  9
$EXTMAX
 10
11.0
 20
8.5
 30
0.0
  9
$EXTMIN
 10
0.0
 20
0.0
 30
0.0
  9
$LIMMIN
 10
0.0
 20
0.0
  9
$LIMMAX
 10
11.0
 20
8.5
  9
$VIEWCTR
 10
5.5
 20
4.25
  9
$VIEWSIZE
 40
8.5
  9
$CLAYER
  8
0
  9
$LTSCALE
 40
0.605
  9
$CELTYPE
  6
BYLAYER
  9
$DIMSCALE
 40
1.0
  9
$DIMASZ
 40
0.1
  9
$DIMEXO
 40
0.0625
  9
$DIMDLI
 40
0.418
  9
$DIMEXE
 40
0.125
  9
$DIMCEN
 40
0.099
  9
$DIMLFAC
 40
1.0
  9
$DIMBLK
  1
_FILLED
  9
$DIMALT
 70
1
  9
$DIMALTD
 70
2
  9
$DIMALTTD
 70
2
  9
$DIMALTF
 40
25.4
  9
$DIMTXT
 40
0.08
  9
$DIMTOL
 70
1
  9
$DIMLIM
 70
0
  9
$DIMTFAC
 40
1.0
  9
$DIMTP
 40
0.001
  9
$DIMTM
 40
0.001
  9
$DIMGAP
 40
0.09
  9
$DIMDSEP
 70
46
  9
$AUNITS
 70
0
  9
$PDMODE
 70
3
  9
$PDSIZE
 40
0.06
  9
$HANDSEED
  5
3CB
  9
$TILEMODE
 70
1
  9
$MEASUREMENT
 70
0
  9
$INSUNITS
 70
1
  0
ENDSEC
  0
SECTION
  2
CLASSES
  0
CLASS
  1
ACDBDICTIONARYWDFLT
  2
AcDbDictionaryWithDefault
  3
AutoCAD 2000
 90
0
 91
1
280
0
281
0
  0
CLASS
  1
ACDBPLACEHOLDER
  2
AcDbPlaceHolder
  3
AutoCAD 2000
 90
0
 91
1
280
0
281
0
  0
CLASS
  1
LAYOUT
  2
AcDbLayout
  3
AutoCAD 2000
 90
0
 91
0
280
0
281
0
  0
ENDSEC
  0
SECTION
  2
TABLES
  0
TABLE
  2
VPORT
  5
8
100
AcDbSymbolTable
 70
2
  0
VPORT
  5
1F4
100
AcDbSymbolTableRecord
100
AcDbViewportTableRecord
  2
*ACTIVE
 70
0
 10
0.0
 20
0.0
 11
1.0
 21
1.0
 12
5.5
 22
4.25
 13
0.0
 23
0.0
 14
1.0
 24
1.0
 15
0.0
 25
0.0
 16
0.0
 26
0.0
 36
1.0
 17
0.0
 27
0.0
 37
0.0
 40
8.5
 41
1.2941176471
 42
50.0
 43
0.0
 44
0.0
 50
0.0
 51
0.0
 71
0
 72
100
 73
1
 74
1
 75
0
 76
0
 77
0
 78
0
  0
ENDTAB
  0
TABLE
  2
LTYPE
  5
5
100
AcDbSymbolTable
 70
6
  0
LTYPE
  5
14
100
AcDbSymbolTableRecord
100
AcDbLinetypeTableRecord
  2
BYBLOCK
 70
0
  3

 72
65
 73
0
 40
0.0
  0
LTYPE
  5
15
100
AcDbSymbolTableRecord
100
AcDbLinetypeTableRecord
  2
BYLAYER
 70
0
  3

 72
65
 73
0
 40
0.0
  0
LTYPE
  5
16
100
AcDbSymbolTableRecord
100
AcDbLinetypeTableRecord
  2
CONTINUOUS
 70
64
  3
Solid line
 72
65
 73
0
 40
0.0
  0
LTYPE
  5
1F5
100
AcDbSymbolTableRecord
100
AcDbLinetypeTableRecord
  2
CENTER
 70
64
  3
____ _ ____ _ ____ _ ____ _ ____ _ ____ _ ____
 72
65
 73
4
 40
0.6
 49
0.375
 74
0
 49
-0.075
 74
0
 49
0.075
 74
0
 49
-0.075
 74
0
  0
LTYPE
  5
1F6
100
AcDbSymbolTableRecord
100
AcDbLinetypeTableRecord
  2
HIDDEN
 70
64
  3
- - - - - - - - - - - - - - - - - - - -
 72
65
 73
2
 40
0.2
 49
0.1
 74
0
 49
-0.1
 74
0
  0
LTYPE
  5
1F7
100
AcDbSymbolTableRecord
100
AcDbLinetypeTableRecord
  2
PHANTOM
 70
64
  3
_____ _ _ _____ _ _ _____ _ _ _____
 72
65
 73
6
 40
0.8
 49
0.45
 74
0
 49
-0.05
 74
0
 49
0.1
 74
0
 49
-0.05
 74
0
 49
0.1
 74
0
 49
-0.05
 74
0
  0
LTYPE
  5
1F8
100
AcDbSymbolTableRecord
100
AcDbLinetypeTableRecord
  2
DOT
 70
64
  3
. . . . . . . . . . . . . . . . . . . .
 72
65
 73
2
 40
0.2
 49
0.1
 74
0
 49
-0.1
 74
0
  0
LTYPE
  5
1F9
100
AcDbSymbolTableRecord
100
AcDbLinetypeTableRecord
  2
DASHED
 70
64
  3
- - - - - - - - - - - - - - - - - - - -
 72
65
 73
2
 40
0.2
 49
0.1
 74
0
 49
-0.1
 74
0
  0
ENDTAB
  0
TABLE
  2
LAYER
  5
2
100
AcDbSymbolTable
 70
36
  0
LAYER
  5
10
100
AcDbSymbolTableRecord
100
AcDbLayerTableRecord
  2
0
 70
0
 62
7
  6
CONTINUOUS
370
-3
390
F
  0
LAYER
  5
1FA
100
AcDbSymbolTableRecord
100
AcDbLayerTableRecord
  2
DEFAULT_1
 70
0
 62
7
  6
CENTER
370
-3
390
F
  0
LAYER
  5
1FB
100
AcDbSymbolTableRecord
100
AcDbLayerTableRecord
  2
DEFAULT_2
 70
0
 62
8
  6
HIDDEN
370
-3
390
F
  0
LAYER
  5
1FC
100
AcDbSymbolTableRecord
100
AcDbLayerTableRecord
  2
DEFAULT_3
 70
0
 62
7
  6
PHANTOM
370
-3
390
F
  0
LAYER
  5
1FD
100
AcDbSymbolTableRecord
100
AcDbLayerTableRecord
  2
50350
 70
0
 62
7
  6
CONTINUOUS
370
-3
390
F
  0
LAYER
  5
1FE
100
AcDbSymbolTableRecord
100
AcDbLayerTableRecord
  2
50356
 70
0
 62
7
  6
CONTINUOUS
370
-3
390
F
  0
LAYER
  5
1FF
100
AcDbSymbolTableRecord
100
AcDbLayerTableRecord
  2
50359
 70
0
 62
7
  6
CONTINUOUS
370
-3
390
F
  0
LAYER
  5
200
100
AcDbSymbolTableRecord
100
AcDbLayerTableRecord
  2
50362
 70
0
 62
7
  6
CONTINUOUS
370
-3
390
F
  0
LAYER
  5
201
100
AcDbSymbolTableRecord
100
AcDbLayerTableRecord
  2
50663
 70
0
 62
7
  6
CONTINUOUS
370
-3
390
F
  0
LAYER
  5
202
100
AcDbSymbolTableRecord
100
AcDbLayerTableRecord
  2
50664
 70
0
 62
7
  6
CONTINUOUS
370
-3
390
F
  0
LAYER
  5
203
100
AcDbSymbolTableRecord
100
AcDbLayerTableRecord
  2
50668
 70
0
 62
7
  6
CONTINUOUS
370
-3
390
F
  0
LAYER
  5
204
100
AcDbSymbolTableRecord
100
AcDbLayerTableRecord
  2
50675
 70
0
 62
7
  6
CONTINUOUS
370
-3
390
F
  0
LAYER
  5
205
100
AcDbSymbolTableRecord
100
AcDbLayerTableRecord
  2
50677
 70
0
 62
7
  6
CONTINUOUS
370
-3
390
F
  0
LAYER
  5
206
100
AcDbSymbolTableRecord
100
AcDbLayerTableRecord
  2
50678
 70
0
 62
7
  6
CONTINUOUS
370
-3
390
F
  0
LAYER
  5
207
100
AcDbSymbolTableRecord
100
AcDbLayerTableRecord
  2
6-403
 70
0
 62
7
  6
CONTINUOUS
370
-3
390
F
  0
LAYER
  5
208
100
AcDbSymbolTableRecord
100
AcDbLayerTableRecord
  2
92000
 70
0
 62
7
  6
CONTINUOUS
370
-3
390
F
  0
LAYER
  5
209
100
AcDbSymbolTableRecord
100
AcDbLayerTableRecord
  2
ALL_FEATURES_4
 70
0
 62
7
  6
CONTINUOUS
370
-3
390
F
  0
LAYER
  5
20A
100
AcDbSymbolTableRecord
100
AcDbLayerTableRecord
  2
DEFAULT_COORDINATE_SYSTEM
 70
0
 62
7
  6
CONTINUOUS
370
-3
390
F
  0
LAYER
  5
20B
100
AcDbSymbolTableRecord
100
AcDbLayerTableRecord
  2
DEFAULT_DATUM_AXES
 70
0
 62
7
  6
CONTINUOUS
370
-3
390
F
  0
LAYER
  5
20C
100
AcDbSymbolTableRecord
100
AcDbLayerTableRecord
  2
DEFAULT_DATUM_PLANES
 70
0
 62
7
  6
CONTINUOUS
370
-3
390
F
  0
LAYER
  5
20D
100
AcDbSymbolTableRecord
100
AcDbLayerTableRecord
  2
DEFAULT_SURFACES
 70
0
 62
7
  6
CONTINUOUS
370
-3
390
F
  0
LAYER
  5
20E
100
AcDbSymbolTableRecord
100
AcDbLayerTableRecord
  2
INTF_50350
 70
0
 62
7
  6
CONTINUOUS
370
-3
390
F
  0
LAYER
  5
20F
100
AcDbSymbolTableRecord
100
AcDbLayerTableRecord
  2
INTF_50356
 70
0
 62
7
  6
CONTINUOUS
370
-3
390
F
  0
LAYER
  5
210
100
AcDbSymbolTableRecord
100
AcDbLayerTableRecord
  2
INTF_50359
 70
0
 62
7
  6
CONTINUOUS
370
-3
390
F
  0
LAYER
  5
211
100
AcDbSymbolTableRecord
100
AcDbLayerTableRecord
  2
INTF_50362
 70
0
 62
7
  6
CONTINUOUS
370
-3
390
F
  0
LAYER
  5
212
100
AcDbSymbolTableRecord
100
AcDbLayerTableRecord
  2
INTF_50663
 70
0
 62
7
  6
CONTINUOUS
370
-3
390
F
  0
LAYER
  5
213
100
AcDbSymbolTableRecord
100
AcDbLayerTableRecord
  2
INTF_50664
 70
0
 62
7
  6
CONTINUOUS
370
-3
390
F
  0
LAYER
  5
214
100
AcDbSymbolTableRecord
100
AcDbLayerTableRecord
  2
INTF_50668
 70
0
 62
7
  6
CONTINUOUS
370
-3
390
F
  0
LAYER
  5
215
100
AcDbSymbolTableRecord
100
AcDbLayerTableRecord
  2
INTF_50675
 70
0
 62
7
  6
CONTINUOUS
370
-3
390
F
  0
LAYER
  5
216
100
AcDbSymbolTableRecord
100
AcDbLayerTableRecord
  2
INTF_50677
 70
0
 62
7
  6
CONTINUOUS
370
-3
390
F
  0
LAYER
  5
217
100
AcDbSymbolTableRecord
100
AcDbLayerTableRecord
  2
INTF_50678
 70
0
 62
7
  6
CONTINUOUS
370
-3
390
F
  0
LAYER
  5
218
100
AcDbSymbolTableRecord
100
AcDbLayerTableRecord
  2
INTF_92000
 70
0
 62
7
  6
CONTINUOUS
370
-3
390
F
  0
LAYER
  5
219
100
AcDbSymbolTableRecord
100
AcDbLayerTableRecord
  2
INTF_BLANK
 70
0
 62
7
  6
CONTINUOUS
370
-3
390
F
  0
LAYER
  5
21A
100
AcDbSymbolTableRecord
100
AcDbLayerTableRecord
  2
PLATED_SURFACE
 70
0
 62
7
  6
CONTINUOUS
370
-3
390
F
  0
LAYER
  5
21B
100
AcDbSymbolTableRecord
100
AcDbLayerTableRecord
  2
PLATED_SURFACE_1
 70
0
 62
7
  6
CONTINUOUS
370
-3
390
F
  0
LAYER
  5
21C
100
AcDbSymbolTableRecord
100
AcDbLayerTableRecord
  2
_BLACK_HOLE
 70
0
 62
7
  6
CONTINUOUS
370
-3
390
F
  0
ENDTAB
  0
TABLE
  2
STYLE
  5
3
100
AcDbSymbolTable
 70
1
  0
STYLE
  5
11
100
AcDbSymbolTableRecord
100
AcDbTextStyleTableRecord
  2
STANDARD
 70
0
 40
0.0
 41
0.8
 50
0.0
 71
0
 42
0.2
  3
txt
  4

  0
STYLE
  5
21D
100
AcDbSymbolTableRecord
100
AcDbTextStyleTableRecord
  2
TEXTSTYLE_1
 70
0
 40
0.0
 41
0.8
 50
0.0
 71
0
 42
0.2
  3
gdt
  4

  0
ENDTAB
  0
TABLE
  2
VIEW
  5
6
100
AcDbSymbolTable
 70
0
  0
ENDTAB
  0
TABLE
  2
UCS
  5
7
100
AcDbSymbolTable
 70
0
  0
ENDTAB
  0
TABLE
  2
APPID
  5
9
100
AcDbSymbolTable
 70
1
  0
APPID
  5
21E
100
AcDbSymbolTableRecord
100
AcDbRegAppTableRecord
  2
ACAD
 70
0
  0
ENDTAB
  0
TABLE
  2
BLOCK_RECORD
  5
1
100
AcDbSymbolTable
 70
0
  0
BLOCK_RECORD
  5
21F
100
AcDbSymbolTableRecord
100
AcDbBlockTableRecord
  2
*Model_Space
  0
BLOCK_RECORD
  5
220
100
AcDbSymbolTableRecord
100
AcDbBlockTableRecord
  2
*Paper_Space
  0
BLOCK_RECORD
  5
221
100
AcDbSymbolTableRecord
100
AcDbBlockTableRecord
  2
_FILLED
  0
ENDTAB
  0
TABLE
  2
DIMSTYLE
  5
A
100
AcDbSymbolTable
 70
1
100
AcDbDimStyleTable
 71
0
  0
DIMSTYLE
105
222
100
AcDbSymbolTableRecord
100
AcDbDimStyleTableRecord
  2
STANDARD
 70
0
  3

  4

 40
1.0
 41
0.1
 42
0.0625
 43
0.38
 44
0.125
 45
0.0
 46
0.0
 47
0.001
 48
0.001
140
0.08
141
0.09
142
0.0
143
25.4
144
1.0
145
0.0
146
1.0
147
0.09
 71
1.0
 72
0.0
 73
1
 74
1
 75
0
 76
0
 77
0
 78
4
 79
1
170
1
171
2
172
0
173
0
174
0
175
0
176
0
177
0
178
0
270
2
179
3
271
3
272
3
273
2
274
2
275
0
280
0
281
0
282
0
283
1
284
4
285
0
286
0
287
3
288
0
340
11
278
46
341
221
342
221
343
221
344
221
  0
ENDTAB
  0
ENDSEC
  0
SECTION
  2
BLOCKS
  0
BLOCK
  5
20
100
AcDbEntity
  8
0
100
AcDbBlockBegin
  2
*Model_Space
 70
0
 10
0.0
 20
0.0
 30
0.0
  3
*Model_Space
  1

  0
ENDBLK
  5
21
100
AcDbEntity
  8
0
100
AcDbBlockEnd
  0
BLOCK
  5
1C
100
AcDbEntity
  8
0
100
AcDbBlockBegin
  2
*Paper_Space
 70
0
 10
0.0
 20
0.0
 30
0.0
  3
*Paper_Space
  1

  0
ENDBLK
  5
1D
100
AcDbEntity
  8
0
100
AcDbBlockEnd
  0
BLOCK
  5
223
100
AcDbEntity
  8
0
100
AcDbBlockBegin
  2
_FILLED
 70
64
 10
0.0
 20
0.0
  3
_FILLED
  1

  0
SOLID
  5
224
100
AcDbEntity
  8
0
  6
BYBLOCK
 62
0
100
AcDbTrace
 10
0.0
 20
0.0
 11
-1.0
 21
0.2
 12
-1.0
 22
-0.2
 13
-1.0
 23
-0.2
  0
ENDBLK
  5
225
100
AcDbEntity
  8
0
  6
BYBLOCK
 62
0
100
AcDbBlockEnd
  0
ENDSEC
  0
SECTION
  2
ENTITIES
  0
MTEXT
  5
226
100
AcDbEntity
  8
0
100
AcDbMText
 62
7
  6
CONTINUOUS
  7
STANDARD
 71
1
 72
1
 10
9.5872088509
 20
0.410322205
 30
0.0
 11
1.0
 21
0.0
 31
0.0
 73
2
 44
0.9
  1
SCALE: 3.00
 40
0.08
 41
0.704
  0
LINE
  5
227
100
AcDbEntity
  8
0
100
AcDbLine
 62
7
  6
CONTINUOUS
 10
0.0
 20
0.0
 11
0.0
 21
8.5
  0
LINE
  5
228
100
AcDbEntity
  8
0
100
AcDbLine
 62
7
  6
CONTINUOUS
 10
0.0
 20
0.0
 11
11.0
 21
0.0
  0
LINE
  5
229
100
AcDbEntity
  8
0
100
AcDbLine
 62
7
  6
CONTINUOUS
 10
0.0
 20
8.5
 11
11.0
 21
8.5
  0
LINE
  5
22A
100
AcDbEntity
  8
0
100
AcDbLine
 62
7
  6
CONTINUOUS
 10
11.0
 20
0.0
 11
11.0
 21
8.5
  0
LINE
  5
22B
100
AcDbEntity
  8
0
100
AcDbLine
 62
7
  6
CONTINUOUS
 10
1.7517072985
 20
4.1407255363
 11
1.7517072982
 21
4.1407445103
  0
LINE
  5
22C
100
AcDbEntity
  8
0
100
AcDbLine
 62
9
  6
CONTINUOUS
 10
1.9803935071
 20
3.2222404055
 11
1.9804450466
 21
3.222145633
  0
LINE
  5
22D
100
AcDbEntity
  8
0
100
AcDbLine
 62
9
  6
CONTINUOUS
 10
3.1399695496
 20
5.8300156214
 11
3.1399620098
 21
5.8300017624
  0
LINE
  5
22E
100
AcDbEntity
  8
0
100
AcDbLine
 62
7
  6
CONTINUOUS
 10
3.3702072981
 20
5.0842656325
 11
3.3702072981
 21
3.1972656325
  0
LINE
  5
22F
100
AcDbEntity
  8
0
100
AcDbLine
 62
7
  6
CONTINUOUS
 10
3.4452072981
 20
3.1972656325
 11
3.4452072981
 21
5.0842656325
  0
LINE
  5
230
100
AcDbEntity
  8
0
100
AcDbLine
 62
7
  6
CONTINUOUS
 10
3.4452072981
 20
5.0842656325
 11
3.7011353022
 21
5.6331050084
  0
LINE
  5
231
100
AcDbEntity
  8
0
100
AcDbLine
 62
9
  6
CONTINUOUS
 10
1.9804450466
 20
2.4515156437
 11
1.9804525864
 21
2.4515295026
  0
LINE
  5
232
100
AcDbEntity
  8
0
100
AcDbLine
 62
7
  6
CONTINUOUS
 10
5.0907072981
 20
7.1737656325
 11
4.9456755434
 21
7.0287338778
  0
LINE
  5
233
100
AcDbEntity
  8
0
100
AcDbLine
 62
7
  6
CONTINUOUS
 10
3.6919232964
 20
2.6681814668
 11
3.4452072981
 21
3.1972656325
  0
LINE
  5
234
100
AcDbEntity
  8
0
100
AcDbLine
 62
7
  6
CONTINUOUS
 10
4.380236655
 20
2.9220156325
 11
4.3794440838
 21
2.9226871928
  0
LINE
  5
235
100
AcDbEntity
  8
0
100
AcDbLine
 62
7
  6
CONTINUOUS
 10
4.4544951469
 20
5.3588435881
 11
4.4033203456
 21
5.2702656325
  0
LINE
  5
236
100
AcDbEntity
  8
0
100
AcDbLine
 62
7
  6
CONTINUOUS
 10
4.4552366557
 20
5.3595156325
 11
4.4544438178
 21
5.3588436215
  0
LINE
  5
237
100
AcDbEntity
  8
0
100
AcDbLine
 62
7
  6
CONTINUOUS
 10
9.6057072981
 20
2.6252211759
 11
7.9182072981
 21
2.6252211759
  0
LINE
  5
238
100
AcDbEntity
  8
0
100
AcDbLine
 62
7
  6
CONTINUOUS
 10
4.2058548976
 20
2.6484262567
 11
3.7011353022
 21
2.6484262567
  0
LINE
  5
239
100
AcDbEntity
  8
0
100
AcDbLine
 62
9
  6
CONTINUOUS
 10
3.6926545288
 20
2.6685224461
 11
4.2143356709
 21
2.6685224461
  0
LINE
  5
23A
100
AcDbEntity
  8
0
100
AcDbLine
 62
7
  6
CONTINUOUS
 10
4.5302366482
 20
2.9220156325
 11
4.529440704
 21
2.9226929322
  0
LINE
  5
23B
100
AcDbEntity
  8
0
100
AcDbLine
 62
9
  6
CONTINUOUS
 10
4.4625822981
 20
3.2286059694
 11
4.5152366426
 21
3.1548274573
  0
LINE
  5
23C
100
AcDbEntity
  8
0
100
AcDbLine
 62
7
  6
CONTINUOUS
 10
4.3752072981
 20
2.9301070705
 11
4.3794938435
 21
2.9226872251
  0
LINE
  5
23D
100
AcDbEntity
  8
0
100
AcDbLine
 62
7
  6
CONTINUOUS
 10
4.4767206031
 20
3.0139964568
 11
4.5294685812
 21
2.9226929504
  0
LINE
  5
23E
100
AcDbEntity
  8
0
100
AcDbLine
 62
9
  6
CONTINUOUS
 10
3.1400210891
 20
5.0592908596
 11
3.1399695496
 21
5.059385632
  0
LINE
  5
23F
100
AcDbEntity
  8
0
100
AcDbLine
 62
7
  6
CONTINUOUS
 10
4.3002072981
 20
5.4307656325
 11
4.3002072981
 21
2.8507656325
  0
LINE
  5
240
100
AcDbEntity
  8
0
100
AcDbLine
 62
7
  6
CONTINUOUS
 10
4.3752072981
 20
5.4307644577
 11
4.3752072981
 21
2.8507668074
  0
LINE
  5
241
100
AcDbEntity
  8
0
100
AcDbLine
 62
7
  6
CONTINUOUS
 10
4.6044763297
 20
5.3588095932
 11
4.5533196925
 21
5.2702656325
  0
LINE
  5
242
100
AcDbEntity
  8
0
100
AcDbLine
 62
7
  6
CONTINUOUS
 10
5.1844572981
 20
5.803876542
 11
5.1851539766
 21
5.8046851147
  0
LINE
  5
243
100
AcDbEntity
  8
0
100
AcDbLine
 62
7
  6
CONTINUOUS
 10
5.2606707398
 20
5.8478894015
 11
5.2614207906
 21
5.8487575043
  0
LINE
  5
244
100
AcDbEntity
  8
0
100
AcDbLine
 62
7
  6
CONTINUOUS
 10
4.6052366628
 20
5.3595156325
 11
4.6044240109
 21
5.3588096281
  0
LINE
  5
245
100
AcDbEntity
  8
0
100
AcDbLine
 62
7
  6
CONTINUOUS
 10
5.2614207906
 20
5.8487575043
 11
5.1851539768
 21
5.8046848839
  0
LINE
  5
246
100
AcDbEntity
  8
0
100
AcDbLine
 62
7
  6
CONTINUOUS
 10
5.2615349302
 20
5.7237856887
 11
5.1852210624
 21
5.679679373
  0
LINE
  5
247
100
AcDbEntity
  8
0
100
AcDbLine
 62
7
  6
CONTINUOUS
 10
5.261439443
 20
5.5987243157
 11
5.1851272231
 21
5.5546244912
  0
LINE
  5
248
100
AcDbEntity
  8
0
100
AcDbLine
 62
7
  6
CONTINUOUS
 10
4.3002072981
 20
2.8507656325
 11
4.3752072981
 21
2.8507656325
  0
LINE
  5
249
100
AcDbEntity
  8
0
100
AcDbLine
 62
7
  6
CONTINUOUS
 10
4.7532072981
 20
2.9220156325
 11
4.5302511928
 21
2.9220156325
  0
LINE
  5
24A
100
AcDbEntity
  8
0
100
AcDbLine
 62
7
  6
CONTINUOUS
 10
4.4061630476
 20
2.9220156325
 11
4.3802689226
 21
2.9220156325
  0
LINE
  5
24B
100
AcDbEntity
  8
0
100
AcDbLine
 62
7
  6
CONTINUOUS
 10
7.5282072981
 20
2.9220156325
 11
7.623661316
 21
2.9220156325
  0
LINE
  5
24C
100
AcDbEntity
  8
0
100
AcDbLine
 62
7
  6
CONTINUOUS
 10
7.7477546463
 20
2.9220156325
 11
7.7903658822
 21
2.9220156325
  0
LINE
  5
24D
100
AcDbEntity
  8
0
100
AcDbLine
 62
7
  6
CONTINUOUS
 10
7.9146525435
 20
2.9220156325
 11
7.9182072981
 21
2.9220156325
  0
LINE
  5
24E
100
AcDbEntity
  8
0
100
AcDbLine
 62
7
  6
CONTINUOUS
 10
5.0532072981
 20
2.9407656325
 11
7.0032072981
 21
2.9407656325
  0
LINE
  5
24F
100
AcDbEntity
  8
0
100
AcDbLine
 62
7
  6
CONTINUOUS
 10
7.5282072981
 20
2.9707656325
 11
7.0032072981
 21
2.9707656325
  0
LINE
  5
250
100
AcDbEntity
  8
0
100
AcDbLine
 62
7
  6
CONTINUOUS
 10
5.0532072981
 20
3.0112656325
 11
4.7532072981
 21
3.0112656325
  0
LINE
  5
251
100
AcDbEntity
  8
0
100
AcDbLine
 62
7
  6
CONTINUOUS
 10
4.4782983281
 20
3.0112656325
 11
4.4588450055
 21
3.0112656325
  0
LINE
  5
252
100
AcDbEntity
  8
0
100
AcDbLine
 62
7
  6
CONTINUOUS
 10
7.6763438304
 20
3.0132432929
 11
7.6950938304
 21
3.0132432929
  0
LINE
  5
253
100
AcDbEntity
  8
0
100
AcDbLine
 62
7
  6
CONTINUOUS
 10
7.8430984798
 20
3.0133972426
 11
7.8618484798
 21
3.0133972426
  0
LINE
  5
254
100
AcDbEntity
  8
0
100
AcDbLine
 62
7
  6
CONTINUOUS
 10
4.6125822981
 20
3.2285585205
 11
4.6652366426
 21
3.1547761706
  0
LINE
  5
255
100
AcDbEntity
  8
0
100
AcDbLine
 62
7
  6
CONTINUOUS
 10
4.4591785725
 20
3.3319987704
 11
4.4592265078
 21
3.3304818381
  0
LINE
  5
256
100
AcDbEntity
  8
0
100
AcDbLine
 62
7
  6
CONTINUOUS
 10
5.1844572981
 20
5.5538565374
 11
5.1851271997
 21
5.5546494216
  0
LINE
  5
257
100
AcDbEntity
  8
0
100
AcDbLine
 62
7
  6
CONTINUOUS
 10
5.1844572981
 20
5.4288465154
 11
5.1851356161
 21
5.4296443875
  0
LINE
  5
258
100
AcDbEntity
  8
0
100
AcDbLine
 62
7
  6
CONTINUOUS
 10
5.2607711511
 20
5.7229014147
 11
5.2615349302
 21
5.7237856887
  0
LINE
  5
259
100
AcDbEntity
  8
0
100
AcDbLine
 62
7
  6
CONTINUOUS
 10
5.261439443
 20
5.5987243157
 11
5.2606706815
 21
5.5978370345
  0
LINE
  5
25A
100
AcDbEntity
  8
0
100
AcDbLine
 62
7
  6
CONTINUOUS
 10
5.2615103858
 20
5.4737201258
 11
5.1851356769
 21
5.4295801498
  0
LINE
  5
25B
100
AcDbEntity
  8
0
100
AcDbLine
 62
7
  6
CONTINUOUS
 10
4.5411779535
 20
3.1547761706
 11
4.6652366426
 21
3.1547761706
  0
LINE
  5
25C
100
AcDbEntity
  8
0
100
AcDbLine
 62
7
  6
CONTINUOUS
 10
3.3702072981
 20
3.1972656325
 11
3.4452072981
 21
3.1972656325
  0
LINE
  5
25D
100
AcDbEntity
  8
0
100
AcDbLine
 62
7
  6
CONTINUOUS
 10
4.6125822981
 20
3.2285585205
 11
4.5938322981
 21
3.2285585205
  0
LINE
  5
25E
100
AcDbEntity
  8
0
100
AcDbLine
 62
9
  6
CONTINUOUS
 10
4.2143356709
 20
3.339692134
 11
3.6926545288
 21
3.339692134
  0
LINE
  5
25F
100
AcDbEntity
  8
0
100
AcDbLine
 62
7
  6
CONTINUOUS
 10
9.6057072981
 20
3.3829934042
 11
7.9182072981
 21
3.3829934042
  0
LINE
  5
260
100
AcDbEntity
  8
0
100
AcDbLine
 62
7
  6
CONTINUOUS
 10
4.7532072981
 20
5.3594590266
 11
4.7532072981
 21
2.9220722385
  0
LINE
  5
261
100
AcDbEntity
  8
0
100
AcDbLine
 62
7
  6
CONTINUOUS
 10
4.9456755434
 20
6.0617973872
 11
4.9456755434
 21
7.0287338778
  0
LINE
  5
262
100
AcDbEntity
  8
0
100
AcDbLine
 62
7
  6
CONTINUOUS
 10
5.0532072981
 20
5.3407656325
 11
5.0532072981
 21
2.9407656325
  0
LINE
  5
263
100
AcDbEntity
  8
0
100
AcDbLine
 62
7
  6
CONTINUOUS
 10
4.2058548976
 20
2.6484262567
 11
4.3002072981
 21
2.8507656325
  0
LINE
  5
264
100
AcDbEntity
  8
0
100
AcDbLine
 62
7
  6
CONTINUOUS
 10
6.7949367771
 20
5.8001424836
 11
6.8713232734
 21
5.8442874416
  0
LINE
  5
265
100
AcDbEntity
  8
0
100
AcDbLine
 62
7
  6
CONTINUOUS
 10
6.794855114
 20
5.6750844081
 11
6.8712407161
 21
5.7192334994
  0
LINE
  5
266
100
AcDbEntity
  8
0
100
AcDbLine
 62
7
  6
CONTINUOUS
 10
6.8712872065
 20
5.469166731
 11
6.8659023466
 21
5.467574723
  0
LINE
  5
267
100
AcDbEntity
  8
0
100
AcDbLine
 62
9
  6
CONTINUOUS
 10
7.8188322981
 20
3.4536363389
 11
7.8375822981
 21
3.4536363389
  0
LINE
  5
268
100
AcDbEntity
  8
0
100
AcDbLine
 62
9
  6
CONTINUOUS
 10
3.6926545288
 20
3.4695959446
 11
4.2143356709
 21
3.4695959446
  0
LINE
  5
269
100
AcDbEntity
  8
0
100
AcDbLine
 62
7
  6
CONTINUOUS
 10
3.2872555153
 20
3.5782656325
 11
3.3702072981
 21
3.5782656325
  0
LINE
  5
26A
100
AcDbEntity
  8
0
100
AcDbLine
 62
7
  6
CONTINUOUS
 10
5.0532072981
 20
3.6437093577
 11
7.0032072981
 21
3.6437093577
  0
LINE
  5
26B
100
AcDbEntity
  8
0
100
AcDbLine
 62
7
  6
CONTINUOUS
 10
4.3847228072
 20
5.2675063938
 11
4.3752072981
 21
5.2839760914
  0
LINE
  5
26C
100
AcDbEntity
  8
0
100
AcDbLine
 62
7
  6
CONTINUOUS
 10
4.3002072981
 20
5.4307656325
 11
4.2150669034
 21
5.6133497982
  0
LINE
  5
26D
100
AcDbEntity
  8
0
100
AcDbLine
 62
7
  6
CONTINUOUS
 10
5.1844572981
 20
5.9167656325
 11
5.1844572981
 21
5.907494723
  0
LINE
  5
26E
100
AcDbEntity
  8
0
100
AcDbLine
 62
7
  6
CONTINUOUS
 10
5.1844572981
 20
5.803876542
 11
5.1844572981
 21
5.782484723
  0
LINE
  5
26F
100
AcDbEntity
  8
0
100
AcDbLine
 62
7
  6
CONTINUOUS
 10
5.1844572981
 20
5.3407656325
 11
5.1844572981
 21
5.4287987553
  0
LINE
  5
270
100
AcDbEntity
  8
0
100
AcDbLine
 62
7
  6
CONTINUOUS
 10
5.1844572981
 20
5.5325134383
 11
5.1844572981
 21
5.5538482032
  0
LINE
  5
271
100
AcDbEntity
  8
0
100
AcDbLine
 62
7
  6
CONTINUOUS
 10
5.1844572981
 20
5.6574836118
 11
5.1844572981
 21
5.6787917975
  0
LINE
  5
272
100
AcDbEntity
  8
0
100
AcDbLine
 62
7
  6
CONTINUOUS
 10
5.2606706817
 20
5.6134675474
 11
5.2606706815
 21
5.5978370345
  0
LINE
  5
273
100
AcDbEntity
  8
0
100
AcDbLine
 62
7
  6
CONTINUOUS
 10
5.2606707398
 20
5.8635194015
 11
5.2606707398
 21
5.8478894015
  0
LINE
  5
274
100
AcDbEntity
  8
0
100
AcDbLine
 62
7
  6
CONTINUOUS
 10
5.2607329719
 20
5.4884522156
 11
5.2607329719
 21
5.4728222155
  0
LINE
  5
275
100
AcDbEntity
  8
0
100
AcDbLine
 62
7
  6
CONTINUOUS
 10
5.2607711511
 20
5.7385314147
 11
5.2607711511
 21
5.7229014147
  0
LINE
  5
276
100
AcDbEntity
  8
0
100
AcDbLine
 62
7
  6
CONTINUOUS
 10
4.406991928
 20
2.9227306708
 11
4.4581401812
 21
3.0112656325
  0
LINE
  5
277
100
AcDbEntity
  8
0
100
AcDbLine
 62
9
  6
CONTINUOUS
 10
4.3911779535
 20
3.1548274573
 11
4.4438322981
 21
3.2286059694
  0
LINE
  5
278
100
AcDbEntity
  8
0
100
AcDbLine
 62
7
  6
CONTINUOUS
 10
6.7948868309
 20
5.5500921005
 11
6.8712720812
 21
5.5942391633
  0
LINE
  5
279
100
AcDbEntity
  8
0
100
AcDbLine
 62
7
  6
CONTINUOUS
 10
4.5347156857
 20
5.2674694448
 11
4.4819485509
 21
5.3588008336
  0
LINE
  5
27A
100
AcDbEntity
  8
0
100
AcDbLine
 62
7
  6
CONTINUOUS
 10
5.4869414207
 20
6.0617973872
 11
5.4869414207
 21
7.0287338778
  0
LINE
  5
27B
100
AcDbEntity
  8
0
100
AcDbLine
 62
7
  6
CONTINUOUS
 10
5.5762583934
 20
5.6857656325
 11
5.5762583934
 21
5.6774806503
  0
LINE
  5
27C
100
AcDbEntity
  8
0
100
AcDbLine
 62
7
  6
CONTINUOUS
 10
5.5762583934
 20
5.5738624692
 11
5.5762583934
 21
5.5524706503
  0
LINE
  5
27D
100
AcDbEntity
  8
0
100
AcDbLine
 62
7
  6
CONTINUOUS
 10
5.5762583934
 20
5.4488524692
 11
5.5762583934
 21
5.1253219074
  0
LINE
  5
27E
100
AcDbEntity
  8
0
100
AcDbLine
 62
7
  6
CONTINUOUS
 10
4.5411779535
 20
3.1547761706
 11
4.5938322981
 21
3.2285585205
  0
LINE
  5
27F
100
AcDbEntity
  8
0
100
AcDbLine
 62
7
  6
CONTINUOUS
 10
6.8719572981
 20
5.844989723
 11
6.8713233365
 21
5.8442184082
  0
LINE
  5
280
100
AcDbEntity
  8
0
100
AcDbLine
 62
7
  6
CONTINUOUS
 10
6.7956349612
 20
5.675985948
 11
6.794855114
 21
5.6750844081
  0
LINE
  5
281
100
AcDbEntity
  8
0
100
AcDbLine
 62
7
  6
CONTINUOUS
 10
6.7949367771
 20
5.8001424836
 11
6.7957042635
 21
5.8010280862
  0
LINE
  5
282
100
AcDbEntity
  8
0
100
AcDbLine
 62
7
  6
CONTINUOUS
 10
6.8719572981
 20
5.719979723
 11
6.8712407877
 21
5.7191597209
  0
LINE
  5
283
100
AcDbEntity
  8
0
100
AcDbLine
 62
7
  6
CONTINUOUS
 10
7.1107390528
 20
6.0617973872
 11
6.9657072981
 21
5.9167656325
  0
LINE
  5
284
100
AcDbEntity
  8
0
100
AcDbLine
 62
7
  6
CONTINUOUS
 10
4.4811779334
 20
5.3595156325
 11
4.4819956134
 21
5.3588008652
  0
LINE
  5
285
100
AcDbEntity
  8
0
100
AcDbLine
 62
7
  6
CONTINUOUS
 10
5.7427659687
 20
5.6371519714
 11
5.7427659687
 21
5.6215219714
  0
LINE
  5
286
100
AcDbEntity
  8
0
100
AcDbLine
 62
7
  6
CONTINUOUS
 10
5.7427659687
 20
5.5121419714
 11
5.7427659687
 21
5.4965119714
  0
LINE
  5
287
100
AcDbEntity
  8
0
100
AcDbLine
 62
7
  6
CONTINUOUS
 10
6.8719572981
 20
5.4699597319
 11
6.8712872065
 21
5.469166731
  0
LINE
  5
288
100
AcDbEntity
  8
0
100
AcDbLine
 62
7
  6
CONTINUOUS
 10
6.8719572981
 20
5.5949697552
 11
6.8712721489
 21
5.5941678697
  0
LINE
  5
289
100
AcDbEntity
  8
0
100
AcDbLine
 62
7
  6
CONTINUOUS
 10
4.4061779478
 20
2.9220156325
 11
4.4069957669
 21
2.9227306683
  0
LINE
  5
28A
100
AcDbEntity
  8
0
100
AcDbLine
 62
7
  6
CONTINUOUS
 10
7.0032072981
 20
4.6378219074
 11
5.0532072981
 21
4.6378219074
  0
LINE
  5
28B
100
AcDbEntity
  8
0
100
AcDbLine
 62
7
  6
CONTINUOUS
 10
7.7477374807
 20
2.9220156325
 11
7.7467449305
 21
2.9228673577
  0
LINE
  5
28C
100
AcDbEntity
  8
0
100
AcDbLine
 62
7
  6
CONTINUOUS
 10
7.6950938304
 20
3.0132432929
 11
7.6940092152
 21
3.0141824279
  0
LINE
  5
28D
100
AcDbEntity
  8
0
100
AcDbLine
 62
7
  6
CONTINUOUS
 10
6.3136486274
 20
5.5116742936
 11
6.3136486274
 21
5.5273042936
  0
LINE
  5
28E
100
AcDbEntity
  8
0
100
AcDbLine
 62
7
  6
CONTINUOUS
 10
6.3136486274
 20
5.6366842936
 11
6.3136486274
 21
5.6523142936
  0
LINE
  5
28F
100
AcDbEntity
  8
0
100
AcDbLine
 62
7
  6
CONTINUOUS
 10
7.778474428
 20
5.268273461
 11
7.7773903933
 21
5.2673358929
  0
LINE
  5
290
100
AcDbEntity
  8
0
100
AcDbLine
 62
7
  6
CONTINUOUS
 10
3.2872555136
 20
4.7032656325
 11
3.3702072981
 21
4.7032656325
  0
LINE
  5
291
100
AcDbEntity
  8
0
100
AcDbLine
 62
9
  6
CONTINUOUS
 10
4.2143356709
 20
4.8119353205
 11
3.6926545288
 21
4.8119353205
  0
LINE
  5
292
100
AcDbEntity
  8
0
100
AcDbLine
 62
7
  6
CONTINUOUS
 10
9.6057072981
 20
4.8985378608
 11
7.9182072981
 21
4.8985378608
  0
LINE
  5
293
100
AcDbEntity
  8
0
100
AcDbLine
 62
9
  6
CONTINUOUS
 10
3.6926545288
 20
4.941839131
 11
4.2143356709
 21
4.941839131
  0
LINE
  5
294
100
AcDbEntity
  8
0
100
AcDbLine
 62
7
  6
CONTINUOUS
 10
7.8618484798
 20
3.0133972426
 11
7.8607643161
 21
3.0143344264
  0
LINE
  5
295
100
AcDbEntity
  8
0
100
AcDbLine
 62
7
  6
CONTINUOUS
 10
5.1844572981
 20
5.5324647501
 11
5.1851945399
 21
5.5316329409
  0
LINE
  5
296
100
AcDbEntity
  8
0
100
AcDbLine
 62
7
  6
CONTINUOUS
 10
5.1844572981
 20
5.657474728
 11
5.1851636286
 21
5.6566605677
  0
LINE
  5
297
100
AcDbEntity
  8
0
100
AcDbLine
 62
7
  6
CONTINUOUS
 10
5.2615442258
 20
5.7376390758
 11
5.2607711511
 21
5.7385314147
  0
LINE
  5
298
100
AcDbEntity
  8
0
100
AcDbLine
 62
7
  6
CONTINUOUS
 10
5.2606706817
 20
5.6134675474
 11
5.2614304833
 21
5.6125875257
  0
LINE
  5
299
100
AcDbEntity
  8
0
100
AcDbLine
 62
7
  6
CONTINUOUS
 10
6.4801562028
 20
5.1253219074
 11
6.4801562028
 21
5.4713456148
  0
LINE
  5
29A
100
AcDbEntity
  8
0
100
AcDbLine
 62
7
  6
CONTINUOUS
 10
6.4801562028
 20
5.5749637958
 11
6.4801562028
 21
5.5963556148
  0
LINE
  5
29B
100
AcDbEntity
  8
0
100
AcDbLine
 62
7
  6
CONTINUOUS
 10
6.5694731755
 20
6.0617973872
 11
6.5694731755
 21
7.0287338778
  0
LINE
  5
29C
100
AcDbEntity
  8
0
100
AcDbLine
 62
7
  6
CONTINUOUS
 10
5.0532072981
 20
5.0407656325
 11
7.0032072981
 21
5.0407656325
  0
LINE
  5
29D
100
AcDbEntity
  8
0
100
AcDbLine
 62
7
  6
CONTINUOUS
 10
3.4452072981
 20
5.0842656325
 11
3.3702072981
 21
5.0842656325
  0
LINE
  5
29E
100
AcDbEntity
  8
0
100
AcDbLine
 62
7
  6
CONTINUOUS
 10
5.0532072981
 20
5.1253219074
 11
5.5762583934
 21
5.1253219074
  0
LINE
  5
29F
100
AcDbEntity
  8
0
100
AcDbLine
 62
7
  6
CONTINUOUS
 10
6.4801562028
 20
5.1253219074
 11
7.0032072981
 21
5.1253219074
  0
LINE
  5
2A0
100
AcDbEntity
  8
0
100
AcDbLine
 62
7
  6
CONTINUOUS
 10
7.778474428
 20
5.268273461
 11
7.759724428
 21
5.268273461
  0
LINE
  5
2A1
100
AcDbEntity
  8
0
100
AcDbLine
 62
7
  6
CONTINUOUS
 10
7.6116723677
 20
5.2682905554
 11
7.5929223677
 21
5.2682905554
  0
LINE
  5
2A2
100
AcDbEntity
  8
0
100
AcDbLine
 62
7
  6
CONTINUOUS
 10
5.0532072981
 20
5.2702656325
 11
4.7532072981
 21
5.2702656325
  0
LINE
  5
2A3
100
AcDbEntity
  8
0
100
AcDbLine
 62
7
  6
CONTINUOUS
 10
4.5525849838
 20
5.2702656325
 11
4.5331001046
 21
5.2702656325
  0
LINE
  5
2A4
100
AcDbEntity
  8
0
100
AcDbLine
 62
7
  6
CONTINUOUS
 10
4.4017233602
 20
5.2702656325
 11
4.3838501823
 21
5.2702656325
  0
LINE
  5
2A5
100
AcDbEntity
  8
0
100
AcDbLine
 62
7
  6
CONTINUOUS
 10
7.0032072981
 20
5.3107656325
 11
7.5282072981
 21
5.3107656325
  0
LINE
  5
2A6
100
AcDbEntity
  8
0
100
AcDbLine
 62
7
  6
CONTINUOUS
 10
5.1851945681
 20
5.5316615127
 11
5.2615051119
 21
5.4875588807
  0
LINE
  5
2A7
100
AcDbEntity
  8
0
100
AcDbLine
 62
7
  6
CONTINUOUS
 10
5.1851636288
 20
5.6566606888
 11
5.2614304833
 21
5.6125875257
  0
LINE
  5
2A8
100
AcDbEntity
  8
0
100
AcDbLine
 62
7
  6
CONTINUOUS
 10
4.9456755434
 20
6.0617973872
 11
5.0907072981
 21
5.9167656325
  0
LINE
  5
2A9
100
AcDbEntity
  8
0
100
AcDbLine
 62
9
  6
CONTINUOUS
 10
7.8902366426
 20
3.3979974397
 11
7.8375822981
 21
3.4535793549
  0
LINE
  5
2AA
100
AcDbEntity
  8
0
100
AcDbLine
 62
7
  6
CONTINUOUS
 10
6.7956349612
 20
5.660355948
 11
6.7956349612
 21
5.675985948
  0
LINE
  5
2AB
100
AcDbEntity
  8
0
100
AcDbLine
 62
7
  6
CONTINUOUS
 10
6.7956655762
 20
5.5353617264
 11
6.7956655761
 21
5.5509914818
  0
LINE
  5
2AC
100
AcDbEntity
  8
0
100
AcDbLine
 62
7
  6
CONTINUOUS
 10
6.7957042635
 20
5.7853980862
 11
6.7957042635
 21
5.8010280862
  0
LINE
  5
2AD
100
AcDbEntity
  8
0
100
AcDbLine
 62
7
  6
CONTINUOUS
 10
6.7957571192
 20
5.9103732485
 11
6.7957571192
 21
5.9167656325
  0
LINE
  5
2AE
100
AcDbEntity
  8
0
100
AcDbLine
 62
7
  6
CONTINUOUS
 10
6.8659023466
 20
5.467574723
 11
6.8659023466
 21
5.363956542
  0
LINE
  5
2AF
100
AcDbEntity
  8
0
100
AcDbLine
 62
7
  6
CONTINUOUS
 10
6.8719572981
 20
5.3407656325
 11
6.8719572981
 21
5.363956542
  0
LINE
  5
2B0
100
AcDbEntity
  8
0
100
AcDbLine
 62
7
  6
CONTINUOUS
 10
6.8719572981
 20
5.4699756151
 11
6.8719572981
 21
5.4912927361
  0
LINE
  5
2B1
100
AcDbEntity
  8
0
100
AcDbLine
 62
7
  6
CONTINUOUS
 10
6.8719572981
 20
5.5950276905
 11
6.8719572981
 21
5.6162838783
  0
LINE
  5
2B2
100
AcDbEntity
  8
0
100
AcDbLine
 62
7
  6
CONTINUOUS
 10
6.8719572981
 20
5.719979723
 11
6.8719572981
 21
5.741371542
  0
LINE
  5
2B3
100
AcDbEntity
  8
0
100
AcDbLine
 62
7
  6
CONTINUOUS
 10
6.8719572981
 20
5.844989723
 11
6.8719572981
 21
5.866381542
  0
LINE
  5
2B4
100
AcDbEntity
  8
0
100
AcDbLine
 62
7
  6
CONTINUOUS
 10
7.0032072981
 20
2.9407656325
 11
7.0032072981
 21
5.3407656325
  0
LINE
  5
2B5
100
AcDbEntity
  8
0
100
AcDbLine
 62
7
  6
CONTINUOUS
 10
7.6633331407
 20
5.3586339566
 11
7.6112674375
 21
5.2685245389
  0
LINE
  5
2B6
100
AcDbEntity
  8
0
100
AcDbLine
 62
7
  6
CONTINUOUS
 10
5.0532072981
 20
5.3407656325
 11
5.3464088512
 21
5.3407656325
  0
LINE
  5
2B7
100
AcDbEntity
  8
0
100
AcDbLine
 62
7
  6
CONTINUOUS
 10
6.710005745
 20
5.3407656325
 11
7.0032072981
 21
5.3407656325
  0
LINE
  5
2B8
100
AcDbEntity
  8
0
100
AcDbLine
 62
7
  6
CONTINUOUS
 10
4.7532072981
 20
5.3595156325
 11
4.6052890976
 21
5.3595156325
  0
LINE
  5
2B9
100
AcDbEntity
  8
0
100
AcDbLine
 62
7
  6
CONTINUOUS
 10
4.4811253956
 20
5.3595156325
 11
4.4552706062
 21
5.3595156325
  0
LINE
  5
2BA
100
AcDbEntity
  8
0
100
AcDbLine
 62
7
  6
CONTINUOUS
 10
7.5282072981
 20
5.3595156325
 11
7.5402632197
 21
5.3595156325
  0
LINE
  5
2BB
100
AcDbEntity
  8
0
100
AcDbLine
 62
7
  6
CONTINUOUS
 10
7.6643533269
 20
5.3595156325
 11
7.7070525551
 21
5.3595156325
  0
LINE
  5
2BC
100
AcDbEntity
  8
0
100
AcDbLine
 62
7
  6
CONTINUOUS
 10
7.8311639578
 20
5.3595156325
 11
7.8738774807
 21
5.3595156325
  0
LINE
  5
2BD
100
AcDbEntity
  8
0
100
AcDbLine
 62
7
  6
CONTINUOUS
 10
4.3002072981
 20
5.4307656325
 11
4.3752072981
 21
5.4307656325
  0
LINE
  5
2BE
100
AcDbEntity
  8
0
100
AcDbLine
 62
9
  6
CONTINUOUS
 10
4.2143356709
 20
5.613008819
 11
3.6926545288
 21
5.613008819
  0
LINE
  5
2BF
100
AcDbEntity
  8
0
100
AcDbLine
 62
7
  6
CONTINUOUS
 10
4.2058548976
 20
5.6331050084
 11
3.7011353022
 21
5.6331050084
  0
LINE
  5
2C0
100
AcDbEntity
  8
0
100
AcDbLine
 62
7
  6
CONTINUOUS
 10
9.6057072981
 20
5.6563100891
 11
7.9182072981
 21
5.6563100891
  0
LINE
  5
2C1
100
AcDbEntity
  8
0
100
AcDbLine
 62
7
  6
CONTINUOUS
 10
5.1850876551
 20
5.7818283268
 11
5.2615442258
 21
5.7376390758
  0
LINE
  5
2C2
100
AcDbEntity
  8
0
100
AcDbLine
 62
7
  6
CONTINUOUS
 10
5.1851027891
 20
5.9067506498
 11
5.2614317039
 21
5.8626415868
  0
LINE
  5
2C3
100
AcDbEntity
  8
0
100
AcDbLine
 62
7
  6
CONTINUOUS
 10
7.6940092152
 20
3.0141824279
 11
7.7467719341
 21
2.9228673797
  0
LINE
  5
2C4
100
AcDbEntity
  8
0
100
AcDbLine
 62
7
  6
CONTINUOUS
 10
7.8607643161
 20
3.0143344264
 11
7.9135748956
 21
2.9229489009
  0
LINE
  5
2C5
100
AcDbEntity
  8
0
100
AcDbLine
 62
7
  6
CONTINUOUS
 10
7.1107390528
 20
6.0617973872
 11
7.1107390528
 21
7.0287338778
  0
LINE
  5
2C6
100
AcDbEntity
  8
0
100
AcDbLine
 62
7
  6
CONTINUOUS
 10
7.8301417828
 20
5.3586302623
 11
7.7780679056
 21
5.2685083689
  0
LINE
  5
2C7
100
AcDbEntity
  8
0
100
AcDbLine
 62
7
  6
CONTINUOUS
 10
6.4355519886
 20
5.6857656325
 11
5.5762583934
 21
5.6857656325
  0
LINE
  5
2C8
100
AcDbEntity
  8
0
100
AcDbLine
 62
7
  6
CONTINUOUS
 10
6.9656658669
 20
5.9167656325
 11
5.0907487293
 21
5.9167656325
  0
LINE
  5
2C9
100
AcDbEntity
  8
0
100
AcDbLine
 62
7
  6
CONTINUOUS
 10
6.8712387845
 20
5.3671596442
 11
6.8659023466
 21
5.3702433138
  0
LINE
  5
2CA
100
AcDbEntity
  8
0
100
AcDbLine
 62
7
  6
CONTINUOUS
 10
6.8712199416
 20
5.492143412
 11
6.7948910413
 21
5.5362576993
  0
LINE
  5
2CB
100
AcDbEntity
  8
0
100
AcDbLine
 62
7
  6
CONTINUOUS
 10
7.5282072981
 20
5.3594946093
 11
7.5282072981
 21
2.9220762932
  0
LINE
  5
2CC
100
AcDbEntity
  8
0
100
AcDbLine
 62
7
  6
CONTINUOUS
 10
6.8712942691
 20
5.8671573319
 11
6.7950019864
 21
5.9112441589
  0
LINE
  5
2CD
100
AcDbEntity
  8
0
100
AcDbLine
 62
7
  6
CONTINUOUS
 10
6.8712396769
 20
5.6171089799
 11
6.7948551861
 21
5.6612574254
  0
LINE
  5
2CE
100
AcDbEntity
  8
0
100
AcDbLine
 62
7
  6
CONTINUOUS
 10
6.8712219861
 20
5.7421947137
 11
6.7949474078
 21
5.7862744667
  0
LINE
  5
2CF
100
AcDbEntity
  8
0
100
AcDbLine
 62
7
  6
CONTINUOUS
 10
7.594006481
 20
5.2673518173
 11
7.5929223677
 21
5.2682905554
  0
LINE
  5
2D0
100
AcDbEntity
  8
0
100
AcDbLine
 62
7
  6
CONTINUOUS
 10
6.8719572981
 20
5.4913515093
 11
6.8712199809
 21
5.4921833667
  0
LINE
  5
2D1
100
AcDbEntity
  8
0
100
AcDbLine
 62
7
  6
CONTINUOUS
 10
6.8719572981
 20
5.6163614988
 11
6.8712397481
 21
5.6171821389
  0
LINE
  5
2D2
100
AcDbEntity
  8
0
100
AcDbLine
 62
7
  6
CONTINUOUS
 10
6.7957571192
 20
5.9103732485
 11
6.7950019864
 21
5.9112441589
  0
LINE
  5
2D3
100
AcDbEntity
  8
0
100
AcDbLine
 62
7
  6
CONTINUOUS
 10
7.9154285927
 20
4.147692925
 11
7.9182068723
 21
4.0202867144
  0
LINE
  5
2D4
100
AcDbEntity
  8
0
100
AcDbLine
 62
7
  6
CONTINUOUS
 10
7.9182072981
 20
2.6252211759
 11
7.9182072981
 21
5.6563100891
  0
LINE
  5
2D5
100
AcDbEntity
  8
0
100
AcDbLine
 62
9
  6
CONTINUOUS
 10
7.8188322981
 20
3.4535793549
 11
7.7661779535
 21
3.3979974397
  0
LINE
  5
2D6
100
AcDbEntity
  8
0
100
AcDbLine
 62
7
  6
CONTINUOUS
 10
7.6774240645
 20
3.0141773762
 11
7.6763438304
 21
3.0132432929
  0
LINE
  5
2D7
100
AcDbEntity
  8
0
100
AcDbLine
 62
7
  6
CONTINUOUS
 10
7.8738787828
 20
5.3595156325
 11
7.8748644936
 21
5.3586755908
  0
LINE
  5
2D8
100
AcDbEntity
  8
0
100
AcDbLine
 62
7
  6
CONTINUOUS
 10
7.707078771
 20
5.3595156325
 11
7.7080755794
 21
5.3586565917
  0
LINE
  5
2D9
100
AcDbEntity
  8
0
100
AcDbLine
 62
7
  6
CONTINUOUS
 10
7.594006481
 20
5.2673518173
 11
7.5412450915
 21
5.3586648042
  0
LINE
  5
2DA
100
AcDbEntity
  8
0
100
AcDbLine
 62
7
  6
CONTINUOUS
 10
7.7608113667
 20
5.2673325446
 11
7.7080427058
 21
5.3586565648
  0
LINE
  5
2DB
100
AcDbEntity
  8
0
100
AcDbLine
 62
7
  6
CONTINUOUS
 10
7.6246824003
 20
2.9228984043
 11
7.6767490223
 21
3.0130091573
  0
LINE
  5
2DC
100
AcDbEntity
  8
0
100
AcDbLine
 62
7
  6
CONTINUOUS
 10
7.791306726
 20
2.9228330789
 11
7.843506579
 21
3.0131613928
  0
LINE
  5
2DD
100
AcDbEntity
  8
0
100
AcDbLine
 62
7
  6
CONTINUOUS
 10
7.6236787751
 20
2.9220156325
 11
7.6246892522
 21
2.9228983987
  0
LINE
  5
2DE
100
AcDbEntity
  8
0
100
AcDbLine
 62
7
  6
CONTINUOUS
 10
7.7904787299
 20
2.9220156325
 11
7.7914510765
 21
2.9228329638
  0
LINE
  5
2DF
100
AcDbEntity
  8
0
100
AcDbLine
 62
7
  6
CONTINUOUS
 10
7.9182072981
 20
5.2836501927
 11
7.8748591384
 21
5.3586755865
  0
LINE
  5
2E0
100
AcDbEntity
  8
0
100
AcDbLine
 62
7
  6
CONTINUOUS
 10
6.9656658669
 20
7.1737656325
 11
5.0907487293
 21
7.1737656325
  0
LINE
  5
2E1
100
AcDbEntity
  8
0
100
AcDbLine
 62
7
  6
CONTINUOUS
 10
6.9657072981
 20
7.1737656325
 11
7.1107390528
 21
7.0287338778
  0
LINE
  5
2E2
100
AcDbEntity
  8
0
100
AcDbLine
 62
7
  6
CONTINUOUS
 10
9.6057072981
 20
2.6252211759
 11
9.6057072981
 21
5.6563100891
  0
ARC
  5
2E3
100
AcDbEntity
  8
0
100
AcDbCircle
 62
7
  6
CONTINUOUS
 10
-113.5040227067
 20
1.7205304045
 40
121.2767259994
100
AcDbArc
 50
1.2441197735
 51
1.4733098083
  0
ARC
  5
2E4
100
AcDbEntity
  8
0
100
AcDbCircle
 62
7
  6
CONTINUOUS
 10
-104.0232683989
 20
1.9428222557
 40
111.9173982673
100
AcDbArc
 50
1.2343496482
 51
1.4827061847
  0
ARC
  5
2E5
100
AcDbEntity
  8
0
100
AcDbCircle
 62
7
  6
CONTINUOUS
 10
-97.4684112386
 20
2.1017464387
 40
105.1938744939
100
AcDbArc
 50
1.2266748816
 51
1.4909052757
  0
ARC
  5
2E6
100
AcDbEntity
  8
0
100
AcDbCircle
 62
7
  6
CONTINUOUS
 10
-29.3083592613
 20
4.0622315415
 40
33.9453714514
100
AcDbArc
 50
1.5010388374
 51
1.6276068397
  0
ARC
  5
2E7
100
AcDbEntity
  8
0
100
AcDbCircle
 62
7
  6
CONTINUOUS
 10
-16.5096131154
 20
4.311941463
 40
21.0714964849
100
AcDbArc
 50
1.7382576817
 51
1.8817857702
  0
ARC
  5
2E8
100
AcDbEntity
  8
0
100
AcDbCircle
 62
7
  6
CONTINUOUS
 10
-16.5724909136
 20
4.3139965174
 40
20.9843508732
100
AcDbArc
 50
1.7410104739
 51
1.9441911631
  0
ARC
  5
2E9
100
AcDbEntity
  8
0
100
AcDbCircle
 62
7
  6
CONTINUOUS
 10
28.5909315577
 20
3.9462066882
 40
24.2126916465
100
AcDbArc
 50
181.6422045925
 51
181.8731377589
  0
ARC
  5
2EA
100
AcDbEntity
  8
0
100
AcDbCircle
 62
7
  6
CONTINUOUS
 10
26.5666147934
 20
4.0035249071
 40
22.1176321431
100
AcDbArc
 50
181.7438775266
 51
181.8794022746
  0
ARC
  5
2EB
100
AcDbEntity
  8
0
100
AcDbCircle
 62
7
  6
CONTINUOUS
 10
25.6889323965
 20
3.9706736385
 40
21.0894253432
100
AcDbArc
 50
181.7420392625
 51
181.8849125007
  0
ARC
  5
2EC
100
AcDbEntity
  8
0
100
AcDbCircle
 62
7
  6
CONTINUOUS
 10
23.1112862636
 20
3.7759738496
 40
18.5804953971
100
AcDbArc
 50
181.6149789514
 51
181.9159144212
  0
ARC
  5
2ED
100
AcDbEntity
  8
0
100
AcDbCircle
 62
7
  6
CONTINUOUS
 10
-0.838303491
 20
0.7445796901
 40
4.9225132103
100
AcDbArc
 50
22.7532405939
 51
23.0071269405
  0
ARC
  5
2EE
100
AcDbEntity
  8
0
100
AcDbCircle
 62
7
  6
CONTINUOUS
 10
8.7267442719
 20
0.7524077123
 40
4.9023797339
100
AcDbArc
 50
156.9923517184
 51
157.2472807471
  0
ARC
  5
2EF
100
AcDbEntity
  8
0
100
AcDbCircle
 62
7
  6
CONTINUOUS
 10
3.7345502428
 20
4.1400213805
 40
1.9828358097
100
AcDbArc
 50
179.9791046077
 51
193.0564118077
  0
ARC
  5
2F0
100
AcDbEntity
  8
0
100
AcDbCircle
 62
7
  6
CONTINUOUS
 10
3.7345496718
 20
4.1415099237
 40
1.9828352393
100
AcDbArc
 50
166.9435773958
 51
180.0215031116
  0
ARC
  5
2F1
100
AcDbEntity
  8
0
100
AcDbCircle
 62
7
  6
CONTINUOUS
 10
3.0733598421
 20
2.8550867887
 40
1.2396242102
100
AcDbArc
 50
22.1248331851
 51
23.0123315344
  0
ARC
  5
2F2
100
AcDbEntity
  8
0
100
AcDbCircle
 62
7
  6
CONTINUOUS
 10
3.2000754554
 20
2.905317177
 40
1.1033218245
100
AcDbArc
 50
18.9477870313
 51
22.1867689566
  0
ARC
  5
2F3
100
AcDbEntity
  8
0
100
AcDbCircle
 62
7
  6
CONTINUOUS
 10
3.2760702508
 20
2.9317984121
 40
1.0228462581
100
AcDbArc
 50
18.5233587151
 51
18.9270414381
  0
ARC
  5
2F4
100
AcDbEntity
  8
0
100
AcDbCircle
 62
7
  6
CONTINUOUS
 10
2.5602072981
 20
2.1361179079
 40
0.66
100
AcDbArc
 50
151.4532700444
 51
28.5467299556
  0
ARC
  5
2F5
100
AcDbEntity
  8
0
100
AcDbCircle
 62
7
  6
CONTINUOUS
 10
89.5141343898
 20
5.4825601318
 40
85.1553065972
100
AcDbArc
 50
181.1243718832
 51
181.4483535782
  0
ARC
  5
2F6
100
AcDbEntity
  8
0
100
AcDbCircle
 62
7
  6
CONTINUOUS
 10
40.2297736506
 20
4.2633090862
 40
35.7059183317
100
AcDbArc
 50
181.4975104301
 51
181.6172706402
  0
ARC
  5
2F7
100
AcDbEntity
  8
0
100
AcDbCircle
 62
7
  6
CONTINUOUS
 10
36.8013549139
 20
4.1810177909
 40
32.4264722638
100
AcDbArc
 50
181.5035416433
 51
181.634751439
  0
ARC
  5
2F8
100
AcDbEntity
  8
0
100
AcDbCircle
 62
7
  6
CONTINUOUS
 10
-0.8795860041
 20
7.5543731681
 40
4.9673211117
100
AcDbArc
 50
336.9940181569
 51
337.2456143088
  0
ARC
  5
2F9
100
AcDbEntity
  8
0
100
AcDbCircle
 62
7
  6
CONTINUOUS
 10
8.7816298767
 20
7.5522857734
 40
4.9619523847
100
AcDbArc
 50
202.7542495803
 51
203.0061179543
  0
ARC
  5
2FA
100
AcDbEntity
  8
0
100
AcDbCircle
 62
7
  6
CONTINUOUS
 10
2.7106115624
 20
4.8911672474
 40
4.9014287007
100
AcDbArc
 50
2.8799007735
 51
3.1606851941
  0
ARC
  5
2FB
100
AcDbEntity
  8
0
100
AcDbCircle
 62
7
  6
CONTINUOUS
 10
5.8517138276
 20
7.573589516
 40
1.9760350648
100
AcDbArc
 50
283.5190996246
 51
287.1850165148
  0
ARC
  5
2FC
100
AcDbEntity
  8
0
100
AcDbCircle
 62
7
  6
CONTINUOUS
 10
1.4746835771
 20
4.1638577123
 40
1.8911884428
100
AcDbArc
 50
14.9774746437
 51
23.496840651
  0
ARC
  5
2FD
100
AcDbEntity
  8
0
100
AcDbCircle
 62
7
  6
CONTINUOUS
 10
1.5557433614
 20
4.1983228072
 40
1.8031089273
100
AcDbArc
 50
23.5194364549
 51
28.5250822018
  0
ARC
  5
2FE
100
AcDbEntity
  8
0
100
AcDbCircle
 62
7
  6
CONTINUOUS
 10
3.2731836057
 20
5.35071116
 40
1.0258941534
100
AcDbArc
 50
341.072491535
 51
341.4779323357
  0
ARC
  5
2FF
100
AcDbEntity
  8
0
100
AcDbCircle
 62
7
  6
CONTINUOUS
 10
2.5602072981
 20
6.1454133572
 40
0.66
100
AcDbArc
 50
331.4532700444
 51
208.5467299556
  0
ARC
  5
300
100
AcDbEntity
  8
0
100
AcDbCircle
 62
7
  6
CONTINUOUS
 10
5.2198528838
 20
6.1749435496
 40
0.2584574405
100
AcDbArc
 50
254.9785306086
 51
259.8359963258
  0
ARC
  5
301
100
AcDbEntity
  8
0
100
AcDbCircle
 62
7
  6
CONTINUOUS
 10
6.8371119418
 20
6.1724815649
 40
0.2559370119
100
AcDbArc
 50
280.1435501829
 51
285.0499911661
  0
ARC
  5
302
100
AcDbEntity
  8
0
100
AcDbCircle
 62
7
  6
CONTINUOUS
 10
5.2173467686
 20
6.1615863072
 40
0.2448675973
100
AcDbArc
 50
259.8616603912
 51
264.85568057
  0
ARC
  5
303
100
AcDbEntity
  8
0
100
AcDbCircle
 62
7
  6
CONTINUOUS
 10
6.8398526795
 20
6.1557443519
 40
0.2389788538
100
AcDbArc
 50
270.0607615969
 51
280.2034344298
  0
ARC
  5
304
100
AcDbEntity
  8
0
100
AcDbCircle
 62
7
  6
CONTINUOUS
 10
5.2163895591
 20
6.1519281218
 40
0.2351625033
100
AcDbArc
 50
264.8769641146
 51
269.9802461248
  0
SPLINE
  5
305
100
AcDbEntity
  8
0
100
AcDbSpline
 62
7
  6
CONTINUOUS
 70
0
 71
3
 72
23
 73
19
 74
0
 42
0.0000001
 43
0.0000001
 44
0.0000000001
 40
0.0
 40
0.0
 40
0.0
 40
0.0
 40
0.0761808803
 40
0.1514495234
 40
0.2255686107
 40
0.2983084111
 40
0.3694485113
 40
0.4387822435
 40
0.5061180307
 40
0.5712755244
 40
0.6340880176
 40
0.6944104749
 40
0.7521370336
 40
0.8071835686
 40
0.8594848641
 40
0.9090068991
 40
0.9558065517
 40
1.0
 40
1.0
 40
1.0
 40
1.0
 10
1.8969412669
 20
4.3148494575
 30
0.0
 10
1.8932574403
 20
4.3250773159
 30
0.0
 10
1.8861125184
 20
4.3454755205
 30
0.0
 10
1.8760559106
 20
4.3760551431
 30
0.0
 10
1.8667862213
 20
4.406369821
 30
0.0
 10
1.8583761357
 20
4.4363231364
 30
0.0
 10
1.8509001964
 20
4.4658198377
 30
0.0
 10
1.8444249177
 20
4.4947630939
 30
0.0
 10
1.8389921459
 20
4.5230517729
 30
0.0
 10
1.8346470005
 20
4.5505868721
 30
0.0
 10
1.8314326474
 20
4.5772701212
 30
0.0
 10
1.82939586
 20
4.6030065039
 30
0.0
 10
1.8285404709
 20
4.6277013104
 30
0.0
 10
1.828866028
 20
4.6512653513
 30
0.0
 10
1.8303709722
 20
4.6736119967
 30
0.0
 10
1.8330633346
 20
4.6946634378
 30
0.0
 10
1.8369139132
 20
4.71435681
 30
0.0
 10
1.8403165891
 20
4.7269029728
 30
0.0
 10
1.8422122151
 20
4.7329177552
 30
0.0
  0
SPLINE
  5
306
100
AcDbEntity
  8
0
100
AcDbSpline
 62
7
  6
CONTINUOUS
 70
0
 71
3
 72
17
 73
13
 74
0
 42
0.0000001
 43
0.0000001
 44
0.0000000001
 40
0.0
 40
0.0
 40
0.0
 40
0.0
 40
0.1233653345
 40
0.1856137545
 40
0.2481491818
 40
0.3738495544
 40
0.5000001226
 40
0.6261506432
 40
0.7518509466
 40
0.8143863254
 40
0.8766346918
 40
1.0
 40
1.0
 40
1.0
 40
1.0
 10
1.8969407544
 20
3.9666803493
 30
0.0
 10
1.9018948583
 20
3.9804350275
 30
0.0
 10
1.9085779373
 20
4.00142225
 30
0.0
 10
1.9157947879
 20
4.0299370538
 30
0.0
 10
1.921858239
 20
4.059003628
 30
0.0
 10
1.927026788
 20
4.0959548839
 30
0.0
 10
1.9291646431
 20
4.1407649178
 30
0.0
 10
1.9270271102
 20
4.1855749616
 30
0.0
 10
1.9218587161
 20
4.2225262232
 30
0.0
 10
1.9157953284
 20
4.2515927904
 30
0.0
 10
1.9085784813
 20
4.2801075802
 30
0.0
 10
1.9018953768
 20
4.3010947848
 30
0.0
 10
1.8969412669
 20
4.3148494575
 30
0.0
  0
SPLINE
  5
307
100
AcDbEntity
  8
0
100
AcDbSpline
 62
7
  6
CONTINUOUS
 70
0
 71
3
 72
14
 73
10
 74
0
 42
0.0000001
 43
0.0000001
 44
0.0000000001
 40
0.0
 40
0.0
 40
0.0
 40
0.0
 40
0.2467830363
 40
0.3712517922
 40
0.4962806382
 40
0.6217779288
 40
0.7476608949
 40
0.8737959149
 40
1.0
 40
1.0
 40
1.0
 40
1.0
 10
3.2627131344
 20
4.2887978005
 30
0.0
 10
3.2592450742
 20
4.2769463153
 30
0.0
 10
3.2545990201
 20
4.2589415929
 30
0.0
 10
3.2496273677
 20
4.2346079151
 30
0.0
 10
3.2465211117
 20
4.2160985648
 30
0.0
 10
3.2440718018
 20
4.1974197182
 30
0.0
 10
3.242306389
 20
4.1786079096
 30
0.0
 10
3.2412404299
 20
4.1597083746
 30
0.0
 10
3.2410011333
 20
4.147080611
 30
0.0
 10
3.2410011402
 20
4.1407656325
 30
0.0
  0
SPLINE
  5
308
100
AcDbEntity
  8
0
100
AcDbSpline
 62
7
  6
CONTINUOUS
 70
0
 71
3
 72
14
 73
10
 74
0
 42
0.0000001
 43
0.0000001
 44
0.0000000001
 40
0.0
 40
0.0
 40
0.0
 40
0.0
 40
0.1262041272
 40
0.2523391826
 40
0.3782221214
 40
0.5037193721
 40
0.6287482411
 40
0.7532170327
 40
1.0
 40
1.0
 40
1.0
 40
1.0
 10
3.2410011402
 20
4.1407656325
 30
0.0
 10
3.241001147
 20
4.1344506741
 30
0.0
 10
3.241240412
 20
4.1218229515
 30
0.0
 10
3.2423062931
 20
4.1029234748
 30
0.0
 10
3.2440717891
 20
4.0841117396
 30
0.0
 10
3.2465213517
 20
4.0654329938
 30
0.0
 10
3.2496278022
 20
4.0469237441
 30
0.0
 10
3.2545993384
 20
4.0225901375
 30
0.0
 10
3.2592450978
 20
4.0045854041
 30
0.0
 10
3.2627131472
 20
3.9927339644
 30
0.0
  0
SPLINE
  5
309
100
AcDbEntity
  8
0
100
AcDbSpline
 62
7
  6
CONTINUOUS
 70
0
 71
3
 72
23
 73
19
 74
0
 42
0.0000001
 43
0.0000001
 44
0.0000000001
 40
0.0
 40
0.0
 40
0.0
 40
0.0
 40
0.07638161
 40
0.1518111261
 40
0.2260573799
 40
0.2988951477
 40
0.3701066238
 40
0.4394905217
 40
0.5068649414
 40
0.5720569693
 40
0.6349038346
 40
0.6952598879
 40
0.7530095862
 40
0.8080525241
 40
0.8603019392
 40
0.9096950978
 40
0.9562426222
 40
1.0
 40
1.0
 40
1.0
 40
1.0
 10
3.2627131472
 20
3.9927339644
 30
0.0
 10
3.2653575625
 20
3.9836971467
 30
0.0
 10
3.2704915326
 20
3.9657001514
 30
0.0
 10
3.2777296493
 20
3.938788643
 30
0.0
 10
3.2844070087
 20
3.9121824088
 30
0.0
 10
3.2904665676
 20
3.8859617869
 30
0.0
 10
3.2958493082
 20
3.8602055285
 30
0.0
 10
3.3005055446
 20
3.8349922851
 30
0.0
 10
3.3044044093
 20
3.8104015153
 30
0.0
 10
3.3075124079
 20
3.7865102292
 30
0.0
 10
3.3097972032
 20
3.7633947385
 30
0.0
 10
3.3112253344
 20
3.7411291358
 30
0.0
 10
3.3117960284
 20
3.7197868282
 30
0.0
 10
3.3115093754
 20
3.699437429
 30
0.0
 10
3.3103668246
 20
3.6801488588
 30
0.0
 10
3.3083631774
 20
3.6619823473
 30
0.0
 10
3.3055222793
 20
3.6449881001
 30
0.0
 10
3.3030170446
 20
3.6341320252
 30
0.0
 10
3.3016211063
 20
3.6289216823
 30
0.0
  0
SPLINE
  5
30A
100
AcDbEntity
  8
0
100
AcDbSpline
 62
7
  6
CONTINUOUS
 70
0
 71
3
 72
20
 73
16
 74
0
 42
0.0000001
 43
0.0000001
 44
0.0000000001
 40
0.0
 40
0.0
 40
0.0
 40
0.0
 40
0.0520220809
 40
0.1058028084
 40
0.1612731164
 40
0.2183579252
 40
0.2769773126
 40
0.3370500685
 40
0.3985030466
 40
0.4612618481
 40
0.5252478678
 40
0.5903789157
 40
0.7237216927
 40
0.8605356054
 40
1.0
 40
1.0
 40
1.0
 40
1.0
 10
1.8286938587
 20
3.6486193128
 30
0.0
 10
1.8286938587
 20
3.6542865764
 30
0.0
 10
1.8289012364
 20
3.6658134781
 30
0.0
 10
1.8297902789
 20
3.6833627011
 30
0.0
 10
1.8312554158
 20
3.7014265788
 30
0.0
 10
1.8332894803
 20
3.7199653301
 30
0.0
 10
1.8358852609
 20
3.7389398248
 30
0.0
 10
1.8390361614
 20
3.7583121336
 30
0.0
 10
1.8427243407
 20
3.7780480747
 30
0.0
 10
1.8469317383
 20
3.7981154651
 30
0.0
 10
1.8516405236
 20
3.8184825143
 30
0.0
 10
1.8586178167
 20
3.8462119211
 30
0.0
 10
1.8685053306
 20
3.8813825887
 30
0.0
 10
1.8819386081
 20
3.9239428492
 30
0.0
 10
1.8917923007
 20
3.9523860666
 30
0.0
 10
1.8969407544
 20
3.9666803493
 30
0.0
  0
SPLINE
  5
30B
100
AcDbEntity
  8
0
100
AcDbSpline
 62
7
  6
CONTINUOUS
 70
0
 71
3
 72
13
 73
9
 74
0
 42
0.0000001
 43
0.0000001
 44
0.0000000001
 40
0.0
 40
0.0
 40
0.0
 40
0.0
 40
0.2534804971
 40
0.5049467089
 40
0.6298068878
 40
0.754014152
 40
0.8774561278
 40
1.0
 40
1.0
 40
1.0
 40
1.0
 10
3.3016236284
 20
3.6289161743
 30
0.0
 10
3.2920217411
 20
3.5931148105
 30
0.0
 10
3.2708441781
 20
3.5223287363
 30
0.0
 10
3.2393367069
 20
3.4357302405
 30
0.0
 10
3.211286974
 20
3.3681150291
 30
0.0
 10
3.188925359
 20
3.3184349401
 30
0.0
 10
3.1652393984
 20
3.2697498046
 30
0.0
 10
3.1485329175
 20
3.2378867653
 30
0.0
 10
3.1399695496
 20
3.222145633
 30
0.0
  0
SPLINE
  5
30C
100
AcDbEntity
  8
0
100
AcDbSpline
 62
7
  6
CONTINUOUS
 70
0
 71
3
 72
21
 73
17
 74
0
 42
0.0000001
 43
0.0000001
 44
0.0000000001
 40
0.0
 40
0.0
 40
0.0
 40
0.0
 40
0.1371598453
 40
0.2729603783
 40
0.3400792433
 40
0.4065202191
 40
0.4721692448
 40
0.5369048565
 40
0.6005631035
 40
0.6629616589
 40
0.7239132243
 40
0.7832267708
 40
0.8407088085
 40
0.8961581421
 40
0.949339535
 40
1.0
 40
1.0
 40
1.0
 40
1.0
 10
2.0727072981
 20
2.8368306384
 30
0.0
 10
2.0727072981
 20
2.8551257679
 30
0.0
 10
2.0715673432
 20
2.8915437263
 30
0.0
 10
2.0673829869
 20
2.9367410629
 30
0.0
 10
2.0624366956
 20
2.9723325586
 30
0.0
 10
2.0579732049
 20
2.9985309675
 30
0.0
 10
2.0527620567
 20
3.0242666434
 30
0.0
 10
2.04682296
 20
3.0494629496
 30
0.0
 10
2.0402151155
 20
3.0740432296
 30
0.0
 10
2.0330011647
 20
3.0979255826
 30
0.0
 10
2.0252435401
 20
3.1210263098
 30
0.0
 10
2.0170047084
 20
3.1432617173
 30
0.0
 10
2.0083479662
 20
3.1645476481
 30
0.0
 10
1.9993371397
 20
3.1847939342
 30
0.0
 10
1.9900843425
 20
3.2039242112
 30
0.0
 10
1.9836645093
 20
3.2162006208
 30
0.0
 10
1.9804368567
 20
3.222137312
 30
0.0
  0
SPLINE
  5
30D
100
AcDbEntity
  8
0
100
AcDbSpline
 62
7
  6
CONTINUOUS
 70
0
 71
3
 72
21
 73
17
 74
0
 42
0.0000001
 43
0.0000001
 44
0.0000000001
 40
0.0
 40
0.0
 40
0.0
 40
0.0
 40
0.0506501593
 40
0.103805345
 40
0.1592354258
 40
0.2167156345
 40
0.2760284643
 40
0.336976028
 40
0.3993769915
 40
0.4630524882
 40
0.5278265848
 40
0.5935275358
 40
0.6600037393
 40
0.7271387948
 40
0.8629208392
 40
1.0
 40
1.0
 40
1.0
 40
1.0
 10
3.1399715872
 20
3.222147053
 30
0.0
 10
3.1367408753
 20
3.2162134202
 30
0.0
 10
3.1303242459
 20
3.2039402794
 30
0.0
 10
3.1210870501
 20
3.1848101839
 30
0.0
 10
3.1120837446
 20
3.1645671932
 30
0.0
 10
3.103407697
 20
3.1432918704
 30
0.0
 10
3.0951554767
 20
3.1210615621
 30
0.0
 10
3.0874029051
 20
3.0979587358
 30
0.0
 10
3.0802003057
 20
3.0740701718
 30
0.0
 10
3.0736022881
 20
3.0494786818
 30
0.0
 10
3.0676615699
 20
3.024267607
 30
0.0
 10
3.0624326216
 20
2.9985178741
 30
0.0
 10
3.0579620832
 20
2.9723059626
 30
0.0
 10
3.0530152658
 20
2.9367092587
 30
0.0
 10
3.0488410164
 20
2.8915209264
 30
0.0
 10
3.0477072981
 20
2.8551154121
 30
0.0
 10
3.0477072981
 20
2.8368306384
 30
0.0
  0
SPLINE
  5
30E
100
AcDbEntity
  8
0
100
AcDbSpline
 62
7
  6
CONTINUOUS
 70
0
 71
3
 72
11
 73
7
 74
0
 42
0.0000001
 43
0.0000001
 44
0.0000000001
 40
0.0
 40
0.0
 40
0.0
 40
0.0
 40
0.2465089894
 40
0.4956301086
 40
0.7468836316
 40
1.0
 40
1.0
 40
1.0
 40
1.0
 10
1.9804450466
 20
3.222145633
 30
0.0
 10
1.9665039007
 20
3.247772165
 30
0.0
 10
1.9397521376
 20
3.3000031018
 30
0.0
 10
1.9033167779
 20
3.3805707329
 30
0.0
 10
1.8705111678
 20
3.4635245617
 30
0.0
 10
1.8512177264
 20
3.5200380179
 30
0.0
 10
1.8422075449
 20
3.5486059518
 30
0.0
  0
SPLINE
  5
30F
100
AcDbEntity
  8
0
100
AcDbSpline
 62
7
  6
CONTINUOUS
 70
0
 71
3
 72
12
 73
8
 74
0
 42
0.0000001
 43
0.0000001
 44
0.0000000001
 40
0.0
 40
0.0
 40
0.0
 40
0.0
 40
0.2254190599
 40
0.3442234436
 40
0.4671632077
 40
0.7253956873
 40
1.0
 40
1.0
 40
1.0
 40
1.0
 10
1.8422065554
 20
3.5486074106
 30
0.0
 10
1.8399169585
 20
3.5558655454
 30
0.0
 10
1.8369624616
 20
3.5671269079
 30
0.0
 10
1.8339292008
 20
3.5826076023
 30
0.0
 10
1.8313499536
 20
3.5992943113
 30
0.0
 10
1.8292225738
 20
3.6213523513
 30
0.0
 10
1.8286938587
 20
3.6393479965
 30
0.0
 10
1.8286938587
 20
3.6486193128
 30
0.0
  0
SPLINE
  5
310
100
AcDbEntity
  8
0
100
AcDbSpline
 62
7
  6
CONTINUOUS
 70
0
 71
3
 72
11
 73
7
 74
0
 42
0.0000001
 43
0.0000001
 44
0.0000000001
 40
0.0
 40
0.0
 40
0.0
 40
0.0
 40
0.2465089893
 40
0.4956301087
 40
0.7468836315
 40
1.0
 40
1.0
 40
1.0
 40
1.0
 10
1.9804450466
 20
5.059385632
 30
0.0
 10
1.9665039007
 20
5.0337591001
 30
0.0
 10
1.9397521376
 20
4.9815281632
 30
0.0
 10
1.9033167779
 20
4.9009605322
 30
0.0
 10
1.8705111678
 20
4.8180067033
 30
0.0
 10
1.8512177264
 20
4.7614932471
 30
0.0
 10
1.8422075449
 20
4.7329253132
 30
0.0
  0
SPLINE
  5
311
100
AcDbEntity
  8
0
100
AcDbSpline
 62
7
  6
CONTINUOUS
 70
0
 71
3
 72
21
 73
17
 74
0
 42
0.0000001
 43
0.0000001
 44
0.0000000001
 40
0.0
 40
0.0
 40
0.0
 40
0.0
 40
0.1371598453
 40
0.2729603783
 40
0.3400792433
 40
0.4065202191
 40
0.4721692448
 40
0.5369048565
 40
0.6005631035
 40
0.6629616589
 40
0.7239132243
 40
0.7832267708
 40
0.8407088085
 40
0.8961581421
 40
0.949339535
 40
1.0
 40
1.0
 40
1.0
 40
1.0
 10
3.0477072981
 20
5.4447006267
 30
0.0
 10
3.0477072981
 20
5.4264054972
 30
0.0
 10
3.048847253
 20
5.3899875387
 30
0.0
 10
3.0530316093
 20
5.3447902021
 30
0.0
 10
3.0579779006
 20
5.3091987064
 30
0.0
 10
3.0624413913
 20
5.2830002976
 30
0.0
 10
3.0676525395
 20
5.2572646217
 30
0.0
 10
3.0735916362
 20
5.2320683155
 30
0.0
 10
3.0801994807
 20
5.2074880354
 30
0.0
 10
3.0874134315
 20
5.1836056824
 30
0.0
 10
3.0951710561
 20
5.1605049552
 30
0.0
 10
3.1034098878
 20
5.1382695477
 30
0.0
 10
3.11206663
 20
5.116983617
 30
0.0
 10
3.1210774565
 20
5.0967373308
 30
0.0
 10
3.1303302537
 20
5.0776070538
 30
0.0
 10
3.1367500869
 20
5.0653306442
 30
0.0
 10
3.1399777395
 20
5.059393953
 30
0.0
  0
SPLINE
  5
312
100
AcDbEntity
  8
0
100
AcDbSpline
 62
7
  6
CONTINUOUS
 70
0
 71
3
 72
21
 73
17
 74
0
 42
0.0000001
 43
0.0000001
 44
0.0000000001
 40
0.0
 40
0.0
 40
0.0
 40
0.0
 40
0.0506501593
 40
0.103805345
 40
0.1592354258
 40
0.2167156345
 40
0.2760284643
 40
0.336976028
 40
0.3993769915
 40
0.4630524882
 40
0.5278265848
 40
0.5935275358
 40
0.6600037393
 40
0.7271387948
 40
0.8629208392
 40
1.0
 40
1.0
 40
1.0
 40
1.0
 10
1.980443009
 20
5.059384212
 30
0.0
 10
1.9836737208
 20
5.0653178448
 30
0.0
 10
1.9900903503
 20
5.0775909856
 30
0.0
 10
1.9993275461
 20
5.0967210812
 30
0.0
 10
2.0083308516
 20
5.1169640719
 30
0.0
 10
2.0170068992
 20
5.1382393947
 30
0.0
 10
2.0252591195
 20
5.1604697029
 30
0.0
 10
2.0330116911
 20
5.1835725292
 30
0.0
 10
2.0402142904
 20
5.2074610932
 30
0.0
 10
2.0468123081
 20
5.2320525832
 30
0.0
 10
2.0527530263
 20
5.257263658
 30
0.0
 10
2.0579819746
 20
5.2830133909
 30
0.0
 10
2.062452513
 20
5.3092253025
 30
0.0
 10
2.0673993304
 20
5.3448220063
 30
0.0
 10
2.0715735798
 20
5.3900103386
 30
0.0
 10
2.0727072981
 20
5.4264158529
 30
0.0
 10
2.0727072981
 20
5.4447006267
 30
0.0
  0
SPLINE
  5
313
100
AcDbEntity
  8
0
100
AcDbSpline
 62
7
  6
CONTINUOUS
 70
0
 71
3
 72
23
 73
19
 74
0
 42
0.0000001
 43
0.0000001
 44
0.0000000001
 40
0.0
 40
0.0
 40
0.0
 40
0.0
 40
0.043757472
 40
0.0903050716
 40
0.1396982742
 40
0.1919477557
 40
0.2469908001
 40
0.3047406306
 40
0.3650968213
 40
0.4279438305
 40
0.4931359939
 40
0.5605104898
 40
0.6298943513
 40
0.7011056428
 40
0.7739431505
 40
0.8481891425
 40
0.923618461
 40
1.0
 40
1.0
 40
1.0
 40
1.0
 10
3.3016211833
 20
4.6526095791
 30
0.0
 10
3.3030171325
 20
4.6473992338
 30
0.0
 10
3.3055223867
 20
4.6365431557
 30
0.0
 10
3.3083633073
 20
4.6195489068
 30
0.0
 10
3.3103669777
 20
4.6013823967
 30
0.0
 10
3.3115095169
 20
4.582093822
 30
0.0
 10
3.3117961435
 20
4.5617444095
 30
0.0
 10
3.3112254251
 20
4.5404020822
 30
0.0
 10
3.3097973022
 20
4.5181364553
 30
0.0
 10
3.3075125189
 20
4.4950209399
 30
0.0
 10
3.304404508
 20
4.4711296405
 30
0.0
 10
3.3005056313
 20
4.4465388813
 30
0.0
 10
3.2958493942
 20
4.4213256878
 30
0.0
 10
3.2904666698
 20
4.395569519
 30
0.0
 10
3.2844070774
 20
4.3693490274
 30
0.0
 10
3.277729673
 20
4.3427429302
 30
0.0
 10
3.270491516
 20
4.3158315354
 30
0.0
 10
3.2653575425
 20
4.2978345993
 30
0.0
 10
3.2627131344
 20
4.2887978005
 30
0.0
  0
SPLINE
  5
314
100
AcDbEntity
  8
0
100
AcDbSpline
 62
7
  6
CONTINUOUS
 70
0
 71
3
 72
21
 73
17
 74
0
 42
0.0000001
 43
0.0000001
 44
0.0000000001
 40
0.0
 40
0.0
 40
0.0
 40
0.0
 40
0.1371598453
 40
0.2729603783
 40
0.3400792433
 40
0.4065202191
 40
0.4721692448
 40
0.5369048565
 40
0.6005631035
 40
0.6629616589
 40
0.7239132243
 40
0.7832267708
 40
0.8407088085
 40
0.8961581421
 40
0.949339535
 40
1.0
 40
1.0
 40
1.0
 40
1.0
 10
3.0477072981
 20
2.8368306384
 30
0.0
 10
3.0477072981
 20
2.8185355089
 30
0.0
 10
3.048847253
 20
2.7821175504
 30
0.0
 10
3.0530316093
 20
2.7369202138
 30
0.0
 10
3.0579779006
 20
2.7013287181
 30
0.0
 10
3.0624413913
 20
2.6751303093
 30
0.0
 10
3.0676525395
 20
2.6493946333
 30
0.0
 10
3.0735916362
 20
2.6241983272
 30
0.0
 10
3.0801994807
 20
2.5996180471
 30
0.0
 10
3.0874134315
 20
2.5757356941
 30
0.0
 10
3.0951710561
 20
2.5526349669
 30
0.0
 10
3.1034098878
 20
2.5303995594
 30
0.0
 10
3.11206663
 20
2.5091136286
 30
0.0
 10
3.1210774565
 20
2.4888673425
 30
0.0
 10
3.1303302537
 20
2.4697370655
 30
0.0
 10
3.1367500869
 20
2.4574606559
 30
0.0
 10
3.1399777395
 20
2.4515239647
 30
0.0
  0
SPLINE
  5
315
100
AcDbEntity
  8
0
100
AcDbSpline
 62
7
  6
CONTINUOUS
 70
0
 71
3
 72
21
 73
17
 74
0
 42
0.0000001
 43
0.0000001
 44
0.0000000001
 40
0.0
 40
0.0
 40
0.0
 40
0.0
 40
0.0506501593
 40
0.103805345
 40
0.1592354258
 40
0.2167156345
 40
0.2760284643
 40
0.336976028
 40
0.3993769915
 40
0.4630524882
 40
0.5278265848
 40
0.5935275358
 40
0.6600037393
 40
0.7271387948
 40
0.8629208392
 40
1.0
 40
1.0
 40
1.0
 40
1.0
 10
1.980443009
 20
2.4515142237
 30
0.0
 10
1.9836737208
 20
2.4574478565
 30
0.0
 10
1.9900903503
 20
2.4697209973
 30
0.0
 10
1.9993275461
 20
2.4888510928
 30
0.0
 10
2.0083308516
 20
2.5090940835
 30
0.0
 10
2.0170068992
 20
2.5303694064
 30
0.0
 10
2.0252591195
 20
2.5525997146
 30
0.0
 10
2.0330116911
 20
2.5757025409
 30
0.0
 10
2.0402142904
 20
2.5995911049
 30
0.0
 10
2.0468123081
 20
2.6241825949
 30
0.0
 10
2.0527530263
 20
2.6493936697
 30
0.0
 10
2.0579819746
 20
2.6751434026
 30
0.0
 10
2.062452513
 20
2.7013553142
 30
0.0
 10
2.0673993304
 20
2.736952018
 30
0.0
 10
2.0715735798
 20
2.7821403503
 30
0.0
 10
2.0727072981
 20
2.8185458646
 30
0.0
 10
2.0727072981
 20
2.8368306384
 30
0.0
  0
SPLINE
  5
316
100
AcDbEntity
  8
0
100
AcDbSpline
 62
7
  6
CONTINUOUS
 70
0
 71
3
 72
21
 73
17
 74
0
 42
0.0000001
 43
0.0000001
 44
0.0000000001
 40
0.0
 40
0.0
 40
0.0
 40
0.0
 40
0.1371598453
 40
0.2729603783
 40
0.3400792433
 40
0.4065202191
 40
0.4721692448
 40
0.5369048565
 40
0.6005631035
 40
0.6629616589
 40
0.7239132243
 40
0.7832267708
 40
0.8407088085
 40
0.8961581421
 40
0.949339535
 40
1.0
 40
1.0
 40
1.0
 40
1.0
 10
2.0727072981
 20
5.4447006267
 30
0.0
 10
2.0727072981
 20
5.4629957562
 30
0.0
 10
2.0715673432
 20
5.4994137146
 30
0.0
 10
2.0673829869
 20
5.5446110512
 30
0.0
 10
2.0624366956
 20
5.5802025469
 30
0.0
 10
2.0579732049
 20
5.6064009558
 30
0.0
 10
2.0527620567
 20
5.6321366317
 30
0.0
 10
2.04682296
 20
5.6573329379
 30
0.0
 10
2.0402151155
 20
5.6819132179
 30
0.0
 10
2.0330011647
 20
5.7057955709
 30
0.0
 10
2.0252435401
 20
5.7288962982
 30
0.0
 10
2.0170047084
 20
5.7511317057
 30
0.0
 10
2.0083479662
 20
5.7724176364
 30
0.0
 10
1.9993371397
 20
5.7926639225
 30
0.0
 10
1.9900843425
 20
5.8117941996
 30
0.0
 10
1.9836645093
 20
5.8240706091
 30
0.0
 10
1.9804368567
 20
5.8300073003
 30
0.0
  0
SPLINE
  5
317
100
AcDbEntity
  8
0
100
AcDbSpline
 62
7
  6
CONTINUOUS
 70
0
 71
3
 72
21
 73
17
 74
0
 42
0.0000001
 43
0.0000001
 44
0.0000000001
 40
0.0
 40
0.0
 40
0.0
 40
0.0
 40
0.0506501593
 40
0.103805345
 40
0.1592354258
 40
0.2167156345
 40
0.2760284643
 40
0.336976028
 40
0.3993769915
 40
0.4630524882
 40
0.5278265848
 40
0.5935275358
 40
0.6600037393
 40
0.7271387948
 40
0.8629208392
 40
1.0
 40
1.0
 40
1.0
 40
1.0
 10
3.1399715872
 20
5.8300170414
 30
0.0
 10
3.1367408753
 20
5.8240834086
 30
0.0
 10
3.1303242459
 20
5.8118102678
 30
0.0
 10
3.1210870501
 20
5.7926801722
 30
0.0
 10
3.1120837446
 20
5.7724371815
 30
0.0
 10
3.103407697
 20
5.7511618587
 30
0.0
 10
3.0951554767
 20
5.7289315504
 30
0.0
 10
3.0874029051
 20
5.7058287241
 30
0.0
 10
3.0802003057
 20
5.6819401601
 30
0.0
 10
3.0736022881
 20
5.6573486702
 30
0.0
 10
3.0676615699
 20
5.6321375954
 30
0.0
 10
3.0624326216
 20
5.6063878625
 30
0.0
 10
3.0579620832
 20
5.5801759509
 30
0.0
 10
3.0530152658
 20
5.544579247
 30
0.0
 10
3.0488410164
 20
5.4993909148
 30
0.0
 10
3.0477072981
 20
5.4629854005
 30
0.0
 10
3.0477072981
 20
5.4447006267
 30
0.0
  0
SPLINE
  5
318
100
AcDbEntity
  8
0
100
AcDbSpline
 62
7
  6
CONTINUOUS
 70
0
 71
3
 72
11
 73
7
 74
0
 42
0.0000001
 43
0.0000001
 44
0.0000000001
 40
0.0
 40
0.0
 40
0.0
 40
0.0
 40
0.2852644534
 40
0.5461560468
 40
0.7838551703
 40
1.0
 40
1.0
 40
1.0
 40
1.0
 10
1.8029828867
 20
3.6920793536
 30
0.0
 10
1.8041907198
 20
3.6868876823
 30
0.0
 10
1.8068510136
 20
3.6770230281
 30
0.0
 10
1.8118397006
 20
3.6632309674
 30
0.0
 10
1.8175908625
 20
3.6511527529
 30
0.0
 10
1.8220823822
 20
3.6439303037
 30
0.0
 10
1.8244431229
 20
3.6406533129
 30
0.0
  0
LINE
  5
319
100
AcDbEntity
  8
0
100
AcDbLine
 62
7
  6
CONTINUOUS
 10
1.8244431229
 20
3.6406533129
 11
1.8290429774
 21
3.6348294338
  0
SPLINE
  5
31A
100
AcDbEntity
  8
0
100
AcDbSpline
 62
7
  6
CONTINUOUS
 70
0
 71
3
 72
14
 73
10
 74
0
 42
0.0000001
 43
0.0000001
 44
0.0000000001
 40
0.0
 40
0.0
 40
0.0
 40
0.0
 40
0.1494203998
 40
0.2914607264
 40
0.4262498979
 40
0.5539920853
 40
0.6749423047
 40
0.7893898512
 40
1.0
 40
1.0
 40
1.0
 40
1.0
 10
1.802986437
 20
4.5894494467
 30
0.0
 10
1.8036998021
 20
4.5925189279
 30
0.0
 10
1.8052150963
 20
4.5984785631
 30
0.0
 10
1.8078294574
 20
4.6070831225
 30
0.0
 10
1.8107198029
 20
4.6151153957
 30
0.0
 10
1.8138712794
 20
4.6225681856
 30
0.0
 10
1.8172677855
 20
4.629438889
 30
0.0
 10
1.8219695153
 20
4.6375891942
 30
0.0
 10
1.8260002934
 20
4.6431775682
 30
0.0
 10
1.828902997
 20
4.6465396716
 30
0.0
  0
SPLINE
  5
31B
100
AcDbEntity
  8
0
100
AcDbSpline
 62
7
  6
CONTINUOUS
 70
0
 71
3
 72
19
 73
15
 74
0
 42
0.0000001
 43
0.0000001
 44
0.0000000001
 40
0.0
 40
0.0
 40
0.0
 40
0.0
 40
0.1249796958
 40
0.1875091592
 40
0.2500324752
 40
0.3125434815
 40
0.3750513583
 40
0.4375576821
 40
0.500056738
 40
0.6250411688
 40
0.6875467569
 40
0.7500493989
 40
0.8750349731
 40
1.0
 40
1.0
 40
1.0
 40
1.0
 10
6.0282072981
 20
7.1737656325
 30
0.0
 10
6.0046484898
 20
7.1737656325
 30
0.0
 10
5.9692848702
 20
7.1724141488
 30
0.0
 10
5.9223523352
 20
7.1680168949
 30
0.0
 10
5.8872853054
 20
7.1634403853
 30
0.0
 10
5.8524083655
 20
7.1576225525
 30
0.0
 10
5.8177525956
 20
7.1506249309
 30
0.0
 10
5.7833453036
 20
7.1425039417
 30
0.0
 10
5.7378361675
 20
7.1302526276
 30
0.0
 10
5.6928937845
 20
7.1159855536
 30
0.0
 10
5.6485712057
 20
7.0999703777
 30
0.0
 10
5.6046541927
 20
7.0828708597
 30
0.0
 10
5.5505233051
 20
7.0596090351
 30
0.0
 10
5.5080105863
 20
7.0392684606
 30
0.0
 10
5.4869414207
 20
7.0287338778
 30
0.0
  0
SPLINE
  5
31C
100
AcDbEntity
  8
0
100
AcDbSpline
 62
7
  6
CONTINUOUS
 70
0
 71
3
 72
22
 73
18
 74
0
 42
0.0000001
 43
0.0000001
 44
0.0000000001
 40
0.0
 40
0.0
 40
0.0
 40
0.0
 40
0.1399335705
 40
0.2083846695
 40
0.2757497122
 40
0.3419917268
 40
0.4070744817
 40
0.4709648266
 40
0.5336536564
 40
0.5951606134
 40
0.6555300954
 40
0.7148292383
 40
0.7731603967
 40
0.8306649961
 40
0.8875121945
 40
0.9438881213
 40
1.0
 40
1.0
 40
1.0
 40
1.0
 10
5.4869414207
 20
7.0287338778
 30
0.0
 10
5.47655054
 20
7.0391247585
 30
0.0
 10
5.4607420984
 20
7.0542729919
 30
0.0
 10
5.4390431856
 20
7.073452907
 30
0.0
 10
5.4227347892
 20
7.0870332288
 30
0.0
 10
5.4062730334
 20
7.0998601766
 30
0.0
 10
5.3896575449
 20
7.1118761767
 30
0.0
 10
5.3728887299
 20
7.123018039
 30
0.0
 10
5.3559689487
 20
7.1332220265
 30
0.0
 10
5.3389006186
 20
7.1424224977
 30
0.0
 10
5.3216908178
 20
7.150557164
 30
0.0
 10
5.3043518435
 20
7.1575697438
 30
0.0
 10
5.2868964953
 20
7.1634030205
 30
0.0
 10
5.2693386573
 20
7.1679945222
 30
0.0
 10
5.2517025665
 20
7.171305489
 30
0.0
 10
5.2340184556
 20
7.1733132188
 30
0.0
 10
5.222200991
 20
7.1737656325
 30
0.0
 10
5.216308482
 20
7.1737656325
 30
0.0
  0
SPLINE
  5
31D
100
AcDbEntity
  8
0
100
AcDbSpline
 62
7
  6
CONTINUOUS
 70
0
 71
3
 72
19
 73
15
 74
0
 42
0.0000001
 43
0.0000001
 44
0.0000000001
 40
0.0
 40
0.0
 40
0.0
 40
0.0
 40
0.1249650543
 40
0.2499506606
 40
0.3124533056
 40
0.3749589026
 40
0.4999433529
 40
0.5624424072
 40
0.6249487386
 40
0.6874566237
 40
0.7499676209
 40
0.8124909002
 40
0.8750203307
 40
1.0
 40
1.0
 40
1.0
 40
1.0
 10
5.4869414207
 20
6.0617973872
 30
0.0
 10
5.508010591
 20
6.0512628021
 30
0.0
 10
5.5505233189
 20
6.0309222206
 30
0.0
 10
5.6046542164
 20
6.0076603889
 30
0.0
 10
5.6485712399
 20
5.9905608746
 30
0.0
 10
5.6928938254
 20
5.9745456997
 30
0.0
 10
5.7378362129
 20
5.9602786234
 30
0.0
 10
5.7833453529
 20
5.9480273047
 30
0.0
 10
5.8177526499
 20
5.939906324
 30
0.0
 10
5.8524084228
 20
5.9329087113
 30
0.0
 10
5.8872853557
 20
5.9270908798
 30
0.0
 10
5.9223523683
 20
5.9225143538
 30
0.0
 10
5.9692848861
 20
5.9181171049
 30
0.0
 10
6.0046484947
 20
5.9167656325
 30
0.0
 10
6.0282072981
 20
5.9167656325
 30
0.0
  0
SPLINE
  5
31E
100
AcDbEntity
  8
0
100
AcDbSpline
 62
7
  6
CONTINUOUS
 70
0
 71
3
 72
22
 73
18
 74
0
 42
0.0000001
 43
0.0000001
 44
0.0000000001
 40
0.0
 40
0.0
 40
0.0
 40
0.0
 40
0.0561118842
 40
0.1124878314
 40
0.1693350596
 40
0.2268396858
 40
0.2851708524
 40
0.3444699954
 40
0.4048394784
 40
0.4663464373
 40
0.5290352585
 40
0.5929255914
 40
0.6580083402
 40
0.7242503575
 40
0.7916153876
 40
0.8600664638
 40
1.0
 40
1.0
 40
1.0
 40
1.0
 10
5.216308482
 20
5.9167656325
 30
0.0
 10
5.2222009916
 20
5.9167656325
 30
0.0
 10
5.2340184588
 20
5.9172180501
 30
0.0
 10
5.2517025746
 20
5.919225788
 30
0.0
 10
5.2693386724
 20
5.9225367584
 30
0.0
 10
5.2868965215
 20
5.9271282445
 30
0.0
 10
5.3043518733
 20
5.932961523
 30
0.0
 10
5.321690845
 20
5.9399741116
 30
0.0
 10
5.3389006422
 20
5.9481087857
 30
0.0
 10
5.3559689729
 20
5.9573092542
 30
0.0
 10
5.3728887529
 20
5.9675132399
 30
0.0
 10
5.3896575654
 20
5.9786551008
 30
0.0
 10
5.4062730512
 20
5.9906711018
 30
0.0
 10
5.4227348026
 20
6.0034980523
 30
0.0
 10
5.4390431961
 20
6.017078372
 30
0.0
 10
5.4607421043
 20
6.0362582811
 30
0.0
 10
5.4765505426
 20
6.0514065091
 30
0.0
 10
5.4869414207
 20
6.0617973872
 30
0.0
  0
SPLINE
  5
31F
100
AcDbEntity
  8
0
100
AcDbSpline
 62
7
  6
CONTINUOUS
 70
0
 71
3
 72
14
 73
10
 74
0
 42
0.0000001
 43
0.0000001
 44
0.0000000001
 40
0.0
 40
0.0
 40
0.0
 40
0.0
 40
0.1217724211
 40
0.2439305064
 40
0.3667730387
 40
0.4905751334
 40
0.6155882944
 40
0.7420475923
 40
1.0
 40
1.0
 40
1.0
 40
1.0
 10
5.216308482
 20
7.1737656325
 30
0.0
 10
5.2115769058
 20
7.1737656325
 30
0.0
 10
5.2020962995
 20
7.173474312
 30
0.0
 10
5.1878960437
 20
7.1721778542
 30
0.0
 10
5.1737187337
 20
7.170034618
 30
0.0
 10
5.1595799044
 20
7.1670582927
 30
0.0
 10
5.1454936862
 20
7.1632598941
 30
0.0
 10
5.1266785235
 20
7.1570899524
 30
0.0
 10
5.1128522423
 20
7.1513601942
 30
0.0
 10
5.1037696094
 20
7.1471215936
 30
0.0
  0
SPLINE
  5
320
100
AcDbEntity
  8
0
100
AcDbSpline
 62
7
  6
CONTINUOUS
 70
0
 71
3
 72
15
 73
11
 74
0
 42
0.0000001
 43
0.0000001
 44
0.0000000001
 40
0.0
 40
0.0
 40
0.0
 40
0.0
 40
0.1158044528
 40
0.2342624338
 40
0.3554478072
 40
0.4793423343
 40
0.6058546218
 40
0.7348887761
 40
0.8663250038
 40
1.0
 40
1.0
 40
1.0
 40
1.0
 10
5.1037696094
 20
7.1471215936
 30
0.0
 10
5.0968271072
 20
7.1438817297
 30
0.0
 10
5.082999235
 20
7.1368558062
 30
0.0
 10
5.0627000816
 20
7.1249619125
 30
0.0
 10
5.0426178395
 20
7.1117093824
 30
0.0
 10
5.0227570196
 20
7.0972080911
 30
0.0
 10
5.0031163299
 20
7.0815647468
 30
0.0
 10
4.9836955826
 20
7.0648749832
 30
0.0
 10
4.9644913627
 20
7.0472301339
 30
0.0
 10
4.9519288638
 20
7.0349871982
 30
0.0
 10
4.9456755434
 20
7.0287338778
 30
0.0
  0
SPLINE
  5
321
100
AcDbEntity
  8
0
100
AcDbSpline
 62
7
  6
CONTINUOUS
 70
0
 71
3
 72
19
 73
15
 74
0
 42
0.0000001
 43
0.0000001
 44
0.0000000001
 40
0.0
 40
0.0
 40
0.0
 40
0.0
 40
0.1249650543
 40
0.2499506604
 40
0.3124533052
 40
0.3749589021
 40
0.4999433522
 40
0.5624424064
 40
0.6249487375
 40
0.6874566222
 40
0.7499676192
 40
0.8124908989
 40
0.8750203298
 40
1.0
 40
1.0
 40
1.0
 40
1.0
 10
6.5694731755
 20
7.0287338778
 30
0.0
 10
6.5484040052
 20
7.0392684629
 30
0.0
 10
6.5058912772
 20
7.0596090442
 30
0.0
 10
6.4517603793
 20
7.0828708752
 30
0.0
 10
6.4078433556
 20
7.0999703888
 30
0.0
 10
6.3635207699
 20
7.115985563
 30
0.0
 10
6.3185783825
 20
7.1302526394
 30
0.0
 10
6.2730692432
 20
7.1425039605
 30
0.0
 10
6.238661947
 20
7.150624944
 30
0.0
 10
6.2040061747
 20
7.1576225593
 30
0.0
 10
6.169129242
 20
7.1634403922
 30
0.0
 10
6.1340622291
 20
7.168016917
 30
0.0
 10
6.0871297106
 20
7.1724141626
 30
0.0
 10
6.0517661017
 20
7.1737656325
 30
0.0
 10
6.0282072981
 20
7.1737656325
 30
0.0
  0
SPLINE
  5
322
100
AcDbEntity
  8
0
100
AcDbSpline
 62
7
  6
CONTINUOUS
 70
0
 71
3
 72
22
 73
18
 74
0
 42
0.0000001
 43
0.0000001
 44
0.0000000001
 40
0.0
 40
0.0
 40
0.0
 40
0.0
 40
0.0561118842
 40
0.1124878315
 40
0.1693350599
 40
0.2268396863
 40
0.2851708526
 40
0.344469995
 40
0.4048394774
 40
0.4663464359
 40
0.5290352573
 40
0.5929255908
 40
0.6580083401
 40
0.7242503578
 40
0.7916153879
 40
0.860066464
 40
1.0
 40
1.0
 40
1.0
 40
1.0
 10
6.8401061141
 20
7.1737656325
 30
0.0
 10
6.8342136046
 20
7.1737656325
 30
0.0
 10
6.8223961374
 20
7.1733132146
 30
0.0
 10
6.8047120217
 20
7.1713054761
 30
0.0
 10
6.787075924
 20
7.1679945049
 30
0.0
 10
6.7695180751
 20
7.1634030185
 30
0.0
 10
6.7520627231
 20
7.1575697405
 30
0.0
 10
6.7347237513
 20
7.1505571527
 30
0.0
 10
6.717513954
 20
7.1424224793
 30
0.0
 10
6.7004456232
 20
7.1332220111
 30
0.0
 10
6.6835258433
 20
7.1230180253
 30
0.0
 10
6.6667570309
 20
7.1118761641
 30
0.0
 10
6.6501415452
 20
7.0998601629
 30
0.0
 10
6.6336797937
 20
7.0870332123
 30
0.0
 10
6.6173714002
 20
7.0734528926
 30
0.0
 10
6.595672492
 20
7.0542729838
 30
0.0
 10
6.5798640536
 20
7.0391247559
 30
0.0
 10
6.5694731755
 20
7.0287338778
 30
0.0
  0
SPLINE
  5
323
100
AcDbEntity
  8
0
100
AcDbSpline
 62
7
  6
CONTINUOUS
 70
0
 71
3
 72
19
 73
15
 74
0
 42
0.0000001
 43
0.0000001
 44
0.0000000001
 40
0.0
 40
0.0
 40
0.0
 40
0.0
 40
0.1249796967
 40
0.1875091605
 40
0.2500324768
 40
0.3125434829
 40
0.3750513594
 40
0.437557683
 40
0.5000567388
 40
0.6250411693
 40
0.6875467572
 40
0.7500493992
 40
0.8750349731
 40
1.0
 40
1.0
 40
1.0
 40
1.0
 10
6.0282072981
 20
5.9167656325
 30
0.0
 10
6.0517661066
 20
5.9167656325
 30
0.0
 10
6.0871297265
 20
5.9181171137
 30
0.0
 10
6.1340622622
 20
5.9225143643
 30
0.0
 10
6.1691292923
 20
5.9270908727
 30
0.0
 10
6.204006232
 20
5.932908707
 30
0.0
 10
6.2386620013
 20
5.9399063312
 30
0.0
 10
6.2730692925
 20
5.9480273232
 30
0.0
 10
6.3185784279
 20
5.9602786396
 30
0.0
 10
6.3635208108
 20
5.9745457137
 30
0.0
 10
6.4078433898
 20
5.990560889
 30
0.0
 10
6.4517604031
 20
6.0076604062
 30
0.0
 10
6.505891291
 20
6.0309222302
 30
0.0
 10
6.5484040099
 20
6.0512628045
 30
0.0
 10
6.5694731755
 20
6.0617973872
 30
0.0
  0
SPLINE
  5
324
100
AcDbEntity
  8
0
100
AcDbSpline
 62
7
  6
CONTINUOUS
 70
0
 71
3
 72
22
 73
18
 74
0
 42
0.0000001
 43
0.0000001
 44
0.0000000001
 40
0.0
 40
0.0
 40
0.0
 40
0.0
 40
0.1399335703
 40
0.2083846692
 40
0.275749712
 40
0.3419917269
 40
0.4070744823
 40
0.4709648278
 40
0.5336536578
 40
0.5951606144
 40
0.6555300958
 40
0.7148292382
 40
0.7731603964
 40
0.8306649958
 40
0.8875121944
 40
0.9438881213
 40
1.0
 40
1.0
 40
1.0
 40
1.0
 10
6.5694731755
 20
6.0617973872
 30
0.0
 10
6.5798640562
 20
6.0514065065
 30
0.0
 10
6.5956724979
 20
6.0362582733
 30
0.0
 10
6.6173714108
 20
6.0170783584
 30
0.0
 10
6.6336798072
 20
6.0034980367
 30
0.0
 10
6.650141563
 20
5.9906710888
 30
0.0
 10
6.6667570513
 20
5.9786550884
 30
0.0
 10
6.6835258663
 20
5.9675132258
 30
0.0
 10
6.7004456475
 20
5.9573092382
 30
0.0
 10
6.7175139776
 20
5.9481087673
 30
0.0
 10
6.7347237786
 20
5.9399741018
 30
0.0
 10
6.752062753
 20
5.9329615228
 30
0.0
 10
6.7695181012
 20
5.9271282466
 30
0.0
 10
6.7870759392
 20
5.9225367446
 30
0.0
 10
6.8047120298
 20
5.9192257771
 30
0.0
 10
6.8223961406
 20
5.9172180465
 30
0.0
 10
6.8342136052
 20
5.9167656325
 30
0.0
 10
6.8401061141
 20
5.9167656325
 30
0.0
  0
SPLINE
  5
325
100
AcDbEntity
  8
0
100
AcDbSpline
 62
7
  6
CONTINUOUS
 70
0
 71
3
 72
9
 73
5
 74
0
 42
0.0000001
 43
0.0000001
 44
0.0000000001
 40
0.0
 40
0.0
 40
0.0
 40
0.0
 40
0.4941947571
 40
1.0
 40
1.0
 40
1.0
 40
1.0
 10
6.9035689883
 20
5.9253232856
 30
0.0
 10
6.9118987139
 20
5.927557341
 30
0.0
 10
6.9285405433
 20
5.9329031218
 30
0.0
 10
6.9446463588
 20
5.9396769438
 30
0.0
 10
6.9526449762
 20
5.943409666
 30
0.0
  0
SPLINE
  5
326
100
AcDbEntity
  8
0
100
AcDbSpline
 62
7
  6
CONTINUOUS
 70
0
 71
3
 72
15
 73
11
 74
0
 42
0.0000001
 43
0.0000001
 44
0.0000000001
 40
0.0
 40
0.0
 40
0.0
 40
0.0
 40
0.1158044533
 40
0.2342624339
 40
0.3554478061
 40
0.4793423322
 40
0.6058546195
 40
0.7348887743
 40
0.8663250029
 40
1.0
 40
1.0
 40
1.0
 40
1.0
 10
6.9526449762
 20
5.943409666
 30
0.0
 10
6.9595874788
 20
5.9466495301
 30
0.0
 10
6.9734153518
 20
5.953675454
 30
0.0
 10
6.9937145067
 20
5.9655693479
 30
0.0
 10
7.0137967503
 20
5.978821878
 30
0.0
 10
7.0336575717
 20
5.9933231696
 30
0.0
 10
7.0532982627
 20
6.0089665146
 30
0.0
 10
7.0727190111
 20
6.0256562792
 30
0.0
 10
7.0919232323
 20
6.0433011299
 30
0.0
 10
7.104485732
 20
6.0555440664
 30
0.0
 10
7.1107390528
 20
6.0617973872
 30
0.0
  0
SPLINE
  5
327
100
AcDbEntity
  8
0
100
AcDbSpline
 62
9
  6
CONTINUOUS
 70
0
 71
3
 72
15
 73
11
 74
0
 42
0.0000001
 43
0.0000001
 44
0.0000000001
 40
0.0
 40
0.0
 40
0.0
 40
0.0
 40
0.1291558682
 40
0.2567364189
 40
0.382937278
 40
0.5079581345
 40
0.631983389
 40
0.7552008051
 40
0.8778052027
 40
1.0
 40
1.0
 40
1.0
 40
1.0
 10
3.1399701901
 20
3.2221454588
 30
0.0
 10
3.1433594417
 20
3.2283753068
 30
0.0
 10
3.1497448168
 20
3.240954553
 30
0.0
 10
3.1581443425
 20
3.2602447445
 30
0.0
 10
3.1652805094
 20
3.2797969254
 30
0.0
 10
3.1711349471
 20
3.2995669516
 30
0.0
 10
3.1757024145
 20
3.3195054529
 30
0.0
 10
3.1789748879
 20
3.3395629854
 30
0.0
 10
3.1809449038
 20
3.3596883562
 30
0.0
 10
3.1813853194
 20
3.3731346315
 30
0.0
 10
3.1813853194
 20
3.3798445009
 30
0.0
  0
SPLINE
  5
328
100
AcDbEntity
  8
0
100
AcDbSpline
 62
9
  6
CONTINUOUS
 70
0
 71
3
 72
15
 73
11
 74
0
 42
0.0000001
 43
0.0000001
 44
0.0000000001
 40
0.0
 40
0.0
 40
0.0
 40
0.0
 40
0.1291558682
 40
0.2567364189
 40
0.382937278
 40
0.5079581345
 40
0.631983389
 40
0.7552008051
 40
0.8778052027
 40
1.0
 40
1.0
 40
1.0
 40
1.0
 10
1.9804444061
 20
5.0593858062
 30
0.0
 10
1.9770551545
 20
5.0531559583
 30
0.0
 10
1.9706697794
 20
5.040576712
 30
0.0
 10
1.9622702537
 20
5.0212865205
 30
0.0
 10
1.9551340868
 20
5.0017343396
 30
0.0
 10
1.949279649
 20
4.9819643135
 30
0.0
 10
1.9447121817
 20
4.9620258122
 30
0.0
 10
1.9414397083
 20
4.9419682796
 30
0.0
 10
1.9394696924
 20
4.9218429088
 30
0.0
 10
1.9390292768
 20
4.9083966335
 30
0.0
 10
1.9390292768
 20
4.9016867641
 30
0.0
  0
SPLINE
  5
329
100
AcDbEntity
  8
0
100
AcDbSpline
 62
9
  6
CONTINUOUS
 70
0
 71
3
 72
41
 73
37
 74
0
 42
0.0000001
 43
0.0000001
 44
0.0000000001
 40
0.0
 40
0.0
 40
0.0
 40
0.0
 40
0.0263289638
 40
0.0397382115
 40
0.0533201778
 40
0.0810187104
 40
0.1094621822
 40
0.138666314
 40
0.1686314622
 40
0.1993374401
 40
0.2307514956
 40
0.2628304324
 40
0.2955147129
 40
0.3287351704
 40
0.3624170994
 40
0.3964765881
 40
0.4308229693
 40
0.4653632431
 40
0.500001939
 40
0.5346406126
 40
0.5691808204
 40
0.6035270934
 40
0.6375864325
 40
0.6712681722
 40
0.704488405
 40
0.7371724284
 40
0.7692510787
 40
0.8006648246
 40
0.8313704762
 40
0.8613352856
 40
0.8905390739
 40
0.9189822064
 40
0.9466804098
 40
0.9602622178
 40
0.9736713138
 40
1.0
 40
1.0
 40
1.0
 40
1.0
 10
1.9804527658
 20
2.4515294538
 30
0.0
 10
1.9861077162
 20
2.4619228741
 30
0.0
 10
1.995396479
 20
2.4772141212
 30
0.0
 10
2.0091847105
 20
2.4968180272
 30
0.0
 10
2.024198833
 20
2.5162858109
 30
0.0
 10
2.0449200606
 20
2.5398424542
 30
0.0
 10
2.0725197199
 20
2.5665309705
 30
0.0
 10
2.1028696677
 20
2.5916718471
 30
0.0
 10
2.1358026053
 20
2.6151135375
 30
0.0
 10
2.1711203794
 20
2.6367423672
 30
0.0
 10
2.2086274896
 20
2.656435209
 30
0.0
 10
2.2481192929
 20
2.6740688586
 30
0.0
 10
2.2893657937
 20
2.6895604584
 30
0.0
 10
2.3321353434
 20
2.702824827
 30
0.0
 10
2.3761921507
 20
2.7137711723
 30
0.0
 10
2.4212846117
 20
2.7223495895
 30
0.0
 10
2.4671581308
 20
2.728518949
 30
0.0
 10
2.5135566145
 20
2.7322293609
 30
0.0
 10
2.5602177942
 20
2.7334641506
 30
0.0
 10
2.6068789149
 20
2.7322282502
 30
0.0
 10
2.6532772212
 20
2.7285167247
 30
0.0
 10
2.6991504465
 20
2.7223462715
 30
0.0
 10
2.7442424992
 20
2.7137667817
 30
0.0
 10
2.7882987835
 20
2.7028193796
 30
0.0
 10
2.8310677009
 20
2.6895539891
 30
0.0
 10
2.872313465
 20
2.6740614081
 30
0.0
 10
2.911804427
 20
2.6564268128
 30
0.0
 10
2.9493105973
 20
2.636733071
 30
0.0
 10
2.9846273435
 20
2.6151033997
 30
0.0
 10
3.0175591646
 20
2.59166092
 30
0.0
 10
3.0479079102
 20
2.56651931
 30
0.0
 10
3.0755063006
 20
2.5398301341
 30
0.0
 10
3.0962264055
 20
2.5162729961
 30
0.0
 10
3.1112395932
 20
2.4968048538
 30
0.0
 10
3.1250268886
 20
2.477200612
 30
0.0
 10
3.1343149193
 20
2.4619091449
 30
0.0
 10
3.1399693705
 20
2.451515595
 30
0.0
  0
SPLINE
  5
32A
100
AcDbEntity
  8
0
100
AcDbSpline
 62
9
  6
CONTINUOUS
 70
0
 71
3
 72
41
 73
37
 74
0
 42
0.0000001
 43
0.0000001
 44
0.0000000001
 40
0.0
 40
0.0
 40
0.0
 40
0.0
 40
0.0263289638
 40
0.0397382115
 40
0.0533201778
 40
0.0810187104
 40
0.1094621822
 40
0.138666314
 40
0.1686314622
 40
0.1993374401
 40
0.2307514956
 40
0.2628304324
 40
0.2955147129
 40
0.3287351704
 40
0.3624170994
 40
0.3964765881
 40
0.4308229693
 40
0.4653632431
 40
0.500001939
 40
0.5346406126
 40
0.5691808204
 40
0.6035270934
 40
0.6375864325
 40
0.6712681722
 40
0.704488405
 40
0.7371724284
 40
0.7692510787
 40
0.8006648246
 40
0.8313704762
 40
0.8613352856
 40
0.8905390739
 40
0.9189822064
 40
0.9466804098
 40
0.9602622178
 40
0.9736713138
 40
1.0
 40
1.0
 40
1.0
 40
1.0
 10
3.1399618304
 20
5.8300018112
 30
0.0
 10
3.13430688
 20
5.819608391
 30
0.0
 10
3.1250181172
 20
5.8043171438
 30
0.0
 10
3.1112298857
 20
5.7847132379
 30
0.0
 10
3.0962157632
 20
5.7652454541
 30
0.0
 10
3.0754945356
 20
5.7416888108
 30
0.0
 10
3.0478948763
 20
5.7150002945
 30
0.0
 10
3.0175449285
 20
5.6898594179
 30
0.0
 10
2.9846119909
 20
5.6664177275
 30
0.0
 10
2.9492942167
 20
5.6447888978
 30
0.0
 10
2.9117871065
 20
5.6250960561
 30
0.0
 10
2.8722953033
 20
5.6074624064
 30
0.0
 10
2.8310488025
 20
5.5919708066
 30
0.0
 10
2.7882792528
 20
5.5787064381
 30
0.0
 10
2.7442224455
 20
5.5677600928
 30
0.0
 10
2.6991299845
 20
5.5591816755
 30
0.0
 10
2.6532564654
 20
5.553012316
 30
0.0
 10
2.6068579817
 20
5.5493019041
 30
0.0
 10
2.560196802
 20
5.5480671145
 30
0.0
 10
2.5135356813
 20
5.5493030149
 30
0.0
 10
2.467137375
 20
5.5530145404
 30
0.0
 10
2.4212641497
 20
5.5591849935
 30
0.0
 10
2.376172097
 20
5.5677644834
 30
0.0
 10
2.3321158127
 20
5.5787118854
 30
0.0
 10
2.2893468953
 20
5.5919772759
 30
0.0
 10
2.2481011312
 20
5.6074698569
 30
0.0
 10
2.2086101692
 20
5.6251044523
 30
0.0
 10
2.1711039989
 20
5.644798194
 30
0.0
 10
2.1357872527
 20
5.6664278654
 30
0.0
 10
2.1028554316
 20
5.689870345
 30
0.0
 10
2.072506686
 20
5.7150119551
 30
0.0
 10
2.0449082956
 20
5.741701131
 30
0.0
 10
2.0241881907
 20
5.765258269
 30
0.0
 10
2.009175003
 20
5.7847264112
 30
0.0
 10
1.9953877076
 20
5.804330653
 30
0.0
 10
1.9860996768
 20
5.8196221202
 30
0.0
 10
1.9804452257
 20
5.8300156701
 30
0.0
  0
SPLINE
  5
32B
100
AcDbEntity
  8
0
100
AcDbSpline
 62
9
  6
CONTINUOUS
 70
0
 71
3
 72
19
 73
15
 74
0
 42
0.0000001
 43
0.0000001
 44
0.0000000001
 40
0.0
 40
0.0
 40
0.0
 40
0.0
 40
0.1512587369
 40
0.2974090249
 40
0.4368756659
 40
0.5684713957
 40
0.6309794613
 40
0.6911616305
 40
0.7489449708
 40
0.8042576316
 40
0.8570377943
 40
0.907260536
 40
0.9549154357
 40
1.0
 40
1.0
 40
1.0
 40
1.0
 10
2.772045543
 20
3.7927536412
 30
0.0
 10
2.7983791339
 20
3.7981190644
 30
0.0
 10
2.8498252699
 20
3.8103552617
 30
0.0
 10
2.9242480268
 20
3.8325149778
 30
0.0
 10
2.9942454613
 20
3.8569884603
 30
0.0
 10
3.0492952751
 20
3.8789968253
 30
0.0
 10
3.0906937925
 20
3.8970973654
 30
0.0
 10
3.1197893872
 20
3.9105810327
 30
0.0
 10
3.1474219969
 20
3.9241620506
 30
0.0
 10
3.1735526858
 20
3.937798441
 30
0.0
 10
3.1981491028
 20
3.9514518268
 30
0.0
 10
3.2211785819
 20
3.9651038976
 30
0.0
 10
3.2426141682
 20
3.978739243
 30
0.0
 10
3.2562022355
 20
3.9880675541
 30
0.0
 10
3.2627128394
 20
3.9927341672
 30
0.0
  0
SPLINE
  5
32C
100
AcDbEntity
  8
0
100
AcDbSpline
 62
9
  6
CONTINUOUS
 70
0
 71
3
 72
15
 73
11
 74
0
 42
0.0000001
 43
0.0000001
 44
0.0000000001
 40
0.0
 40
0.0
 40
0.0
 40
0.0
 40
0.1221977715
 40
0.2448047652
 40
0.3680241571
 40
0.4920505385
 40
0.6170714552
 40
0.7432710629
 40
0.8708487571
 40
1.0
 40
1.0
 40
1.0
 40
1.0
 10
1.9390292768
 20
3.3798445009
 30
0.0
 10
1.9390292768
 20
3.3731388605
 30
0.0
 10
1.9394691362
 20
3.3597010862
 30
0.0
 10
1.9414366722
 20
3.3395883729
 30
0.0
 10
1.9447050332
 20
3.3195433487
 30
0.0
 10
1.9492667703
 20
3.2996171098
 30
0.0
 10
1.9551138737
 20
3.2798590086
 30
0.0
 10
1.9622411135
 20
3.2603183257
 30
0.0
 10
1.970630214
 20
3.2410391531
 30
0.0
 10
1.9770077544
 20
3.2284667576
 30
0.0
 10
1.9803928647
 20
3.2222402308
 30
0.0
  0
SPLINE
  5
32D
100
AcDbEntity
  8
0
100
AcDbSpline
 62
9
  6
CONTINUOUS
 70
0
 71
3
 72
19
 73
15
 74
0
 42
0.0000001
 43
0.0000001
 44
0.0000000001
 40
0.0
 40
0.0
 40
0.0
 40
0.0
 40
0.0481691528
 40
0.0985404284
 40
0.1510657664
 40
0.2056952681
 40
0.2623776948
 40
0.3210608655
 40
0.3816919787
 40
0.4442178783
 40
0.5746372291
 40
0.7114354453
 40
0.8536227846
 40
1.0
 40
1.0
 40
1.0
 40
1.0
 10
1.8969408419
 20
3.9666806405
 30
0.0
 10
1.903575675
 20
3.9625753252
 30
0.0
 10
1.9172658792
 20
3.9543652481
 30
0.0
 10
1.938562785
 20
3.9423119686
 30
0.0
 10
1.9610603784
 20
3.9302700653
 30
0.0
 10
1.9847314567
 20
3.9182686572
 30
0.0
 10
2.009549067
 20
3.9063367011
 30
0.0
 10
2.0354861
 20
3.8945032176
 30
0.0
 10
2.0625156096
 20
3.8827971423
 30
0.0
 10
2.1005056809
 20
3.8671796082
 30
0.0
 10
2.1504577159
 20
3.8482345537
 30
0.0
 10
2.2133586513
 20
3.8271767393
 30
0.0
 10
2.2795971797
 20
3.8081354393
 30
0.0
 10
2.3251367501
 20
3.7974868264
 30
0.0
 10
2.3483689434
 20
3.7927533113
 30
0.0
  0
SPLINE
  5
32E
100
AcDbEntity
  8
0
100
AcDbSpline
 62
9
  6
CONTINUOUS
 70
0
 71
3
 72
23
 73
19
 74
0
 42
0.0000001
 43
0.0000001
 44
0.0000000001
 40
0.0
 40
0.0
 40
0.0
 40
0.0
 40
0.0448780044
 40
0.0918716563
 40
0.1410403952
 40
0.1924369655
 40
0.2189858992
 40
0.2461090278
 40
0.3020977428
 40
0.3604451849
 40
0.4211951656
 40
0.4843938945
 40
0.550092762
 40
0.6183587107
 40
0.6892714621
 40
0.7629212023
 40
0.8393295121
 40
1.0
 40
1.0
 40
1.0
 40
1.0
 10
1.8969410773
 20
4.3148500293
 30
0.0
 10
1.9030930232
 20
4.3187225709
 30
0.0
 10
1.9158153751
 20
4.3264474865
 30
0.0
 10
1.9356695012
 20
4.337754573
 30
0.0
 10
1.9567283927
 20
4.3490643775
 30
0.0
 10
1.9750793379
 20
4.3584052185
 30
0.0
 10
1.9903570108
 20
4.36590487
 30
0.0
 10
2.0063733812
 20
4.3735860679
 30
0.0
 10
2.0271671549
 20
4.383214635
 30
0.0
 10
2.0531141167
 20
4.394666766
 30
0.0
 10
2.0803401512
 20
4.4061016365
 30
0.0
 10
2.1088736115
 20
4.4174858449
 30
0.0
 10
2.1387472133
 20
4.4287831119
 30
0.0
 10
2.170021812
 20
4.4398905978
 30
0.0
 10
2.2027570052
 20
4.4507098274
 30
0.0
 10
2.2370017439
 20
4.4611356036
 30
0.0
 10
2.2855027606
 20
4.4745993938
 30
0.0
 10
2.3228958448
 20
4.4834440516
 30
0.0
 10
2.3483686167
 20
4.4887784769
 30
0.0
  0
SPLINE
  5
32F
100
AcDbEntity
  8
0
100
AcDbSpline
 62
9
  6
CONTINUOUS
 70
0
 71
3
 72
15
 73
11
 74
0
 42
0.0000001
 43
0.0000001
 44
0.0000000001
 40
0.0
 40
0.0
 40
0.0
 40
0.0
 40
0.1221977715
 40
0.2448047652
 40
0.3680241571
 40
0.4920505385
 40
0.6170714552
 40
0.7432710629
 40
0.8708487571
 40
1.0
 40
1.0
 40
1.0
 40
1.0
 10
3.1813853194
 20
4.9016867641
 30
0.0
 10
3.1813853194
 20
4.9083924045
 30
0.0
 10
3.18094546
 20
4.9218301788
 30
0.0
 10
3.178977924
 20
4.9419428921
 30
0.0
 10
3.1757095629
 20
4.9619879164
 30
0.0
 10
3.1711478259
 20
4.9819141553
 30
0.0
 10
3.1653007225
 20
5.0016722565
 30
0.0
 10
3.1581734827
 20
5.0212129393
 30
0.0
 10
3.1497843822
 20
5.040492112
 30
0.0
 10
3.1434068418
 20
5.0530645074
 30
0.0
 10
3.1400217315
 20
5.0592910342
 30
0.0
  0
SPLINE
  5
330
100
AcDbEntity
  8
0
100
AcDbSpline
 62
9
  6
CONTINUOUS
 70
0
 71
3
 72
25
 73
21
 74
0
 42
0.0000001
 43
0.0000001
 44
0.0000000001
 40
0.0
 40
0.0
 40
0.0
 40
0.0
 40
0.0420041017
 40
0.0864166881
 40
0.1333271382
 40
0.1828116427
 40
0.2349345529
 40
0.2897520494
 40
0.3473208637
 40
0.4076994416
 40
0.4709492766
 40
0.5371362432
 40
0.5713532752
 40
0.606331115
 40
0.6420800916
 40
0.678611984
 40
0.7540763685
 40
0.8328373159
 40
0.9148643384
 40
1.0
 40
1.0
 40
1.0
 40
1.0
 10
3.2627135084
 20
4.2887977325
 30
0.0
 10
3.2566750464
 20
4.2931840305
 30
0.0
 10
3.2440536439
 20
4.3019372301
 30
0.0
 10
3.2241008881
 20
4.3147161881
 30
0.0
 10
3.2026126042
 20
4.3275378396
 30
0.0
 10
3.1795895526
 20
4.3404400591
 30
0.0
 10
3.155028116
 20
4.3534547411
 30
0.0
 10
3.1288896235
 20
4.3665447871
 30
0.0
 10
3.1011400776
 20
4.379676559
 30
0.0
 10
3.0717454912
 20
4.3928173353
 30
0.0
 10
3.040665904
 20
4.4059222237
 30
0.0
 10
3.0136341584
 20
4.4166453456
 30
0.0
 10
2.9911363379
 20
4.4251607117
 30
0.0
 10
2.973627843
 20
4.4315769288
 30
0.0
 10
2.9556606435
 20
4.4379335534
 30
0.0
 10
2.9308082027
 20
4.4463918404
 30
0.0
 10
2.8985129925
 20
4.4566941926
 30
0.0
 10
2.8581744545
 20
4.4683323789
 30
0.0
 10
2.8158451238
 20
4.4792024927
 30
0.0
 10
2.7868571262
 20
4.4857025718
 30
0.0
 10
2.7720459794
 20
4.4887784769
 30
0.0
  0
SPLINE
  5
331
100
AcDbEntity
  8
0
100
AcDbSpline
 62
9
  6
CONTINUOUS
 70
0
 71
3
 72
23
 73
19
 74
0
 42
0.0000001
 43
0.0000001
 44
0.0000000001
 40
0.0
 40
0.0
 40
0.0
 40
0.0
 40
0.0577724632
 40
0.11706103
 40
0.177704781
 40
0.2395431979
 40
0.3024072424
 40
0.3660912907
 40
0.4303804647
 40
0.4950602308
 40
0.5599142482
 40
0.6247163914
 40
0.6892378724
 40
0.7532501496
 40
0.8165307856
 40
0.878879377
 40
0.9401007686
 40
1.0
 40
1.0
 40
1.0
 40
1.0
 10
2.3483686266
 20
3.7927528134
 30
0.0
 10
2.3503105357
 20
3.8060597691
 30
0.0
 10
2.3539838276
 20
3.8330616873
 30
0.0
 10
2.3587986912
 20
3.8741476923
 30
0.0
 10
2.3629590242
 20
3.9162564259
 30
0.0
 10
2.3664286343
 20
3.9592627091
 30
0.0
 10
2.3691711791
 20
4.0030305792
 30
0.0
 10
2.3711700275
 20
4.0474097157
 30
0.0
 10
2.3724072564
 20
4.0922394333
 30
0.0
 10
2.3728649206
 20
4.1373562987
 30
0.0
 10
2.372525226
 20
4.1825936298
 30
0.0
 10
2.3713943779
 20
4.2277812128
 30
0.0
 10
2.369478452
 20
4.2727462363
 30
0.0
 10
2.3667835862
 20
4.3173165927
 30
0.0
 10
2.3633151572
 20
4.3613261254
 30
0.0
 10
2.3591018348
 20
4.40461798
 30
0.0
 10
2.3541722709
 20
4.4470417182
 30
0.0
 10
2.3503819222
 20
4.4749815978
 30
0.0
 10
2.3483685219
 20
4.4887784197
 30
0.0
  0
SPLINE
  5
332
100
AcDbEntity
  8
0
100
AcDbSpline
 62
9
  6
CONTINUOUS
 70
0
 71
3
 72
37
 73
33
 74
0
 42
0.0000001
 43
0.0000001
 44
0.0000000001
 40
0.0
 40
0.0
 40
0.0
 40
0.0
 40
0.0586189704
 40
0.0882147543
 40
0.1180303856
 40
0.1480921539
 40
0.1784224482
 40
0.20904683
 40
0.239999615
 40
0.2713156936
 40
0.3029961882
 40
0.3350433377
 40
0.3674747633
 40
0.4002637377
 40
0.4333295493
 40
0.4499460531
 40
0.4666071997
 40
0.500005734
 40
0.5334044521
 40
0.5500657795
 40
0.566682142
 40
0.5997469206
 40
0.6325352343
 40
0.6649672405
 40
0.6970142754
 40
0.7286941896
 40
0.7600099598
 40
0.7909625978
 40
0.8215866788
 40
0.8819730734
 40
0.9413810388
 40
1.0
 40
1.0
 40
1.0
 40
1.0
 10
2.3483686167
 20
4.4887784769
 30
0.0
 10
2.3558189479
 20
4.4937101848
 30
0.0
 10
2.3671480566
 20
4.5009585086
 30
0.0
 10
2.3825822107
 20
4.5102036612
 30
0.0
 10
2.3944321056
 20
4.5169560619
 30
0.0
 10
2.4065365693
 20
4.5234805296
 30
0.0
 10
2.4189198611
 20
4.5297381362
 30
0.0
 10
2.4316061741
 20
4.5356845933
 30
0.0
 10
2.4446173532
 20
4.5412753832
 30
0.0
 10
2.4579674514
 20
4.5464642302
 30
0.0
 10
2.4716679564
 20
4.5511837886
 30
0.0
 10
2.4857216554
 20
4.5553614056
 30
0.0
 10
2.5001199767
 20
4.5589191723
 30
0.0
 10
2.514829916
 20
4.5617879866
 30
0.0
 10
2.5272828166
 20
4.5635495789
 30
0.0
 10
2.5373463227
 20
4.5645515859
 30
0.0
 10
2.5474849239
 20
4.5652699331
 30
0.0
 10
2.5602078337
 20
4.565627545
 30
0.0
 10
2.5729307456
 20
4.5652694952
 30
0.0
 10
2.5830693922
 20
4.5645513261
 30
0.0
 10
2.5931327518
 20
4.5635493489
 30
0.0
 10
2.6055853157
 20
4.561787305
 30
0.0
 10
2.6202949493
 20
4.5589178623
 30
0.0
 10
2.634693285
 20
4.5553603297
 30
0.0
 10
2.6487471473
 20
4.5511833354
 30
0.0
 10
2.6624477115
 20
4.5464643937
 30
0.0
 10
2.6757976967
 20
4.5412757159
 30
0.0
 10
2.6888086914
 20
4.5356846357
 30
0.0
 10
2.7056431241
 20
4.5277929954
 30
0.0
 10
2.7259635292
 20
4.5171500389
 30
0.0
 10
2.7494383117
 20
4.5034077393
 30
0.0
 10
2.7645956811
 20
4.4937102319
 30
0.0
 10
2.7720459794
 20
4.4887784769
 30
0.0
  0
SPLINE
  5
333
100
AcDbEntity
  8
0
100
AcDbSpline
 62
9
  6
CONTINUOUS
 70
0
 71
3
 72
23
 73
19
 74
0
 42
0.0000001
 43
0.0000001
 44
0.0000000001
 40
0.0
 40
0.0
 40
0.0
 40
0.0
 40
0.0598992315
 40
0.1211206231
 40
0.1834692145
 40
0.2467498505
 40
0.3107621277
 40
0.3752836086
 40
0.4400857518
 40
0.5049397692
 40
0.5696195352
 40
0.6339087091
 40
0.6975927574
 40
0.7604568019
 40
0.8222952189
 40
0.8829389699
 40
0.9422275368
 40
1.0
 40
1.0
 40
1.0
 40
1.0
 10
2.7720460773
 20
4.4887784172
 30
0.0
 10
2.7700326769
 20
4.4749815953
 30
0.0
 10
2.7662423283
 20
4.4470417159
 30
0.0
 10
2.7613127644
 20
4.4046179779
 30
0.0
 10
2.757099442
 20
4.3613261236
 30
0.0
 10
2.753631013
 20
4.3173165911
 30
0.0
 10
2.7509361472
 20
4.2727462351
 30
0.0
 10
2.7490202211
 20
4.2277812119
 30
0.0
 10
2.7478893729
 20
4.1825936292
 30
0.0
 10
2.7475496782
 20
4.1373562984
 30
0.0
 10
2.7480073421
 20
4.0922394333
 30
0.0
 10
2.7492445708
 20
4.0474097161
 30
0.0
 10
2.7512434189
 20
4.0030305798
 30
0.0
 10
2.7539859634
 20
3.9592627101
 30
0.0
 10
2.7574555733
 20
3.916256427
 30
0.0
 10
2.761615906
 20
3.8741476937
 30
0.0
 10
2.7664307693
 20
3.8330616888
 30
0.0
 10
2.7701040608
 20
3.8060597708
 30
0.0
 10
2.7720459698
 20
3.7927528151
 30
0.0
  0
SPLINE
  5
334
100
AcDbEntity
  8
0
100
AcDbSpline
 62
9
  6
CONTINUOUS
 70
0
 71
3
 72
23
 73
19
 74
0
 42
0.0000001
 43
0.0000001
 44
0.0000000001
 40
0.0
 40
0.0
 40
0.0
 40
0.0
 40
0.0666652323
 40
0.1320085607
 40
0.1959975559
 40
0.2586960019
 40
0.3202563795
 40
0.3808288291
 40
0.4406340945
 40
0.5000015029
 40
0.5593692506
 40
0.6191752069
 40
0.6797481979
 40
0.7413084734
 40
0.8040058861
 40
0.8679933739
 40
0.9333353513
 40
1.0
 40
1.0
 40
1.0
 40
1.0
 10
2.7720440439
 20
3.7927553603
 30
0.0
 10
2.7635709716
 20
3.7871510883
 30
0.0
 10
2.7465963119
 20
3.7763454402
 30
0.0
 10
2.7207049079
 20
3.7614332467
 30
0.0
 10
2.6945784585
 20
3.7482154457
 30
0.0
 10
2.6681743705
 20
3.73694204
 30
0.0
 10
2.6414771082
 20
3.7278729212
 30
0.0
 10
2.6145382888
 20
3.7211708116
 30
0.0
 10
2.5874242545
 20
3.7170083841
 30
0.0
 10
2.5602065602
 20
3.7155625496
 30
0.0
 10
2.5329887779
 20
3.7170086778
 30
0.0
 10
2.5058745388
 20
3.7211713275
 30
0.0
 10
2.4789355736
 20
3.7278735536
 30
0.0
 10
2.4522384006
 20
3.7369426522
 30
0.0
 10
2.4258346996
 20
3.7482159418
 30
0.0
 10
2.3997088295
 20
3.7614335754
 30
0.0
 10
2.3738179466
 20
3.7763456217
 30
0.0
 10
2.3568435603
 20
3.7871511476
 30
0.0
 10
2.3483705572
 20
3.7927553631
 30
0.0
  0
SPLINE
  5
335
100
AcDbEntity
  8
0
100
AcDbSpline
 62
9
  6
CONTINUOUS
 70
0
 71
3
 72
26
 73
22
 74
0
 42
0.0000001
 43
0.0000001
 44
0.0000000001
 40
0.0
 40
0.0
 40
0.0
 40
0.0
 40
0.053681466
 40
0.1077614075
 40
0.1624773275
 40
0.1901535809
 40
0.218075456
 40
0.2747590285
 40
0.3327604206
 40
0.3623198449
 40
0.3922713409
 40
0.4533789312
 40
0.5161529577
 40
0.5481784933
 40
0.5806265194
 40
0.646770835
 40
0.7145605149
 40
0.783934512
 40
0.8547790842
 40
0.9268812789
 40
1.0
 40
1.0
 40
1.0
 40
1.0
 10
3.1813853194
 20
3.3798445009
 30
0.0
 10
3.1813853194
 20
3.391024719
 30
0.0
 10
3.1801580064
 20
3.4134867888
 30
0.0
 10
3.1746936664
 20
3.4469416955
 30
0.0
 10
3.1671737005
 20
3.4744105353
 30
0.0
 10
3.159413614
 20
3.4960442218
 30
0.0
 10
3.1504081841
 20
3.5176352869
 30
0.0
 10
3.1369357314
 20
3.5441608318
 30
0.0
 10
3.1208317872
 20
3.5695748835
 30
0.0
 10
3.1063639361
 20
3.5893234097
 30
0.0
 10
3.0906323422
 20
3.6089182196
 30
0.0
 10
3.0689750447
 20
3.63258265
 30
0.0
 10
3.0451628064
 20
3.654709703
 30
0.0
 10
3.0247433717
 20
3.6716116788
 30
0.0
 10
3.0031447264
 20
3.6881600968
 30
0.0
 10
2.9744901621
 20
3.7077030588
 30
0.0
 10
2.9379132878
 20
3.7290972397
 30
0.0
 10
2.8991234634
 20
3.748456852
 30
0.0
 10
2.8583543255
 20
3.7656563538
 30
0.0
 10
2.8158851022
 20
3.7806108867
 30
0.0
 10
2.7867967971
 20
3.7889689045
 30
0.0
 10
2.7720459794
 20
3.7927527881
 30
0.0
  0
SPLINE
  5
336
100
AcDbEntity
  8
0
100
AcDbSpline
 62
9
  6
CONTINUOUS
 70
0
 71
3
 72
26
 73
22
 74
0
 42
0.0000001
 43
0.0000001
 44
0.0000000001
 40
0.0
 40
0.0
 40
0.0
 40
0.0
 40
0.0731187211
 40
0.1452209158
 40
0.216065488
 40
0.2854394851
 40
0.353229165
 40
0.4193734806
 40
0.4518215067
 40
0.4838470423
 40
0.5466210688
 40
0.6077286591
 40
0.6376801551
 40
0.6672395794
 40
0.7252409715
 40
0.781924544
 40
0.8098464191
 40
0.8375226725
 40
0.8922385925
 40
0.946318534
 40
1.0
 40
1.0
 40
1.0
 40
1.0
 10
2.3483686167
 20
3.7927527881
 30
0.0
 10
2.3336177991
 20
3.7889689045
 30
0.0
 10
2.304529494
 20
3.7806108867
 30
0.0
 10
2.2620602707
 20
3.7656563538
 30
0.0
 10
2.2212911328
 20
3.748456852
 30
0.0
 10
2.1825013084
 20
3.7290972397
 30
0.0
 10
2.145924434
 20
3.7077030588
 30
0.0
 10
2.1172698698
 20
3.6881600968
 30
0.0
 10
2.0956712245
 20
3.6716116788
 30
0.0
 10
2.0752517898
 20
3.654709703
 30
0.0
 10
2.0514395515
 20
3.63258265
 30
0.0
 10
2.029782254
 20
3.6089182196
 30
0.0
 10
2.0140506601
 20
3.5893234097
 30
0.0
 10
1.999582809
 20
3.5695748835
 30
0.0
 10
1.9834788648
 20
3.5441608318
 30
0.0
 10
1.9700064121
 20
3.5176352869
 30
0.0
 10
1.9610009822
 20
3.4960442218
 30
0.0
 10
1.9532408957
 20
3.4744105353
 30
0.0
 10
1.9457209298
 20
3.4469416955
 30
0.0
 10
1.9402565898
 20
3.4134867888
 30
0.0
 10
1.9390292768
 20
3.391024719
 30
0.0
 10
1.9390292768
 20
3.3798445009
 30
0.0
  0
SPLINE
  5
337
100
AcDbEntity
  8
0
100
AcDbSpline
 62
9
  6
CONTINUOUS
 70
0
 71
3
 72
26
 73
22
 74
0
 42
0.0000001
 43
0.0000001
 44
0.0000000001
 40
0.0
 40
0.0
 40
0.0
 40
0.0
 40
0.053681466
 40
0.1077614075
 40
0.1624773275
 40
0.1901535809
 40
0.218075456
 40
0.2747590285
 40
0.3327604206
 40
0.3623198449
 40
0.3922713409
 40
0.4533789312
 40
0.5161529577
 40
0.5481784933
 40
0.5806265194
 40
0.646770835
 40
0.7145605149
 40
0.783934512
 40
0.8547790842
 40
0.9268812789
 40
1.0
 40
1.0
 40
1.0
 40
1.0
 10
1.9390292768
 20
4.9016867641
 30
0.0
 10
1.9390292768
 20
4.8905065461
 30
0.0
 10
1.9402565898
 20
4.8680444762
 30
0.0
 10
1.9457209298
 20
4.8345895695
 30
0.0
 10
1.9532408957
 20
4.8071207297
 30
0.0
 10
1.9610009822
 20
4.7854870432
 30
0.0
 10
1.9700064121
 20
4.7638959782
 30
0.0
 10
1.9834788648
 20
4.7373704332
 30
0.0
 10
1.999582809
 20
4.7119563816
 30
0.0
 10
2.0140506601
 20
4.6922078554
 30
0.0
 10
2.029782254
 20
4.6726130454
 30
0.0
 10
2.0514395515
 20
4.6489486151
 30
0.0
 10
2.0752517898
 20
4.626821562
 30
0.0
 10
2.0956712245
 20
4.6099195863
 30
0.0
 10
2.1172698698
 20
4.5933711682
 30
0.0
 10
2.145924434
 20
4.5738282062
 30
0.0
 10
2.1825013084
 20
4.5524340254
 30
0.0
 10
2.2212911328
 20
4.5330744131
 30
0.0
 10
2.2620602707
 20
4.5158749112
 30
0.0
 10
2.304529494
 20
4.5009203783
 30
0.0
 10
2.3336177991
 20
4.4925623605
 30
0.0
 10
2.3483686167
 20
4.4887784769
 30
0.0
  0
SPLINE
  5
338
100
AcDbEntity
  8
0
100
AcDbSpline
 62
9
  6
CONTINUOUS
 70
0
 71
3
 72
26
 73
22
 74
0
 42
0.0000001
 43
0.0000001
 44
0.0000000001
 40
0.0
 40
0.0
 40
0.0
 40
0.0
 40
0.0731187211
 40
0.1452209158
 40
0.216065488
 40
0.2854394851
 40
0.353229165
 40
0.4193734806
 40
0.4518215067
 40
0.4838470423
 40
0.5466210688
 40
0.6077286591
 40
0.6376801551
 40
0.6672395794
 40
0.7252409715
 40
0.781924544
 40
0.8098464191
 40
0.8375226725
 40
0.8922385925
 40
0.946318534
 40
1.0
 40
1.0
 40
1.0
 40
1.0
 10
2.7720459794
 20
4.4887784769
 30
0.0
 10
2.7867967971
 20
4.4925623605
 30
0.0
 10
2.8158851022
 20
4.5009203783
 30
0.0
 10
2.8583543255
 20
4.5158749112
 30
0.0
 10
2.8991234634
 20
4.5330744131
 30
0.0
 10
2.9379132878
 20
4.5524340254
 30
0.0
 10
2.9744901621
 20
4.5738282062
 30
0.0
 10
3.0031447264
 20
4.5933711682
 30
0.0
 10
3.0247433717
 20
4.6099195863
 30
0.0
 10
3.0451628064
 20
4.626821562
 30
0.0
 10
3.0689750447
 20
4.6489486151
 30
0.0
 10
3.0906323422
 20
4.6726130454
 30
0.0
 10
3.1063639361
 20
4.6922078554
 30
0.0
 10
3.1208317872
 20
4.7119563816
 30
0.0
 10
3.1369357314
 20
4.7373704332
 30
0.0
 10
3.1504081841
 20
4.7638959782
 30
0.0
 10
3.159413614
 20
4.7854870432
 30
0.0
 10
3.1671737005
 20
4.8071207297
 30
0.0
 10
3.1746936664
 20
4.8345895695
 30
0.0
 10
3.1801580064
 20
4.8680444762
 30
0.0
 10
3.1813853194
 20
4.8905065461
 30
0.0
 10
3.1813853194
 20
4.9016867641
 30
0.0
  0
SPLINE
  5
339
100
AcDbEntity
  8
0
100
AcDbSpline
 62
7
  6
CONTINUOUS
 70
0
 71
3
 72
21
 73
17
 74
0
 42
0.0000001
 43
0.0000001
 44
0.0000000001
 40
0.0
 40
0.0
 40
0.0
 40
0.0
 40
0.1233021611
 40
0.1855541662
 40
0.2481043089
 40
0.3108843067
 40
0.3738310941
 40
0.4368880117
 40
0.5000002232
 40
0.5631124272
 40
0.6261693195
 40
0.6891160547
 40
0.7518959746
 40
0.8144460264
 40
0.8766979423
 40
1.0
 40
1.0
 40
1.0
 40
1.0
 10
1.8319271133
 20
4.0124094471
 30
0.0
 10
1.8344793237
 20
4.0227558628
 30
0.0
 10
1.8378779196
 20
4.0384402523
 30
0.0
 10
1.8415040704
 20
4.0595763088
 30
0.0
 10
1.8437697928
 20
4.0756318956
 30
0.0
 10
1.8455531124
 20
4.0918085159
 30
0.0
 10
1.8468318314
 20
4.1080769492
 30
0.0
 10
1.8475981148
 20
4.1244062556
 30
0.0
 10
1.8478537123
 20
4.1407658084
 30
0.0
 10
1.8475980506
 20
4.1571253578
 30
0.0
 10
1.8468317195
 20
4.1734546543
 30
0.0
 10
1.8455529938
 20
4.1897230733
 30
0.0
 10
1.8437696846
 20
4.2058996754
 30
0.0
 10
1.8415039809
 20
4.2219552423
 30
0.0
 10
1.8378778564
 20
4.2430912785
 30
0.0
 10
1.834479273
 20
4.2587756542
 30
0.0
 10
1.8319270601
 20
4.26912206
 30
0.0
  0
SPLINE
  5
33A
100
AcDbEntity
  8
0
100
AcDbSpline
 62
7
  6
CONTINUOUS
 70
0
 71
3
 72
22
 73
18
 74
0
 42
0.0000001
 43
0.0000001
 44
0.0000000001
 40
0.0
 40
0.0
 40
0.0
 40
0.0
 40
0.1520570584
 40
0.2263941957
 40
0.2993038215
 40
0.3705689242
 40
0.4399918559
 40
0.5073969243
 40
0.5726156743
 40
0.6354874284
 40
0.6958655853
 40
0.753627938
 40
0.8086635301
 40
0.860871661
 40
0.9101709008
 40
0.9565415941
 40
1.0
 40
1.0
 40
1.0
 40
1.0
 10
1.8319270601
 20
4.26912206
 30
0.0
 10
1.8279918226
 20
4.2850751352
 30
0.0
 10
1.8223918084
 20
4.3088932792
 30
0.0
 10
1.8156593786
 20
4.3405285627
 30
0.0
 10
1.8111113983
 20
4.3636999868
 30
0.0
 10
1.8070733002
 20
4.3864267561
 30
0.0
 10
1.8035829268
 20
4.4086423904
 30
0.0
 10
1.8006640144
 20
4.4302814526
 30
0.0
 10
1.7983422907
 20
4.4512809569
 30
0.0
 10
1.7966428625
 20
4.4715785424
 30
0.0
 10
1.7955905989
 20
4.4911135144
 30
0.0
 10
1.7951851511
 20
4.5098260259
 30
0.0
 10
1.795426559
 20
4.5276589784
 30
0.0
 10
1.7963135813
 20
4.5445564976
 30
0.0
 10
1.7978497812
 20
4.5604679891
 30
0.0
 10
1.8000158121
 20
4.5753513339
 30
0.0
 10
1.8019233657
 20
4.5848752427
 30
0.0
 10
1.802986437
 20
4.5894494467
 30
0.0
  0
SPLINE
  5
33B
100
AcDbEntity
  8
0
100
AcDbSpline
 62
7
  6
CONTINUOUS
 70
0
 71
3
 72
11
 73
7
 74
0
 42
0.0000001
 43
0.0000001
 44
0.0000000001
 40
0.0
 40
0.0
 40
0.0
 40
0.0
 40
0.2766940124
 40
0.5359622931
 40
0.7771736605
 40
1.0
 40
1.0
 40
1.0
 40
1.0
 10
1.7952800405
 20
3.7695345724
 30
0.0
 10
1.7952800405
 20
3.7623412641
 30
0.0
 10
1.7955801712
 20
3.7484050407
 30
0.0
 10
1.7970094499
 20
3.7282421436
 30
0.0
 10
1.7993816612
 20
3.7095778491
 30
0.0
 10
1.8016702362
 20
3.6977215649
 30
0.0
 10
1.8029828867
 20
3.6920793536
 30
0.0
  0
SPLINE
  5
33C
100
AcDbEntity
  8
0
100
AcDbSpline
 62
9
  6
CONTINUOUS
 70
0
 71
3
 72
21
 73
17
 74
0
 42
0.0000001
 43
0.0000001
 44
0.0000000001
 40
0.0
 40
0.0
 40
0.0
 40
0.0
 40
0.0510036418
 40
0.1023092674
 40
0.1542436843
 40
0.2071213192
 40
0.2612394697
 40
0.316874891
 40
0.4336392903
 40
0.4952553765
 40
0.5592475736
 40
0.6257610035
 40
0.6949219541
 40
0.7668399291
 40
0.8416096011
 40
1.0
 40
1.0
 40
1.0
 40
1.0
 10
1.7517072986
 20
4.1407637463
 30
0.0
 10
1.7517086131
 20
4.1381058601
 30
0.0
 10
1.7519227807
 20
4.1327720699
 30
0.0
 10
1.7528776043
 20
4.1247832502
 30
0.0
 10
1.7544653175
 20
4.1167959821
 30
0.0
 10
1.7566847196
 20
4.108809165
 30
0.0
 10
1.7595347064
 20
4.1008202031
 30
0.0
 10
1.7642486432
 20
4.0899900445
 30
0.0
 10
1.7701944077
 20
4.0793030572
 30
0.0
 10
1.7772136585
 20
4.0687985985
 30
0.0
 10
1.7831958604
 20
4.060764907
 30
0.0
 10
1.7897977014
 20
4.0527182142
 30
0.0
 10
1.7970168406
 20
4.0446571756
 30
0.0
 10
1.8048505202
 20
4.0365812687
 30
0.0
 10
1.8163325617
 20
4.0255814161
 30
0.0
 10
1.8255351545
 20
4.0176314434
 30
0.0
 10
1.831927005
 20
4.0124091208
 30
0.0
  0
SPLINE
  5
33D
100
AcDbEntity
  8
0
100
AcDbSpline
 62
7
  6
CONTINUOUS
 70
0
 71
3
 72
14
 73
10
 74
0
 42
0.0000001
 43
0.0000001
 44
0.0000000001
 40
0.0
 40
0.0
 40
0.0
 40
0.0
 40
0.1395780643
 40
0.276397559
 40
0.5386552625
 40
0.6627794818
 40
0.7814477589
 40
0.8940598416
 40
1.0
 40
1.0
 40
1.0
 40
1.0
 10
1.8319271133
 20
4.0124094471
 30
0.0
 10
1.8291839911
 20
4.0012890942
 30
0.0
 10
1.8239192434
 20
3.9792259902
 30
0.0
 10
1.8144416492
 20
3.9360514086
 30
0.0
 10
1.8065688819
 20
3.8938232415
 30
0.0
 10
1.8007667373
 20
3.8527812292
 30
0.0
 10
1.7976525626
 20
3.8237771552
 30
0.0
 10
1.7957456345
 20
3.7961639952
 30
0.0
 10
1.7952800405
 20
3.778227955
 30
0.0
 10
1.7952800405
 20
3.7695345724
 30
0.0
  0
SPLINE
  5
33E
100
AcDbEntity
  8
0
100
AcDbSpline
 62
9
  6
CONTINUOUS
 70
0
 71
3
 72
22
 73
18
 74
0
 42
0.0000001
 43
0.0000001
 44
0.0000000001
 40
0.0
 40
0.0
 40
0.0
 40
0.0
 40
0.0512719867
 40
0.1024583227
 40
0.1540208899
 40
0.2064091959
 40
0.260050889
 40
0.3153392426
 40
0.4317898388
 40
0.4933315245
 40
0.55726085
 40
0.6237068811
 40
0.6928245727
 40
0.7648283707
 40
0.8399148064
 40
0.9182553238
 40
1.0
 40
1.0
 40
1.0
 40
1.0
 10
1.7517072981
 20
4.1407655963
 30
0.0
 10
1.7517072985
 20
4.1434375013
 30
0.0
 10
1.751914524
 20
4.1487792953
 30
0.0
 10
1.7528571799
 20
4.1567580746
 30
0.0
 10
1.7544299058
 20
4.1646964439
 30
0.0
 10
1.7566314493
 20
4.1726160424
 30
0.0
 10
1.7594608882
 20
4.180539665
 30
0.0
 10
1.7641433052
 20
4.1913185982
 30
0.0
 10
1.7700418058
 20
4.2019872262
 30
0.0
 10
1.777022183
 20
4.2124898082
 30
0.0
 10
1.7829860778
 20
4.2205242441
 30
0.0
 10
1.789585412
 20
4.2285619438
 30
0.0
 10
1.7968242399
 20
4.2366040677
 30
0.0
 10
1.8046926831
 20
4.2446721565
 30
0.0
 10
1.8131869987
 20
4.2527903918
 30
0.0
 10
1.8223030901
 20
4.2609836633
 30
0.0
 10
1.8286541187
 20
4.266394454
 30
0.0
 10
1.8319273493
 20
4.2691207679
 30
0.0
  0
SPLINE
  5
33F
100
AcDbEntity
  8
0
100
AcDbSpline
 62
7
  6
CONTINUOUS
 70
0
 71
3
 72
15
 73
11
 74
0
 42
0.0000001
 43
0.0000001
 44
0.0000000001
 40
0.0
 40
0.0
 40
0.0
 40
0.0
 40
0.1366486203
 40
0.2702585139
 40
0.4005813666
 40
0.5274426081
 40
0.650699451
 40
0.7703724108
 40
0.8866692408
 40
1.0
 40
1.0
 40
1.0
 40
1.0
 10
4.9456755434
 20
6.0617973872
 30
0.0
 10
4.9537543604
 20
6.0537185703
 30
0.0
 10
4.9699998659
 20
6.0380043664
 30
0.0
 10
4.9949798057
 20
6.0156792663
 30
0.0
 10
5.020328757
 20
5.9950416469
 30
0.0
 10
5.0460486306
 20
5.9762960054
 30
0.0
 10
5.0721438393
 20
5.9596702749
 30
0.0
 10
5.0986121787
 20
5.9454079961
 30
0.0
 10
5.1254254616
 20
5.9337425329
 30
0.0
 10
5.1437133274
 20
5.9277718328
 30
0.0
 10
5.1528656335
 20
5.9253179162
 30
0.0
  0
SPLINE
  5
340
100
AcDbEntity
  8
0
100
AcDbSpline
 62
7
  6
CONTINUOUS
 70
0
 71
3
 72
22
 73
18
 74
0
 42
0.0000001
 43
0.0000001
 44
0.0000000001
 40
0.0
 40
0.0
 40
0.0
 40
0.0
 40
0.1399335705
 40
0.2083846695
 40
0.2757497122
 40
0.3419917268
 40
0.4070744817
 40
0.4709648266
 40
0.5336536564
 40
0.5951606134
 40
0.6555300954
 40
0.7148292383
 40
0.7731603967
 40
0.8306649961
 40
0.8875121945
 40
0.9438881213
 40
1.0
 40
1.0
 40
1.0
 40
1.0
 10
7.1107390528
 20
7.0287338778
 30
0.0
 10
7.1003481721
 20
7.0391247585
 30
0.0
 10
7.0845397305
 20
7.0542729919
 30
0.0
 10
7.0628408177
 20
7.073452907
 30
0.0
 10
7.0465324212
 20
7.0870332288
 30
0.0
 10
7.0300706655
 20
7.0998601766
 30
0.0
 10
7.013455177
 20
7.1118761767
 30
0.0
 10
6.996686362
 20
7.123018039
 30
0.0
 10
6.9797665808
 20
7.1332220265
 30
0.0
 10
6.9626982507
 20
7.1424224977
 30
0.0
 10
6.9454884499
 20
7.150557164
 30
0.0
 10
6.9281494756
 20
7.1575697438
 30
0.0
 10
6.9106941274
 20
7.1634030205
 30
0.0
 10
6.8931362894
 20
7.1679945222
 30
0.0
 10
6.8755001986
 20
7.171305489
 30
0.0
 10
6.8578160877
 20
7.1733132188
 30
0.0
 10
6.8459986231
 20
7.1737656325
 30
0.0
 10
6.8401061141
 20
7.1737656325
 30
0.0
  0
SPLINE
  5
341
100
AcDbEntity
  8
0
100
AcDbSpline
 62
7
  6
CONTINUOUS
 70
0
 71
3
 72
27
 73
23
 74
0
 42
0.0000001
 43
0.0000001
 44
0.0000000001
 40
0.0
 40
0.0
 40
0.0
 40
0.0
 40
0.0645318297
 40
0.128376228
 40
0.1915510275
 40
0.2541026775
 40
0.2851691786
 40
0.3161099707
 40
0.3469392251
 40
0.3776730715
 40
0.4389179639
 40
0.4999999979
 40
0.5610820327
 40
0.6223269253
 40
0.6530607711
 40
0.6838900248
 40
0.7148308161
 40
0.7458973163
 40
0.8084489651
 40
0.871623766
 40
0.9354681682
 40
1.0
 40
1.0
 40
1.0
 40
1.0
 10
3.6926545288
 20
5.613008819
 30
0.0
 10
3.6868317427
 20
5.5992956345
 30
0.0
 10
3.6757238636
 20
5.5718097274
 30
0.0
 10
3.6607667054
 20
5.5301804193
 30
0.0
 10
3.6477625077
 20
5.4883762321
 30
0.0
 10
3.6386612235
 20
5.4533240983
 30
0.0
 10
3.6325117561
 20
5.4252300263
 30
0.0
 10
3.6284869184
 20
5.4041758161
 30
0.0
 10
3.6250565204
 20
5.3830941657
 30
0.0
 10
3.6212997688
 20
5.3549888277
 30
0.0
 10
3.6181332442
 20
5.3197726078
 30
0.0
 10
3.6168477742
 20
5.2774239764
 30
0.0
 10
3.6181332461
 20
5.2350753452
 30
0.0
 10
3.6212997657
 20
5.1998591247
 30
0.0
 10
3.6250565179
 20
5.171753787
 30
0.0
 10
3.6284869186
 20
5.1506721375
 30
0.0
 10
3.6325117567
 20
5.129617928
 30
0.0
 10
3.6386612239
 20
5.1015238567
 30
0.0
 10
3.647762508
 20
5.0664717229
 30
0.0
 10
3.6607667089
 20
5.0246675358
 30
0.0
 10
3.6757238643
 20
4.9830382249
 30
0.0
 10
3.6868317425
 20
4.9555523159
 30
0.0
 10
3.6926545288
 20
4.941839131
 30
0.0
  0
SPLINE
  5
342
100
AcDbEntity
  8
0
100
AcDbSpline
 62
7
  6
CONTINUOUS
 70
0
 71
3
 72
20
 73
16
 74
0
 42
0.0000001
 43
0.0000001
 44
0.0000000001
 40
0.0
 40
0.0
 40
0.0
 40
0.0
 40
0.041554539
 40
0.0865576785
 40
0.1349878789
 40
0.1867901144
 40
0.2418738999
 40
0.3000757478
 40
0.3612002773
 40
0.4250397507
 40
0.4913674169
 40
0.5599068628
 40
0.7024279795
 40
0.8501124553
 40
1.0
 40
1.0
 40
1.0
 40
1.0
 10
3.6926545288
 20
4.941839131
 30
0.0
 10
3.6933664
 20
4.9401626106
 30
0.0
 10
3.6947006495
 20
4.936606357
 30
0.0
 10
3.6963911888
 20
4.9309324313
 30
0.0
 10
3.6978408633
 20
4.9247302831
 30
0.0
 10
3.6990389906
 20
4.9180259801
 30
0.0
 10
3.6999748711
 20
4.9108483126
 30
0.0
 10
3.7006460197
 20
4.9032311923
 30
0.0
 10
3.7010492084
 20
4.8952111651
 30
0.0
 10
3.7011811237
 20
4.88682608
 30
0.0
 10
3.7010388022
 20
4.8781162235
 30
0.0
 10
3.7004798835
 20
4.8659693153
 30
0.0
 10
3.6990967955
 20
4.8502976085
 30
0.0
 10
3.6964292104
 20
4.8311860218
 30
0.0
 10
3.6940189246
 20
4.8183618694
 30
0.0
 10
3.6926545288
 20
4.8119353205
 30
0.0
  0
SPLINE
  5
343
100
AcDbEntity
  8
0
100
AcDbSpline
 62
7
  6
CONTINUOUS
 70
0
 71
3
 72
23
 73
19
 74
0
 42
0.0000001
 43
0.0000001
 44
0.0000000001
 40
0.0
 40
0.0
 40
0.0
 40
0.0
 40
0.1249869304
 40
0.1874882844
 40
0.2499903356
 40
0.3124904393
 40
0.3437414727
 40
0.3749934885
 40
0.4374969634
 40
0.4999999976
 40
0.5625030326
 40
0.6250065081
 40
0.6562585233
 40
0.6875095556
 40
0.7500096574
 40
0.8125117072
 40
0.8750130622
 40
1.0
 40
1.0
 40
1.0
 40
1.0
 10
3.6926545288
 20
4.8119353205
 30
0.0
 10
3.6809458437
 20
4.75678531
 30
0.0
 10
3.6650212099
 20
4.6736898474
 30
0.0
 10
3.6477031325
 20
4.5622528382
 30
0.0
 10
3.6368230076
 20
4.4783665072
 30
0.0
 10
3.629622957
 20
4.4082427646
 30
0.0
 10
3.6250516531
 20
4.3520400872
 30
0.0
 10
3.621292585
 20
4.295775781
 30
0.0
 10
3.6181306266
 20
4.2253505102
 30
0.0
 10
3.6168485138
 20
4.1407656355
 30
0.0
 10
3.6181306286
 20
4.0561807606
 30
0.0
 10
3.6212925819
 20
3.9857554892
 30
0.0
 10
3.6250516506
 20
3.9294911836
 30
0.0
 10
3.6296229581
 20
3.873288508
 30
0.0
 10
3.6368230079
 20
3.8031647675
 30
0.0
 10
3.6477031328
 20
3.7192784374
 30
0.0
 10
3.6650212147
 20
3.6078414258
 30
0.0
 10
3.680945843
 20
3.5247459583
 30
0.0
 10
3.6926545288
 20
3.4695959446
 30
0.0
  0
SPLINE
  5
344
100
AcDbEntity
  8
0
100
AcDbSpline
 62
7
  6
CONTINUOUS
 70
0
 71
3
 72
20
 73
16
 74
0
 42
0.0000001
 43
0.0000001
 44
0.0000000001
 40
0.0
 40
0.0
 40
0.0
 40
0.0
 40
0.1498881183
 40
0.2975737091
 40
0.4400952781
 40
0.5086346743
 40
0.5749622801
 40
0.6388016567
 40
0.6999259901
 40
0.7581276026
 40
0.8132111638
 40
0.865013077
 40
0.9134428488
 40
0.9584456172
 40
1.0
 40
1.0
 40
1.0
 40
1.0
 10
3.6926545288
 20
3.4695959446
 30
0.0
 10
3.6940189298
 20
3.463169371
 30
0.0
 10
3.6964292205
 20
3.4503451443
 30
0.0
 10
3.6990968336
 20
3.431233467
 30
0.0
 10
3.700479924
 20
3.4155616928
 30
0.0
 10
3.7010388155
 20
3.4034147684
 30
0.0
 10
3.7011811239
 20
3.3947049208
 30
0.0
 10
3.7010491957
 20
3.3863198513
 30
0.0
 10
3.7006459871
 20
3.3782998482
 30
0.0
 10
3.6999748243
 20
3.3706827582
 30
0.0
 10
3.699038952
 20
3.3635051245
 30
0.0
 10
3.697840844
 20
3.3568008614
 30
0.0
 10
3.6963911785
 20
3.3505987614
 30
0.0
 10
3.6947006437
 20
3.344924878
 30
0.0
 10
3.6933663973
 20
3.3413686482
 30
0.0
 10
3.6926545288
 20
3.339692134
 30
0.0
  0
SPLINE
  5
345
100
AcDbEntity
  8
0
100
AcDbSpline
 62
7
  6
CONTINUOUS
 70
0
 71
3
 72
27
 73
23
 74
0
 42
0.0000001
 43
0.0000001
 44
0.0000000001
 40
0.0
 40
0.0
 40
0.0
 40
0.0
 40
0.0645318297
 40
0.128376228
 40
0.1915510275
 40
0.2541026775
 40
0.2851691786
 40
0.3161099707
 40
0.3469392251
 40
0.3776730715
 40
0.4389179639
 40
0.4999999979
 40
0.5610820327
 40
0.6223269253
 40
0.6530607711
 40
0.6838900248
 40
0.7148308161
 40
0.7458973163
 40
0.8084489651
 40
0.871623766
 40
0.9354681682
 40
1.0
 40
1.0
 40
1.0
 40
1.0
 10
3.6926545288
 20
3.339692134
 30
0.0
 10
3.6868317427
 20
3.3259789496
 30
0.0
 10
3.6757238636
 20
3.2984930425
 30
0.0
 10
3.6607667054
 20
3.2568637344
 30
0.0
 10
3.6477625077
 20
3.2150595472
 30
0.0
 10
3.6386612235
 20
3.1800074134
 30
0.0
 10
3.6325117561
 20
3.1519133413
 30
0.0
 10
3.6284869184
 20
3.1308591312
 30
0.0
 10
3.6250565204
 20
3.1097774808
 30
0.0
 10
3.6212997688
 20
3.0816721428
 30
0.0
 10
3.6181332442
 20
3.0464559229
 30
0.0
 10
3.6168477742
 20
3.0041072915
 30
0.0
 10
3.6181332461
 20
2.9617586603
 30
0.0
 10
3.6212997657
 20
2.9265424398
 30
0.0
 10
3.6250565179
 20
2.8984371021
 30
0.0
 10
3.6284869186
 20
2.8773554526
 30
0.0
 10
3.6325117567
 20
2.8563012431
 30
0.0
 10
3.6386612239
 20
2.8282071717
 30
0.0
 10
3.647762508
 20
2.793155038
 30
0.0
 10
3.6607667089
 20
2.7513508509
 30
0.0
 10
3.6757238643
 20
2.70972154
 30
0.0
 10
3.6868317425
 20
2.682235631
 30
0.0
 10
3.6926545288
 20
2.6685224461
 30
0.0
  0
SPLINE
  5
346
100
AcDbEntity
  8
0
100
AcDbSpline
 62
7
  6
CONTINUOUS
 70
0
 71
3
 72
24
 73
20
 74
0
 42
0.0000001
 43
0.0000001
 44
0.0000000001
 40
0.0
 40
0.0
 40
0.0
 40
0.0
 40
0.0648252106
 40
0.1290459698
 40
0.1926717455
 40
0.2557318366
 40
0.3182731493
 40
0.3493713579
 40
0.380366687
 40
0.4420921951
 40
0.5035592738
 40
0.5648833247
 40
0.6261892747
 40
0.6876039792
 40
0.7492456212
 40
0.8112224796
 40
0.87362879
 40
0.936537297
 40
1.0
 40
1.0
 40
1.0
 40
1.0
 10
4.2143356709
 20
2.6685224461
 30
0.0
 10
4.2194352198
 20
2.6805323419
 30
0.0
 10
4.2292215391
 20
2.7045976431
 30
0.0
 10
4.2426098068
 20
2.7410016239
 30
0.0
 10
4.2545332664
 20
2.7775398958
 30
0.0
 10
4.2648834023
 20
2.8142045162
 30
0.0
 10
4.2721345007
 20
2.8449113146
 30
0.0
 10
4.2770500046
 20
2.8695130582
 30
0.0
 10
4.2813505069
 20
2.8940629896
 30
0.0
 10
4.2855775191
 20
2.9248221459
 30
0.0
 10
4.2887631735
 20
2.9618399081
 30
0.0
 10
4.2900224659
 20
2.9988899343
 30
0.0
 10
4.2893145685
 20
3.0359441251
 30
0.0
 10
4.286667139
 20
3.0729736568
 30
0.0
 10
4.2821186917
 20
3.1099534779
 30
0.0
 10
4.2757012325
 20
3.1468565541
 30
0.0
 10
4.26750116
 20
3.1836645211
 30
0.0
 10
4.2576112631
 20
3.2203625697
 30
0.0
 10
4.2499851155
 20
3.2446359553
 30
0.0
 10
4.2459271561
 20
3.2567477171
 30
0.0
  0
SPLINE
  5
347
100
AcDbEntity
  8
0
100
AcDbSpline
 62
7
  6
CONTINUOUS
 70
0
 71
3
 72
20
 73
16
 74
0
 42
0.0000001
 43
0.0000001
 44
0.0000000001
 40
0.0
 40
0.0
 40
0.0
 40
0.0
 40
0.0415545006
 40
0.0865575542
 40
0.1349876656
 40
0.1867898519
 40
0.2418736315
 40
0.3000754812
 40
0.3612000112
 40
0.4250394777
 40
0.4913671136
 40
0.5599065157
 40
0.7024276517
 40
0.8501123314
 40
1.0
 40
1.0
 40
1.0
 40
1.0
 10
4.2143356709
 20
3.339692134
 30
0.0
 10
4.2136238004
 20
3.3413686529
 30
0.0
 10
4.2122895532
 20
3.3449249015
 30
0.0
 10
4.2105990197
 20
3.3505988191
 30
0.0
 10
4.2091493524
 20
3.3568009589
 30
0.0
 10
4.2079512326
 20
3.3635052567
 30
0.0
 10
4.2070153537
 20
3.3706829219
 30
0.0
 10
4.2063441992
 20
3.3783000413
 30
0.0
 10
4.2059410011
 20
3.3863200677
 30
0.0
 10
4.2058090759
 20
3.394705151
 30
0.0
 10
4.2059513876
 20
3.403415004
 30
0.0
 10
4.2065102938
 20
3.4155619103
 30
0.0
 10
4.2078933797
 20
3.4312336253
 30
0.0
 10
4.2105609815
 20
3.450345225
 30
0.0
 10
4.2129712741
 20
3.4631693904
 30
0.0
 10
4.2143356709
 20
3.4695959446
 30
0.0
  0
SPLINE
  5
348
100
AcDbEntity
  8
0
100
AcDbSpline
 62
7
  6
CONTINUOUS
 70
0
 71
3
 72
23
 73
19
 74
0
 42
0.0000001
 43
0.0000001
 44
0.0000000001
 40
0.0
 40
0.0
 40
0.0
 40
0.0
 40
0.1249869301
 40
0.1874882841
 40
0.2499903353
 40
0.312490439
 40
0.3437414724
 40
0.3749934882
 40
0.4374969632
 40
0.4999999974
 40
0.5625030324
 40
0.6250065079
 40
0.656258523
 40
0.6875095553
 40
0.7500096572
 40
0.8125117069
 40
0.8750130619
 40
1.0
 40
1.0
 40
1.0
 40
1.0
 10
4.2143356709
 20
3.4695959446
 30
0.0
 10
4.226044356
 20
3.5247459549
 30
0.0
 10
4.2419689858
 20
3.6078414182
 30
0.0
 10
4.2592870616
 20
3.7192784275
 30
0.0
 10
4.2701671892
 20
3.8031647581
 30
0.0
 10
4.2773672426
 20
3.8732885004
 30
0.0
 10
4.2819385478
 20
3.9294911777
 30
0.0
 10
4.2856976165
 20
3.9857554839
 30
0.0
 10
4.2888595747
 20
4.0561807548
 30
0.0
 10
4.290141686
 20
4.1407656295
 30
0.0
 10
4.2888595697
 20
4.2253505043
 30
0.0
 10
4.2856976161
 20
4.2957757757
 30
0.0
 10
4.281938548
 20
4.3520400813
 30
0.0
 10
4.2773672418
 20
4.408242757
 30
0.0
 10
4.2701671949
 20
4.4783664978
 30
0.0
 10
4.2592870726
 20
4.5622528282
 30
0.0
 10
4.241968989
 20
4.6736898397
 30
0.0
 10
4.2260443568
 20
4.7567853066
 30
0.0
 10
4.2143356709
 20
4.8119353205
 30
0.0
  0
SPLINE
  5
349
100
AcDbEntity
  8
0
100
AcDbSpline
 62
7
  6
CONTINUOUS
 70
0
 71
3
 72
20
 73
16
 74
0
 42
0.0000001
 43
0.0000001
 44
0.0000000001
 40
0.0
 40
0.0
 40
0.0
 40
0.0
 40
0.1498879932
 40
0.297573378
 40
0.4400949282
 40
0.5086343695
 40
0.5749620071
 40
0.6388013918
 40
0.6999257256
 40
0.758127337
 40
0.8132109043
 40
0.8650128661
 40
0.9134427258
 40
0.9584455792
 40
1.0
 40
1.0
 40
1.0
 40
1.0
 10
4.2143356709
 20
4.8119353205
 30
0.0
 10
4.2129712711
 20
4.8183618887
 30
0.0
 10
4.2105609872
 20
4.8311861023
 30
0.0
 10
4.207893391
 20
4.8502977666
 30
0.0
 10
4.2065102985
 20
4.8659695324
 30
0.0
 10
4.2059513944
 20
4.8781164589
 30
0.0
 10
4.2058090761
 20
4.8868263101
 30
0.0
 10
4.2059409944
 20
4.8952113817
 30
0.0
 10
4.2063441937
 20
4.9032313857
 30
0.0
 10
4.2070153507
 20
4.9108484765
 30
0.0
 10
4.2079512246
 20
4.9180261126
 30
0.0
 10
4.20914934
 20
4.9247303808
 30
0.0
 10
4.2105990126
 20
4.9309324892
 30
0.0
 10
4.2122895531
 20
4.9366063806
 30
0.0
 10
4.2136238018
 20
4.9401626153
 30
0.0
 10
4.2143356709
 20
4.941839131
 30
0.0
  0
SPLINE
  5
34A
100
AcDbEntity
  8
0
100
AcDbSpline
 62
7
  6
CONTINUOUS
 70
0
 71
3
 72
9
 73
5
 74
0
 42
0.0000001
 43
0.0000001
 44
0.0000000001
 40
0.0
 40
0.0
 40
0.0
 40
0.0
 40
0.2518581629
 40
1.0
 40
1.0
 40
1.0
 40
1.0
 10
4.2143356709
 20
4.941839131
 30
0.0
 10
4.2170113515
 20
4.9481405992
 30
0.0
 10
4.2274336776
 20
4.9732451422
 30
0.0
 10
4.2370110766
 20
4.9987037821
 30
0.0
 10
4.243607388
 20
5.0179402228
 30
0.0
  0
SPLINE
  5
34B
100
AcDbEntity
  8
0
100
AcDbSpline
 62
7
  6
CONTINUOUS
 70
0
 71
3
 72
24
 73
20
 74
0
 42
0.0000001
 43
0.0000001
 44
0.0000000001
 40
0.0
 40
0.0
 40
0.0
 40
0.0
 40
0.0634622822
 40
0.1263704379
 40
0.1887764723
 40
0.2507531365
 40
0.3123946683
 40
0.373809341
 40
0.4351153324
 40
0.4964394887
 40
0.5579067171
 40
0.6196324016
 40
0.650627824
 40
0.6817261269
 40
0.7442676245
 40
0.8073278869
 40
0.8709538151
 40
0.9351746995
 40
1.0
 40
1.0
 40
1.0
 40
1.0
 10
4.2459378514
 20
5.0248154844
 30
0.0
 10
4.2499951548
 20
5.0369266254
 30
0.0
 10
4.2576200107
 20
5.0611987669
 30
0.0
 10
4.2675080615
 20
5.0978948991
 30
0.0
 10
4.2757064102
 20
5.1347009261
 30
0.0
 10
4.2821222622
 20
5.1716020426
 30
0.0
 10
4.2866692731
 20
5.2085798773
 30
0.0
 10
4.2893154604
 20
5.2456074008
 30
0.0
 10
4.2900222905
 20
5.2826595666
 30
0.0
 10
4.2887621585
 20
5.3197075531
 30
0.0
 10
4.285575902
 20
5.356723269
 30
0.0
 10
4.2813485653
 20
5.3874807164
 30
0.0
 10
4.2770479177
 20
5.4120292854
 30
0.0
 10
4.2721323456
 20
5.4366296648
 30
0.0
 10
4.2648813003
 20
5.4673347594
 30
0.0
 10
4.2545314218
 20
5.50399735
 30
0.0
 10
4.2426084046
 20
5.5405336055
 30
0.0
 10
4.2292207527
 20
5.5769355859
 30
0.0
 10
4.2194349425
 20
5.6009995763
 30
0.0
 10
4.2143356709
 20
5.613008819
 30
0.0
  0
SPLINE
  5
34C
100
AcDbEntity
  8
0
100
AcDbSpline
 62
7
  6
CONTINUOUS
 70
0
 71
3
 72
11
 73
7
 74
0
 42
0.0000001
 43
0.0000001
 44
0.0000000001
 40
0.0
 40
0.0
 40
0.0
 40
0.0
 40
0.1865495715
 40
0.4034926404
 40
0.6709490865
 40
1.0
 40
1.0
 40
1.0
 40
1.0
 10
6.7956663712
 20
5.7853980618
 30
0.0
 10
6.7956660527
 20
5.7854728013
 30
0.0
 10
6.7956274341
 20
5.7856353044
 30
0.0
 10
6.7954723071
 20
5.7858594944
 30
0.0
 10
6.7952279623
 20
5.7860778796
 30
0.0
 10
6.7950266851
 20
5.7862080897
 30
0.0
 10
6.7949127528
 20
5.7862744168
 30
0.0
  0
SPLINE
  5
34D
100
AcDbEntity
  8
0
100
AcDbSpline
 62
7
  6
CONTINUOUS
 70
0
 71
3
 72
11
 73
7
 74
0
 42
0.0000001
 43
0.0000001
 44
0.0000000001
 40
0.0
 40
0.0
 40
0.0
 40
0.0
 40
0.3294928879
 40
0.5973712769
 40
0.8142453236
 40
1.0
 40
1.0
 40
1.0
 40
1.0
 10
5.2614463
 20
5.8626415109
 30
0.0
 10
5.2613311058
 20
5.8627079843
 30
0.0
 10
5.2611274452
 20
5.8628384142
 30
0.0
 10
5.2608795985
 20
5.8630569555
 30
0.0
 10
5.2607213857
 20
5.8632812043
 30
0.0
 10
5.2606812438
 20
5.8634443702
 30
0.0
 10
5.2606806434
 20
5.8635193466
 30
0.0
  0
SPLINE
  5
34E
100
AcDbEntity
  8
0
100
AcDbSpline
 62
7
  6
CONTINUOUS
 70
0
 71
3
 72
11
 73
7
 74
0
 42
0.0000001
 43
0.0000001
 44
0.0000000001
 40
0.0
 40
0.0
 40
0.0
 40
0.0
 40
0.1832692394
 40
0.3986932747
 40
0.6672412032
 40
1.0
 40
1.0
 40
1.0
 40
1.0
 10
7.9145374332
 20
2.9220213763
 30
0.0
 10
7.9144487409
 20
2.9220211872
 30
0.0
 10
7.9142545031
 20
2.9220686996
 30
0.0
 10
7.9139889798
 20
2.9222607357
 30
0.0
 10
7.9137306007
 20
2.9225626441
 30
0.0
 10
7.9135769119
 20
2.9228107775
 30
0.0
 10
7.9134984649
 20
2.9229514158
 30
0.0
  0
SPLINE
  5
34F
100
AcDbEntity
  8
0
100
AcDbSpline
 62
7
  6
CONTINUOUS
 70
0
 71
3
 72
11
 73
7
 74
0
 42
0.0000001
 43
0.0000001
 44
0.0000000001
 40
0.0
 40
0.0
 40
0.0
 40
0.0
 40
0.1852583978
 40
0.4015492957
 40
0.6694357735
 40
1.0
 40
1.0
 40
1.0
 40
1.0
 10
7.8311375138
 20
5.3595097441
 30
0.0
 10
7.8310512278
 20
5.3595099007
 30
0.0
 10
7.8308629406
 20
5.3594651954
 30
0.0
 10
7.8306041004
 20
5.3592833436
 30
0.0
 10
7.8303521422
 20
5.3589968037
 30
0.0
 10
7.8302020613
 20
5.3587609138
 30
0.0
 10
7.8301255435
 20
5.3586273102
 30
0.0
  0
SPLINE
  5
350
100
AcDbEntity
  8
0
100
AcDbSpline
 62
7
  6
CONTINUOUS
 70
0
 71
3
 72
11
 73
7
 74
0
 42
0.0000001
 43
0.0000001
 44
0.0000000001
 40
0.0
 40
0.0
 40
0.0
 40
0.0
 40
0.1865111727
 40
0.4035255482
 40
0.6710578277
 40
1.0
 40
1.0
 40
1.0
 40
1.0
 10
7.5402789089
 20
5.3595111133
 30
0.0
 10
7.5403635297
 20
5.3595107493
 30
0.0
 10
7.5405475545
 20
5.3594668121
 30
0.0
 10
7.5408012412
 20
5.3592907958
 30
0.0
 10
7.5410483876
 20
5.3590139422
 30
0.0
 10
7.5411958317
 20
5.3587860253
 30
0.0
 10
7.5412709439
 20
5.3586570607
 30
0.0
  0
SPLINE
  5
351
100
AcDbEntity
  8
0
100
AcDbSpline
 62
7
  6
CONTINUOUS
 70
0
 71
3
 72
11
 73
7
 74
0
 42
0.0000001
 43
0.0000001
 44
0.0000000001
 40
0.0
 40
0.0
 40
0.0
 40
0.0
 40
0.329873147
 40
0.5975594307
 40
0.8141184748
 40
1.0
 40
1.0
 40
1.0
 40
1.0
 10
7.7608112944
 20
5.2673372901
 30
0.0
 10
7.7607290649
 20
5.2674796399
 30
0.0
 10
7.7605677273
 20
5.2677310311
 30
0.0
 10
7.7602970083
 20
5.2680362267
 30
0.0
 10
7.7600189141
 20
5.2682297485
 30
0.0
 10
7.7598169553
 20
5.2682771146
 30
0.0
 10
7.759724321
 20
5.2682768686
 30
0.0
  0
SPLINE
  5
352
100
AcDbEntity
  8
0
100
AcDbSpline
 62
7
  6
CONTINUOUS
 70
0
 71
3
 72
11
 73
7
 74
0
 42
0.0000001
 43
0.0000001
 44
0.0000000001
 40
0.0
 40
0.0
 40
0.0
 40
0.0
 40
0.3300903948
 40
0.5978414753
 40
0.8142750407
 40
1.0
 40
1.0
 40
1.0
 40
1.0
 10
7.844188361
 20
3.0143163441
 30
0.0
 10
7.8441059291
 20
3.0141734539
 30
0.0
 10
7.8439442284
 20
3.0139211326
 30
0.0
 10
7.8436728814
 20
3.0136148618
 30
0.0
 10
7.8433940257
 20
3.0134208608
 30
0.0
 10
7.8431913934
 20
3.0133739866
 30
0.0
 10
7.84309858
 20
3.0133746828
 30
0.0
  0
SPLINE
  5
353
100
AcDbEntity
  8
0
100
AcDbSpline
 62
7
  6
CONTINUOUS
 70
0
 71
3
 72
11
 73
7
 74
0
 42
0.0000001
 43
0.0000001
 44
0.0000000001
 40
0.0
 40
0.0
 40
0.0
 40
0.0
 40
0.1849482307
 40
0.4016919393
 40
0.6698752983
 40
1.0
 40
1.0
 40
1.0
 40
1.0
 10
7.6116723653
 20
5.2682965664
 30
0.0
 10
7.6115799325
 20
5.268294693
 30
0.0
 10
7.61137902
 20
5.2682425981
 30
0.0
 10
7.6111035766
 20
5.2680442034
 30
0.0
 10
7.6108349332
 20
5.2677350365
 30
0.0
 10
7.6106746118
 20
5.2674815162
 30
0.0
 10
7.6105928848
 20
5.2673381526
 30
0.0
  0
SPLINE
  5
354
100
AcDbEntity
  8
0
100
AcDbSpline
 62
7
  6
CONTINUOUS
 70
0
 71
3
 72
11
 73
7
 74
0
 42
0.0000001
 43
0.0000001
 44
0.0000000001
 40
0.0
 40
0.0
 40
0.0
 40
0.0
 40
0.185414998
 40
0.4017699857
 40
0.669602942
 40
1.0
 40
1.0
 40
1.0
 40
1.0
 10
7.6643375268
 20
5.3595098911
 30
0.0
 10
7.6642514305
 20
5.3595100585
 30
0.0
 10
7.6640636045
 20
5.3594655956
 30
0.0
 10
7.6638052822
 20
5.3592845509
 30
0.0
 10
7.6635538244
 20
5.3589992083
 30
0.0
 10
7.6634040272
 20
5.358764266
 30
0.0
 10
7.6633276608
 20
5.3586312048
 30
0.0
  0
SPLINE
  5
355
100
AcDbEntity
  8
0
100
AcDbSpline
 62
7
  6
CONTINUOUS
 70
0
 71
3
 72
11
 73
7
 74
0
 42
0.0000001
 43
0.0000001
 44
0.0000000001
 40
0.0
 40
0.0
 40
0.0
 40
0.0
 40
0.1851931533
 40
0.401466934
 40
0.6693769133
 40
1.0
 40
1.0
 40
1.0
 40
1.0
 10
6.8719441584
 20
5.3663502551
 30
0.0
 10
6.8719441562
 20
5.3664200675
 30
0.0
 10
6.8719076893
 20
5.3665723586
 30
0.0
 10
6.8717601554
 20
5.3667815736
 30
0.0
 10
6.8715279184
 20
5.3669851643
 30
0.0
 10
6.8713368157
 20
5.3671064026
 30
0.0
 10
6.8712285874
 20
5.3671682134
 30
0.0
  0
SPLINE
  5
356
100
AcDbEntity
  8
0
100
AcDbSpline
 62
7
  6
CONTINUOUS
 70
0
 71
3
 72
11
 73
7
 74
0
 42
0.0000001
 43
0.0000001
 44
0.0000000001
 40
0.0
 40
0.0
 40
0.0
 40
0.0
 40
0.3300755411
 40
0.5977042271
 40
0.8141384932
 40
1.0
 40
1.0
 40
1.0
 40
1.0
 10
6.7949050963
 20
5.5362576289
 30
0.0
 10
6.7950225004
 20
5.5361898775
 30
0.0
 10
6.7952297482
 20
5.5360569468
 30
0.0
 10
6.795481176
 20
5.5358337505
 30
0.0
 10
6.7956403013
 20
5.5356044117
 30
0.0
 10
6.7956789578
 20
5.5354379629
 30
0.0
 10
6.7956786232
 20
5.5353616368
 30
0.0
  0
SPLINE
  5
357
100
AcDbEntity
  8
0
100
AcDbSpline
 62
7
  6
CONTINUOUS
 70
0
 71
3
 72
11
 73
7
 74
0
 42
0.0000001
 43
0.0000001
 44
0.0000000001
 40
0.0
 40
0.0
 40
0.0
 40
0.0
 40
0.185594478
 40
0.40226763
 40
0.6701393466
 40
1.0
 40
1.0
 40
1.0
 40
1.0
 10
6.795678622
 20
5.5509913922
 30
0.0
 10
6.7956782492
 20
5.5509146208
 30
0.0
 10
6.7956375956
 20
5.5507474073
 30
0.0
 10
6.7954756987
 20
5.5505175554
 30
0.0
 10
6.7952215557
 20
5.5502936404
 30
0.0
 10
6.7950125798
 20
5.5501600981
 30
0.0
 10
6.7948943212
 20
5.5500920304
 30
0.0
  0
SPLINE
  5
358
100
AcDbEntity
  8
0
100
AcDbSpline
 62
7
  6
CONTINUOUS
 70
0
 71
3
 72
11
 73
7
 74
0
 42
0.0000001
 43
0.0000001
 44
0.0000000001
 40
0.0
 40
0.0
 40
0.0
 40
0.0
 40
0.330228884
 40
0.5980514136
 40
0.8144983541
 40
1.0
 40
1.0
 40
1.0
 40
1.0
 10
6.7948757636
 20
5.6612568353
 30
0.0
 10
6.7949943951
 20
5.6611886399
 30
0.0
 10
6.7952038965
 20
5.6610548666
 30
0.0
 10
6.795458398
 20
5.6608303886
 30
0.0
 10
6.7956200057
 20
5.6605998493
 30
0.0
 10
6.7956599104
 20
5.6604322453
 30
0.0
 10
6.7956598966
 20
5.6603553795
 30
0.0
  0
SPLINE
  5
359
100
AcDbEntity
  8
0
100
AcDbSpline
 62
7
  6
CONTINUOUS
 70
0
 71
3
 72
11
 73
7
 74
0
 42
0.0000001
 43
0.0000001
 44
0.0000000001
 40
0.0
 40
0.0
 40
0.0
 40
0.0
 40
0.1827352376
 40
0.3981073828
 40
0.6668968573
 40
1.0
 40
1.0
 40
1.0
 40
1.0
 10
5.1844602817
 20
5.678866156
 30
0.0
 10
5.1844605326
 20
5.678938527
 30
0.0
 10
5.1845004977
 20
5.6790969879
 30
0.0
 10
5.1846588973
 20
5.6793131416
 30
0.0
 10
5.1849070486
 20
5.6795236062
 30
0.0
 10
5.1851107081
 20
5.6796488367
 30
0.0
 10
5.1852261033
 20
5.6797127732
 30
0.0
  0
SPLINE
  5
35A
100
AcDbEntity
  8
0
100
AcDbSpline
 62
7
  6
CONTINUOUS
 70
0
 71
3
 72
11
 73
7
 74
0
 42
0.0000001
 43
0.0000001
 44
0.0000000001
 40
0.0
 40
0.0
 40
0.0
 40
0.0
 40
0.1859651411
 40
0.4024635338
 40
0.6700609245
 40
1.0
 40
1.0
 40
1.0
 40
1.0
 10
5.2607270461
 20
5.4884522988
 30
0.0
 10
5.2607267855
 20
5.4883761889
 30
0.0
 10
5.2607653927
 20
5.4882102766
 30
0.0
 10
5.2609239157
 20
5.4879816201
 30
0.0
 10
5.2611743312
 20
5.4877590658
 30
0.0
 10
5.2613807405
 20
5.4876265029
 30
0.0
 10
5.2614976604
 20
5.4875589447
 30
0.0
  0
SPLINE
  5
35B
100
AcDbEntity
  8
0
100
AcDbSpline
 62
7
  6
CONTINUOUS
 70
0
 71
3
 72
11
 73
7
 74
0
 42
0.0000001
 43
0.0000001
 44
0.0000000001
 40
0.0
 40
0.0
 40
0.0
 40
0.0
 40
0.3297512589
 40
0.5975728863
 40
0.8142733506
 40
1.0
 40
1.0
 40
1.0
 40
1.0
 10
5.2615080259
 20
5.4737201935
 30
0.0
 10
5.261390178
 20
5.4736522346
 30
0.0
 10
5.2611819332
 20
5.4735188992
 30
0.0
 10
5.2609287554
 20
5.4732953343
 30
0.0
 10
5.2607675912
 20
5.4730658181
 30
0.0
 10
5.2607273086
 20
5.4728989198
 30
0.0
 10
5.2607270461
 20
5.4728222988
 30
0.0
  0
SPLINE
  5
35C
100
AcDbEntity
  8
0
100
AcDbSpline
 62
7
  6
CONTINUOUS
 70
0
 71
3
 72
38
 73
34
 74
0
 42
0.0000001
 43
0.0000001
 44
0.0000000001
 40
0.0
 40
0.0
 40
0.0
 40
0.0
 40
0.0004344314
 40
0.0009073606
 40
0.0014484795
 40
0.0020780162
 40
0.0028089915
 40
0.0036498115
 40
0.0056808119
 40
0.0081984879
 40
0.011214908
 40
0.0147363775
 40
0.0187663147
 40
0.0233065313
 40
0.0283578798
 40
0.0339206054
 40
0.0399945516
 40
0.0536740269
 40
0.0693910002
 40
0.0871381459
 40
0.1069059268
 40
0.1286735332
 40
0.1524140832
 40
0.2057047061
 40
0.2665578801
 40
0.3347534347
 40
0.4100991267
 40
0.4924249428
 40
0.5815610809
 40
0.6773117676
 40
0.7792873453
 40
0.887009666
 40
1.0
 40
1.0
 40
1.0
 40
1.0
 10
7.84309858
 20
3.0133746828
 30
0.0
 10
7.8430346066
 20
3.0133751627
 30
0.0
 10
7.8429004702
 20
3.0133975453
 30
0.0
 10
7.8427064621
 20
3.0134912396
 30
0.0
 10
7.8425155382
 20
3.0136423355
 30
0.0
 10
7.8423263125
 20
3.013849947
 30
0.0
 10
7.842137653
 20
3.0141142642
 30
0.0
 10
7.8418692232
 20
3.014572516
 30
0.0
 10
7.8415423833
 20
3.015297803
 30
0.0
 10
7.8411692544
 20
3.0163481285
 30
0.0
 10
7.8407948131
 20
3.0176286281
 30
0.0
 10
7.8404192333
 20
3.0191391607
 30
0.0
 10
7.8400428845
 20
3.0208798001
 30
0.0
 10
7.8396659527
 20
3.0228501468
 30
0.0
 10
7.8392885998
 20
3.0250497752
 30
0.0
 10
7.8389108995
 20
3.0274781721
 30
0.0
 10
7.8383859325
 20
3.0311692183
 30
0.0
 10
7.8377377103
 20
3.0363526409
 30
0.0
 10
7.8369855342
 20
3.043254429
 30
0.0
 10
7.8362322219
 20
3.051057351
 30
0.0
 10
7.8354782465
 20
3.0597549053
 30
0.0
 10
7.8347236536
 20
3.0693379917
 30
0.0
 10
7.8336760417
 20
3.0838496166
 30
0.0
 10
7.8323831762
 20
3.1041138804
 30
0.0
 10
7.8308809774
 20
3.1309236645
 30
0.0
 10
7.8293755868
 20
3.1609856782
 30
0.0
 10
7.8278675792
 20
3.194213212
 30
0.0
 10
7.8263577087
 20
3.2305273035
 30
0.0
 10
7.8248461844
 20
3.2698485915
 30
0.0
 10
7.8233345662
 20
3.3120655173
 30
0.0
 10
7.8218224949
 20
3.3570211028
 30
0.0
 10
7.8203106919
 20
3.4045167929
 30
0.0
 10
7.8193259456
 20
3.4370044774
 30
0.0
 10
7.8188322981
 20
3.4536363389
 30
0.0
  0
SPLINE
  5
35D
100
AcDbEntity
  8
0
100
AcDbSpline
 62
7
  6
CONTINUOUS
 70
0
 71
3
 72
11
 73
7
 74
0
 42
0.0000001
 43
0.0000001
 44
0.0000000001
 40
0.0
 40
0.0
 40
0.0
 40
0.0
 40
0.176860557
 40
0.4016095628
 40
0.6757188464
 40
1.0
 40
1.0
 40
1.0
 40
1.0
 10
6.8712285874
 20
5.3671682134
 30
0.0
 10
6.8710160553
 20
5.3672895937
 30
0.0
 10
6.8705091833
 20
5.367522017
 30
0.0
 10
6.8696267045
 20
5.367832699
 30
0.0
 10
6.8685306217
 20
5.3681449969
 30
0.0
 10
6.8677250994
 20
5.3683377583
 30
0.0
 10
6.8672871863
 20
5.3684358336
 30
0.0
  0
SPLINE
  5
35E
100
AcDbEntity
  8
0
100
AcDbSpline
 62
7
  6
CONTINUOUS
 70
0
 71
3
 72
53
 73
49
 74
0
 42
0.0000001
 43
0.0000001
 44
0.0000000001
 40
0.0
 40
0.0
 40
0.0
 40
0.0
 40
0.0001322469
 40
0.0002866202
 40
0.0004781876
 40
0.0007149808
 40
0.0010012168
 40
0.0013392394
 40
0.0017304382
 40
0.0021756843
 40
0.0032303188
 40
0.004505978
 40
0.0060039375
 40
0.0077248037
 40
0.0096688049
 40
0.0118355592
 40
0.0142241185
 40
0.0168334233
 40
0.0227097122
 40
0.0294550563
 40
0.0370596492
 40
0.0455131817
 40
0.0548014209
 40
0.0649073265
 40
0.0758137352
 40
0.087503439
 40
0.113158874
 40
0.1416896333
 40
0.1728908396
 40
0.2065496049
 40
0.2424359607
 40
0.2803153972
 40
0.3199258635
 40
0.3609866451
 40
0.4032143159
 40
0.4463183049
 40
0.4900063347
 40
0.5779321396
 40
0.6645684721
 40
0.7475467458
 40
0.7869431785
 40
0.8245706739
 40
0.8601796211
 40
0.8935321977
 40
0.9243988004
 40
0.9525645101
 40
0.9778203649
 40
1.0
 40
1.0
 40
1.0
 40
1.0
 10
7.6763438522
 20
3.0132279567
 30
0.0
 10
7.6762501243
 20
3.0132266862
 30
0.0
 10
7.6760449667
 20
3.0132734854
 30
0.0
 10
7.6757630162
 20
3.0134706193
 30
0.0
 10
7.6754888513
 20
3.013782661
 30
0.0
 10
7.6752166903
 20
3.0142114029
 30
0.0
 10
7.6749444903
 20
3.0147584667
 30
0.0
 10
7.6746718661
 20
3.0154250954
 30
0.0
 10
7.6743987311
 20
3.0162117919
 30
0.0
 10
7.6740118993
 20
3.0174954579
 30
0.0
 10
7.6735391586
 20
3.0194062121
 30
0.0
 10
7.672996024
 20
3.0220651774
 30
0.0
 10
7.6724512058
 20
3.0252043155
 30
0.0
 10
7.6719049567
 20
3.0288229345
 30
0.0
 10
7.6713578505
 20
3.0329201784
 30
0.0
 10
7.6708100907
 20
3.0374943175
 30
0.0
 10
7.6702617603
 20
3.0425429887
 30
0.0
 10
7.6694995812
 20
3.0502128878
 30
0.0
 10
7.668558723
 20
3.0609678459
 30
0.0
 10
7.66746667
 20
3.0752627156
 30
0.0
 10
7.6663727552
 20
3.0913888966
 30
0.0
 10
7.6652776136
 20
3.1093210742
 30
0.0
 10
7.6641815306
 20
3.1290291082
 30
0.0
 10
7.6630845736
 20
3.1504781416
 30
0.0
 10
7.6619869085
 20
3.1736313457
 30
0.0
 10
7.6604753483
 20
3.2077986296
 30
0.0
 10
7.6586050173
 20
3.2544541331
 30
0.0
 10
7.6564198793
 20
3.314937298
 30
0.0
 10
7.6542316615
 20
3.3810964765
 30
0.0
 10
7.6520415378
 20
3.4524718482
 30
0.0
 10
7.6498495196
 20
3.528582763
 30
0.0
 10
7.6476569673
 20
3.6089138692
 30
0.0
 10
7.6454636927
 20
3.6929138827
 30
0.0
 10
7.6432694187
 20
3.7799969033
 30
0.0
 10
7.6410745607
 20
3.8695568757
 30
0.0
 10
7.6388792298
 20
3.9609795733
 30
0.0
 10
7.6359461142
 20
4.0847846838
 30
0.0
 10
7.6323179311
 20
4.2394376702
 30
0.0
 10
7.6279727249
 20
4.4219303835
 30
0.0
 10
7.6242968556
 20
4.5700316863
 30
0.0
 10
7.6213211356
 20
4.6834020905
 30
0.0
 10
7.6191281638
 20
4.7632060796
 30
0.0
 10
7.6169363964
 20
4.8387245262
 30
0.0
 10
7.6147464437
 20
4.9094487793
 30
0.0
 10
7.6125585862
 20
4.9748946318
 30
0.0
 10
7.610374675
 20
5.0345982238
 30
0.0
 10
7.6081939797
 20
5.0881400656
 30
0.0
 10
7.6066407952
 20
5.1217267091
 30
0.0
 10
7.6058499724
 20
5.1374277129
 30
0.0
  0
SPLINE
  5
35F
100
AcDbEntity
  8
0
100
AcDbSpline
 62
7
  6
CONTINUOUS
 70
0
 71
3
 72
21
 73
17
 74
0
 42
0.0000001
 43
0.0000001
 44
0.0000000001
 40
0.0
 40
0.0
 40
0.0
 40
0.0
 40
0.204468435
 40
0.3868488365
 40
0.5467893228
 40
0.6839481104
 40
0.7438813321
 40
0.7979973046
 40
0.8462641351
 40
0.888673492
 40
0.9252274723
 40
0.9559378613
 40
0.9691111421
 40
0.9808378076
 40
0.9911285097
 40
1.0
 40
1.0
 40
1.0
 40
1.0
 10
7.6045843681
 20
5.1614143269
 30
0.0
 10
7.6041866109
 20
5.1685913745
 30
0.0
 10
7.6033986323
 20
5.1821682423
 30
0.0
 10
7.6021520422
 20
5.2013502908
 30
0.0
 10
7.6009082822
 20
5.2181606319
 30
0.0
 10
7.599833382
 20
5.2306664668
 30
0.0
 10
7.5989596889
 20
5.2394544545
 30
0.0
 10
7.5983349617
 20
5.245126487
 30
0.0
 10
7.5977110747
 20
5.2501784325
 30
0.0
 10
7.5970885241
 20
5.2546079542
 30
0.0
 10
7.5964676184
 20
5.2584135304
 30
0.0
 10
7.59592881
 20
5.2611902871
 30
0.0
 10
7.5954894534
 20
5.2630954502
 30
0.0
 10
7.5951774064
 20
5.2642928011
 30
0.0
 10
7.5948659136
 20
5.2653333177
 30
0.0
 10
7.5946423553
 20
5.2659692487
 30
0.0
 10
7.5945286412
 20
5.2662596549
 30
0.0
  0
LINE
  5
360
100
AcDbEntity
  8
0
100
AcDbLine
 62
7
  6
CONTINUOUS
 10
7.5945286412
 20
5.2662596549
 11
7.5940064711
 21
5.2673752407
  0
LINE
  5
361
100
AcDbEntity
  8
0
100
AcDbLine
 62
7
  6
CONTINUOUS
 10
7.6633276608
 20
5.3586312048
 11
7.6621783615
 21
5.3554869521
  0
SPLINE
  5
362
100
AcDbEntity
  8
0
100
AcDbSpline
 62
7
  6
CONTINUOUS
 70
0
 71
3
 72
38
 73
34
 74
0
 42
0.0000001
 43
0.0000001
 44
0.0000000001
 40
0.0
 40
0.0
 40
0.0
 40
0.0
 40
0.0005577043
 40
0.0012546406
 40
0.0020952039
 40
0.0030817938
 40
0.0042155987
 40
0.0054972428
 40
0.008505016
 40
0.0121058419
 40
0.0162987796
 40
0.0210821511
 40
0.0264538685
 40
0.0324115987
 40
0.0389526178
 40
0.0537641041
 40
0.0708419697
 40
0.0901380848
 40
0.111603552
 40
0.1351783455
 40
0.1607904124
 40
0.1883670004
 40
0.2178346926
 40
0.2491093369
 40
0.3167054396
 40
0.3903936319
 40
0.4693298182
 40
0.5526232188
 40
0.6393104658
 40
0.728402689
 40
0.8189182447
 40
0.9098426
 40
1.0
 40
1.0
 40
1.0
 40
1.0
 10
7.7467449386
 20
2.9228695128
 30
0.0
 10
7.7466107064
 20
2.9230994133
 30
0.0
 10
7.7463518331
 20
2.9236414709
 30
0.0
 10
7.7460033917
 20
2.9245795471
 30
0.0
 10
7.7456535587
 20
2.9257331648
 30
0.0
 10
7.7453027398
 20
2.9271026364
 30
0.0
 10
7.7449510963
 20
2.9286882996
 30
0.0
 10
7.7444546434
 20
2.9312292224
 30
0.0
 10
7.7438468599
 20
2.9349470532
 30
0.0
 10
7.7431470928
 20
2.9400557623
 30
0.0
 10
7.7424452864
 20
2.9460185651
 30
0.0
 10
7.7417417829
 20
2.9528315066
 30
0.0
 10
7.7410372183
 20
2.960490717
 30
0.0
 10
7.7403317912
 20
2.9689920202
 30
0.0
 10
7.7393494146
 20
2.9819915295
 30
0.0
 10
7.7381386091
 20
3.00029656
 30
0.0
 10
7.7367344625
 20
3.0246896416
 30
0.0
 10
7.7353274705
 20
3.0522634641
 30
0.0
 10
7.7339185605
 20
3.0829420607
 30
0.0
 10
7.7325083556
 20
3.1166383768
 30
0.0
 10
7.7310968122
 20
3.1532541001
 30
0.0
 10
7.7296843022
 20
3.1926846785
 30
0.0
 10
7.7282712506
 20
3.2348198708
 30
0.0
 10
7.7263361117
 20
3.2960514082
 30
0.0
 10
7.7239387889
 20
3.3783872778
 30
0.0
 10
7.7211275403
 20
3.4834715172
 30
0.0
 10
7.7183129533
 20
3.5960512283
 30
0.0
 10
7.7154967416
 20
3.7148377877
 30
0.0
 10
7.7126788021
 20
3.8384735678
 30
0.0
 10
7.7098594502
 20
3.9655576608
 30
0.0
 10
7.7070395852
 20
4.0946648036
 30
0.0
 10
7.7042221187
 20
4.2242805777
 30
0.0
 10
7.7023281951
 20
4.3106988156
 30
0.0
 10
7.701374822
 20
4.3537246955
 30
0.0
  0
SPLINE
  5
363
100
AcDbEntity
  8
0
100
AcDbSpline
 62
7
  6
CONTINUOUS
 70
0
 71
3
 72
12
 73
8
 74
0
 42
0.0000001
 43
0.0000001
 44
0.0000000001
 40
0.0
 40
0.0
 40
0.0
 40
0.0
 40
0.0818105362
 40
0.1755397013
 40
0.3998313184
 40
0.6744072043
 40
1.0
 40
1.0
 40
1.0
 40
1.0
 10
7.6940092533
 20
3.0141563472
 30
0.0
 10
7.6939312997
 20
3.0142907714
 30
0.0
 10
7.6937772683
 20
3.0145869168
 30
0.0
 10
7.6934708839
 20
3.0152821867
 30
0.0
 10
7.6930971662
 20
3.0163454514
 30
0.0
 10
7.692669012
 20
3.0178522506
 30
0.0
 10
7.692405222
 20
3.0189616359
 30
0.0
 10
7.6922709503
 20
3.0195653187
 30
0.0
  0
SPLINE
  5
364
100
AcDbEntity
  8
0
100
AcDbSpline
 62
7
  6
CONTINUOUS
 70
0
 71
3
 72
45
 73
41
 74
0
 42
0.0000001
 43
0.0000001
 44
0.0000000001
 40
0.0
 40
0.0
 40
0.0
 40
0.0
 40
0.0012629433
 40
0.0027371239
 40
0.0044230637
 40
0.0063209516
 40
0.0084303932
 40
0.0107504985
 40
0.0160186643
 40
0.0221170412
 40
0.0290366767
 40
0.0367683494
 40
0.0453014779
 40
0.0546211468
 40
0.0647114351
 40
0.0871399223
 40
0.1124510239
 40
0.1404676599
 40
0.1709991406
 40
0.2038458955
 40
0.238793465
 40
0.2756234366
 40
0.3140908878
 40
0.3539347647
 40
0.4366915885
 40
0.5217282865
 40
0.6068073426
 40
0.6896920674
 40
0.7296284651
 40
0.7682060134
 40
0.805162565
 40
0.8402590279
 40
0.8732738188
 40
0.8889319238
 40
0.9039894436
 40
0.9322035328
 40
0.9577183299
 40
0.9803619897
 40
0.9905649157
 40
1.0
 40
1.0
 40
1.0
 40
1.0
 10
7.6922709503
 20
3.0195653187
 30
0.0
 10
7.6920749659
 20
3.0204464607
 30
0.0
 10
7.691690891
 20
3.0223651829
 30
0.0
 10
7.6911572088
 20
3.0254813954
 30
0.0
 10
7.6906223827
 20
3.0290569957
 30
0.0
 10
7.6900867573
 20
3.0330909291
 30
0.0
 10
7.6895505013
 20
3.037581594
 30
0.0
 10
7.6888027907
 20
3.0444725832
 30
0.0
 10
7.6878812468
 20
3.0542118916
 30
0.0
 10
7.6868134299
 20
3.0672382567
 30
0.0
 10
7.6857435171
 20
3.0820304033
 30
0.0
 10
7.6846719891
 20
3.0985666564
 30
0.0
 10
7.6835996326
 20
3.1168214881
 30
0.0
 10
7.6825263026
 20
3.1367646975
 30
0.0
 10
7.6810413766
 20
3.1666314292
 30
0.0
 10
7.6792064934
 20
3.2079242104
 30
0.0
 10
7.6770708261
 20
3.2620281269
 30
0.0
 10
7.6749312633
 20
3.3219274707
 30
0.0
 10
7.6727888357
 20
3.3872158518
 30
0.0
 10
7.6706447544
 20
3.4574604467
 30
0.0
 10
7.6684989393
 20
3.5322087213
 30
0.0
 10
7.66635272
 20
3.6109758743
 30
0.0
 10
7.6642057587
 20
3.693243824
 30
0.0
 10
7.6613053449
 20
3.8083289385
 30
0.0
 10
7.6577174412
 20
3.9566920803
 30
0.0
 10
7.6534625717
 20
4.1373798132
 30
0.0
 10
7.6492072896
 20
4.3181589771
 30
0.0
 10
7.6456202841
 20
4.4667100128
 30
0.0
 10
7.6427207024
 20
4.5820314574
 30
0.0
 10
7.6405737894
 20
4.6645347783
 30
0.0
 10
7.6384272017
 20
4.7435776053
 30
0.0
 10
7.6362812368
 20
4.8186429959
 30
0.0
 10
7.6344637664
 20
4.8784886547
 30
0.0
 10
7.6330026918
 20
4.924015824
 30
0.0
 10
7.6315977627
 20
4.9661117419
 30
0.0
 10
7.629855003
 20
5.0152452469
 30
0.0
 10
7.6277187929
 20
5.0697899851
 30
0.0
 10
7.6258841061
 20
5.1114630274
 30
0.0
 10
7.6243998201
 20
5.1416469596
 30
0.0
 10
7.6236546187
 20
5.1556632649
 30
0.0
 10
7.623279818
 20
5.1623964615
 30
0.0
  0
SPLINE
  5
365
100
AcDbEntity
  8
0
100
AcDbSpline
 62
7
  6
CONTINUOUS
 70
0
 71
3
 72
30
 73
26
 74
0
 42
0.0000001
 43
0.0000001
 44
0.0000000001
 40
0.0
 40
0.0
 40
0.0
 40
0.0
 40
0.2291975383
 40
0.4293469733
 40
0.5183636624
 40
0.5999218847
 40
0.6739583942
 40
0.7404117469
 40
0.7992238295
 40
0.8503605188
 40
0.8730497573
 40
0.8938204058
 40
0.9126745963
 40
0.9296161401
 40
0.9446513814
 40
0.9577906621
 40
0.9690509938
 40
0.9784613161
 40
0.9860738449
 40
0.9892373272
 40
0.9919980623
 40
0.994389218
 40
0.9964620291
 40
0.9982949073
 40
1.0
 40
1.0
 40
1.0
 40
1.0
 10
7.623279818
 20
5.1623964615
 30
0.0
 10
7.6228246374
 20
5.170573663
 30
0.0
 10
7.6219258894
 20
5.1858892
 30
0.0
 10
7.6206872958
 20
5.2043706497
 30
0.0
 10
7.6196839233
 20
5.2175796837
 30
0.0
 10
7.6189616781
 20
5.2262905181
 30
0.0
 10
7.6182401902
 20
5.2341921462
 30
0.0
 10
7.6175197316
 20
5.2412773841
 30
0.0
 10
7.616800422
 20
5.2475397401
 30
0.0
 10
7.6161803247
 20
5.2522388886
 30
0.0
 10
7.615678139
 20
5.2555816602
 30
0.0
 10
7.6153169215
 20
5.2577789049
 30
0.0
 10
7.6149560299
 20
5.259767813
 30
0.0
 10
7.6145955259
 20
5.261548161
 30
0.0
 10
7.6142355522
 20
5.2631198119
 30
0.0
 10
7.6138762707
 20
5.2644826563
 30
0.0
 10
7.613517994
 20
5.2656370461
 30
0.0
 10
7.6131608416
 20
5.2665831075
 30
0.0
 10
7.6128480582
 20
5.2672351301
 30
0.0
 10
7.6125914751
 20
5.267645791
 30
0.0
 10
7.6124108159
 20
5.2678823976
 30
0.0
 10
7.612229515
 20
5.2680673723
 30
0.0
 10
7.6120465188
 20
5.2682006546
 30
0.0
 10
7.6118607155
 20
5.2682811213
 30
0.0
 10
7.6117332804
 20
5.268297801
 30
0.0
 10
7.6116723653
 20
5.2682965664
 30
0.0
  0
SPLINE
  5
366
100
AcDbEntity
  8
0
100
AcDbSpline
 62
7
  6
CONTINUOUS
 70
0
 71
3
 72
11
 73
7
 74
0
 42
0.0000001
 43
0.0000001
 44
0.0000000001
 40
0.0
 40
0.0
 40
0.0
 40
0.0
 40
0.1888196943
 40
0.4177149418
 40
0.6878687742
 40
1.0
 40
1.0
 40
1.0
 40
1.0
 10
7.8301255435
 20
5.3586273102
 30
0.0
 10
7.8300137066
 20
5.3584320376
 30
0.0
 10
7.8297958547
 20
5.3579831983
 30
0.0
 10
7.8294986096
 20
5.3572187131
 30
0.0
 10
7.8292005517
 20
5.3562986119
 30
0.0
 10
7.829014925
 20
5.3556297715
 30
0.0
 10
7.828920917
 20
5.3552698556
 30
0.0
  0
SPLINE
  5
367
100
AcDbEntity
  8
0
100
AcDbSpline
 62
7
  6
CONTINUOUS
 70
0
 71
3
 72
39
 73
35
 74
0
 42
0.0000001
 43
0.0000001
 44
0.0000000001
 40
0.0
 40
0.0
 40
0.0
 40
0.0
 40
0.0003891488
 40
0.0008242221
 40
0.001338412
 40
0.0019520828
 40
0.0026771609
 40
0.0035207712
 40
0.0044873426
 40
0.0055797401
 40
0.008148764
 40
0.0112375789
 40
0.0148510011
 40
0.0189920982
 40
0.0236627386
 40
0.0288640432
 40
0.0345966617
 40
0.0408609318
 40
0.0549846508
 40
0.0712347624
 40
0.0896090431
 40
0.110089772
 40
0.132635
 40
0.1572002639
 40
0.2122117968
 40
0.2747670452
 40
0.3445239833
 40
0.4211485448
 40
0.5042898535
 40
0.593487829
 40
0.6882377463
 40
0.7880112685
 40
0.8921606514
 40
1.0
 40
1.0
 40
1.0
 40
1.0
 10
6.7956786232
 20
5.5353616368
 30
0.0
 10
6.7956783483
 20
5.5352989325
 30
0.0
 10
6.795652315
 20
5.5351654389
 30
0.0
 10
6.7955442919
 20
5.5349757778
 30
0.0
 10
6.7953718599
 20
5.5347901435
 30
0.0
 10
6.7951356105
 20
5.5346061648
 30
0.0
 10
6.7948350743
 20
5.5344225618
 30
0.0
 10
6.7944697757
 20
5.5342389359
 30
0.0
 10
6.794039457
 20
5.5340551265
 30
0.0
 10
6.7933401091
 20
5.5337956138
 30
0.0
 10
6.792299002
 20
5.5334778614
 30
0.0
 10
6.7908501105
 20
5.5331125229
 30
0.0
 10
6.7891414231
 20
5.5327461458
 30
0.0
 10
6.7871731081
 20
5.5323789154
 30
0.0
 10
6.7849451619
 20
5.532011118
 30
0.0
 10
6.7824577614
 20
5.5316428918
 30
0.0
 10
6.779711106
 20
5.5312743189
 30
0.0
 10
6.77553345
 20
5.5307618202
 30
0.0
 10
6.7696635331
 20
5.5301290351
 30
0.0
 10
6.7618428016
 20
5.5293948841
 30
0.0
 10
6.7529938657
 20
5.5286597971
 30
0.0
 10
6.7431275406
 20
5.5279240627
 30
0.0
 10
6.7322612096
 20
5.5271874191
 30
0.0
 10
6.7158376402
 20
5.5261654418
 30
0.0
 10
6.6929698946
 20
5.5249044069
 30
0.0
 10
6.6628212981
 20
5.5234378758
 30
0.0
 10
6.629186573
 20
5.5219686002
 30
0.0
 10
6.592231994
 20
5.5204971712
 30
0.0
 10
6.5521425695
 20
5.5190250838
 30
0.0
 10
6.509130773
 20
5.5175516579
 30
0.0
 10
6.4634375423
 20
5.516076967
 30
0.0
 10
6.4153339641
 20
5.5146020261
 30
0.0
 10
6.3651202946
 20
5.5131271895
 30
0.0
 10
6.3309755318
 20
5.5121595459
 30
0.0
 10
6.3136057874
 20
5.5116742936
 30
0.0
  0
SPLINE
  5
368
100
AcDbEntity
  8
0
100
AcDbSpline
 62
7
  6
CONTINUOUS
 70
0
 71
3
 72
30
 73
26
 74
0
 42
0.0000001
 43
0.0000001
 44
0.0000000001
 40
0.0
 40
0.0
 40
0.0
 40
0.0
 40
0.0017289676
 40
0.0039068342
 40
0.006547752
 40
0.0096595619
 40
0.0132470135
 40
0.0173126764
 40
0.0268800741
 40
0.0383602175
 40
0.0517461933
 40
0.0670287875
 40
0.084197519
 40
0.1032411521
 40
0.1241479494
 40
0.1714784409
 40
0.2259969947
 40
0.2874969849
 40
0.3557699647
 40
0.4305796482
 40
0.5116546436
 40
0.5987209769
 40
0.6914947595
 40
0.7895931247
 40
1.0
 40
1.0
 40
1.0
 40
1.0
 10
6.8712674927
 20
5.5941678757
 30
0.0
 10
6.8710726713
 20
5.5940536324
 30
0.0
 10
6.8706101988
 20
5.5938339755
 30
0.0
 10
6.8698067495
 20
5.5935393373
 30
0.0
 10
6.8688134043
 20
5.5932433937
 30
0.0
 10
6.867629762
 20
5.592946509
 30
0.0
 10
6.866255234
 20
5.5926489234
 30
0.0
 10
6.8640452775
 20
5.5922283998
 30
0.0
 10
6.860804762
 20
5.5917139664
 30
0.0
 10
6.8563457414
 20
5.5911218894
 30
0.0
 10
6.8511347892
 20
5.5905279986
 30
0.0
 10
6.8451768139
 20
5.5899325811
 30
0.0
 10
6.8384766491
 20
5.5893361877
 30
0.0
 10
6.8310393007
 20
5.5887389701
 30
0.0
 10
6.8196685018
 20
5.5879071787
 30
0.0
 10
6.8036659576
 20
5.5868821778
 30
0.0
 10
6.7823614106
 20
5.5856934443
 30
0.0
 10
6.7583175888
 20
5.5845028238
 30
0.0
 10
6.7316203751
 20
5.5833117075
 30
0.0
 10
6.7023638835
 20
5.5821202547
 30
0.0
 10
6.6706507341
 20
5.580926408
 30
0.0
 10
6.6365896065
 20
5.579728998
 30
0.0
 10
6.6003036857
 20
5.5785263022
 30
0.0
 10
6.5479122103
 20
5.5768826305
 30
0.0
 10
6.5076302984
 20
5.5757193324
 30
0.0
 10
6.4801562028
 20
5.5749637958
 30
0.0
  0
SPLINE
  5
369
100
AcDbEntity
  8
0
100
AcDbSpline
 62
7
  6
CONTINUOUS
 70
0
 71
3
 72
30
 73
26
 74
0
 42
0.0000001
 43
0.0000001
 44
0.0000000001
 40
0.0
 40
0.0
 40
0.0
 40
0.0
 40
0.0017033294
 40
0.0038713007
 40
0.0065168467
 40
0.0096463717
 40
0.0132635909
 40
0.0173709248
 40
0.027061009
 40
0.038723131
 40
0.0523588571
 40
0.0679676056
 40
0.0855475304
 40
0.105084874
 40
0.1265429854
 40
0.1750625578
 40
0.2307869395
 40
0.2934000915
 40
0.3626012578
 40
0.4380921527
 40
0.5195437307
 40
0.606526243
 40
0.6985890126
 40
0.7952515654
 40
1.0
 40
1.0
 40
1.0
 40
1.0
 10
6.7948943212
 20
5.5500920304
 30
0.0
 10
6.794657059
 20
5.5499554661
 30
0.0
 10
6.7940900292
 20
5.549694215
 30
0.0
 10
6.7931019395
 20
5.549345258
 30
0.0
 10
6.7918737586
 20
5.5489945194
 30
0.0
 10
6.7904055812
 20
5.5486424717
 30
0.0
 10
6.7886969735
 20
5.548289466
 30
0.0
 10
6.7859428248
 20
5.5477900357
 30
0.0
 10
6.7818960375
 20
5.5471792803
 30
0.0
 10
6.7763165675
 20
5.5464766793
 30
0.0
 10
6.7697796963
 20
5.5457719105
 30
0.0
 10
6.7622872087
 20
5.5450653122
 30
0.0
 10
6.753842597
 20
5.5443578002
 30
0.0
 10
6.7444549989
 20
5.5436497278
 30
0.0
 10
6.73010197
 20
5.5426637726
 30
0.0
 10
6.7099354564
 20
5.5414493429
 30
0.0
 10
6.6831552476
 20
5.5400399227
 30
0.0
 10
6.6530471933
 20
5.5386273795
 30
0.0
 10
6.6197592766
 20
5.5372124442
 30
0.0
 10
6.5834412382
 20
5.5357960408
 30
0.0
 10
6.5442634228
 20
5.5343791168
 30
0.0
 10
6.5024206178
 20
5.5329608943
 30
0.0
 10
6.4581318339
 20
5.5315416505
 30
0.0
 10
6.3949225414
 20
5.5296119923
 30
0.0
 10
6.3464999245
 20
5.5282232452
 30
0.0
 10
6.3136057874
 20
5.5273042936
 30
0.0
  0
SPLINE
  5
36A
100
AcDbEntity
  8
0
100
AcDbSpline
 62
7
  6
CONTINUOUS
 70
0
 71
3
 72
39
 73
35
 74
0
 42
0.0000001
 43
0.0000001
 44
0.0000000001
 40
0.0
 40
0.0
 40
0.0
 40
0.0
 40
0.00038849
 40
0.0008223047
 40
0.0013348744
 40
0.0019468541
 40
0.0026704325
 40
0.0035129668
 40
0.0044790989
 40
0.005571895
 40
0.0081450008
 40
0.0112435353
 40
0.0148730499
 40
0.0190357938
 40
0.0237326024
 40
0.0289635514
 40
0.0347282402
 40
0.0410259537
 40
0.0552164674
 40
0.0715262243
 40
0.0899446738
 40
0.1104505925
 40
0.1330052525
 40
0.1575678962
 40
0.2125528852
 40
0.2750762926
 40
0.3448095759
 40
0.4214246283
 40
0.5045732844
 40
0.5937755072
 40
0.6884968282
 40
0.7881891839
 40
0.8922363
 40
1.0
 40
1.0
 40
1.0
 40
1.0
 10
6.7956598966
 20
5.6603553795
 30
0.0
 10
6.7956598854
 20
5.6602927875
 30
0.0
 10
6.7956345374
 20
5.660159496
 30
0.0
 10
6.7955275022
 20
5.6599699327
 30
0.0
 10
6.7953560177
 20
5.6597844407
 30
0.0
 10
6.7951206451
 20
5.6596006355
 30
0.0
 10
6.7948208364
 20
5.6594172215
 30
0.0
 10
6.7944560289
 20
5.6592337891
 30
0.0
 10
6.794025875
 20
5.6590501721
 30
0.0
 10
6.7933258582
 20
5.6587908109
 30
0.0
 10
6.7922824053
 20
5.6584732703
 30
0.0
 10
6.7908286189
 20
5.6581082844
 30
0.0
 10
6.7891122222
 20
5.6577422714
 30
0.0
 10
6.7871335975
 20
5.6573753279
 30
0.0
 10
6.784893208
 20
5.6570077677
 30
0.0
 10
6.7823917363
 20
5.6566397393
 30
0.0
 10
6.7796298875
 20
5.6562713384
 30
0.0
 10
6.7754311668
 20
5.6557591676
 30
0.0
 10
6.7695359307
 20
5.6551268163
 30
0.0
 10
6.7616883944
 20
5.6543930712
 30
0.0
 10
6.7528195172
 20
5.6536584006
 30
0.0
 10
6.7429414828
 20
5.6529231335
 30
0.0
 10
6.7320711035
 20
5.6521870908
 30
0.0
 10
6.7156524058
 20
5.6511661596
 30
0.0
 10
6.6927968881
 20
5.6499060996
 30
0.0
 10
6.6626647
 20
5.6484402792
 30
0.0
 10
6.629044016
 20
5.6469714741
 30
0.0
 10
6.5920975056
 20
5.6455006415
 30
0.0
 10
6.5520119573
 20
5.6440299123
 30
0.0
 10
6.5090074174
 20
5.64255816
 30
0.0
 10
6.4633360041
 20
5.6410850065
 30
0.0
 10
6.4152716951
 20
5.6396107762
 30
0.0
 10
6.3651051108
 20
5.6381363461
 30
0.0
 10
6.3309926392
 20
5.6371691959
 30
0.0
 10
6.3136369239
 20
5.6366842936
 30
0.0
  0
SPLINE
  5
36B
100
AcDbEntity
  8
0
100
AcDbSpline
 62
7
  6
CONTINUOUS
 70
0
 71
3
 72
38
 73
34
 74
0
 42
0.0000001
 43
0.0000001
 44
0.0000000001
 40
0.0
 40
0.0
 40
0.0
 40
0.0
 40
0.0006092793
 40
0.0013555637
 40
0.0022426583
 40
0.0032727169
 40
0.004447027
 40
0.0057663825
 40
0.0088419028
 40
0.0125014347
 40
0.0167454173
 40
0.021573483
 40
0.0269835212
 40
0.0329713383
 40
0.0395324265
 40
0.0543557653
 40
0.0714157294
 40
0.0906728531
 40
0.1120742231
 40
0.1355563326
 40
0.1610552225
 40
0.1885063944
 40
0.2178349986
 40
0.2489555966
 40
0.316228705
 40
0.3895992926
 40
0.4682542482
 40
0.5513387118
 40
0.6379206149
 40
0.7270557859
 40
0.8178009286
 40
0.9091661523
 40
1.0
 40
1.0
 40
1.0
 40
1.0
 10
6.8712370581
 20
5.719160014
 30
0.0
 10
6.8710660577
 20
5.7190625678
 30
0.0
 10
6.8706699737
 20
5.7188733908
 30
0.0
 10
6.8699922176
 20
5.7186163944
 30
0.0
 10
6.8691709876
 20
5.7183584916
 30
0.0
 10
6.8682061951
 20
5.718099909
 30
0.0
 10
6.8670976456
 20
5.7178407698
 30
0.0
 10
6.8653358742
 20
5.7174758248
 30
0.0
 10
6.862772255
 20
5.7170281909
 30
0.0
 10
6.8592631546
 20
5.7165122309
 30
0.0
 10
6.8551828856
 20
5.7159949139
 30
0.0
 10
6.8505333707
 20
5.7154766319
 30
0.0
 10
6.8453175127
 20
5.7149578322
 30
0.0
 10
6.8395394141
 20
5.7144385065
 30
0.0
 10
6.8307268001
 20
5.7137158833
 30
0.0
 10
6.8183397346
 20
5.7128248226
 30
0.0
 10
6.8018519416
 20
5.7117911851
 30
0.0
 10
6.7832356563
 20
5.7107558387
 30
0.0
 10
6.7625420535
 20
5.7097188869
 30
0.0
 10
6.7398299316
 20
5.7086806506
 30
0.0
 10
6.7151617051
 20
5.7076414716
 30
0.0
 10
6.6886033444
 20
5.7066018358
 30
0.0
 10
6.66022771
 20
5.7055618224
 30
0.0
 10
6.6189938514
 20
5.7041372628
 30
0.0
 10
6.5635364026
 20
5.7023725261
 30
0.0
 10
6.4927260287
 20
5.7003031711
 30
0.0
 10
6.4168061283
 20
5.6982311975
 30
0.0
 10
6.3366170906
 20
5.6961580014
 30
0.0
 10
6.2530415557
 20
5.6940836835
 30
0.0
 10
6.1669906478
 20
5.6920090316
 30
0.0
 10
6.0793941699
 20
5.6899329008
 30
0.0
 10
5.9912488317
 20
5.6878559606
 30
0.0
 10
5.9324090971
 20
5.6864642794
 30
0.0
 10
5.9030751467
 20
5.6857656325
 30
0.0
  0
SPLINE
  5
36C
100
AcDbEntity
  8
0
100
AcDbSpline
 62
7
  6
CONTINUOUS
 70
0
 71
3
 72
30
 73
26
 74
0
 42
0.0000001
 43
0.0000001
 44
0.0000000001
 40
0.0
 40
0.0
 40
0.0
 40
0.0
 40
0.0017086441
 40
0.0038833286
 40
0.0065376597
 40
0.0096786297
 40
0.0133101408
 40
0.0174344585
 40
0.0271659234
 40
0.0388782058
 40
0.0525715568
 40
0.0682440849
 40
0.085886355
 40
0.105467003
 40
0.1269497719
 40
0.175475033
 40
0.2311677168
 40
0.2937391942
 40
0.36290994
 40
0.43839986
 40
0.519865358
 40
0.6068475221
 40
0.6988749689
 40
0.7954517808
 40
1.0
 40
1.0
 40
1.0
 40
1.0
 10
6.7948635865
 20
5.675084397
 30
0.0
 10
6.7946253086
 20
5.6749479607
 30
0.0
 10
6.794056184
 20
5.6746868833
 30
0.0
 10
6.7930646236
 20
5.6743381311
 30
0.0
 10
6.7918320635
 20
5.6739875992
 30
0.0
 10
6.7903583369
 20
5.6736357762
 30
0.0
 10
6.7886429137
 20
5.6732829978
 30
0.0
 10
6.785877233
 20
5.6727838466
 30
0.0
 10
6.7818133135
 20
5.6721734688
 30
0.0
 10
6.7762103933
 20
5.6714713193
 30
0.0
 10
6.7696466338
 20
5.6707670298
 30
0.0
 10
6.7621254434
 20
5.6700611075
 30
0.0
 10
6.753654578
 20
5.6693545554
 30
0.0
 10
6.744247214
 20
5.6686470318
 30
0.0
 10
6.7298841802
 20
5.6676623269
 30
0.0
 10
6.7097205498
 20
5.6664490097
 30
0.0
 10
6.6829548094
 20
5.6650403795
 30
0.0
 10
6.6528674891
 20
5.6636284513
 30
0.0
 10
6.6195957906
 20
5.6622141252
 30
0.0
 10
6.5832854146
 20
5.660798927
 30
0.0
 10
6.544110799
 20
5.6593836408
 30
0.0
 10
6.5022770812
 20
5.6579670057
 30
0.0
 10
6.4580137458
 20
5.6565491672
 30
0.0
 10
6.3948645973
 20
5.6546205734
 30
0.0
 10
6.3464944661
 20
5.6532323023
 30
0.0
 10
6.3136369239
 20
5.6523142936
 30
0.0
  0
SPLINE
  5
36D
100
AcDbEntity
  8
0
100
AcDbSpline
 62
7
  6
CONTINUOUS
 70
0
 71
3
 72
30
 73
26
 74
0
 42
0.0000001
 43
0.0000001
 44
0.0000000001
 40
0.0
 40
0.0
 40
0.0
 40
0.0
 40
0.0017166931
 40
0.0038821088
 40
0.0065106899
 40
0.0096104111
 40
0.0131860931
 40
0.0172403742
 40
0.0267862855
 40
0.0382467155
 40
0.051614782
 40
0.0668812793
 40
0.0840357234
 40
0.1030668699
 40
0.1239629726
 40
0.1712776756
 40
0.2257877889
 40
0.2872864023
 40
0.3555648038
 40
0.4303865729
 40
0.5114800216
 40
0.5985708249
 40
0.6913747856
 40
0.7895086678
 40
1.0
 40
1.0
 40
1.0
 40
1.0
 10
5.1851318858
 20
5.5546494754
 30
0.0
 10
5.1853247732
 20
5.5547638616
 30
0.0
 10
5.1857836426
 20
5.5549837212
 30
0.0
 10
5.186581951
 20
5.5552784355
 30
0.0
 10
5.1875703016
 20
5.5555744693
 30
0.0
 10
5.1887491031
 20
5.5558714522
 30
0.0
 10
5.1901189648
 20
5.5561691447
 30
0.0
 10
5.1923230446
 20
5.5565899072
 30
0.0
 10
5.1955567256
 20
5.5571045653
 30
0.0
 10
5.2000081343
 20
5.5576968526
 30
0.0
 10
5.2052122364
 20
5.5582909746
 30
0.0
 10
5.2111641174
 20
5.5588866477
 30
0.0
 10
5.2178589391
 20
5.5594833211
 30
0.0
 10
5.2252916895
 20
5.5600808461
 30
0.0
 10
5.2366578599
 20
5.5609131655
 30
0.0
 10
5.2526565125
 20
5.561938855
 30
0.0
 10
5.2739586336
 20
5.5631282685
 30
0.0
 10
5.2980029429
 20
5.5643193513
 30
0.0
 10
5.3247034698
 20
5.5655104737
 30
0.0
 10
5.353965993
 20
5.5667016336
 30
0.0
 10
5.3856877549
 20
5.5678956531
 30
0.0
 10
5.4197599289
 20
5.569094254
 30
0.0
 10
5.4560591634
 20
5.570300102
 30
0.0
 10
5.5084724727
 20
5.5719485176
 30
0.0
 10
5.5487718991
 20
5.5731114925
 30
0.0
 10
5.5762583934
 20
5.5738624692
 30
0.0
  0
SPLINE
  5
36E
100
AcDbEntity
  8
0
100
AcDbSpline
 62
7
  6
CONTINUOUS
 70
0
 71
3
 72
30
 73
26
 74
0
 42
0.0000001
 43
0.0000001
 44
0.0000000001
 40
0.0
 40
0.0
 40
0.0
 40
0.0
 40
0.0017234882
 40
0.0038957971
 40
0.006531208
 40
0.0096376213
 40
0.0132198182
 40
0.0172803991
 40
0.0268382022
 40
0.038309542
 40
0.0516875198
 40
0.0669629257
 40
0.0841252774
 40
0.1031633354
 40
0.1240653586
 40
0.1713888045
 40
0.2259035918
 40
0.2874029653
 40
0.3556783587
 40
0.4304934297
 40
0.5115766609
 40
0.5986539257
 40
0.691441199
 40
0.7895554375
 40
1.0
 40
1.0
 40
1.0
 40
1.0
 10
5.1851402853
 20
5.4296443945
 30
0.0
 10
5.1853342434
 20
5.4297587029
 30
0.0
 10
5.1857951071
 20
5.4299784528
 30
0.0
 10
5.1865962609
 20
5.4302731285
 30
0.0
 10
5.1875873761
 20
5.4305691154
 30
0.0
 10
5.1887688571
 20
5.4308660463
 30
0.0
 10
5.1901413017
 20
5.4311636809
 30
0.0
 10
5.1923486345
 20
5.4315843113
 30
0.0
 10
5.1955860989
 20
5.4320988427
 30
0.0
 10
5.2000417213
 20
5.4326910092
 30
0.0
 10
5.2052496154
 20
5.4332849985
 30
0.0
 10
5.2112048699
 20
5.4338805271
 30
0.0
 10
5.2179026493
 20
5.4344770457
 30
0.0
 10
5.225337945
 20
5.4350744056
 30
0.0
 10
5.2367066775
 20
5.4359064496
 30
0.0
 10
5.2527074838
 20
5.4369317974
 30
0.0
 10
5.274010948
 20
5.4381208661
 30
0.0
 10
5.2980549891
 20
5.4393116777
 30
0.0
 10
5.3247536868
 20
5.4405026829
 30
0.0
 10
5.3540128781
 20
5.4416938289
 30
0.0
 10
5.385729877
 20
5.4428876749
 30
0.0
 10
5.4197959364
 20
5.4440857531
 30
0.0
 10
5.4560877906
 20
5.4452904045
 30
0.0
 10
5.5084889932
 20
5.4469370253
 30
0.0
 10
5.5487787346
 20
5.448099999
 30
0.0
 10
5.5762583934
 20
5.4488524692
 30
0.0
  0
SPLINE
  5
36F
100
AcDbEntity
  8
0
100
AcDbSpline
 62
7
  6
CONTINUOUS
 70
0
 71
3
 72
29
 73
25
 74
0
 42
0.0000001
 43
0.0000001
 44
0.0000000001
 40
0.0
 40
0.0
 40
0.0
 40
0.0
 40
0.002082034
 40
0.0045755484
 40
0.0074923727
 40
0.0108396194
 40
0.0188410081
 40
0.0286010278
 40
0.0401282719
 40
0.0534260526
 40
0.0684948804
 40
0.0853336467
 40
0.1039402424
 40
0.1243119082
 40
0.1703340888
 40
0.2233425014
 40
0.2832629047
 40
0.3500193643
 40
0.4235349753
 40
0.5037314551
 40
0.5904961948
 40
0.68366924
 40
0.7830868814
 40
1.0
 40
1.0
 40
1.0
 40
1.0
 10
4.529440734
 20
2.9226930839
 30
0.0
 10
4.5293589693
 20
2.9228324056
 30
0.0
 10
4.5291991111
 20
2.9231501957
 30
0.0
 10
4.5289798013
 20
2.9236889172
 30
0.0
 10
4.5287599645
 20
2.9243321858
 30
0.0
 10
4.5284474973
 20
2.9253942558
 30
0.0
 10
4.5280665135
 20
2.9269880777
 30
0.0
 10
4.5276293509
 20
2.929218433
 30
0.0
 10
4.5271906633
 20
2.9318660642
 30
0.0
 10
4.5267506596
 20
2.934930116
 30
0.0
 10
4.5263098101
 20
2.9384098638
 30
0.0
 10
4.5258682976
 20
2.9423043422
 30
0.0
 10
4.525426237
 20
2.9466125682
 30
0.0
 10
4.5248109465
 20
2.9531789576
 30
0.0
 10
4.5240515574
 20
2.9624123496
 30
0.0
 10
4.5231706427
 20
2.9747138221
 30
0.0
 10
4.52228841
 20
2.9886275799
 30
0.0
 10
4.5214056142
 20
3.0041352586
 30
0.0
 10
4.5205230529
 20
3.0212184404
 30
0.0
 10
4.5196417292
 20
3.0398559814
 30
0.0
 10
4.5187614704
 20
3.0600203286
 30
0.0
 10
4.5178801735
 20
3.0816772943
 30
0.0
 10
4.5166662705
 20
3.1134270453
 30
0.0
 10
4.5158050303
 20
3.137955734
 30
0.0
 10
4.5152366426
 20
3.1547761706
 30
0.0
  0
SPLINE
  5
370
100
AcDbEntity
  8
0
100
AcDbSpline
 62
7
  6
CONTINUOUS
 70
0
 71
3
 72
18
 73
14
 74
0
 42
0.0000001
 43
0.0000001
 44
0.0000000001
 40
0.0
 40
0.0
 40
0.0
 40
0.0
 40
0.02195089
 40
0.0490217076
 40
0.0813740339
 40
0.1191016506
 40
0.1622633141
 40
0.2108980893
 40
0.3246761973
 40
0.4605116447
 40
0.6183820989
 40
0.7982347863
 40
1.0
 40
1.0
 40
1.0
 40
1.0
 10
4.3794440898
 20
2.922692173
 30
0.0
 10
4.3793446858
 20
2.9228603344
 30
0.0
 10
4.379152044
 20
2.9232530786
 30
0.0
 10
4.378891258
 20
2.9239291049
 30
0.0
 10
4.3786295806
 20
2.9247535728
 30
0.0
 10
4.3783672488
 20
2.9257268077
 30
0.0
 10
4.3781043823
 20
2.9268492639
 30
0.0
 10
4.3777337591
 20
2.9286409276
 30
0.0
 10
4.377279716
 20
2.9312565769
 30
0.0
 10
4.3767567559
 20
2.9348451882
 30
0.0
 10
4.3762323262
 20
2.9390269325
 30
0.0
 10
4.3757066781
 20
2.9437991896
 30
0.0
 10
4.3753747524
 20
2.9471790826
 30
0.0
 10
4.3752072917
 20
2.9489667967
 30
0.0
  0
SPLINE
  5
371
100
AcDbEntity
  8
0
100
AcDbSpline
 62
7
  6
CONTINUOUS
 70
0
 71
3
 72
38
 73
34
 74
0
 42
0.0000001
 43
0.0000001
 44
0.0000000001
 40
0.0
 40
0.0
 40
0.0
 40
0.0
 40
0.0005364789
 40
0.0012052013
 40
0.0020101441
 40
0.0029535633
 40
0.0040368499
 40
0.0052609181
 40
0.0081330824
 40
0.0115709837
 40
0.0155735893
 40
0.0201391714
 40
0.0252656153
 40
0.030950575
 40
0.0371915572
 40
0.0513310902
 40
0.0676570375
 40
0.0861274673
 40
0.1066980024
 40
0.1293240551
 40
0.1539591282
 40
0.1805438436
 40
0.2090131529
 40
0.2393019362
 40
0.3050688299
 40
0.3772342151
 40
0.4551396595
 40
0.538063648
 40
0.6252284756
 40
0.7158463178
 40
0.8091174465
 40
0.9041756119
 40
1.0
 40
1.0
 40
1.0
 40
1.0
 10
4.4819956052
 20
5.3587959562
 30
0.0
 10
4.4821039761
 20
5.3586068192
 30
0.0
 10
4.482313089
 20
5.3581624696
 30
0.0
 10
4.4825948852
 20
5.3573953809
 30
0.0
 10
4.4828778008
 20
5.356454383
 30
0.0
 10
4.4831615313
 20
5.3553391156
 30
0.0
 10
4.483445901
 20
5.3540490356
 30
0.0
 10
4.483847309
 20
5.3519829426
 30
0.0
 10
4.4843386955
 20
5.3489606964
 30
0.0
 10
4.4849044725
 20
5.3448085251
 30
0.0
 10
4.4854718955
 20
5.3399630422
 30
0.0
 10
4.4860406902
 20
5.3344276011
 30
0.0
 10
4.4866103429
 20
5.3282054865
 30
0.0
 10
4.4871806941
 20
5.3213001388
 30
0.0
 10
4.4879752608
 20
5.3107388908
 30
0.0
 10
4.4889547893
 20
5.2958560773
 30
0.0
 10
4.49008992
 20
5.276004529
 30
0.0
 10
4.4912274054
 20
5.2535362857
 30
0.0
 10
4.4923667479
 20
5.2285053494
 30
0.0
 10
4.4935073558
 20
5.2009672874
 30
0.0
 10
4.4946486357
 20
5.1709836397
 30
0.0
 10
4.4957906227
 20
5.1386241819
 30
0.0
 10
4.4969332708
 20
5.103966182
 30
0.0
 10
4.4985007716
 20
5.0533929899
 30
0.0
 10
4.5004419117
 20
4.985068245
 30
0.0
 10
4.5027162601
 20
4.897397702
 30
0.0
 10
4.5049934919
 20
4.8027537363
 30
0.0
 10
4.5072725517
 20
4.7020135445
 30
0.0
 10
4.509551041
 20
4.5961067441
 30
0.0
 10
4.5118292717
 20
4.4859947228
 30
0.0
 10
4.514114523
 20
4.3726749312
 30
0.0
 10
4.5164065747
 20
4.2572393104
 30
0.0
 10
4.5179225444
 20
4.1796940226
 30
0.0
 10
4.5186779535
 20
4.1407656325
 30
0.0
  0
LINE
  5
372
100
AcDbEntity
  8
0
100
AcDbLine
 62
7
  6
CONTINUOUS
 10
4.5497617974
 20
5.0264779615
 11
4.5505196255
 21
5.0038757429
  0
SPLINE
  5
373
100
AcDbEntity
  8
0
100
AcDbSpline
 62
7
  6
CONTINUOUS
 70
0
 71
3
 72
14
 73
10
 74
0
 42
0.0000001
 43
0.0000001
 44
0.0000000001
 40
0.0
 40
0.0
 40
0.0
 40
0.0
 40
0.1018697941
 40
0.2127097332
 40
0.3314497346
 40
0.4569430414
 40
0.5878847181
 40
0.7229430396
 40
1.0
 40
1.0
 40
1.0
 40
1.0
 10
4.5521868668
 20
4.9511172003
 30
0.0
 10
4.5530244776
 20
4.9235986465
 30
0.0
 10
4.5546805298
 20
4.8661355543
 30
0.0
 10
4.5570562659
 20
4.7765895133
 30
0.0
 10
4.5594341156
 20
4.6806569551
 30
0.0
 10
4.5618122295
 20
4.5792901531
 30
0.0
 10
4.5641921459
 20
4.4735120541
 30
0.0
 10
4.5673944079
 20
4.3267805829
 30
0.0
 10
4.569751769
 20
4.2154273801
 30
0.0
 10
4.571336659
 20
4.1405668284
 30
0.0
  0
SPLINE
  5
374
100
AcDbEntity
  8
0
100
AcDbSpline
 62
7
  6
CONTINUOUS
 70
0
 71
3
 72
16
 73
12
 74
0
 42
0.0000001
 43
0.0000001
 44
0.0000000001
 40
0.0
 40
0.0
 40
0.0
 40
0.0
 40
0.2885493516
 40
0.4278076258
 40
0.4953241168
 40
0.5611259044
 40
0.6866802697
 40
0.8027439474
 40
0.9076837722
 40
0.9555096657
 40
1.0
 40
1.0
 40
1.0
 40
1.0
 10
4.571336659
 20
4.1405668284
 30
0.0
 10
4.5731938553
 20
4.0528441794
 30
0.0
 10
4.5759461706
 20
3.9227852168
 30
0.0
 10
4.57927022
 20
3.7722033485
 30
0.0
 10
4.5811605114
 20
3.6893396162
 30
0.0
 10
4.5830023723
 20
3.6106429742
 30
0.0
 10
4.585286606
 20
3.517190383
 30
0.0
 10
4.5880682526
 20
3.411845443
 30
0.0
 10
4.5904502055
 20
3.3301341298
 30
0.0
 10
4.5923775893
 20
3.2701832938
 30
0.0
 10
4.5933456267
 20
3.2421283622
 30
0.0
 10
4.5938322981
 20
3.2286084639
 30
0.0
  0
LINE
  5
375
100
AcDbEntity
  8
0
100
AcDbLine
 62
7
  6
CONTINUOUS
 10
4.4184001144
 20
5.0297083292
 11
4.418504742
 21
5.0266575833
  0
SPLINE
  5
376
100
AcDbEntity
  8
0
100
AcDbSpline
 62
7
  6
CONTINUOUS
 70
0
 71
3
 72
15
 73
11
 74
0
 42
0.0000001
 43
0.0000001
 44
0.0000000001
 40
0.0
 40
0.0
 40
0.0
 40
0.0
 40
0.0460918009
 40
0.095212899
 40
0.2018809377
 40
0.3186806171
 40
0.4442370979
 40
0.5768939402
 40
0.7149018263
 40
1.0
 40
1.0
 40
1.0
 40
1.0
 10
4.418504742
 20
5.0266575833
 30
0.0
 10
4.4189699949
 20
5.0130536834
 30
0.0
 10
4.4198956997
 20
4.9849505768
 30
0.0
 10
4.4217381315
 20
4.9253594447
 30
0.0
 10
4.4240187397
 20
4.8448905633
 30
0.0
 10
4.4266917526
 20
4.741851167
 30
0.0
 10
4.4293650394
 20
4.631134366
 30
0.0
 10
4.4320409817
 20
4.514152705
 30
0.0
 10
4.4356514825
 20
4.3500642334
 30
0.0
 10
4.4382962331
 20
4.2251403242
 30
0.0
 10
4.4400784981
 20
4.1409638567
 30
0.0
  0
SPLINE
  5
377
100
AcDbEntity
  8
0
100
AcDbSpline
 62
7
  6
CONTINUOUS
 70
0
 71
3
 72
13
 73
9
 74
0
 42
0.0000001
 43
0.0000001
 44
0.0000000001
 40
0.0
 40
0.0
 40
0.0
 40
0.0
 40
0.2769306425
 40
0.5427726919
 40
0.6682091308
 40
0.7870112562
 40
0.8979949299
 40
1.0
 40
1.0
 40
1.0
 40
1.0
 10
4.4400784981
 20
4.1409638567
 30
0.0
 10
4.4416596519
 20
4.066285878
 30
0.0
 10
4.4447574463
 20
3.9199200844
 30
0.0
 10
4.4487240247
 20
3.7397319299
 30
0.0
 10
4.4519510791
 20
3.6021890008
 30
0.0
 10
4.4543215695
 20
3.5064064902
 30
0.0
 10
4.4566892651
 20
3.4169459561
 30
0.0
 10
4.4583422753
 20
3.3595215764
 30
0.0
 10
4.4591785677
 20
3.3320211198
 30
0.0
  0
LINE
  5
378
100
AcDbEntity
  8
0
100
AcDbLine
 62
7
  6
CONTINUOUS
 10
4.4608803752
 20
3.2781577909
 11
4.4616552594
 21
3.2550640525
  0
SPLINE
  5
379
100
AcDbEntity
  8
0
100
AcDbSpline
 62
7
  6
CONTINUOUS
 70
0
 71
3
 72
64
 73
60
 74
0
 42
0.0000001
 43
0.0000001
 44
0.0000000001
 40
0.0
 40
0.0
 40
0.0
 40
0.0
 40
0.0001595542
 40
0.0003500751
 40
0.0005892978
 40
0.0008863543
 40
0.0012459943
 40
0.0016708705
 40
0.0021625785
 40
0.0027221399
 40
0.0040472685
 40
0.0056498602
 40
0.007531787
 40
0.0096941761
 40
0.0121374254
 40
0.0148595814
 40
0.017857687
 40
0.0211286778
 40
0.0284766894
 40
0.0368780636
 40
0.0463067496
 40
0.0567378198
 40
0.0681524863
 40
0.0805336655
 40
0.0938642096
 40
0.1081269253
 40
0.1393435114
 40
0.1738640253
 40
0.2113326152
 40
0.2513915559
 40
0.2936814427
 40
0.3378359221
 40
0.3834658903
 40
0.4301758021
 40
0.4775442056
 40
0.5251294004
 40
0.5724952073
 40
0.6192221359
 40
0.6648931829
 40
0.7090868702
 40
0.7513788789
 40
0.7913804938
 40
0.8287879563
 40
0.8633059743
 40
0.8945994563
 40
0.922311103
 40
0.934725103
 40
0.9461488753
 40
0.9565649026
 40
0.9659557666
 40
0.9743042953
 40
0.981596206
 40
0.9878205797
 40
0.9905293136
 40
0.992967527
 40
0.9951342358
 40
0.9970286812
 40
0.9986504834
 40
1.0
 40
1.0
 40
1.0
 40
1.0
 10
5.2607963712
 20
5.7385314748
 30
0.0
 10
5.2607991458
 20
5.738612975
 30
0.0
 10
5.2608510578
 20
5.7387910591
 30
0.0
 10
5.2610390666
 20
5.7390315949
 30
0.0
 10
5.2613292748
 20
5.739266439
 30
0.0
 10
5.2617244117
 20
5.7394999305
 30
0.0
 10
5.2622259798
 20
5.7397336891
 30
0.0
 10
5.2628351617
 20
5.7399678809
 30
0.0
 10
5.2635524431
 20
5.740202549
 30
0.0
 10
5.2647208974
 20
5.7405348952
 30
0.0
 10
5.2664572146
 20
5.7409410819
 30
0.0
 10
5.2688710376
 20
5.7414077592
 30
0.0
 10
5.2717192516
 20
5.7418758254
 30
0.0
 10
5.2750018261
 20
5.7423450226
 30
0.0
 10
5.2787175952
 20
5.7428147003
 30
0.0
 10
5.2828634408
 20
5.7432848956
 30
0.0
 10
5.2874347347
 20
5.7437555354
 30
0.0
 10
5.2943636928
 20
5.7444090851
 30
0.0
 10
5.3040516847
 20
5.7452156584
 30
0.0
 10
5.3168860845
 20
5.7461525156
 30
0.0
 10
5.3312998207
 20
5.7470910787
 30
0.0
 10
5.3472564419
 20
5.7480313308
 30
0.0
 10
5.3647243898
 20
5.7489725729
 30
0.0
 10
5.3836761726
 20
5.7499146064
 30
0.0
 10
5.4040852063
 20
5.7508573781
 30
0.0
 10
5.4341147055
 20
5.7521543125
 30
0.0
 10
5.4749709567
 20
5.7537578795
 30
0.0
 10
5.5276856573
 20
5.7556333914
 30
0.0
 10
5.584922212
 20
5.7575104473
 30
0.0
 10
5.6461315966
 20
5.7593885806
 30
0.0
 10
5.7107595682
 20
5.761268536
 30
0.0
 10
5.7782359547
 20
5.7631505562
 30
0.0
 10
5.8479722015
 20
5.7650340607
 30
0.0
 10
5.9193516557
 20
5.7669174414
 30
0.0
 10
5.9917307741
 20
5.768800223
 30
0.0
 10
6.0644452429
 20
5.7706824998
 30
0.0
 10
6.1368317622
 20
5.7725641926
 30
0.0
 10
6.2082396373
 20
5.7744458344
 30
0.0
 10
6.2780256594
 20
5.7763283877
 30
0.0
 10
6.3455441661
 20
5.7782109701
 30
0.0
 10
6.4101639193
 20
5.7800923105
 30
0.0
 10
6.4713137544
 20
5.7819726413
 30
0.0
 10
6.5284884225
 20
5.783850574
 30
0.0
 10
6.5812099732
 20
5.7857247157
 30
0.0
 10
6.6289727767
 20
5.7875944758
 30
0.0
 10
6.6654396429
 20
5.7892015965
 30
0.0
 10
6.6917540396
 20
5.7905068446
 30
0.0
 10
6.7092357059
 20
5.7914488977
 30
0.0
 10
6.7251698886
 20
5.7923898782
 30
0.0
 10
6.739529412
 20
5.7933294071
 30
0.0
 10
6.7522885992
 20
5.7942668463
 30
0.0
 10
6.7634246414
 20
5.7952018856
 30
0.0
 10
6.7716781245
 20
5.7960105601
 30
0.0
 10
6.7774527377
 20
5.7966682859
 30
0.0
 10
6.7811612241
 20
5.7971378983
 30
0.0
 10
6.7844499282
 20
5.7976067517
 30
0.0
 10
6.7873168349
 20
5.7980745566
 30
0.0
 10
6.789759886
 20
5.7985409342
 30
0.0
 10
6.7912406268
 20
5.7988811551
 30
0.0
 10
6.7919077315
 20
5.7990563738
 30
0.0
  0
LINE
  5
37A
100
AcDbEntity
  8
0
100
AcDbLine
 62
7
  6
CONTINUOUS
 10
6.7919077315
 20
5.7990563738
 11
6.7949080582
 21
5.8001424825
  0
SPLINE
  5
37B
100
AcDbEntity
  8
0
100
AcDbSpline
 62
7
  6
CONTINUOUS
 70
0
 71
3
 72
53
 73
49
 74
0
 42
0.0000001
 43
0.0000001
 44
0.0000000001
 40
0.0
 40
0.0
 40
0.0
 40
0.0
 40
0.0001457445
 40
0.0003132486
 40
0.000517898
 40
0.0007684439
 40
0.0010697586
 40
0.0014245447
 40
0.0018342422
 40
0.0022996831
 40
0.0033994087
 40
0.0047255907
 40
0.0062782909
 40
0.0080567937
 40
0.0100599622
 40
0.0122864117
 40
0.0147346024
 40
0.017402893
 40
0.0233928614
 40
0.030243944
 40
0.0379465806
 40
0.0464913259
 40
0.055868578
 40
0.0660686328
 40
0.0770810413
 40
0.0888882116
 40
0.114799219
 40
0.1436259434
 40
0.1751727983
 40
0.2091830223
 40
0.2453879982
 40
0.2835298587
 40
0.3233681178
 40
0.3646616845
 40
0.4071280235
 40
0.4504471467
 40
0.4942996761
 40
0.5824033495
 40
0.6690433536
 40
0.7516880445
 40
0.7907875959
 40
0.8280754299
 40
0.8633036319
 40
0.8962164306
 40
0.9265574248
 40
0.9540952787
 40
0.9786380726
 40
1.0
 40
1.0
 40
1.0
 40
1.0
 10
5.2606806434
 20
5.8635193466
 30
0.0
 10
5.2606800772
 20
5.8635900492
 30
0.0
 10
5.2607129959
 20
5.8637433061
 30
0.0
 10
5.2608522459
 20
5.8639567195
 30
0.0
 10
5.2610739567
 20
5.8641645455
 30
0.0
 10
5.2613788367
 20
5.8643706562
 30
0.0
 10
5.261768165
 20
5.8645765535
 30
0.0
 10
5.2622427678
 20
5.864782632
 30
0.0
 10
5.262802845
 20
5.8649890651
 30
0.0
 10
5.2637155437
 20
5.8652811309
 30
0.0
 10
5.2650728826
 20
5.8656381656
 30
0.0
 10
5.2669592163
 20
5.8660485419
 30
0.0
 10
5.2691811385
 20
5.8664601587
 30
0.0
 10
5.2717360493
 20
5.8668728108
 30
0.0
 10
5.2746214383
 20
5.8672861109
 30
0.0
 10
5.2778345912
 20
5.8676998854
 30
0.0
 10
5.2813727721
 20
5.8681140238
 30
0.0
 10
5.2867301406
 20
5.8686889415
 30
0.0
 10
5.294220885
 20
5.8693988702
 30
0.0
 10
5.3041532017
 20
5.8702235101
 30
0.0
 10
5.3153285906
 20
5.8710493954
 30
0.0
 10
5.3277323917
 20
5.871876399
 30
0.0
 10
5.3413501411
 20
5.872704278
 30
0.0
 10
5.3561669967
 20
5.8735329492
 30
0.0
 10
5.3721643449
 20
5.8743621517
 30
0.0
 10
5.3957774087
 20
5.8755041919
 30
0.0
 10
5.4280294501
 20
5.8769183884
 30
0.0
 10
5.4698561167
 20
5.8785698737
 30
0.0
 10
5.5156147417
 20
5.8802209497
 30
0.0
 10
5.5649548505
 20
5.881873576
 30
0.0
 10
5.6174960084
 20
5.883527866
 30
0.0
 10
5.6728657807
 20
5.885183989
 30
0.0
 10
5.7307051905
 20
5.8868414139
 30
0.0
 10
5.7906433419
 20
5.8884993932
 30
0.0
 10
5.8522707799
 20
5.8901576302
 30
0.0
 10
5.9151400805
 20
5.8918159765
 30
0.0
 10
6.0001424301
 20
5.8940295816
 30
0.0
 10
6.1061544761
 20
5.8967672577
 30
0.0
 10
6.2309780172
 20
5.9000463002
 30
0.0
 10
6.3320331105
 20
5.9028264717
 30
0.0
 10
6.4091513575
 20
5.9050781879
 30
0.0
 10
6.4632740289
 20
5.9067340316
 30
0.0
 10
6.5143939165
 20
5.9083878315
 30
0.0
 10
6.56214188
 20
5.9100399423
 30
0.0
 10
6.6061566684
 20
5.9116911411
 30
0.0
 10
6.6461078633
 20
5.9133416206
 30
0.0
 10
6.6816990976
 20
5.914987842
 30
0.0
 10
6.7039379796
 20
5.9161650698
 30
0.0
 10
6.7142838457
 20
5.9167658231
 30
0.0
  0
SPLINE
  5
37C
100
AcDbEntity
  8
0
100
AcDbSpline
 62
7
  6
CONTINUOUS
 70
0
 71
3
 72
13
 73
9
 74
0
 42
0.0000001
 43
0.0000001
 44
0.0000000001
 40
0.0
 40
0.0
 40
0.0
 40
0.0
 40
0.0729924016
 40
0.1603367876
 40
0.2624276562
 40
0.3795041699
 40
0.6591455581
 40
1.0
 40
1.0
 40
1.0
 40
1.0
 10
5.1850898713
 20
5.7817416056
 30
0.0
 10
5.1852196841
 20
5.781664118
 30
0.0
 10
5.185515576
 20
5.7815119372
 30
0.0
 10
5.1860171109
 20
5.7813016539
 30
0.0
 10
5.1866157859
 20
5.7810895954
 30
0.0
 10
5.1876037402
 20
5.7807866746
 30
0.0
 10
5.1890862632
 20
5.7804145203
 30
0.0
 10
5.1903449694
 20
5.7801539871
 30
0.0
 10
5.1910382157
 20
5.7800205396
 30
0.0
  0
SPLINE
  5
37D
100
AcDbEntity
  8
0
100
AcDbSpline
 62
7
  6
CONTINUOUS
 70
0
 71
3
 72
14
 73
10
 74
0
 42
0.0000001
 43
0.0000001
 44
0.0000000001
 40
0.0
 40
0.0
 40
0.0
 40
0.0
 40
0.0659471236
 40
0.1482036014
 40
0.2472380777
 40
0.3633033777
 40
0.4965443144
 40
0.6470463239
 40
1.0
 40
1.0
 40
1.0
 40
1.0
 10
6.8713195807
 20
5.8442405645
 30
0.0
 10
6.8711474537
 20
5.8441382724
 30
0.0
 10
6.8707420031
 20
5.8439400998
 30
0.0
 10
6.8700405961
 20
5.8436714971
 30
0.0
 10
6.8691789657
 20
5.8434003248
 30
0.0
 10
6.868157025
 20
5.8431270572
 30
0.0
 10
6.866974508
 20
5.8428520525
 30
0.0
 10
6.865080872
 20
5.8424625508
 30
0.0
 10
6.863574191
 20
5.8422022042
 30
0.0
 10
6.8625160779
 20
5.8420324985
 30
0.0
  0
SPLINE
  5
37E
100
AcDbEntity
  8
0
100
AcDbSpline
 62
7
  6
CONTINUOUS
 70
0
 71
3
 72
65
 73
61
 74
0
 42
0.0000001
 43
0.0000001
 44
0.0000000001
 40
0.0
 40
0.0
 40
0.0
 40
0.0
 40
0.0019062105
 40
0.0040800721
 40
0.0065213731
 40
0.0092296361
 40
0.0154408783
 40
0.0226990654
 40
0.0309882956
 40
0.0402922914
 40
0.0505941787
 40
0.0618713234
 40
0.0740966873
 40
0.0872430695
 40
0.1161891267
 40
0.1484607733
 40
0.1837702858
 40
0.2218176048
 40
0.2622642756
 40
0.3047607659
 40
0.348935977
 40
0.394402189
 40
0.4407654414
 40
0.4876188393
 40
0.5345537327
 40
0.5811614733
 40
0.6270336381
 40
0.6717703138
 40
0.7149826485
 40
0.7562892139
 40
0.7953352568
 40
0.8317748114
 40
0.8652929419
 40
0.8955987788
 40
0.9094603487
 40
0.9224226202
 40
0.9344583635
 40
0.9455403866
 40
0.9556419278
 40
0.9647419437
 40
0.9728238833
 40
0.9798715586
 40
0.9830026233
 40
0.9858692742
 40
0.9884697247
 40
0.9908029829
 40
0.9928687149
 40
0.9946667813
 40
0.9961973516
 40
0.9974611681
 40
0.9979936356
 40
0.9984603264
 40
0.9988619568
 40
0.999199713
 40
0.9994756732
 40
0.9996937768
 40
0.9997836156
 40
0.9998627217
 40
0.9999336698
 40
1.0
 40
1.0
 40
1.0
 40
1.0
 10
6.8625160779
 20
5.8420324985
 30
0.0
 10
6.8614620924
 20
5.8418634548
 30
0.0
 10
6.8592015798
 20
5.8415298907
 30
0.0
 10
6.8555797574
 20
5.8410612088
 30
0.0
 10
6.8515054676
 20
5.8405925954
 30
0.0
 10
6.8451770631
 20
5.8399393739
 30
0.0
 10
6.8361525739
 20
5.839140778
 30
0.0
 10
6.8240025124
 20
5.8382215039
 30
0.0
 10
6.8101162134
 20
5.8373026648
 30
0.0
 10
6.7945222923
 20
5.8363827505
 30
0.0
 10
6.7772526998
 20
5.8354604491
 30
0.0
 10
6.7583451939
 20
5.8345355448
 30
0.0
 10
6.737843143
 20
5.8336087842
 30
0.0
 10
6.7074526642
 20
5.8323300508
 30
0.0
 10
6.6658394977
 20
5.830749277
 30
0.0
 10
6.6118167316
 20
5.8289063919
 30
0.0
 10
6.5526947646
 20
5.8270607572
 30
0.0
 10
6.4889928945
 20
5.8252131672
 30
0.0
 10
6.4212648789
 20
5.8233635257
 30
0.0
 10
6.3501041281
 20
5.8215131109
 30
0.0
 10
6.2761316001
 20
5.8196621328
 30
0.0
 10
6.1999930921
 20
5.8178105202
 30
0.0
 10
6.122354404
 20
5.8159586937
 30
0.0
 10
6.0438930478
 20
5.8141065969
 30
0.0
 10
5.9652947444
 20
5.8122544539
 30
0.0
 10
5.8872460682
 20
5.8104025023
 30
0.0
 10
5.8104287115
 20
5.8085508118
 30
0.0
 10
5.7355132954
 20
5.8066995125
 30
0.0
 10
5.6631553442
 20
5.804848965
 30
0.0
 10
5.5939851522
 20
5.8029987788
 30
0.0
 10
5.5286090129
 20
5.8011503125
 30
0.0
 10
5.4675960843
 20
5.7993040174
 30
0.0
 10
5.4114799117
 20
5.79746
 30
0.0
 10
5.3680054162
 20
5.7958820073
 30
0.0
 10
5.3360389141
 20
5.7946054915
 30
0.0
 10
5.314297768
 20
5.7936775162
 30
0.0
 10
5.2941145833
 20
5.7927510614
 30
0.0
 10
5.2755350803
 20
5.7918268503
 30
0.0
 10
5.2586015891
 20
5.7909058358
 30
0.0
 10
5.243350672
 20
5.789987281
 30
0.0
 10
5.2298133295
 20
5.7890690107
 30
0.0
 10
5.2196181551
 20
5.7882749319
 30
0.0
 10
5.2123415123
 20
5.7876280997
 30
0.0
 10
5.2075492959
 20
5.787160832
 30
0.0
 10
5.20320636
 20
5.7866916723
 30
0.0
 10
5.1993149537
 20
5.7862212694
 30
0.0
 10
5.1958765046
 20
5.7857511272
 30
0.0
 10
5.1928919576
 20
5.7852828073
 30
0.0
 10
5.1903623449
 20
5.7848176852
 30
0.0
 10
5.1885425548
 20
5.7844152152
 30
0.0
 10
5.187318084
 20
5.7840879994
 30
0.0
 10
5.1865677891
 20
5.7838583523
 30
0.0
 10
5.1859316727
 20
5.783630557
 30
0.0
 10
5.1854091403
 20
5.783404765
 30
0.0
 10
5.184999797
 20
5.7831811708
 30
0.0
 10
5.1847354773
 20
5.7829847838
 30
0.0
 10
5.1845881858
 20
5.782824863
 30
0.0
 10
5.1845135044
 20
5.7827123236
 30
0.0
 10
5.1844677946
 20
5.782599052
 30
0.0
 10
5.1844572981
 20
5.7825218672
 30
0.0
 10
5.1844572981
 20
5.782484723
 30
0.0
  0
SPLINE
  5
37F
100
AcDbEntity
  8
0
100
AcDbSpline
 62
7
  6
CONTINUOUS
 70
0
 71
3
 72
14
 73
10
 74
0
 42
0.0000001
 43
0.0000001
 44
0.0000000001
 40
0.0
 40
0.0
 40
0.0
 40
0.0
 40
0.0662974282
 40
0.1487935995
 40
0.2479640364
 40
0.364067032
 40
0.4972514855
 40
0.6476059021
 40
1.0
 40
1.0
 40
1.0
 40
1.0
 10
5.1851065682
 20
5.9067292206
 30
0.0
 10
5.1852794024
 20
5.9066265933
 30
0.0
 10
5.1856858883
 20
5.9064279155
 30
0.0
 10
5.1863884218
 20
5.9061590407
 30
0.0
 10
5.1872501481
 20
5.9058882406
 30
0.0
 10
5.1882711619
 20
5.9056159055
 30
0.0
 10
5.1894517281
 20
5.9053423077
 30
0.0
 10
5.1913407527
 20
5.9049554325
 30
0.0
 10
5.192843426
 20
5.9046971752
 30
0.0
 10
5.1938985164
 20
5.9045288973
 30
0.0
  0
SPLINE
  5
380
100
AcDbEntity
  8
0
100
AcDbSpline
 62
7
  6
CONTINUOUS
 70
0
 71
3
 72
14
 73
10
 74
0
 42
0.0000001
 43
0.0000001
 44
0.0000000001
 40
0.0
 40
0.0
 40
0.0
 40
0.0
 40
0.3274730546
 40
0.4721111311
 40
0.6038596174
 40
0.7226041478
 40
0.8282385451
 40
0.9207087724
 40
1.0
 40
1.0
 40
1.0
 40
1.0
 10
5.2427702993
 20
5.9149381109
 30
0.0
 10
5.2374217719
 20
5.9145935562
 30
0.0
 10
5.2297127953
 20
5.91406525
 30
0.0
 10
5.2198599015
 20
5.9132920148
 30
0.0
 10
5.2134168314
 20
5.9127358876
 30
0.0
 10
5.2076147763
 20
5.9121792721
 30
0.0
 10
5.2024589114
 20
5.9116218672
 30
0.0
 10
5.1979530435
 20
5.9110645121
 30
0.0
 10
5.1951703067
 20
5.9106635121
 30
0.0
 10
5.1938887938
 20
5.9104590175
 30
0.0
  0
SPLINE
  5
381
100
AcDbEntity
  8
0
100
AcDbSpline
 62
7
  6
CONTINUOUS
 70
0
 71
3
 72
19
 73
15
 74
0
 42
0.0000001
 43
0.0000001
 44
0.0000000001
 40
0.0
 40
0.0
 40
0.0
 40
0.0
 40
0.2208439795
 40
0.4133122495
 40
0.5774976758
 40
0.7135900453
 40
0.7712203173
 40
0.8220029005
 40
0.8660620414
 40
0.9035932791
 40
0.9349199941
 40
0.9606075537
 40
0.9816881651
 40
1.0
 40
1.0
 40
1.0
 40
1.0
 10
5.1938887938
 20
5.9104590175
 30
0.0
 10
5.1931524119
 20
5.9103415109
 30
0.0
 10
5.1917761447
 20
5.9101094434
 30
0.0
 10
5.1898614141
 20
5.9097389954
 30
0.0
 10
5.1882386126
 20
5.9093705801
 30
0.0
 10
5.1870723401
 20
5.9090510429
 30
0.0
 10
5.1862886721
 20
5.9087906608
 30
0.0
 10
5.1858074938
 20
5.9086069861
 30
0.0
 10
5.1853993366
 20
5.9084240405
 30
0.0
 10
5.1850638951
 20
5.908241762
 30
0.0
 10
5.1848004993
 20
5.9080598812
 30
0.0
 10
5.1846083149
 20
5.9078771218
 30
0.0
 10
5.1844869511
 20
5.9076903831
 30
0.0
 10
5.1844572981
 20
5.9075565545
 30
0.0
 10
5.1844572981
 20
5.907494723
 30
0.0
  0
SPLINE
  5
382
100
AcDbEntity
  8
0
100
AcDbSpline
 62
7
  6
CONTINUOUS
 70
0
 71
3
 72
30
 73
26
 74
0
 42
0.0000001
 43
0.0000001
 44
0.0000000001
 40
0.0
 40
0.0
 40
0.0
 40
0.0
 40
0.0017810195
 40
0.0040051283
 40
0.0066851937
 40
0.0098282876
 40
0.0134378459
 40
0.0175155994
 40
0.0270781123
 40
0.0385171128
 40
0.0518289547
 40
0.067007808
 40
0.0840466269
 40
0.1029376359
 40
0.123671208
 40
0.1705939525
 40
0.2246571107
 40
0.2856983171
 40
0.3535517278
 40
0.4280193368
 40
0.5088805454
 40
0.5959139616
 40
0.6888848552
 40
0.7874666784
 40
1.0
 40
1.0
 40
1.0
 40
1.0
 10
7.9134984649
 20
2.9229514158
 30
0.0
 10
7.9133608273
 20
2.9231981697
 30
0.0
 10
7.9130955329
 20
2.9237774423
 30
0.0
 10
7.9127382688
 20
2.9247765878
 30
0.0
 10
7.9123795661
 20
2.9260024318
 30
0.0
 10
7.9120198505
 20
2.9274552694
 30
0.0
 10
7.9116593009
 20
2.9291354041
 30
0.0
 10
7.9111504174
 20
2.931824427
 30
0.0
 10
7.9105273199
 20
2.9357547516
 30
0.0
 10
7.9098097905
 20
2.9411511217
 30
0.0
 10
7.909090139
 20
2.947444936
 30
0.0
 10
7.9083686932
 20
2.9546318848
 30
0.0
 10
7.9076460758
 20
2.9627077415
 30
0.0
 10
7.9069224805
 20
2.9716678691
 30
0.0
 10
7.9059148363
 20
2.9853609959
 30
0.0
 10
7.904672653
 20
3.0046312213
 30
0.0
 10
7.9032324069
 20
3.0302953692
 30
0.0
 10
7.9017903382
 20
3.059284511
 30
0.0
 10
7.9003483282
 20
3.0915142038
 30
0.0
 10
7.8989053527
 20
3.1268909833
 30
0.0
 10
7.8974587803
 20
3.1653126932
 30
0.0
 10
7.8960067696
 20
3.2066715315
 30
0.0
 10
7.8945468916
 20
3.2508429635
 30
0.0
 10
7.8925492648
 20
3.3149169623
 30
0.0
 10
7.8911443237
 20
3.3642530847
 30
0.0
 10
7.8902366426
 20
3.3979576218
 30
0.0
  0
SPLINE
  5
383
100
AcDbEntity
  8
0
100
AcDbSpline
 62
7
  6
CONTINUOUS
 70
0
 71
3
 72
30
 73
26
 74
0
 42
0.0000001
 43
0.0000001
 44
0.0000000001
 40
0.0
 40
0.0
 40
0.0
 40
0.0
 40
0.0018729989
 40
0.004188642
 40
0.0069591073
 40
0.0101908283
 40
0.0138873791
 40
0.0180507364
 40
0.0277810117
 40
0.0393841586
 40
0.0528573436
 40
0.0681953418
 40
0.0853915849
 40
0.1044373724
 40
0.1253138163
 40
0.172464053
 40
0.2266513837
 40
0.2876823834
 40
0.3553690981
 40
0.429554401
 40
0.510089984
 40
0.5968272326
 40
0.6895761466
 40
0.7879670709
 40
1.0
 40
1.0
 40
1.0
 40
1.0
 10
7.8607643364
 20
3.0143277441
 30
0.0
 10
7.8606281119
 20
3.0145664981
 30
0.0
 10
7.8603644655
 20
3.0151236055
 30
0.0
 10
7.8600079588
 20
3.016081281
 30
0.0
 10
7.8596501098
 20
3.0172489939
 30
0.0
 10
7.8592912907
 20
3.0186267112
 30
0.0
 10
7.8589316936
 20
3.0202145418
 30
0.0
 10
7.8584248193
 20
3.022746048
 30
0.0
 10
7.8578036552
 20
3.0264368612
 30
0.0
 10
7.8570880048
 20
3.0314950628
 30
0.0
 10
7.8563703937
 20
3.0373830315
 30
0.0
 10
7.8556511898
 20
3.04409688
 30
0.0
 10
7.8549310398
 20
3.0516326075
 30
0.0
 10
7.8542103438
 20
3.059984418
 30
0.0
 10
7.8532076288
 20
3.0727239381
 30
0.0
 10
7.8519715866
 20
3.0906179095
 30
0.0
 10
7.8505373894
 20
3.1144042449
 30
0.0
 10
7.8491002593
 20
3.1412091993
 30
0.0
 10
7.8476603217
 20
3.1709526758
 30
0.0
 10
7.846218548
 20
3.2035616136
 30
0.0
 10
7.844775168
 20
3.2389688522
 30
0.0
 10
7.843330554
 20
3.2771025422
 30
0.0
 10
7.8418859325
 20
3.3178584448
 30
0.0
 10
7.8399095489
 20
3.3769954145
 30
0.0
 10
7.8385055034
 20
3.4225319146
 30
0.0
 10
7.8375822981
 20
3.4536363389
 30
0.0
  0
LINE
  5
384
100
AcDbEntity
  8
0
100
AcDbLine
 62
7
  6
CONTINUOUS
 10
5.1852261033
 20
5.6797127732
 11
5.1878689117
 21
5.6806549777
  0
SPLINE
  5
385
100
AcDbEntity
  8
0
100
AcDbSpline
 62
7
  6
CONTINUOUS
 70
0
 71
3
 72
66
 73
62
 74
0
 42
0.0000001
 43
0.0000001
 44
0.0000000001
 40
0.0
 40
0.0
 40
0.0
 40
0.0
 40
0.0012439478
 40
0.0027644341
 40
0.0045629534
 40
0.006640123
 40
0.0089952179
 40
0.0116268561
 40
0.0177135015
 40
0.0248869579
 40
0.0331332825
 40
0.0424377315
 40
0.0527791508
 40
0.0641314795
 40
0.0764684406
 40
0.1039899752
 40
0.135098406
 40
0.1695045924
 40
0.2069053767
 40
0.2469538966
 40
0.2892906222
 40
0.3335308386
 40
0.3792704069
 40
0.4260974416
 40
0.4735839231
 40
0.5212993744
 40
0.5688113543
 40
0.615686753
 40
0.6615005456
 40
0.705838226
 40
0.7482928603
 40
0.7884849431
 40
0.826044058
 40
0.8606324528
 40
0.8919377044
 40
0.9062659557
 40
0.9196700031
 40
0.9321205656
 40
0.9435884088
 40
0.9540447613
 40
0.96346689
 40
0.971836764
 40
0.979136654
 40
0.9823799156
 40
0.9853491958
 40
0.9880424736
 40
0.990458653
 40
0.9925974255
 40
0.9944587185
 40
0.9960428331
 40
0.9973507633
 40
0.9979018995
 40
0.9983851267
 40
0.9988013203
 40
0.999151918
 40
0.9994394154
 40
0.9996684714
 40
0.9997639482
 40
0.9998490431
 40
0.999926516
 40
1.0
 40
1.0
 40
1.0
 40
1.0
 10
5.1878689117
 20
5.6806549777
 30
0.0
 10
5.1885450982
 20
5.6808327303
 30
0.0
 10
5.1900613375
 20
5.6811759108
 30
0.0
 10
5.192583354
 20
5.6816430741
 30
0.0
 10
5.1955801288
 20
5.6821120123
 30
0.0
 10
5.1990506031
 20
5.6825821493
 30
0.0
 10
5.2029929537
 20
5.6830531943
 30
0.0
 10
5.2091816118
 20
5.6837146191
 30
0.0
 10
5.2180770518
 20
5.6845265453
 30
0.0
 10
5.2301285146
 20
5.6854641116
 30
0.0
 10
5.2439931013
 20
5.6864041121
 30
0.0
 10
5.259641683
 20
5.6873457964
 30
0.0
 10
5.2770387395
 20
5.6882886753
 30
0.0
 10
5.2961424132
 20
5.68923271
 30
0.0
 10
5.3248957316
 20
5.6905406666
 30
0.0
 10
5.3647502115
 20
5.6921540925
 30
0.0
 10
5.4170074866
 20
5.6940315182
 30
0.0
 10
5.4748204714
 20
5.6959128507
 30
0.0
 10
5.5376605775
 20
5.6977960579
 30
0.0
 10
5.6049598246
 20
5.6996814731
 30
0.0
 10
5.6761045537
 20
5.7015679422
 30
0.0
 10
5.7504489765
 20
5.7034552803
 30
0.0
 10
5.8273179341
 20
5.7053434256
 30
0.0
 10
5.9060119803
 20
5.7072318073
 30
0.0
 10
5.9858168744
 20
5.7091205424
 30
0.0
 10
6.0660068465
 20
5.7110093414
 30
0.0
 10
6.1458532681
 20
5.7128980092
 30
0.0
 10
6.2246305667
 20
5.7147865263
 30
0.0
 10
6.3016232407
 20
5.7166747011
 30
0.0
 10
6.3761304848
 20
5.7185619707
 30
0.0
 10
6.4474770202
 20
5.7204485688
 30
0.0
 10
6.5150123163
 20
5.7223336537
 30
0.0
 10
6.5781246096
 20
5.7242177765
 30
0.0
 10
6.6362397366
 20
5.7260997539
 30
0.0
 10
6.6812998376
 20
5.7277073862
 30
0.0
 10
6.7144564553
 20
5.729005747
 30
0.0
 10
6.7370214659
 20
5.7299502781
 30
0.0
 10
6.7579772782
 20
5.730894869
 30
0.0
 10
6.7772745178
 20
5.731839755
 30
0.0
 10
6.7948673517
 20
5.7327857797
 30
0.0
 10
6.8107162283
 20
5.733731681
 30
0.0
 10
6.8247876643
 20
5.7346748709
 30
0.0
 10
6.8353870545
 20
5.7354848975
 30
0.0
 10
6.8429535843
 20
5.7361385148
 30
0.0
 10
6.847937139
 20
5.7366074166
 30
0.0
 10
6.8524538102
 20
5.737074148
 30
0.0
 10
6.8565011785
 20
5.7375389908
 30
0.0
 10
6.8600776439
 20
5.7380026454
 30
0.0
 10
6.8631822026
 20
5.7384654815
 30
0.0
 10
6.8658137566
 20
5.738928135
 30
0.0
 10
6.8677071075
 20
5.7393326613
 30
0.0
 10
6.868981016
 20
5.7396656516
 30
0.0
 10
6.8697617305
 20
5.7399014417
 30
0.0
 10
6.870423759
 20
5.7401376578
 30
0.0
 10
6.8709677568
 20
5.7403744628
 30
0.0
 10
6.871394239
 20
5.7406119551
 30
0.0
 10
6.8716690475
 20
5.7408232173
 30
0.0
 10
6.8718216695
 20
5.7409965941
 30
0.0
 10
6.8718992939
 20
5.741120038
 30
0.0
 10
6.8719465994
 20
5.7412450683
 30
0.0
 10
6.8719572981
 20
5.7413302404
 30
0.0
 10
6.8719572981
 20
5.741371542
 30
0.0
  0
SPLINE
  5
386
100
AcDbEntity
  8
0
100
AcDbSpline
 62
7
  6
CONTINUOUS
 70
0
 71
3
 72
11
 73
7
 74
0
 42
0.0000001
 43
0.0000001
 44
0.0000000001
 40
0.0
 40
0.0
 40
0.0
 40
0.0
 40
0.1760794068
 40
0.4005852303
 40
0.6749657747
 40
1.0
 40
1.0
 40
1.0
 40
1.0
 10
5.261587515
 20
5.7237857529
 30
0.0
 10
5.2618273094
 20
5.7239223835
 30
0.0
 10
5.262400601
 20
5.7241836336
 30
0.0
 10
5.2633999601
 20
5.7245323761
 30
0.0
 10
5.2646435964
 20
5.7248829123
 30
0.0
 10
5.2655581183
 20
5.7250990696
 30
0.0
 10
5.2660555671
 20
5.7252090444
 30
0.0
  0
SPLINE
  5
387
100
AcDbEntity
  8
0
100
AcDbSpline
 62
7
  6
CONTINUOUS
 70
0
 71
3
 72
64
 73
60
 74
0
 42
0.0000001
 43
0.0000001
 44
0.0000000001
 40
0.0
 40
0.0
 40
0.0
 40
0.0
 40
0.0015605209
 40
0.0033973797
 40
0.0055117573
 40
0.0079042229
 40
0.0105731887
 40
0.0135157752
 40
0.0202096771
 40
0.0279612055
 40
0.0367449367
 40
0.0465351787
 40
0.0573096375
 40
0.0690511337
 40
0.0817428219
 40
0.1099088656
 40
0.1416129902
 40
0.1765242202
 40
0.2142920873
 40
0.2545639787
 40
0.2969859605
 40
0.3411940349
 40
0.3868031516
 40
0.4334223604
 40
0.4806317568
 40
0.5279961793
 40
0.5750884081
 40
0.6214965639
 40
0.6668098934
 40
0.7106128257
 40
0.7524879695
 40
0.7920619079
 40
0.8290396909
 40
0.8631289115
 40
0.8939955992
 40
0.9081103984
 40
0.9212884779
 40
0.933501343
 40
0.9447314253
 40
0.9549614915
 40
0.9641744108
 40
0.9723534025
 40
0.9794849886
 40
0.9826546889
 40
0.9855586304
 40
0.9881956298
 40
0.9905646046
 40
0.9926646249
 40
0.994495006
 40
0.9960554802
 40
0.9973466315
 40
0.997891934
 40
0.9983710483
 40
0.9987848956
 40
0.9991349972
 40
0.9994239844
 40
0.9996566987
 40
0.9998425944
 40
1.0
 40
1.0
 40
1.0
 40
1.0
 10
5.2660555671
 20
5.7252090444
 30
0.0
 10
5.2668335651
 20
5.7253810425
 30
0.0
 10
5.2685357698
 20
5.725717335
 30
0.0
 10
5.2713114804
 20
5.726182791
 30
0.0
 10
5.2745169416
 20
5.7266492925
 30
0.0
 10
5.2781510611
 20
5.7271163476
 30
0.0
 10
5.2822110791
 20
5.7275839244
 30
0.0
 10
5.2884602317
 20
5.7282363027
 30
0.0
 10
5.297302321
 20
5.7290394276
 30
0.0
 10
5.3091264867
 20
5.7299698473
 30
0.0
 10
5.3225357541
 20
5.7309022244
 30
0.0
 10
5.3374916651
 20
5.7318364151
 30
0.0
 10
5.3539603514
 20
5.7327719446
 30
0.0
 10
5.3719126082
 20
5.7337083701
 30
0.0
 10
5.3987379712
 20
5.7350033779
 30
0.0
 10
5.4357528606
 20
5.7366035045
 30
0.0
 10
5.4841114175
 20
5.7384653224
 30
0.0
 10
5.5373756855
 20
5.7403310176
 30
0.0
 10
5.5950169578
 20
5.7421979792
 30
0.0
 10
5.6564949644
 20
5.7440660996
 30
0.0
 10
5.7212626395
 20
5.745936088
 30
0.0
 10
5.788756466
 20
5.7478080715
 30
0.0
 10
5.8583941065
 20
5.7496813491
 30
0.0
 10
5.9295647353
 20
5.751554272
 30
0.0
 10
6.0016319206
 20
5.7534266755
 30
0.0
 10
6.0739407194
 20
5.7552985276
 30
0.0
 10
6.1458402908
 20
5.7571698524
 30
0.0
 10
6.2166922394
 20
5.7590412241
 30
0.0
 10
6.2858640896
 20
5.7609135674
 30
0.0
 10
6.3527205715
 20
5.7627857041
 30
0.0
 10
6.4166454307
 20
5.7646566577
 30
0.0
 10
6.4770839159
 20
5.7665265168
 30
0.0
 10
6.5335450703
 20
5.768393858
 30
0.0
 10
6.585557912
 20
5.7702575913
 30
0.0
 10
6.6258991926
 20
5.7718507052
 30
0.0
 10
6.6555668587
 20
5.7731391308
 30
0.0
 10
6.6757162696
 20
5.7740766107
 30
0.0
 10
6.6943910716
 20
5.7750140461
 30
0.0
 10
6.7115586471
 20
5.7759507628
 30
0.0
 10
6.7271920653
 20
5.7768864467
 30
0.0
 10
6.7412646867
 20
5.777820545
 30
0.0
 10
6.7537515014
 20
5.7787527898
 30
0.0
 10
6.7631533913
 20
5.7795556304
 30
0.0
 10
6.7698644766
 20
5.7802057817
 30
0.0
 10
6.7742874178
 20
5.7806736695
 30
0.0
 10
6.7782990778
 20
5.7811411001
 30
0.0
 10
6.7818972842
 20
5.7816079701
 30
0.0
 10
6.7850798865
 20
5.7820741046
 30
0.0
 10
6.78784495
 20
5.7825390725
 30
0.0
 10
6.7901904845
 20
5.7830026681
 30
0.0
 10
6.7918782158
 20
5.7834062114
 30
0.0
 10
6.7930136963
 20
5.7837364918
 30
0.0
 10
6.7937102939
 20
5.7839697313
 30
0.0
 10
6.7943011701
 20
5.7842025195
 30
0.0
 10
6.7947866317
 20
5.7844349029
 30
0.0
 10
6.7951676913
 20
5.7846671297
 30
0.0
 10
6.7954456963
 20
5.7849008968
 30
0.0
 10
6.7956228331
 20
5.785141163
 30
0.0
 10
6.7956667136
 20
5.7853176931
 30
0.0
 10
6.7956663712
 20
5.7853980618
 30
0.0
  0
LINE
  5
388
100
AcDbEntity
  8
0
100
AcDbLine
 62
7
  6
CONTINUOUS
 10
4.3880803558
 20
3.2559578512
 11
4.3881846323
 21
3.2523205093
  0
SPLINE
  5
389
100
AcDbEntity
  8
0
100
AcDbSpline
 62
7
  6
CONTINUOUS
 70
0
 71
3
 72
14
 73
10
 74
0
 42
0.0000001
 43
0.0000001
 44
0.0000000001
 40
0.0
 40
0.0
 40
0.0
 40
0.0
 40
0.0685600368
 40
0.1526789781
 40
0.2528175627
 40
0.3692351138
 40
0.5020857094
 40
0.6514637527
 40
1.0
 40
1.0
 40
1.0
 40
1.0
 10
6.8712177661
 20
5.7422262162
 30
0.0
 10
6.8710393927
 20
5.7423283068
 30
0.0
 10
6.8706251604
 20
5.7425257102
 30
0.0
 10
6.8699151998
 20
5.7427921287
 30
0.0
 10
6.8690535506
 20
5.743058123
 30
0.0
 10
6.8680401172
 20
5.7433236222
 30
0.0
 10
6.8668746802
 20
5.743588664
 30
0.0
 10
6.8650206841
 20
5.7439608613
 30
0.0
 10
6.8635483821
 20
5.7442085845
 30
0.0
 10
6.8625160793
 20
5.7443697543
 30
0.0
  0
SPLINE
  5
38A
100
AcDbEntity
  8
0
100
AcDbSpline
 62
7
  6
CONTINUOUS
 70
0
 71
3
 72
34
 73
30
 74
0
 42
0.0000001
 43
0.0000001
 44
0.0000000001
 40
0.0
 40
0.0
 40
0.0
 40
0.0
 40
0.2272949758
 40
0.3308853119
 40
0.4275141424
 40
0.5169891334
 40
0.5991307147
 40
0.6738259327
 40
0.7409842485
 40
0.8005161057
 40
0.8523335207
 40
0.8753229331
 40
0.8963561011
 40
0.9154293202
 40
0.932539534
 40
0.9476845965
 40
0.9608638203
 40
0.9720790068
 40
0.981336567
 40
0.9852361145
 40
0.9886537518
 40
0.9915952935
 40
0.9940703203
 40
0.9960955455
 40
0.9977025159
 40
0.9983688723
 40
0.9989599183
 40
0.999495023
 40
1.0
 40
1.0
 40
1.0
 40
1.0
 10
4.3911779535
 20
3.1547761706
 30
0.0
 10
4.3917598203
 20
3.1370676931
 30
0.0
 10
4.3926570361
 20
3.1112900975
 30
0.0
 10
4.3939470843
 20
3.0779895795
 30
0.0
 10
4.394886478
 20
3.0554269317
 30
0.0
 10
4.3958254106
 20
3.034537789
 30
0.0
 10
4.3967614825
 20
3.015360135
 30
0.0
 10
4.3976946002
 20
2.9979242054
 30
0.0
 10
4.3986249695
 20
2.9822533427
 30
0.0
 10
4.3995529458
 20
2.9683692052
 30
0.0
 10
4.4003524537
 20
2.957927567
 30
0.0
 10
4.4010006189
 20
2.9504847792
 30
0.0
 10
4.401467004
 20
2.9455884504
 30
0.0
 10
4.4019330669
 20
2.9411526515
 30
0.0
 10
4.4023986647
 20
2.9371785673
 30
0.0
 10
4.4028635768
 20
2.9336673594
 30
0.0
 10
4.4033273116
 20
2.9306199866
 30
0.0
 10
4.4037896138
 20
2.9280375087
 30
0.0
 10
4.4041920614
 20
2.9261799306
 30
0.0
 10
4.4045216093
 20
2.9249304134
 30
0.0
 10
4.4047540483
 20
2.9241649969
 30
0.0
 10
4.4049859214
 20
2.9235162328
 30
0.0
 10
4.405217256
 20
2.9229834884
 30
0.0
 10
4.4054480137
 20
2.9225662775
 30
0.0
 10
4.4056522719
 20
2.9222974917
 30
0.0
 10
4.4058193491
 20
2.9221482844
 30
0.0
 10
4.405937728
 20
2.9220726241
 30
0.0
 10
4.4060573121
 20
2.9220265856
 30
0.0
 10
4.4061387335
 20
2.9220162594
 30
0.0
 10
4.4061780972
 20
2.922016355
 30
0.0
  0
SPLINE
  5
38B
100
AcDbEntity
  8
0
100
AcDbSpline
 62
7
  6
CONTINUOUS
 70
0
 71
3
 72
15
 73
11
 74
0
 42
0.0000001
 43
0.0000001
 44
0.0000000001
 40
0.0
 40
0.0
 40
0.0
 40
0.0
 40
0.1360978316
 40
0.2712731205
 40
0.404250819
 40
0.5339275256
 40
0.6593121089
 40
0.7794247206
 40
0.8933003691
 40
1.0
 40
1.0
 40
1.0
 40
1.0
 10
4.4927366426
 20
4.1407656325
 30
0.0
 10
4.4920109079
 20
4.1770912739
 30
0.0
 10
4.4905850638
 20
4.2494967349
 30
0.0
 10
4.4884730493
 20
4.357395498
 30
0.0
 10
4.4863520901
 20
4.4635795611
 30
0.0
 10
4.4842186257
 20
4.5671490931
 30
0.0
 10
4.4820855667
 20
4.6672833983
 30
0.0
 10
4.4799576599
 20
4.7631985516
 30
0.0
 10
4.4778323631
 20
4.8541243143
 30
0.0
 10
4.4763641197
 20
4.9129911673
 30
0.0
 10
4.475624227
 20
4.9414662569
 30
0.0
  0
LINE
  5
38C
100
AcDbEntity
  8
0
100
AcDbLine
 62
7
  6
CONTINUOUS
 10
4.475624227
 20
4.9414662569
 11
4.4753640087
 21
4.9514330362
  0
LINE
  5
38D
100
AcDbEntity
  8
0
100
AcDbLine
 62
7
  6
CONTINUOUS
 10
4.4753640087
 20
4.9514330362
 11
4.4736218298
 21
5.0156229098
  0
LINE
  5
38E
100
AcDbEntity
  8
0
100
AcDbLine
 62
7
  6
CONTINUOUS
 10
4.4736218298
 20
5.0156229098
 11
4.473318267
 21
5.0263404305
  0
SPLINE
  5
38F
100
AcDbEntity
  8
0
100
AcDbSpline
 62
7
  6
CONTINUOUS
 70
0
 71
3
 72
35
 73
31
 74
0
 42
0.0000001
 43
0.0000001
 44
0.0000000001
 40
0.0
 40
0.0
 40
0.0
 40
0.0
 40
0.1155973292
 40
0.2249963127
 40
0.327968013
 40
0.4242849432
 40
0.5137197769
 40
0.5960594046
 40
0.6711378029
 40
0.7387991461
 40
0.7988882799
 40
0.8512544329
 40
0.8745064149
 40
0.895791801
 40
0.9151017226
 40
0.9324277338
 40
0.947762036
 40
0.961097872
 40
0.9724302753
 40
0.9817577546
 40
0.9856723118
 40
0.9890910266
 40
0.9920186385
 40
0.9944627458
 40
0.9964365385
 40
0.9979654272
 40
0.9985797601
 40
0.9991089165
 40
0.9995726764
 40
1.0
 40
1.0
 40
1.0
 40
1.0
 10
4.473318267
 20
5.0263404305
 30
0.0
 10
4.4729511071
 20
5.0392170234
 30
0.0
 10
4.4722191128
 20
5.0642792749
 30
0.0
 10
4.4710920224
 20
5.1008097012
 30
0.0
 10
4.4699654474
 20
5.1351905132
 30
0.0
 10
4.4688394819
 20
5.1673453311
 30
0.0
 10
4.4677142141
 20
5.1971994904
 30
0.0
 10
4.4665894988
 20
5.224685103
 30
0.0
 10
4.4654658794
 20
5.2497421816
 30
0.0
 10
4.4643439052
 20
5.2723170882
 30
0.0
 10
4.4632240454
 20
5.2923576319
 30
0.0
 10
4.4622590258
 20
5.3074498977
 30
0.0
 10
4.4614770535
 20
5.3182202551
 30
0.0
 10
4.460914491
 20
5.325312998
 30
0.0
 10
4.4603524992
 20
5.3317431498
 30
0.0
 10
4.4597912433
 20
5.3375074209
 30
0.0
 10
4.4592309745
 20
5.3426025397
 30
0.0
 10
4.4586723061
 20
5.3470254506
 30
0.0
 10
4.4581155632
 20
5.3507730047
 30
0.0
 10
4.4576307555
 20
5.3534691062
 30
0.0
 10
4.4572333002
 20
5.3552829144
 30
0.0
 10
4.456953429
 20
5.3563918508
 30
0.0
 10
4.4566743701
 20
5.3573311621
 30
0.0
 10
4.4563963246
 20
5.3581019183
 30
0.0
 10
4.4561194638
 20
5.3587047046
 30
0.0
 10
4.4558740373
 20
5.3590959763
 30
0.0
 10
4.4556710812
 20
5.3593151993
 30
0.0
 10
4.4555287096
 20
5.3594256429
 30
0.0
 10
4.4553840847
 20
5.3594937356
 30
0.0
 10
4.4552842754
 20
5.3595094721
 30
0.0
 10
4.4552366557
 20
5.3595094733
 30
0.0
  0
SPLINE
  5
390
100
AcDbEntity
  8
0
100
AcDbSpline
 62
7
  6
CONTINUOUS
 70
0
 71
3
 72
14
 73
10
 74
0
 42
0.0000001
 43
0.0000001
 44
0.0000000001
 40
0.0
 40
0.0
 40
0.0
 40
0.0
 40
0.0676646571
 40
0.1511281087
 40
0.2508674189
 40
0.3671476816
 40
0.5001247781
 40
0.6498933092
 40
1.0
 40
1.0
 40
1.0
 40
1.0
 10
5.1851580272
 20
5.8046991346
 30
0.0
 10
5.1853340499
 20
5.8048019272
 30
0.0
 10
5.1857450497
 20
5.8050006583
 30
0.0
 10
5.1864520775
 20
5.8052688157
 30
0.0
 10
5.1873139166
 20
5.8055371443
 30
0.0
 10
5.1883306704
 20
5.8058054888
 30
0.0
 10
5.1895025829
 20
5.806073809
 30
0.0
 10
5.1913714276
 20
5.8064513797
 30
0.0
 10
5.192856587
 20
5.8067027176
 30
0.0
 10
5.1938985156
 20
5.8068663049
 30
0.0
  0
SPLINE
  5
391
100
AcDbEntity
  8
0
100
AcDbSpline
 62
7
  6
CONTINUOUS
 70
0
 71
3
 72
65
 73
61
 74
0
 42
0.0000001
 43
0.0000001
 44
0.0000000001
 40
0.0
 40
0.0
 40
0.0
 40
0.0
 40
0.0019052795
 40
0.0040783019
 40
0.0065189313
 40
0.0092267341
 40
0.0154375514
 40
0.0226956875
 40
0.0309850235
 40
0.0402891378
 40
0.0505910598
 40
0.0618681451
 40
0.0740933899
 40
0.0872396212
 40
0.1161853656
 40
0.1484567228
 40
0.1837659352
 40
0.2218129199
 40
0.262259228
 40
0.3047553381
 40
0.3489301565
 40
0.394395965
 40
0.4407588054
 40
0.4876117865
 40
0.5345462624
 40
0.5811535888
 40
0.6270253463
 40
0.671761625
 40
0.7149735749
 40
0.7562797709
 40
0.7953254672
 40
0.8317647068
 40
0.8652825462
 40
0.8955880905
 40
0.9094495103
 40
0.9224116437
 40
0.9344472784
 40
0.9455292442
 40
0.9556308045
 40
0.9647308931
 40
0.9728128799
 40
0.9798604613
 40
0.9829913719
 40
0.9858577582
 40
0.9884577945
 40
0.9907904885
 40
0.9928555512
 40
0.9946529102
 40
0.9961828366
 40
0.9974462371
 40
0.9979786695
 40
0.9984455113
 40
0.9988475643
 40
0.9991861459
 40
0.9994635458
 40
0.9996840524
 40
0.9997756257
 40
0.9998569157
 40
0.9999305408
 40
1.0
 40
1.0
 40
1.0
 40
1.0
 10
5.1938985156
 20
5.8068663049
 30
0.0
 10
5.1949525471
 20
5.8070317925
 30
0.0
 10
5.1972131901
 20
5.8073577171
 30
0.0
 10
5.2008350492
 20
5.8078155125
 30
0.0
 10
5.2049093546
 20
5.8082744377
 30
0.0
 10
5.2112379154
 20
5.8089179726
 30
0.0
 10
5.2202623342
 20
5.8097117326
 30
0.0
 10
5.2324121977
 20
5.8106321553
 30
0.0
 10
5.2462983706
 20
5.8115561286
 30
0.0
 10
5.261892214
 20
5.8124822286
 30
0.0
 10
5.2791618098
 20
5.813408438
 30
0.0
 10
5.2980693523
 20
5.8143344568
 30
0.0
 10
5.3185714265
 20
5.8152606878
 30
0.0
 10
5.3489619391
 20
5.816537306
 30
0.0
 10
5.3905751408
 20
5.8181157115
 30
0.0
 10
5.4445978644
 20
5.8199590502
 30
0.0
 10
5.5037198103
 20
5.8218056674
 30
0.0
 10
5.567421685
 20
5.8236534155
 30
0.0
 10
5.6351497073
 20
5.8255027955
 30
0.0
 10
5.7063104593
 20
5.8273530586
 30
0.0
 10
5.7802829856
 20
5.8292040834
 30
0.0
 10
5.8564214929
 20
5.8310557634
 30
0.0
 10
5.9340601817
 20
5.8329075955
 30
0.0
 10
6.0125215387
 20
5.8347596721
 30
0.0
 10
6.0911198429
 20
5.8366117946
 30
0.0
 10
6.16916852
 20
5.8384637413
 30
0.0
 10
6.2459858771
 20
5.8403154665
 30
0.0
 10
6.3209012928
 20
5.8421668174
 30
0.0
 10
6.393259244
 20
5.8440173301
 30
0.0
 10
6.4624294405
 20
5.8458673166
 30
0.0
 10
6.5278055867
 20
5.8477157037
 30
0.0
 10
6.5888185086
 20
5.8495625538
 30
0.0
 10
6.6449346559
 20
5.8514072151
 30
0.0
 10
6.6884091518
 20
5.8529844582
 30
0.0
 10
6.7203756817
 20
5.8542592512
 30
0.0
 10
6.742116843
 20
5.8551862084
 30
0.0
 10
6.7623000469
 20
5.8561124759
 30
0.0
 10
6.7808795791
 20
5.8570378328
 30
0.0
 10
6.7978130596
 20
5.8579622564
 30
0.0
 10
6.8130639115
 20
5.8588854467
 30
0.0
 10
6.8266011563
 20
5.8598071076
 30
0.0
 10
6.8367962848
 20
5.8606012494
 30
0.0
 10
6.8440729779
 20
5.8612449335
 30
0.0
 10
6.8488651467
 20
5.8617082348
 30
0.0
 10
6.8532080641
 20
5.8621713154
 30
0.0
 10
6.8570994911
 20
5.8626340133
 30
0.0
 10
6.8605379763
 20
5.8630959771
 30
0.0
 10
6.8635225955
 20
5.8635566583
 30
0.0
 10
6.8660523337
 20
5.8640157327
 30
0.0
 10
6.8678722328
 20
5.8644151261
 30
0.0
 10
6.8690966644
 20
5.8647419354
 30
0.0
 10
6.8698470495
 20
5.8649723942
 30
0.0
 10
6.8704833101
 20
5.8652022009
 30
0.0
 10
6.8710060641
 20
5.8654313771
 30
0.0
 10
6.8714157733
 20
5.8656598882
 30
0.0
 10
6.8716799122
 20
5.8658619355
 30
0.0
 10
6.871826773
 20
5.8660270629
 30
0.0
 10
6.8719013933
 20
5.8661440689
 30
0.0
 10
6.8719469351
 20
5.8662622082
 30
0.0
 10
6.8719572981
 20
5.8663426454
 30
0.0
 10
6.8719572981
 20
5.866381542
 30
0.0
  0
SPLINE
  5
392
100
AcDbEntity
  8
0
100
AcDbSpline
 62
7
  6
CONTINUOUS
 70
0
 71
3
 72
12
 73
8
 74
0
 42
0.0000001
 43
0.0000001
 44
0.0000000001
 40
0.0
 40
0.0
 40
0.0
 40
0.0
 40
0.077483244
 40
0.1681510667
 40
0.3901339817
 40
0.6672916549
 40
1.0
 40
1.0
 40
1.0
 40
1.0
 10
5.2614216798
 20
5.8487574983
 30
0.0
 10
5.2615491381
 20
5.8488316603
 30
0.0
 10
5.2618345392
 20
5.84897752
 30
0.0
 10
5.2625186783
 20
5.8492670318
 30
0.0
 10
5.2635866339
 20
5.8496178847
 30
0.0
 10
5.2651185908
 20
5.8500187833
 30
0.0
 10
5.2662532767
 20
5.8502647074
 30
0.0
 10
5.2668739051
 20
5.8503902625
 30
0.0
  0
SPLINE
  5
393
100
AcDbEntity
  8
0
100
AcDbSpline
 62
7
  6
CONTINUOUS
 70
0
 71
3
 72
63
 73
59
 74
0
 42
0.0000001
 43
0.0000001
 44
0.0000000001
 40
0.0
 40
0.0
 40
0.0
 40
0.0
 40
0.0016805168
 40
0.0036332852
 40
0.0058566831
 40
0.0083487513
 40
0.0141300588
 40
0.0209591211
 40
0.0288210473
 40
0.0377030896
 40
0.047592254
 40
0.0584753723
 40
0.0703380363
 40
0.0831557589
 40
0.1115371625
 40
0.1433791298
 40
0.1783871711
 40
0.2162001914
 40
0.2564589234
 40
0.2988311449
 40
0.3429898146
 40
0.3885544328
 40
0.435090634
 40
0.482168376
 40
0.5293824396
 40
0.5763324428
 40
0.6225981704
 40
0.6677400252
 40
0.7113337191
 40
0.7530268087
 40
0.7924867126
 40
0.8293737043
 40
0.8633392213
 40
0.894044905
 40
0.9080871895
 40
0.921213079
 40
0.933390612
 40
0.9445891544
 40
0.9547905029
 40
0.9639835027
 40
0.9721572268
 40
0.9793009891
 40
0.9824834179
 40
0.9854041431
 40
0.9880609771
 40
0.9904517768
 40
0.9925745476
 40
0.9944275336
 40
0.996009385
 40
0.9973195047
 40
0.9978729461
 40
0.9983590596
 40
0.9987785847
 40
0.9991328671
 40
0.9994243886
 40
0.999657938
 40
0.9998433582
 40
1.0
 40
1.0
 40
1.0
 40
1.0
 10
5.2668739051
 20
5.8503902625
 30
0.0
 10
5.2677144981
 20
5.8505603171
 30
0.0
 10
5.2695388112
 20
5.8508936936
 30
0.0
 10
5.2724916011
 20
5.851357786
 30
0.0
 10
5.2758628535
 20
5.8518228726
 30
0.0
 10
5.2811797872
 20
5.8524767008
 30
0.0
 10
5.2888458037
 20
5.8532784491
 30
0.0
 10
5.2992526397
 20
5.8542039881
 30
0.0
 10
5.3112470881
 20
5.8551319566
 30
0.0
 10
5.3248071084
 20
5.8560619039
 30
0.0
 10
5.3399120748
 20
5.856993265
 30
0.0
 10
5.3565406764
 20
5.8579258359
 30
0.0
 10
5.3746659139
 20
5.8588591846
 30
0.0
 10
5.4017143702
 20
5.8601489508
 30
0.0
 10
5.4389556974
 20
5.861743087
 30
0.0
 10
5.4875199844
 20
5.8635996441
 30
0.0
 10
5.5409006785
 20
5.8654567927
 30
0.0
 10
5.5985789933
 20
5.8673168285
 30
0.0
 10
5.6600172183
 20
5.8691797378
 30
0.0
 10
5.7246951736
 20
5.8710447639
 30
0.0
 10
5.7920819438
 20
5.872910612
 30
0.0
 10
5.8615945028
 20
5.874776758
 30
0.0
 10
5.9325972773
 20
5.8766430196
 30
0.0
 10
6.0044421233
 20
5.8785084751
 30
0.0
 10
6.0764982227
 20
5.8803736817
 30
0.0
 10
6.1481397746
 20
5.8822393362
 30
0.0
 10
6.2187234382
 20
5.884105441
 30
0.0
 10
6.2875936648
 20
5.8859713739
 30
0.0
 10
6.3541294354
 20
5.8878377151
 30
0.0
 10
6.417764379
 20
5.8897027063
 30
0.0
 10
6.4779752137
 20
5.8915651589
 30
0.0
 10
6.5342405246
 20
5.8934246145
 30
0.0
 10
6.5860357381
 20
5.8952815689
 30
0.0
 10
6.6261744193
 20
5.8968719121
 30
0.0
 10
6.6556813627
 20
5.8981572806
 30
0.0
 10
6.6757390193
 20
5.8990918066
 30
0.0
 10
6.6943437817
 20
5.9000254398
 30
0.0
 10
6.7114540667
 20
5.90095845
 30
0.0
 10
6.7270388397
 20
5.9018905276
 30
0.0
 10
6.7410770291
 20
5.902821145
 30
0.0
 10
6.7535511239
 20
5.9037501614
 30
0.0
 10
6.7629585621
 20
5.9045500323
 30
0.0
 10
6.7696878652
 20
5.9051976431
 30
0.0
 10
6.7741340337
 20
5.9056640958
 30
0.0
 10
6.7781738365
 20
5.9061301371
 30
0.0
 10
6.7818035216
 20
5.9065956382
 30
0.0
 10
6.7850193311
 20
5.9070604009
 30
0.0
 10
6.7878177185
 20
5.9075239655
 30
0.0
 10
6.7901950425
 20
5.9079860904
 30
0.0
 10
6.7919076279
 20
5.9083881706
 30
0.0
 10
6.7930609331
 20
5.9087172919
 30
0.0
 10
6.7937686043
 20
5.9089497014
 30
0.0
 10
6.7943687103
 20
5.9091816178
 30
0.0
 10
6.7948613078
 20
5.9094130711
 30
0.0
 10
6.7952472408
 20
5.909644284
 30
0.0
 10
6.7955277948
 20
5.9098770694
 30
0.0
 10
6.7957053737
 20
5.9101168821
 30
0.0
 10
6.7957475822
 20
5.9102933613
 30
0.0
 10
6.7957461718
 20
5.9103732882
 30
0.0
  0
SPLINE
  5
394
100
AcDbEntity
  8
0
100
AcDbSpline
 62
7
  6
CONTINUOUS
 70
0
 71
3
 72
14
 73
10
 74
0
 42
0.0000001
 43
0.0000001
 44
0.0000000001
 40
0.0
 40
0.0
 40
0.0
 40
0.0
 40
0.2701110481
 40
0.4026659793
 40
0.5320963192
 40
0.6574647557
 40
0.777843864
 40
0.8923215014
 40
1.0
 40
1.0
 40
1.0
 40
1.0
 10
4.6427366426
 20
4.1407656325
 30
0.0
 10
4.6413420517
 20
4.2113063658
 30
0.0
 10
4.6392914602
 20
4.3164649848
 30
0.0
 10
4.6365134167
 20
4.4554237596
 30
0.0
 10
4.6344370561
 20
4.5565814146
 30
0.0
 10
4.6323609537
 20
4.654557993
 30
0.0
 10
4.6302873484
 20
4.7486279905
 30
0.0
 10
4.6282157503
 20
4.8380761489
 30
0.0
 10
4.6267880199
 20
4.8960870408
 30
0.0
 10
4.6260689981
 20
4.9242040753
 30
0.0
  0
LINE
  5
395
100
AcDbEntity
  8
0
100
AcDbLine
 62
7
  6
CONTINUOUS
 10
4.6260689981
 20
4.9242040753
 11
4.6253638424
 21
4.9514330323
  0
SPLINE
  5
396
100
AcDbEntity
  8
0
100
AcDbSpline
 62
7
  6
CONTINUOUS
 70
0
 71
3
 72
35
 73
31
 74
0
 42
0.0000001
 43
0.0000001
 44
0.0000000001
 40
0.0
 40
0.0
 40
0.0
 40
0.0
 40
0.1155980568
 40
0.2249975407
 40
0.3279695443
 40
0.4242866009
 40
0.5137214044
 40
0.5960608988
 40
0.6711391034
 40
0.7388002069
 40
0.7988890698
 40
0.8512549436
 40
0.8745067973
 40
0.8957920649
 40
0.9151018789
 40
0.9324277945
 40
0.9477620143
 40
0.9610977826
 40
0.9724301343
 40
0.9817575804
 40
0.9856721297
 40
0.9890908429
 40
0.9920184602
 40
0.994462581
 40
0.9964363963
 40
0.9979653192
 40
0.9985796744
 40
0.9991088568
 40
0.9995726459
 40
1.0
 40
1.0
 40
1.0
 40
1.0
 10
4.6233167778
 20
5.0263913588
 30
0.0
 10
4.6229496738
 20
5.0392660701
 30
0.0
 10
4.6222177814
 20
5.0643246381
 30
0.0
 10
4.6210908013
 20
5.100849665
 30
0.0
 10
4.6199643094
 20
5.1352253374
 30
0.0
 10
4.6188384125
 20
5.167375295
 30
0.0
 10
4.6177132125
 20
5.1972248957
 30
0.0
 10
4.6165885781
 20
5.2247062752
 30
0.0
 10
4.6154650487
 20
5.2497594677
 30
0.0
 10
4.6143431697
 20
5.2723308509
 30
0.0
 10
4.6132234068
 20
5.2923682477
 30
0.0
 10
4.6122584681
 20
5.3074581331
 30
0.0
 10
4.6114765597
 20
5.3182267861
 30
0.0
 10
4.6109140427
 20
5.325318405
 30
0.0
 10
4.610352096
 20
5.3317475372
 30
0.0
 10
4.6097908848
 20
5.3375108938
 30
0.0
 10
4.6092306604
 20
5.3426052039
 30
0.0
 10
4.6086720364
 20
5.3470274129
 30
0.0
 10
4.6081153378
 20
5.3507743726
 30
0.0
 10
4.607630569
 20
5.3534700465
 30
0.0
 10
4.607233146
 20
5.3552835672
 30
0.0
 10
4.6069532975
 20
5.3563923291
 30
0.0
 10
4.6066742611
 20
5.3573314934
 30
0.0
 10
4.606396238
 20
5.3581021298
 30
0.0
 10
4.6061193993
 20
5.3587048238
 30
0.0
 10
4.6058739925
 20
5.3590960353
 30
0.0
 10
4.6056710538
 20
5.3593152249
 30
0.0
 10
4.6055286937
 20
5.3594256526
 30
0.0
 10
4.605384081
 20
5.359493736
 30
0.0
 10
4.6052842804
 20
5.3595094714
 30
0.0
 10
4.6052366646
 20
5.3595094732
 30
0.0
  0
LINE
  5
397
100
AcDbEntity
  8
0
100
AcDbLine
 62
7
  6
CONTINUOUS
 10
4.6125822981
 20
3.2286084639
 11
4.6116543118
 21
3.2550674912
  0
LINE
  5
398
100
AcDbEntity
  8
0
100
AcDbLine
 62
7
  6
CONTINUOUS
 10
4.6116543118
 20
3.2550674912
 11
4.6109182898
 21
3.2770003555
  0
SPLINE
  5
399
100
AcDbEntity
  8
0
100
AcDbSpline
 62
7
  6
CONTINUOUS
 70
0
 71
3
 72
14
 73
10
 74
0
 42
0.0000001
 43
0.0000001
 44
0.0000000001
 40
0.0
 40
0.0
 40
0.0
 40
0.0
 40
0.1017997327
 40
0.2126392928
 40
0.3313803278
 40
0.45684047
 40
0.587762409
 40
0.7228496274
 40
1.0
 40
1.0
 40
1.0
 40
1.0
 10
4.6092540744
 20
3.3295627711
 30
0.0
 10
4.608414451
 20
3.3570912181
 30
0.0
 10
4.6067546118
 20
3.4145955179
 30
0.0
 10
4.604376789
 20
3.5042167993
 30
0.0
 10
4.6019965892
 20
3.6002412797
 30
0.0
 10
4.5996149006
 20
3.7017004422
 30
0.0
 10
4.5972315418
 20
3.8075830782
 30
0.0
 10
4.5940254144
 20
3.9544963453
 30
0.0
 10
4.5916653404
 20
4.0659995476
 30
0.0
 10
4.5900782512
 20
4.1409639601
 30
0.0
  0
SPLINE
  5
39A
100
AcDbEntity
  8
0
100
AcDbSpline
 62
7
  6
CONTINUOUS
 70
0
 71
3
 72
14
 73
10
 74
0
 42
0.0000001
 43
0.0000001
 44
0.0000000001
 40
0.0
 40
0.0
 40
0.0
 40
0.0
 40
0.2824320175
 40
0.4194657662
 40
0.551543174
 40
0.6770637903
 40
0.7945178054
 40
0.9025873394
 40
1.0
 40
1.0
 40
1.0
 40
1.0
 10
4.5900782512
 20
4.1409639601
 30
0.0
 10
4.5883582314
 20
4.2222072055
 30
0.0
 10
4.5858038819
 20
4.3428690359
 30
0.0
 10
4.5823224101
 20
4.5015210711
 30
0.0
 10
4.5797397453
 20
4.615035321
 30
0.0
 10
4.5771589411
 20
4.7229146073
 30
0.0
 10
4.5745790644
 20
4.8238842821
 30
0.0
 10
4.5720038931
 20
4.9167640015
 30
0.0
 10
4.5701910673
 20
4.975857774
 30
0.0
 10
4.5692698067
 20
5.003870238
 30
0.0
  0
LINE
  5
39B
100
AcDbEntity
  8
0
100
AcDbLine
 62
7
  6
CONTINUOUS
 10
4.5692698067
 20
5.003870238
 11
4.5684897031
 21
5.0271235675
  0
SPLINE
  5
39C
100
AcDbEntity
  8
0
100
AcDbSpline
 62
7
  6
CONTINUOUS
 70
0
 71
3
 72
14
 73
10
 74
0
 42
0.0000001
 43
0.0000001
 44
0.0000000001
 40
0.0
 40
0.0
 40
0.0
 40
0.0
 40
0.0667968922
 40
0.1496408698
 40
0.2490124264
 40
0.3651748926
 40
0.4982812958
 40
0.6484234019
 40
1.0
 40
1.0
 40
1.0
 40
1.0
 10
6.8712903877
 20
5.8671691136
 30
0.0
 10
6.8711164609
 20
5.8672720014
 30
0.0
 10
6.8707084051
 20
5.867471035
 30
0.0
 10
6.8700042415
 20
5.8677399602
 30
0.0
 10
6.8691424226
 20
5.8680100356
 30
0.0
 10
6.8681228472
 20
5.8682809733
 30
0.0
 10
6.8669452548
 20
5.8685526038
 30
0.0
 10
6.8650632133
 20
5.8689359108
 30
0.0
 10
6.8635666053
 20
5.8691914209
 30
0.0
 10
6.8625160809
 20
5.8693578288
 30
0.0
  0
SPLINE
  5
39D
100
AcDbEntity
  8
0
100
AcDbSpline
 62
7
  6
CONTINUOUS
 70
0
 71
3
 72
14
 73
10
 74
0
 42
0.0000001
 43
0.0000001
 44
0.0000000001
 40
0.0
 40
0.0
 40
0.0
 40
0.0
 40
0.2719846805
 40
0.4051878049
 40
0.5350077711
 40
0.6604144786
 40
0.7803762203
 40
0.8938746036
 40
1.0
 40
1.0
 40
1.0
 40
1.0
 10
4.5186779535
 20
4.1407656325
 30
0.0
 10
4.5201040611
 20
4.0672742415
 30
0.0
 10
4.5222617914
 20
3.9577914545
 30
0.0
 10
4.5251673578
 20
3.8132321116
 30
0.0
 10
4.527326056
 20
3.7082791983
 30
0.0
 10
4.5294852276
 20
3.6069056239
 30
0.0
 10
4.5316450986
 20
3.5099440909
 30
0.0
 10
4.5338072496
 20
3.4181948422
 30
0.0
 10
4.5352997988
 20
3.3588591433
 30
0.0
 10
4.5360502664
 20
3.3301880417
 30
0.0
  0
LINE
  5
39E
100
AcDbEntity
  8
0
100
AcDbLine
 62
7
  6
CONTINUOUS
 10
4.5380786564
 20
3.2555827576
 11
4.5381713872
 21
3.252320345
  0
SPLINE
  5
39F
100
AcDbEntity
  8
0
100
AcDbSpline
 62
7
  6
CONTINUOUS
 70
0
 71
3
 72
19
 73
15
 74
0
 42
0.0000001
 43
0.0000001
 44
0.0000000001
 40
0.0
 40
0.0
 40
0.0
 40
0.0
 40
0.0444862062
 40
0.0923241882
 40
0.1433194029
 40
0.1972775598
 40
0.2540062905
 40
0.3133140566
 40
0.4388738334
 40
0.5722011477
 40
0.7114532523
 40
0.7827258788
 40
0.8547702541
 40
1.0
 40
1.0
 40
1.0
 40
1.0
 10
4.6652366426
 20
3.1547761706
 30
0.0
 10
4.6647563564
 20
3.1693931548
 30
0.0
 10
4.6637935391
 20
3.1997295489
 30
0.0
 10
4.6623888706
 20
3.2468249876
 30
0.0
 10
4.6609785535
 20
3.2970354784
 30
0.0
 10
4.659572837
 20
3.350170016
 30
0.0
 10
4.6581711191
 20
3.4060383149
 30
0.0
 10
4.6562677829
 20
3.4854404696
 30
0.0
 10
4.6539050111
 20
3.5900206202
 30
0.0
 10
4.6511129797
 20
3.720879409
 30
0.0
 10
4.6488024178
 20
3.8338974149
 30
0.0
 10
4.6469480581
 20
3.9267737051
 30
0.0
 10
4.6450783143
 20
4.0216152305
 30
0.0
 10
4.6436803651
 20
4.0930305755
 30
0.0
 10
4.6427366426
 20
4.1407656325
 30
0.0
  0
SPLINE
  5
3A0
100
AcDbEntity
  8
0
100
AcDbSpline
 62
7
  6
CONTINUOUS
 70
0
 71
3
 72
18
 73
14
 74
0
 42
0.0000001
 43
0.0000001
 44
0.0000000001
 40
0.0
 40
0.0
 40
0.0
 40
0.0
 40
0.0444866075
 40
0.0923245033
 40
0.1433195029
 40
0.1972775524
 40
0.3133140729
 40
0.4388738711
 40
0.5722011652
 40
0.7114532646
 40
0.7827258894
 40
0.8547702627
 40
1.0
 40
1.0
 40
1.0
 40
1.0
 10
4.5152366426
 20
3.1547761706
 30
0.0
 10
4.5147436681
 20
3.1693928651
 30
0.0
 10
4.5137701516
 20
3.1997290456
 30
0.0
 10
4.5123730593
 20
3.246824752
 30
0.0
 10
4.5109782187
 20
3.2970355422
 30
0.0
 10
4.5090657595
 20
3.3696608699
 30
0.0
 10
4.5066885966
 20
3.4667955918
 30
0.0
 10
4.503903744
 20
3.5900205895
 30
0.0
 10
4.5011138481
 20
3.7208794309
 30
0.0
 10
4.4987992367
 20
3.8338973496
 30
0.0
 10
4.4969483051
 20
3.9267737106
 30
0.0
 10
4.4950870195
 20
4.0216154021
 30
0.0
 10
4.4936903174
 20
4.0930307739
 30
0.0
 10
4.4927366426
 20
4.1407656325
 30
0.0
  0
SPLINE
  5
3A1
100
AcDbEntity
  8
0
100
AcDbSpline
 62
7
  6
CONTINUOUS
 70
0
 71
3
 72
15
 73
11
 74
0
 42
0.0000001
 43
0.0000001
 44
0.0000000001
 40
0.0
 40
0.0
 40
0.0
 40
0.0
 40
0.0444502963
 40
0.0922606392
 40
0.1972142779
 40
0.3133112014
 40
0.4388742429
 40
0.5721739079
 40
0.7114257019
 40
1.0
 40
1.0
 40
1.0
 40
1.0
 10
4.4438322981
 20
3.2286613459
 30
0.0
 10
4.4433454862
 20
3.2421682709
 30
0.0
 10
4.4423771552
 20
3.2702046489
 30
0.0
 10
4.4404491828
 20
3.3301392721
 30
0.0
 10
4.4380670395
 20
3.4118554169
 30
0.0
 10
4.4352868464
 20
3.5172112263
 30
0.0
 10
4.4325014516
 20
3.6311886375
 30
0.0
 10
4.4297113981
 20
3.7522084346
 30
0.0
 10
4.4259455635
 20
3.9227845254
 30
0.0
 10
4.4231943061
 20
4.0528415703
 30
0.0
 10
4.4213369091
 20
4.1405667048
 30
0.0
  0
SPLINE
  5
3A2
100
AcDbEntity
  8
0
100
AcDbSpline
 62
7
  6
CONTINUOUS
 70
0
 71
3
 72
14
 73
10
 74
0
 42
0.0000001
 43
0.0000001
 44
0.0000000001
 40
0.0
 40
0.0
 40
0.0
 40
0.0
 40
0.2770930317
 40
0.4121577181
 40
0.5431190415
 40
0.668639374
 40
0.7873846553
 40
0.898180797
 40
1.0
 40
1.0
 40
1.0
 40
1.0
 10
4.4213369091
 20
4.1405667048
 30
0.0
 10
4.419750866
 20
4.2154757567
 30
0.0
 10
4.4173917894
 20
4.326898068
 30
0.0
 10
4.4141871272
 20
4.4737222693
 30
0.0
 10
4.4118054943
 20
4.5795694581
 30
0.0
 10
4.4094258361
 20
4.6810027766
 30
0.0
 10
4.4070466462
 20
4.7769818836
 30
0.0
 10
4.4046685838
 20
4.8665501461
 30
0.0
 10
4.4030111247
 20
4.9240174347
 30
0.0
 10
4.4021729523
 20
4.9515365434
 30
0.0
  0
SPLINE
  5
3A3
100
AcDbEntity
  8
0
100
AcDbSpline
 62
7
  6
CONTINUOUS
 70
0
 71
3
 72
12
 73
8
 74
0
 42
0.0000001
 43
0.0000001
 44
0.0000000001
 40
0.0
 40
0.0
 40
0.0
 40
0.0
 40
0.249997651
 40
0.4999972294
 40
0.6249986356
 40
0.7500018251
 40
1.0
 40
1.0
 40
1.0
 40
1.0
 10
6.4801562028
 20
5.4713456148
 30
0.0
 10
6.4664363816
 20
5.4753118056
 30
0.0
 10
6.4389207656
 20
5.4829849343
 30
0.0
 10
6.4043295598
 20
5.4918432073
 30
0.0
 10
6.3765376743
 20
5.4984413335
 30
0.0
 10
6.3486669488
 20
5.5046969044
 30
0.0
 10
6.3276762255
 20
5.5089925942
 30
0.0
 10
6.3136486274
 20
5.5116742936
 30
0.0
  0
SPLINE
  5
3A4
100
AcDbEntity
  8
0
100
AcDbSpline
 62
7
  6
CONTINUOUS
 70
0
 71
3
 72
12
 73
8
 74
0
 42
0.0000001
 43
0.0000001
 44
0.0000000001
 40
0.0
 40
0.0
 40
0.0
 40
0.0
 40
0.2499985991
 40
0.3750012656
 40
0.5000023966
 40
0.7500019689
 40
1.0
 40
1.0
 40
1.0
 40
1.0
 10
6.3136486274
 20
5.5273042936
 30
0.0
 10
6.3276889642
 20
5.5306641641
 30
0.0
 10
6.3486912739
 20
5.5359525225
 30
0.0
 10
6.3765668465
 20
5.5434806262
 30
0.0
 10
6.4043575318
 20
5.551317046
 30
0.0
 10
6.4389386434
 20
5.5616593711
 30
0.0
 10
6.4664422241
 20
5.5704531832
 30
0.0
 10
6.4801562028
 20
5.5749637958
 30
0.0
  0
SPLINE
  5
3A5
100
AcDbEntity
  8
0
100
AcDbSpline
 62
7
  6
CONTINUOUS
 70
0
 71
3
 72
13
 73
9
 74
0
 42
0.0000001
 43
0.0000001
 44
0.0000000001
 40
0.0
 40
0.0
 40
0.0
 40
0.0
 40
0.2499965717
 40
0.3749982692
 40
0.4999993281
 40
0.6250000662
 40
0.7500028146
 40
1.0
 40
1.0
 40
1.0
 40
1.0
 10
6.4801562028
 20
5.5963556148
 30
0.0
 10
6.4664379521
 20
5.6003272205
 30
0.0
 10
6.4458001508
 20
5.6060800328
 30
0.0
 10
6.4181660711
 20
5.6133089516
 30
0.0
 10
6.3973813896
 20
5.6185010279
 30
0.0
 10
6.3765374688
 20
5.6234505508
 30
0.0
 10
6.3486673598
 20
5.6297087035
 30
0.0
 10
6.3276767734
 20
5.6340054545
 30
0.0
 10
6.3136486274
 20
5.6366842936
 30
0.0
  0
SPLINE
  5
3A6
100
AcDbEntity
  8
0
100
AcDbSpline
 62
7
  6
CONTINUOUS
 70
0
 71
3
 72
12
 73
8
 74
0
 42
0.0000001
 43
0.0000001
 44
0.0000000001
 40
0.0
 40
0.0
 40
0.0
 40
0.0
 40
0.2499979765
 40
0.3749996343
 40
0.5000010115
 40
0.7500018374
 40
1.0
 40
1.0
 40
1.0
 40
1.0
 10
5.5762583934
 20
5.6774806503
 30
0.0
 10
5.5899788439
 20
5.6735166034
 30
0.0
 10
5.6106155187
 20
5.6677603683
 30
0.0
 10
5.6382481955
 20
5.660525996
 30
0.0
 10
5.6659609707
 20
5.6536037699
 30
0.0
 10
5.7007509748
 20
5.6455596457
 30
0.0
 10
5.7287372576
 20
5.639827789
 30
0.0
 10
5.7427659687
 20
5.6371519714
 30
0.0
  0
SPLINE
  5
3A7
100
AcDbEntity
  8
0
100
AcDbSpline
 62
7
  6
CONTINUOUS
 70
0
 71
3
 72
11
 73
7
 74
0
 42
0.0000001
 43
0.0000001
 44
0.0000000001
 40
0.0
 40
0.0
 40
0.0
 40
0.0
 40
0.249999369
 40
0.500000974
 40
0.7500009005
 40
1.0
 40
1.0
 40
1.0
 40
1.0
 10
5.7427659687
 20
5.6215219714
 30
0.0
 10
5.7287242302
 20
5.6181680031
 30
0.0
 10
5.7007225985
 20
5.6111124368
 30
0.0
 10
5.6589732974
 20
5.5995769431
 30
0.0
 10
5.6174759128
 20
5.5871670917
 30
0.0
 10
5.5899730234
 20
5.5783711275
 30
0.0
 10
5.5762583934
 20
5.5738624692
 30
0.0
  0
SPLINE
  5
3A8
100
AcDbEntity
  8
0
100
AcDbSpline
 62
7
  6
CONTINUOUS
 70
0
 71
3
 72
11
 73
7
 74
0
 42
0.0000001
 43
0.0000001
 44
0.0000000001
 40
0.0
 40
0.0
 40
0.0
 40
0.0
 40
0.2499988676
 40
0.4999994622
 40
0.7500006797
 40
1.0
 40
1.0
 40
1.0
 40
1.0
 10
5.5762583934
 20
5.5524706503
 30
0.0
 10
5.5899785485
 20
5.548505607
 30
0.0
 10
5.6174939895
 20
5.5408317423
 30
0.0
 10
5.6590028069
 20
5.5302006798
 30
0.0
 10
5.7007511995
 20
5.5205505958
 30
0.0
 10
5.7287382543
 20
5.5148230517
 30
0.0
 10
5.7427659687
 20
5.5121419714
 30
0.0
  0
SPLINE
  5
3A9
100
AcDbEntity
  8
0
100
AcDbSpline
 62
7
  6
CONTINUOUS
 70
0
 71
3
 72
11
 73
7
 74
0
 42
0.0000001
 43
0.0000001
 44
0.0000000001
 40
0.0
 40
0.0
 40
0.0
 40
0.0
 40
0.249999523
 40
0.5000005974
 40
0.7500009819
 40
1.0
 40
1.0
 40
1.0
 40
1.0
 10
5.7427659687
 20
5.4965119714
 30
0.0
 10
5.7287254788
 20
5.4931527489
 30
0.0
 10
5.7007228858
 20
5.4861015958
 30
0.0
 10
5.65897286
 20
5.4745683497
 30
0.0
 10
5.617476109
 20
5.4621565166
 30
0.0
 10
5.5899727355
 20
5.4533619829
 30
0.0
 10
5.5762583934
 20
5.4488524692
 30
0.0
  0
SPLINE
  5
3AA
100
AcDbEntity
  8
0
100
AcDbSpline
 62
7
  6
CONTINUOUS
 70
0
 71
3
 72
37
 73
33
 74
0
 42
0.0000001
 43
0.0000001
 44
0.0000000001
 40
0.0
 40
0.0
 40
0.0
 40
0.0
 40
0.0006158604
 40
0.0013553311
 40
0.0022220178
 40
0.0032181138
 40
0.005603497
 40
0.0085184622
 40
0.011966241
 40
0.0159485146
 40
0.0204655722
 40
0.0255156562
 40
0.0310964437
 40
0.0372054188
 40
0.0509971903
 40
0.0668689446
 40
0.0847977102
 40
0.1047548407
 40
0.126700391
 40
0.1505928266
 40
0.1763904835
 40
0.20405147
 40
0.2335276062
 40
0.297697229
 40
0.3684393747
 40
0.4452538785
 40
0.5275675417
 40
0.6147951462
 40
0.7063260898
 40
0.8015368736
 40
0.8997075704
 40
1.0
 40
1.0
 40
1.0
 40
1.0
 10
7.5412709439
 20
5.3586570607
 30
0.0
 10
7.5413748836
 20
5.3584786004
 30
0.0
 10
7.5415779497
 20
5.3580709478
 30
0.0
 10
7.5418562178
 20
5.3573792788
 30
0.0
 10
7.5421351852
 20
5.3565520189
 30
0.0
 10
7.5425319845
 20
5.3551834987
 30
0.0
 10
7.543015601
 20
5.3531269675
 30
0.0
 10
7.543570355
 20
5.3502458903
 30
0.0
 10
7.5441270315
 20
5.3468213458
 30
0.0
 10
7.5446853118
 20
5.3428538829
 30
0.0
 10
7.545244514
 20
5.3383446043
 30
0.0
 10
7.5458045063
 20
5.3332957535
 30
0.0
 10
7.5463651077
 20
5.3277101967
 30
0.0
 10
7.5471450622
 20
5.319200813
 30
0.0
 10
7.5481074026
 20
5.3072431857
 30
0.0
 10
7.5492238338
 20
5.291322515
 30
0.0
 10
7.5503421281
 20
5.2733300058
 30
0.0
 10
7.5514617862
 20
5.2532973133
 30
0.0
 10
7.5525826765
 20
5.2312620149
 30
0.0
 10
7.5537044896
 20
5.2072658939
 30
0.0
 10
7.5548270074
 20
5.1813512655
 30
0.0
 10
7.555949981
 20
5.1535625907
 30
0.0
 10
7.5574916547
 20
5.112912816
 30
0.0
 10
7.5594021965
 20
5.0578200029
 30
0.0
 10
7.5616385177
 20
4.9868549292
 30
0.0
 10
7.5638767513
 20
4.9098027312
 30
0.0
 10
7.5661171531
 20
4.8272202117
 30
0.0
 10
7.5683581549
 20
4.7397010002
 30
0.0
 10
7.5706008395
 20
4.6478555728
 30
0.0
 10
7.572845744
 20
4.552339499
 30
0.0
 10
7.5750910119
 20
4.4538845767
 30
0.0
 10
7.5765733332
 20
4.3873485229
 30
0.0
 10
7.5773161329
 20
4.3537246955
 30
0.0
  0
SPLINE
  5
3AB
100
AcDbEntity
  8
0
100
AcDbSpline
 62
7
  6
CONTINUOUS
 70
0
 71
3
 72
14
 73
10
 74
0
 42
0.0000001
 43
0.0000001
 44
0.0000000001
 40
0.0
 40
0.0
 40
0.0
 40
0.0
 40
0.0691818339
 40
0.1537421145
 40
0.2541295251
 40
0.3706074469
 40
0.5033412784
 40
0.6524403411
 40
1.0
 40
1.0
 40
1.0
 40
1.0
 10
7.62468925
 20
2.9229044183
 30
0.0
 10
7.6248077009
 20
2.9231112685
 30
0.0
 10
7.6250378157
 20
2.9235897891
 30
0.0
 10
7.6253506147
 20
2.924408126
 30
0.0
 10
7.6256643806
 20
2.9253986568
 30
0.0
 10
7.6259788638
 20
2.9265616714
 30
0.0
 10
7.6262939316
 20
2.9278975885
 30
0.0
 10
7.6267375752
 20
2.9300204488
 30
0.0
 10
7.6270342563
 20
2.9317062406
 30
0.0
 10
7.6272274132
 20
2.9328880691
 30
0.0
  0
SPLINE
  5
3AC
100
AcDbEntity
  8
0
100
AcDbSpline
 62
7
  6
CONTINUOUS
 70
0
 71
3
 72
30
 73
26
 74
0
 42
0.0000001
 43
0.0000001
 44
0.0000000001
 40
0.0
 40
0.0
 40
0.0
 40
0.0
 40
0.0016789775
 40
0.0038053594
 40
0.0063928861
 40
0.0094490115
 40
0.0129781582
 40
0.0169831262
 40
0.0264254457
 40
0.037776235
 40
0.051028551
 40
0.0661732553
 40
0.083200006
 40
0.1020977471
 40
0.1228549721
 40
0.1698903732
 40
0.224138538
 40
0.2854063182
 40
0.3534993468
 40
0.4282049196
 40
0.5092743669
 40
0.5964544969
 40
0.6894858748
 40
0.7880246576
 40
1.0
 40
1.0
 40
1.0
 40
1.0
 10
7.708075552
 20
5.3586504691
 30
0.0
 10
7.7082219447
 20
5.3583983712
 30
0.0
 10
7.7085027399
 20
5.357797852
 30
0.0
 10
7.7088785563
 20
5.3567527967
 30
0.0
 10
7.7092561589
 20
5.3554568551
 30
0.0
 10
7.7096350492
 20
5.3539095951
 30
0.0
 10
7.7100149133
 20
5.3521102181
 30
0.0
 10
7.710552158
 20
5.3492117527
 30
0.0
 10
7.7112090125
 20
5.3449556019
 30
0.0
 10
7.7119647925
 20
5.3390924814
 30
0.0
 10
7.7127229193
 20
5.3322325357
 30
0.0
 10
7.7134829956
 20
5.3243821543
 30
0.0
 10
7.7142442686
 20
5.3155476275
 30
0.0
 10
7.7150065052
 20
5.3057354623
 30
0.0
 10
7.716068418
 20
5.2907208431
 30
0.0
 10
7.7173765121
 20
5.2695709568
 30
0.0
 10
7.718893315
 20
5.2413878019
 30
0.0
 10
7.7204135026
 20
5.209543924
 30
0.0
 10
7.7219363864
 20
5.1741445678
 30
0.0
 10
7.7234609836
 20
5.1353042462
 30
0.0
 10
7.7249867159
 20
5.0931475463
 30
0.0
 10
7.7265127775
 20
5.0478070279
 30
0.0
 10
7.728037483
 20
4.9994316697
 30
0.0
 10
7.7301213786
 20
4.9293951261
 30
0.0
 10
7.7316083576
 20
4.8755010712
 30
0.0
 10
7.7325914339
 20
4.8387089724
 30
0.0
  0
SPLINE
  5
3AD
100
AcDbEntity
  8
0
100
AcDbSpline
 62
7
  6
CONTINUOUS
 70
0
 71
3
 72
30
 73
26
 74
0
 42
0.0000001
 43
0.0000001
 44
0.0000000001
 40
0.0
 40
0.0
 40
0.0
 40
0.0
 40
0.204802149
 40
0.301482143
 40
0.3935420722
 40
0.480512066
 40
0.5619573257
 40
0.6374598629
 40
0.7066814608
 40
0.7693080448
 40
0.8250263679
 40
0.8735252979
 40
0.8949709414
 40
0.9144961562
 40
0.9320656347
 40
0.9476660997
 40
0.9612953499
 40
0.9729524327
 40
0.9826385474
 40
0.9867441852
 40
0.9903598426
 40
0.9934878957
 40
0.9961319729
 40
0.9982983834
 40
1.0
 40
1.0
 40
1.0
 40
1.0
 10
5.7428138868
 20
5.4965119714
 30
0.0
 10
5.709909893
 20
5.4955928376
 30
0.0
 10
5.6614740335
 20
5.4942040123
 30
0.0
 10
5.5982514109
 20
5.4922740315
 30
0.0
 10
5.5539606545
 20
5.4908543953
 30
0.0
 10
5.5121197909
 20
5.4894357476
 30
0.0
 10
5.4729416873
 20
5.4880184246
 30
0.0
 10
5.4366181573
 20
5.4866019081
 30
0.0
 10
5.4033216799
 20
5.4851869569
 30
0.0
 10
5.3732080288
 20
5.4837743956
 30
0.0
 10
5.3464289725
 20
5.4823646381
 30
0.0
 10
5.326268039
 20
5.4811497452
 30
0.0
 10
5.3119217832
 20
5.4801634732
 30
0.0
 10
5.3025394951
 20
5.479455227
 30
0.0
 10
5.2940995548
 20
5.4787475874
 30
0.0
 10
5.2866108628
 20
5.4780409085
 30
0.0
 10
5.2800769531
 20
5.4773360753
 30
0.0
 10
5.274499788
 20
5.476633416
 30
0.0
 10
5.2704545943
 20
5.4760226063
 30
0.0
 10
5.2677015312
 20
5.4755231146
 30
0.0
 10
5.2659936433
 20
5.4751700596
 30
0.0
 10
5.2645261648
 20
5.4748179588
 30
0.0
 10
5.2632987006
 20
5.4744671639
 30
0.0
 10
5.262311398
 20
5.4741181502
 30
0.0
 10
5.2617449475
 20
5.4738568179
 30
0.0
 10
5.2615080259
 20
5.4737201935
 30
0.0
  0
SPLINE
  5
3AE
100
AcDbEntity
  8
0
100
AcDbSpline
 62
7
  6
CONTINUOUS
 70
0
 71
3
 72
39
 73
35
 74
0
 42
0.0000001
 43
0.0000001
 44
0.0000000001
 40
0.0
 40
0.0
 40
0.0
 40
0.0
 40
0.1078578686
 40
0.2120291223
 40
0.311812322
 40
0.4065514581
 40
0.4957319537
 40
0.5788669661
 40
0.6555053005
 40
0.7252820568
 40
0.7878456441
 40
0.8428459007
 40
0.8674011491
 40
0.8899354418
 40
0.9104058128
 40
0.9287718123
 40
0.9450163185
 40
0.9591367211
 40
0.9654000605
 40
0.9711321634
 40
0.9763333153
 40
0.9810041132
 40
0.9851456257
 40
0.9887596681
 40
0.9918492436
 40
0.9944190463
 40
0.995511799
 40
0.9964786818
 40
0.997322545
 40
0.9980478047
 40
0.9986615781
 40
0.9991757948
 40
0.9996108474
 40
1.0
 40
1.0
 40
1.0
 40
1.0
 10
5.7428138868
 20
5.5121419714
 30
0.0
 10
5.7254406414
 20
5.5116566705
 30
0.0
 10
5.691288353
 20
5.5106889676
 30
0.0
 10
5.6410651187
 20
5.5092140897
 30
0.0
 10
5.5929567637
 20
5.5077390469
 30
0.0
 10
5.5472651787
 20
5.5062640463
 30
0.0
 10
5.504257685
 20
5.5047902828
 30
0.0
 10
5.4641686895
 20
5.5033179398
 30
0.0
 10
5.4272086062
 20
5.5018465722
 30
0.0
 10
5.3935661105
 20
5.5003774251
 30
0.0
 10
5.3634138897
 20
5.4989109195
 30
0.0
 10
5.3405475706
 20
5.4976495253
 30
0.0
 10
5.3241287311
 20
5.4966272696
 30
0.0
 10
5.3132671415
 20
5.4958904853
 30
0.0
 10
5.3034053097
 20
5.4951546238
 30
0.0
 10
5.294560036
 20
5.494419456
 30
0.0
 10
5.2867418571
 20
5.4936852767
 30
0.0
 10
5.2808733604
 20
5.4930524956
 30
0.0
 10
5.2766963505
 20
5.4925400062
 30
0.0
 10
5.2739498728
 20
5.4921714276
 30
0.0
 10
5.2714624812
 20
5.491803193
 30
0.0
 10
5.2692344006
 20
5.4914353824
 30
0.0
 10
5.2672658333
 20
5.4910681326
 30
0.0
 10
5.2655568028
 20
5.4907017281
 30
0.0
 10
5.2641075152
 20
5.4903363567
 30
0.0
 10
5.2630660652
 20
5.4900185721
 30
0.0
 10
5.2623664572
 20
5.4897590269
 30
0.0
 10
5.2619359732
 20
5.4895751918
 30
0.0
 10
5.2615705397
 20
5.4893915395
 30
0.0
 10
5.2612699058
 20
5.4892079097
 30
0.0
 10
5.261033602
 20
5.4890239031
 30
0.0
 10
5.2608611643
 20
5.4888382366
 30
0.0
 10
5.2607531933
 20
5.4886485283
 30
0.0
 10
5.2607272609
 20
5.4885150057
 30
0.0
 10
5.2607270461
 20
5.4884522988
 30
0.0
  0
SPLINE
  5
3AF
100
AcDbEntity
  8
0
100
AcDbSpline
 62
7
  6
CONTINUOUS
 70
0
 71
3
 72
38
 73
34
 74
0
 42
0.0000001
 43
0.0000001
 44
0.0000000001
 40
0.0
 40
0.0
 40
0.0
 40
0.0
 40
0.1115046524
 40
0.2181811718
 40
0.31953209
 40
0.4150628476
 40
0.5043623342
 40
0.5871160885
 40
0.6630152703
 40
0.7317599262
 40
0.7930986414
 40
0.846797666
 40
0.8707097586
 40
0.8926258449
 40
0.9125266996
 40
0.9303990063
 40
0.9462300938
 40
0.9600081796
 40
0.9661241471
 40
0.9717232249
 40
0.9768045985
 40
0.9813678051
 40
0.9854129155
 40
0.988941252
 40
0.9919567174
 40
0.9944659518
 40
0.9964806059
 40
0.9973094355
 40
0.9980250877
 40
0.9986352654
 40
0.9991524061
 40
0.9995968286
 40
1.0
 40
1.0
 40
1.0
 40
1.0
 10
5.5762583934
 20
5.5524706503
 30
0.0
 10
5.5616581774
 20
5.5520550652
 30
0.0
 10
5.5330901717
 20
5.5512334139
 30
0.0
 10
5.4912527553
 20
5.5499894992
 30
0.0
 10
5.4515085241
 20
5.5487526096
 30
0.0
 10
5.414041744
 20
5.5475140169
 30
0.0
 10
5.3790126326
 20
5.5462700499
 30
0.0
 10
5.3465568802
 20
5.5450245628
 30
0.0
 10
5.3167957555
 20
5.5437795453
 30
0.0
 10
5.2898423531
 20
5.5425373405
 30
0.0
 10
5.2658002453
 20
5.5412984045
 30
0.0
 10
5.2476300191
 20
5.5402325276
 30
0.0
 10
5.2346214073
 20
5.5393688524
 30
0.0
 10
5.2260339263
 20
5.538746693
 30
0.0
 10
5.2182398345
 20
5.5381249897
 30
0.0
 10
5.2112455339
 20
5.5375040612
 30
0.0
 10
5.2050567048
 20
5.5368841174
 30
0.0
 10
5.2004073504
 20
5.5363498632
 30
0.0
 10
5.1970960659
 20
5.5359171313
 30
0.0
 10
5.1949179532
 20
5.5356058311
 30
0.0
 10
5.1929454508
 20
5.535294828
 30
0.0
 10
5.1911792185
 20
5.5349841871
 30
0.0
 10
5.1896197914
 20
5.5346740457
 30
0.0
 10
5.1882674921
 20
5.5343645063
 30
0.0
 10
5.1871219923
 20
5.53405596
 30
0.0
 10
5.1861830051
 20
5.5337485394
 30
0.0
 10
5.1855340315
 20
5.5334792283
 30
0.0
 10
5.1851233613
 20
5.5332576349
 30
0.0
 10
5.1848871394
 20
5.5331023228
 30
0.0
 10
5.1847016908
 20
5.532946619
 30
0.0
 10
5.1845667426
 20
5.5327894604
 30
0.0
 10
5.1844829906
 20
5.5326292425
 30
0.0
 10
5.1844633873
 20
5.532517579
 30
0.0
 10
5.1844633845
 20
5.5324647671
 30
0.0
  0
SPLINE
  5
3B0
100
AcDbEntity
  8
0
100
AcDbSpline
 62
7
  6
CONTINUOUS
 70
0
 71
3
 72
30
 73
26
 74
0
 42
0.0000001
 43
0.0000001
 44
0.0000000001
 40
0.0
 40
0.0
 40
0.0
 40
0.0
 40
0.2048643238
 40
0.3015764775
 40
0.3936113037
 40
0.4805018196
 40
0.561893041
 40
0.6374316274
 40
0.7067484223
 40
0.7694507844
 40
0.8251447965
 40
0.8734840028
 40
0.8948392366
 40
0.9142964522
 40
0.9318396956
 40
0.9474534525
 40
0.9611229086
 40
0.9728344723
 40
0.9825767676
 40
0.9867072144
 40
0.9903434223
 40
0.9934862559
 40
0.996138278
 40
0.9983052887
 40
1.0
 40
1.0
 40
1.0
 40
1.0
 10
5.7428133441
 20
5.6215219714
 30
0.0
 10
5.7098936026
 20
5.6206027957
 30
0.0
 10
5.6614341141
 20
5.619213729
 30
0.0
 10
5.5981893267
 20
5.6172830959
 30
0.0
 10
5.553902494
 20
5.6158628941
 30
0.0
 10
5.5120798571
 20
5.6144434082
 30
0.0
 10
5.472910611
 20
5.6130253003
 30
0.0
 10
5.4365683132
 20
5.611608697
 30
0.0
 10
5.4032326899
 20
5.6101940307
 30
0.0
 10
5.3730901444
 20
5.6087819396
 30
0.0
 10
5.3463237711
 20
5.6073730448
 30
0.0
 10
5.3262036027
 20
5.6061562951
 30
0.0
 10
5.3119061633
 20
5.6051689816
 30
0.0
 10
5.3025520454
 20
5.6044600867
 30
0.0
 10
5.2941237102
 20
5.6037521304
 30
0.0
 10
5.2866293135
 20
5.603045342
 30
0.0
 10
5.2800768063
 20
5.6023404422
 30
0.0
 10
5.2744742151
 20
5.6016378065
 30
0.0
 10
5.2704062564
 20
5.6010271939
 30
0.0
 10
5.2676361047
 20
5.6005277368
 30
0.0
 10
5.2659180277
 20
5.6001747081
 30
0.0
 10
5.264443114
 20
5.5998226599
 30
0.0
 10
5.2632114715
 20
5.5994719508
 30
0.0
 10
5.2622236446
 20
5.5991231082
 30
0.0
 10
5.2616582331
 20
5.5988614186
 30
0.0
 10
5.2614227982
 20
5.5987243472
 30
0.0
  0
SPLINE
  5
3B1
100
AcDbEntity
  8
0
100
AcDbSpline
 62
7
  6
CONTINUOUS
 70
0
 71
3
 72
39
 73
35
 74
0
 42
0.0000001
 43
0.0000001
 44
0.0000000001
 40
0.0
 40
0.0
 40
0.0
 40
0.0
 40
0.1078337596
 40
0.2120079789
 40
0.3117847089
 40
0.4064551967
 40
0.495526697
 40
0.5786037053
 40
0.6552897217
 40
0.7251632004
 40
0.7877835025
 40
0.8427134205
 40
0.8671866079
 40
0.8896371038
 40
0.9100466968
 40
0.9283974953
 40
0.9446720975
 40
0.9588538911
 40
0.9651552316
 40
0.970927856
 40
0.9761702855
 40
0.9808813528
 40
0.9850603628
 40
0.9887073723
 40
0.9918237086
 40
0.9944130169
 40
0.9955125893
 40
0.9964842435
 40
0.9973307924
 40
0.998056675
 40
0.9986691614
 40
0.9991806241
 40
0.9996125002
 40
1.0
 40
1.0
 40
1.0
 40
1.0
 10
5.7428133441
 20
5.6371519714
 30
0.0
 10
5.7254418748
 20
5.6366669302
 30
0.0
 10
5.6912888503
 20
5.6356995779
 30
0.0
 10
5.641063979
 20
5.6342249708
 30
0.0
 10
5.5929614236
 20
5.632750191
 30
0.0
 10
5.5472939903
 20
5.6312752243
 30
0.0
 10
5.5043192938
 20
5.6298012369
 30
0.0
 10
5.464244688
 20
5.6283288244
 30
0.0
 10
5.4272661613
 20
5.626858267
 30
0.0
 10
5.3935871009
 20
5.625390152
 30
0.0
 10
5.3634177391
 20
5.6239252074
 30
0.0
 10
5.3405640702
 20
5.6226639347
 30
0.0
 10
5.3241814302
 20
5.6216407673
 30
0.0
 10
5.3133551413
 20
5.6209037962
 30
0.0
 10
5.3035179604
 20
5.6201675647
 30
0.0
 10
5.2946790397
 20
5.6194323476
 30
0.0
 10
5.2868475449
 20
5.6186983908
 30
0.0
 10
5.2809572975
 20
5.6180661258
 30
0.0
 10
5.276757005
 20
5.6175540928
 30
0.0
 10
5.2739906974
 20
5.6171856282
 30
0.0
 10
5.2714830973
 20
5.6168175189
 30
0.0
 10
5.2692352771
 20
5.6164498489
 30
0.0
 10
5.2672482865
 20
5.616082758
 30
0.0
 10
5.2655229794
 20
5.6157165473
 30
0.0
 10
5.2640602945
 20
5.6153513714
 30
0.0
 10
5.2630097297
 20
5.6150336903
 30
0.0
 10
5.2623046877
 20
5.614774125
 30
0.0
 10
5.2618716027
 20
5.6145903729
 30
0.0
 10
5.2615046026
 20
5.614406814
 30
0.0
 10
5.261203459
 20
5.6142232843
 30
0.0
 10
5.2609677062
 20
5.6140393531
 30
0.0
 10
5.2607968758
 20
5.613853643
 30
0.0
 10
5.2606917397
 20
5.6136634981
 30
0.0
 10
5.2606691254
 20
5.6135299778
 30
0.0
 10
5.2606706325
 20
5.6134675474
 30
0.0
  0
SPLINE
  5
3B2
100
AcDbEntity
  8
0
100
AcDbSpline
 62
7
  6
CONTINUOUS
 70
0
 71
3
 72
38
 73
34
 74
0
 42
0.0000001
 43
0.0000001
 44
0.0000000001
 40
0.0
 40
0.0
 40
0.0
 40
0.0
 40
0.1115048004
 40
0.2181814114
 40
0.3195323826
 40
0.4150631806
 40
0.5043627142
 40
0.587116518
 40
0.6630157411
 40
0.7317604147
 40
0.7930991196
 40
0.8467981075
 40
0.8707101734
 40
0.8926262286
 40
0.912527049
 40
0.9303993183
 40
0.9462303655
 40
0.9600084086
 40
0.9661243541
 40
0.9717234093
 40
0.9768047601
 40
0.9813679436
 40
0.985413031
 40
0.9889413446
 40
0.9919567877
 40
0.9944660004
 40
0.9964806342
 40
0.9973094546
 40
0.9980250984
 40
0.9986352691
 40
0.999152405
 40
0.9995968259
 40
1.0
 40
1.0
 40
1.0
 40
1.0
 10
5.5762583934
 20
5.6774806503
 30
0.0
 10
5.5616581872
 20
5.6770639775
 30
0.0
 10
5.53309018
 20
5.6762411796
 30
0.0
 10
5.4912527108
 20
5.6749975969
 30
0.0
 10
5.4515084097
 20
5.6737620232
 30
0.0
 10
5.4140415723
 20
5.6725244485
 30
0.0
 10
5.379012432
 20
5.6712806494
 30
0.0
 10
5.346556666
 20
5.6700349306
 30
0.0
 10
5.3167955389
 20
5.6687895427
 30
0.0
 10
5.2898421347
 20
5.6675471735
 30
0.0
 10
5.2658000277
 20
5.6663082424
 30
0.0
 10
5.2476298047
 20
5.6652424391
 30
0.0
 10
5.2346211995
 20
5.6643788256
 30
0.0
 10
5.2260337271
 20
5.6637566995
 30
0.0
 10
5.2182396463
 20
5.663135016
 30
0.0
 10
5.2112453587
 20
5.6625140964
 30
0.0
 10
5.2050565447
 20
5.6618941521
 30
0.0
 10
5.2004072043
 20
5.6613598906
 30
0.0
 10
5.1970959321
 20
5.6609271493
 30
0.0
 10
5.1949178292
 20
5.6606158411
 30
0.0
 10
5.192945337
 20
5.6603048289
 30
0.0
 10
5.1911791155
 20
5.6599941779
 30
0.0
 10
5.1896196995
 20
5.6596840258
 30
0.0
 10
5.1882674117
 20
5.6593744752
 30
0.0
 10
5.1871219238
 20
5.6590659176
 30
0.0
 10
5.1861829489
 20
5.6587584863
 30
0.0
 10
5.185533986
 20
5.6584891661
 30
0.0
 10
5.1851233249
 20
5.658267566
 30
0.0
 10
5.1848871097
 20
5.6581122496
 30
0.0
 10
5.1847016678
 20
5.6579565417
 30
0.0
 10
5.1845667265
 20
5.6577993794
 30
0.0
 10
5.1844829817
 20
5.6576391581
 30
0.0
 10
5.1844633839
 20
5.6575274935
 30
0.0
 10
5.1844633836
 20
5.6574746812
 30
0.0
  0
SPLINE
  5
3B3
100
AcDbEntity
  8
0
100
AcDbSpline
 62
7
  6
CONTINUOUS
 70
0
 71
3
 72
38
 73
34
 74
0
 42
0.0000001
 43
0.0000001
 44
0.0000000001
 40
0.0
 40
0.0
 40
0.0
 40
0.0
 40
0.1115041642
 40
0.2181806444
 40
0.3195317958
 40
0.4150627838
 40
0.5043623028
 40
0.5871159281
 40
0.6630149173
 40
0.7317594586
 40
0.7930981746
 40
0.8467972863
 40
0.8707094373
 40
0.8926255766
 40
0.9125264729
 40
0.9303988098
 40
0.9462299167
 40
0.9600080125
 40
0.9661239824
 40
0.9717230613
 40
0.9768044357
 40
0.9813676438
 40
0.985412758
 40
0.9889411022
 40
0.9919565798
 40
0.994465831
 40
0.9964805073
 40
0.9973093503
 40
0.9980250175
 40
0.9986352116
 40
0.9991523703
 40
0.9995968113
 40
1.0
 40
1.0
 40
1.0
 40
1.0
 10
6.4801562028
 20
5.5963556148
 30
0.0
 10
6.4947566476
 20
5.5967608034
 30
0.0
 10
6.5233249051
 20
5.5975715
 30
0.0
 10
6.5651621961
 20
5.5988186025
 30
0.0
 10
6.6049060929
 20
5.6000680858
 30
0.0
 10
6.6423726114
 20
5.6013164214
 30
0.0
 10
6.6774016791
 20
5.6025619971
 30
0.0
 10
6.7098574765
 20
5.6038052776
 30
0.0
 10
6.7396186926
 20
5.6050467727
 30
0.0
 10
6.7665721296
 20
5.6062874448
 30
0.0
 10
6.790614233
 20
5.6075264639
 30
0.0
 10
6.8087844383
 20
5.6085930547
 30
0.0
 10
6.8217930388
 20
5.6094572989
 30
0.0
 10
6.8303805193
 20
5.6100797427
 30
0.0
 10
6.8381746159
 20
5.610701591
 30
0.0
 10
6.8451689248
 20
5.6113225611
 30
0.0
 10
6.8513577653
 20
5.6119424689
 30
0.0
 10
6.8560071322
 20
5.6124766492
 30
0.0
 10
6.8593184281
 20
5.6129093087
 30
0.0
 10
6.8614965492
 20
5.613220555
 30
0.0
 10
6.8634690603
 20
5.6135315057
 30
0.0
 10
6.8652353018
 20
5.6138420994
 30
0.0
 10
6.8667947385
 20
5.6141522019
 30
0.0
 10
6.8681470473
 20
5.6144617143
 30
0.0
 10
6.8692925568
 20
5.6147702436
 30
0.0
 10
6.8702315539
 20
5.6150776558
 30
0.0
 10
6.8708805357
 20
5.6153469658
 30
0.0
 10
6.8712912123
 20
5.6155685612
 30
0.0
 10
6.8715274393
 20
5.6157238763
 30
0.0
 10
6.8717128929
 20
5.6158795842
 30
0.0
 10
6.8718478462
 20
5.6160367476
 30
0.0
 10
6.8719316032
 20
5.6161969708
 30
0.0
 10
6.8719512103
 20
5.6163086382
 30
0.0
 10
6.8719512148
 20
5.6163614524
 30
0.0
  0
SPLINE
  5
3B4
100
AcDbEntity
  8
0
100
AcDbSpline
 62
7
  6
CONTINUOUS
 70
0
 71
3
 72
18
 73
14
 74
0
 42
0.0000001
 43
0.0000001
 44
0.0000000001
 40
0.0
 40
0.0
 40
0.0
 40
0.0
 40
0.2158217007
 40
0.4042177085
 40
0.5654143787
 40
0.6997830608
 40
0.8079809809
 40
0.8526593394
 40
0.8913838131
 40
0.9245820925
 40
0.9529341861
 40
0.9775267469
 40
1.0
 40
1.0
 40
1.0
 40
1.0
 10
6.8659023466
 20
5.363956542
 30
0.0
 10
6.8663753669
 20
5.3640510217
 30
0.0
 10
6.8672594541
 20
5.3642375731
 30
0.0
 10
6.8684878291
 20
5.3645351916
 30
0.0
 10
6.8695286361
 20
5.3648312871
 30
0.0
 10
6.8703820982
 20
5.3651258116
 30
0.0
 10
6.8709717261
 20
5.3653833607
 30
0.0
 10
6.8713445928
 20
5.3655947872
 30
0.0
 10
6.8715594055
 20
5.3657431165
 30
0.0
 10
6.8717280431
 20
5.3658917737
 30
0.0
 10
6.8718506598
 20
5.3660417211
 30
0.0
 10
6.8719265103
 20
5.3661942622
 30
0.0
 10
6.8719441599
 20
5.3663000272
 30
0.0
 10
6.8719441584
 20
5.3663502551
 30
0.0
  0
LINE
  5
3B5
100
AcDbEntity
  8
0
100
AcDbLine
 62
7
  6
CONTINUOUS
 10
6.8715623369
 20
5.4705530698
 11
6.8719442376
 21
5.4699509925
  0
SPLINE
  5
3B6
100
AcDbEntity
  8
0
100
AcDbSpline
 62
7
  6
CONTINUOUS
 70
0
 71
3
 72
38
 73
34
 74
0
 42
0.0000001
 43
0.0000001
 44
0.0000000001
 40
0.0
 40
0.0
 40
0.0
 40
0.0
 40
0.1115045567
 40
0.2181810569
 40
0.3195320019
 40
0.415062788
 40
0.5043622727
 40
0.5871160002
 40
0.6630151467
 40
0.7317597826
 40
0.7930984993
 40
0.8467975423
 40
0.8707096475
 40
0.8926257462
 40
0.9125266122
 40
0.9303989288
 40
0.9462300248
 40
0.9600081182
 40
0.9661240892
 40
0.9717231704
 40
0.9768045474
 40
0.9813677576
 40
0.985412872
 40
0.9889412131
 40
0.9919566839
 40
0.9944659242
 40
0.9964805851
 40
0.9973094183
 40
0.9980250742
 40
0.9986352557
 40
0.9991524001
 40
0.999596826
 40
1.0
 40
1.0
 40
1.0
 40
1.0
 10
6.4801562028
 20
5.4713456148
 30
0.0
 10
6.4947564558
 20
5.4717594506
 30
0.0
 10
6.5233244999
 20
5.4725792588
 30
0.0
 10
6.5651618894
 20
5.4738237096
 30
0.0
 10
6.6049060593
 20
5.4750627178
 30
0.0
 10
6.642372791
 20
5.4763029496
 30
0.0
 10
6.6774018914
 20
5.4775471871
 30
0.0
 10
6.7098576488
 20
5.4787923028
 30
0.0
 10
6.7396187873
 20
5.4800367275
 30
0.0
 10
6.7665721948
 20
5.4812786739
 30
0.0
 10
6.790614302
 20
5.4825176234
 30
0.0
 10
6.8087845254
 20
5.4835836204
 30
0.0
 10
6.8217931364
 20
5.4844473914
 30
0.0
 10
6.8303806185
 20
5.485069599
 30
0.0
 10
6.8381747126
 20
5.4856913271
 30
0.0
 10
6.8451690163
 20
5.4863122631
 30
0.0
 10
6.8513578493
 20
5.4869322011
 30
0.0
 10
6.8560072076
 20
5.487466443
 30
0.0
 10
6.8593184956
 20
5.4878991625
 30
0.0
 10
6.861496611
 20
5.4882104534
 30
0.0
 10
6.8634691162
 20
5.4885214472
 30
0.0
 10
6.8652353514
 20
5.4888320797
 30
0.0
 10
6.8667947816
 20
5.4891422138
 30
0.0
 10
6.868147084
 20
5.4894517478
 30
0.0
 10
6.869292587
 20
5.4897602904
 30
0.0
 10
6.8702315774
 20
5.4900677085
 30
0.0
 10
6.8708805539
 20
5.4903370185
 30
0.0
 10
6.8712912264
 20
5.4905586115
 30
0.0
 10
6.87152745
 20
5.4907139236
 30
0.0
 10
6.8717129002
 20
5.4908696277
 30
0.0
 10
6.8718478502
 20
5.4910267866
 30
0.0
 10
6.8719316041
 20
5.491187005
 30
0.0
 10
6.8719512087
 20
5.491298669
 30
0.0
 10
6.8719512121
 20
5.4913514812
 30
0.0
  0
SPLINE
  5
3B7
100
AcDbEntity
  8
0
100
AcDbSpline
 62
7
  6
CONTINUOUS
 70
0
 71
3
 72
14
 73
10
 74
0
 42
0.0000001
 43
0.0000001
 44
0.0000000001
 40
0.0
 40
0.0
 40
0.0
 40
0.0
 40
0.0690769605
 40
0.1535192331
 40
0.2538090244
 40
0.3702296577
 40
0.5029593277
 40
0.6521161232
 40
1.0
 40
1.0
 40
1.0
 40
1.0
 10
7.7914511539
 20
2.9228392406
 30
0.0
 10
7.791566911
 20
2.9230337238
 30
0.0
 10
7.7917919129
 20
2.9234850243
 30
0.0
 10
7.792097703
 20
2.9242588793
 30
0.0
 10
7.7924044171
 20
2.9251972207
 30
0.0
 10
7.7927118177
 20
2.9263003587
 30
0.0
 10
7.7930197883
 20
2.9275687303
 30
0.0
 10
7.7934535223
 20
2.9295861981
 30
0.0
 10
7.7937434471
 20
2.9311891882
 30
0.0
 10
7.7939321994
 20
2.9323132685
 30
0.0
  0
SPLINE
  5
3B8
100
AcDbEntity
  8
0
100
AcDbSpline
 62
7
  6
CONTINUOUS
 70
0
 71
3
 72
31
 73
27
 74
0
 42
0.0000001
 43
0.0000001
 44
0.0000000001
 40
0.0
 40
0.0
 40
0.0
 40
0.0
 40
0.0016670849
 40
0.0037814261
 40
0.0063570515
 40
0.0094015483
 40
0.0129194104
 40
0.0169134801
 40
0.0213854528
 40
0.0263354922
 40
0.0376672805
 40
0.0509022636
 40
0.0660313431
 40
0.0830442083
 40
0.1019298301
 40
0.1226767266
 40
0.1696967517
 40
0.2239364011
 40
0.285202521
 40
0.3533007055
 40
0.4280179544
 40
0.5091051815
 40
0.5963088691
 40
0.6893692618
 40
0.7879421523
 40
1.0
 40
1.0
 40
1.0
 40
1.0
 10
7.8748643256
 20
5.3586694586
 30
0.0
 10
7.8750109067
 20
5.3584198476
 30
0.0
 10
7.8752919664
 20
5.3578239511
 30
0.0
 10
7.8756678937
 20
5.3567854955
 30
0.0
 10
7.8760456352
 20
5.3554959549
 30
0.0
 10
7.8764246983
 20
5.3539548886
 30
0.0
 10
7.8768047063
 20
5.3521614608
 30
0.0
 10
7.8771853824
 20
5.350115565
 30
0.0
 10
7.8775665561
 20
5.3478173083
 30
0.0
 10
7.8780996213
 20
5.3442532028
 30
0.0
 10
7.8787557122
 20
5.3391696726
 30
0.0
 10
7.8795145433
 20
5.3323186627
 30
0.0
 10
7.880274948
 20
5.32447612
 30
0.0
 10
7.8810365769
 20
5.3156485088
 30
0.0
 10
7.8817990153
 20
5.3058422639
 30
0.0
 10
7.8828610718
 20
5.2908335976
 30
0.0
 10
7.8841687144
 20
5.269688731
 30
0.0
 10
7.8856851254
 20
5.2415087988
 30
0.0
 10
7.8872061021
 20
5.2096644771
 30
0.0
 10
7.8887322609
 20
5.1742611213
 30
0.0
 10
7.8902624972
 20
5.135413353
 30
0.0
 10
7.8917916063
 20
5.0932457661
 30
0.0
 10
7.8933154427
 20
5.0478910133
 30
0.0
 10
7.8948264782
 20
4.9994981042
 30
0.0
 10
7.8968876161
 20
4.9294326117
 30
0.0
 10
7.8983794486
 20
4.8755161838
 30
0.0
 10
7.8993914339
 20
4.8387089724
 30
0.0
  0
SPLINE
  5
3B9
100
AcDbEntity
  8
0
100
AcDbSpline
 62
7
  6
CONTINUOUS
 70
0
 71
3
 72
39
 73
35
 74
0
 42
0.0000001
 43
0.0000001
 44
0.0000000001
 40
0.0
 40
0.0
 40
0.0
 40
0.0
 40
0.1123477984
 40
0.2196070576
 40
0.321319819
 40
0.4170324193
 40
0.5063770888
 40
0.5890658945
 40
0.6648141859
 40
0.7333503946
 40
0.7944462191
 40
0.8478831825
 40
0.8716617906
 40
0.8934480735
 40
0.9132273961
 40
0.9309867047
 40
0.9467134597
 40
0.9603959505
 40
0.9664673874
 40
0.9720240944
 40
0.9770652236
 40
0.9815902831
 40
0.9856000026
 40
0.9890966803
 40
0.9920839584
 40
0.9945678396
 40
0.9956243129
 40
0.9965596698
 40
0.9973770008
 40
0.9980809653
 40
0.9986788946
 40
0.9991827877
 40
0.999612615
 40
1.0
 40
1.0
 40
1.0
 40
1.0
 10
7.689850123
 20
4.8387089724
 30
0.0
 10
7.689335974
 20
4.8582604805
 30
0.0
 10
7.6883051831
 20
4.8964772839
 30
0.0
 10
7.6867136911
 20
4.952392196
 30
0.0
 10
7.6851174922
 20
5.0054097661
 30
0.0
 10
7.6835238841
 20
5.0553072298
 30
0.0
 10
7.6819354331
 20
5.1018912535
 30
0.0
 10
7.6803505156
 20
5.1449977214
 30
0.0
 10
7.678767763
 20
5.1844791504
 30
0.0
 10
7.6771855328
 20
5.2201982643
 30
0.0
 10
7.6756053121
 20
5.2520291233
 30
0.0
 10
7.6742447017
 20
5.276069156
 30
0.0
 10
7.6731421689
 20
5.2932688469
 30
0.0
 10
7.6723483128
 20
5.3046167554
 30
0.0
 10
7.6715553243
 20
5.31491405
 30
0.0
 10
7.6707634691
 20
5.3241531298
 30
0.0
 10
7.6699729849
 20
5.3323265948
 30
0.0
 10
7.6692917701
 20
5.3384659689
 30
0.0
 10
7.66873998
 20
5.3428376093
 30
0.0
 10
7.6683430831
 20
5.3457123187
 30
0.0
 10
7.6679465652
 20
5.3483150869
 30
0.0
 10
7.6675504808
 20
5.3506451962
 30
0.0
 10
7.6671549561
 20
5.3527022251
 30
0.0
 10
7.6667603344
 20
5.3544862506
 30
0.0
 10
7.6663667696
 20
5.3559973971
 30
0.0
 10
7.6660243933
 20
5.3570819396
 30
0.0
 10
7.6657448324
 20
5.3578094855
 30
0.0
 10
7.6655467822
 20
5.3582569038
 30
0.0
 10
7.6653488962
 20
5.3586364605
 30
0.0
 10
7.6651509819
 20
5.3589485004
 30
0.0
 10
7.6649525877
 20
5.3591935604
 30
0.0
 10
7.6647523644
 20
5.3593721078
 30
0.0
 10
7.6645480181
 20
5.3594833764
 30
0.0
 10
7.6644049653
 20
5.3595097601
 30
0.0
 10
7.6643375268
 20
5.3595098911
 30
0.0
  0
SPLINE
  5
3BA
100
AcDbEntity
  8
0
100
AcDbSpline
 62
7
  6
CONTINUOUS
 70
0
 71
3
 72
11
 73
7
 74
0
 42
0.0000001
 43
0.0000001
 44
0.0000000001
 40
0.0
 40
0.0
 40
0.0
 40
0.0
 40
0.2539951471
 40
0.5091670296
 40
0.7596212986
 40
1.0
 40
1.0
 40
1.0
 40
1.0
 10
7.5773161329
 20
4.3537246955
 30
0.0
 10
7.5786412949
 20
4.2937394594
 30
0.0
 10
7.581267644
 20
4.1734904179
 30
0.0
 10
7.5851706073
 20
3.9940917223
 30
0.0
 10
7.5890696363
 20
3.8179102461
 30
0.0
 10
7.5917412208
 20
3.7019942283
 30
0.0
 10
7.5930946737
 20
3.6452270268
 30
0.0
  0
SPLINE
  5
3BB
100
AcDbEntity
  8
0
100
AcDbSpline
 62
7
  6
CONTINUOUS
 70
0
 71
3
 72
14
 73
10
 74
0
 42
0.0000001
 43
0.0000001
 44
0.0000000001
 40
0.0
 40
0.0
 40
0.0
 40
0.0
 40
0.2933758325
 40
0.4309126215
 40
0.5613876119
 40
0.6841404571
 40
0.7985524699
 40
0.9040145388
 40
1.0
 40
1.0
 40
1.0
 40
1.0
 10
7.5930946737
 20
3.6452270268
 30
0.0
 10
7.594318226
 20
3.5939081774
 30
0.0
 10
7.5961691423
 20
3.5185319052
 30
0.0
 10
7.5987518069
 20
3.4203370478
 30
0.0
 10
7.6006463296
 20
3.3519892348
 30
0.0
 10
7.6025399064
 20
3.2876892943
 30
0.0
 10
7.6044317726
 20
3.2277679506
 30
0.0
 10
7.6063222829
 20
3.1725327034
 30
0.0
 10
7.6076452716
 20
3.1373091564
 30
0.0
 10
7.6083134858
 20
3.1205273994
 30
0.0
  0
LINE
  5
3BC
100
AcDbEntity
  8
0
100
AcDbLine
 62
7
  6
CONTINUOUS
 10
7.6083134858
 20
3.1205273994
 11
7.6087423543
 21
3.1098900549
  0
SPLINE
  5
3BD
100
AcDbEntity
  8
0
100
AcDbSpline
 62
7
  6
CONTINUOUS
 70
0
 71
3
 72
32
 73
28
 74
0
 42
0.0000001
 43
0.0000001
 44
0.0000000001
 40
0.0
 40
0.0
 40
0.0
 40
0.0
 40
0.2282743704
 40
0.3319397437
 40
0.4284614153
 40
0.5177345851
 40
0.599654906
 40
0.6741186784
 40
0.7410231665
 40
0.8002788411
 40
0.8518355134
 40
0.8747145563
 40
0.895654762
 40
0.9146524613
 40
0.9317048896
 40
0.9468106597
 40
0.9599705843
 40
0.9711892131
 40
0.98047799
 40
0.9844069864
 40
0.9878665651
 40
0.9908661275
 40
0.9934200848
 40
0.9955518149
 40
0.997301591
 40
0.9987419542
 40
1.0
 40
1.0
 40
1.0
 40
1.0
 10
7.6087423543
 20
3.1098900549
 30
0.0
 10
7.6093295628
 20
3.0955086761
 30
0.0
 10
7.6102269375
 20
3.0745980262
 30
0.0
 10
7.6115096994
 20
3.0476127205
 30
0.0
 10
7.6124401753
 20
3.0293851025
 30
0.0
 10
7.6133700623
 20
3.0125304604
 30
0.0
 10
7.6142992299
 20
2.9970688753
 30
0.0
 10
7.6152274524
 20
2.9830204155
 30
0.0
 10
7.6161543583
 20
2.9704043467
 30
0.0
 10
7.6170799652
 20
2.9592368978
 30
0.0
 10
7.6178776591
 20
2.9508447598
 30
0.0
 10
7.6185237943
 20
2.9448657635
 30
0.0
 10
7.6189885569
 20
2.9409322557
 30
0.0
 10
7.6194528703
 20
2.9373688706
 30
0.0
 10
7.619916618
 20
2.9341767052
 30
0.0
 10
7.6203796118
 20
2.9313568315
 30
0.0
 10
7.6208414328
 20
2.9289100879
 30
0.0
 10
7.6213018607
 20
2.9268374155
 30
0.0
 10
7.621702588
 20
2.9253486478
 30
0.0
 10
7.6220303568
 20
2.9243492045
 30
0.0
 10
7.6222620008
 20
2.9237362401
 30
0.0
 10
7.6224932988
 20
2.9232166876
 30
0.0
 10
7.6227243847
 20
2.9227900234
 30
0.0
 10
7.6229556799
 20
2.9224552717
 30
0.0
 10
7.6231889027
 20
2.9222112557
 30
0.0
 10
7.6234281266
 20
2.9220575981
 30
0.0
 10
7.6235994582
 20
2.9220206439
 30
0.0
 10
7.6236787815
 20
2.9220208233
 30
0.0
  0
SPLINE
  5
3BE
100
AcDbEntity
  8
0
100
AcDbSpline
 62
7
  6
CONTINUOUS
 70
0
 71
3
 72
46
 73
42
 74
0
 42
0.0000001
 43
0.0000001
 44
0.0000000001
 40
0.0
 40
0.0
 40
0.0
 40
0.0
 40
0.0719107253
 40
0.1498027277
 40
0.2320724205
 40
0.3171753911
 40
0.4034674408
 40
0.4892723503
 40
0.572925192
 40
0.6134431439
 40
0.6528269509
 40
0.6908866426
 40
0.7274369254
 40
0.7622934905
 40
0.79528856
 40
0.8262693463
 40
0.8550841671
 40
0.8815954411
 40
0.9056811243
 40
0.9272204761
 40
0.9461071073
 40
0.9545283288
 40
0.9622539058
 40
0.9692732479
 40
0.9755761689
 40
0.9811564619
 40
0.9860108465
 40
0.9881649547
 40
0.9901366012
 40
0.9919255732
 40
0.9935317591
 40
0.9949552015
 40
0.9961961882
 40
0.9972554219
 40
0.9977173443
 40
0.9981345322
 40
0.998507467
 40
0.9988368286
 40
0.9991236123
 40
0.9993693374
 40
1.0
 40
1.0
 40
1.0
 40
1.0
 10
7.8375822981
 20
3.4535793549
 30
0.0
 10
7.8362894634
 20
3.497105394
 30
0.0
 10
7.8337440334
 20
3.587782208
 30
0.0
 10
7.8300925138
 20
3.7282652821
 30
0.0
 10
7.8264377467
 20
3.8767393176
 30
0.0
 10
7.8227798473
 20
4.0303013553
 30
0.0
 10
7.8191209201
 20
4.1860046982
 30
0.0
 10
7.8154631576
 20
4.3408297059
 30
0.0
 10
7.8123840075
 20
4.4679423334
 30
0.0
 10
7.8099014946
 20
4.5669510177
 30
0.0
 10
7.8080596257
 20
4.6383583315
 30
0.0
 10
7.806218172
 20
4.7073622278
 30
0.0
 10
7.8043774616
 20
4.7736236811
 30
0.0
 10
7.8025372364
 20
4.8368170543
 30
0.0
 10
7.8006976353
 20
4.8966363605
 30
0.0
 10
7.7988593366
 20
4.9527953268
 30
0.0
 10
7.797022129
 20
5.0050258556
 30
0.0
 10
7.7951862652
 20
5.0530783516
 30
0.0
 10
7.7933533785
 20
5.0967218574
 30
0.0
 10
7.7915237323
 20
5.1357439259
 30
0.0
 10
7.7899489519
 20
5.1652815296
 30
0.0
 10
7.7886731503
 20
5.1864575586
 30
0.0
 10
7.7877539971
 20
5.2004556549
 30
0.0
 10
7.7868358631
 20
5.2131680805
 30
0.0
 10
7.7859187457
 20
5.2245778091
 30
0.0
 10
7.7850029354
 20
5.2346719276
 30
0.0
 10
7.7842136727
 20
5.2422544093
 30
0.0
 10
7.783574385
 20
5.2476546729
 30
0.0
 10
7.7831145457
 20
5.251206754
 30
0.0
 10
7.7826551476
 20
5.2544240802
 30
0.0
 10
7.7821962752
 20
5.2573058076
 30
0.0
 10
7.7817381893
 20
5.2598512033
 30
0.0
 10
7.7812810273
 20
5.2620595167
 30
0.0
 10
7.7808854572
 20
5.2636852306
 30
0.0
 10
7.7805640281
 20
5.2648143234
 30
0.0
 10
7.7803343757
 20
5.2655368798
 30
0.0
 10
7.7801045728
 20
5.2661753249
 30
0.0
 10
7.7798761816
 20
5.2667277827
 30
0.0
 10
7.7796444091
 20
5.2672007148
 30
0.0
 10
7.7792969619
 20
5.2677908792
 30
0.0
 10
7.7788562147
 20
5.2682778828
 30
0.0
 10
7.778474321
 20
5.2682768686
 30
0.0
  0
SPLINE
  5
3BF
100
AcDbEntity
  8
0
100
AcDbSpline
 62
7
  6
CONTINUOUS
 70
0
 71
3
 72
42
 73
38
 74
0
 42
0.0000001
 43
0.0000001
 44
0.0000000001
 40
0.0
 40
0.0
 40
0.0
 40
0.0
 40
0.0705857167
 40
0.1469686457
 40
0.2276276066
 40
0.3111034253
 40
0.395844812
 40
0.4802649932
 40
0.5627844823
 40
0.6418819081
 40
0.6796858685
 40
0.7160900851
 40
0.7509193151
 40
0.7840069683
 40
0.8152061794
 40
0.8443728626
 40
0.8713687692
 40
0.8960750439
 40
0.9183769914
 40
0.9381644879
 40
0.9470873409
 40
0.9553493853
 40
0.9629405267
 40
0.9698507402
 40
0.9760703349
 40
0.9815932508
 40
0.9864163467
 40
0.9905369455
 40
0.9923331966
 40
0.9939531947
 40
0.9953969397
 40
0.9966646338
 40
0.9977568121
 40
0.9986746187
 40
0.9994205503
 40
0.9997306112
 40
1.0
 40
1.0
 40
1.0
 40
1.0
 10
7.8188322981
 20
3.4535793549
 30
0.0
 10
7.8175643009
 20
3.4962691875
 30
0.0
 10
7.8150663801
 20
3.5851592037
 30
0.0
 10
7.8114805643
 20
3.7228411394
 30
0.0
 10
7.8078917656
 20
3.8683247825
 30
0.0
 10
7.8043000064
 20
4.0188671931
 30
0.0
 10
7.800707044
 20
4.1716859747
 30
0.0
 10
7.7971152375
 20
4.3239259879
 30
0.0
 10
7.7935239929
 20
4.4727501106
 30
0.0
 10
7.7904901088
 20
4.593373786
 30
0.0
 10
7.788042525
 20
4.6861007329
 30
0.0
 10
7.7862351644
 20
4.752050261
 30
0.0
 10
7.7844284526
 20
4.8151450403
 30
0.0
 10
7.7826221015
 20
4.8750891339
 30
0.0
 10
7.7808167984
 20
4.9316054355
 30
0.0
 10
7.7790127079
 20
4.9844339056
 30
0.0
 10
7.777209489
 20
5.0333313307
 30
0.0
 10
7.7754084536
 20
5.0780722136
 30
0.0
 10
7.7736103913
 20
5.1184478143
 30
0.0
 10
7.772066614
 20
5.1492749834
 30
0.0
 10
7.770818341
 20
5.1716107399
 30
0.0
 10
7.769915274
 20
5.1865745867
 30
0.0
 10
7.7690129157
 20
5.2003183154
 30
0.0
 10
7.7681114615
 20
5.2128234092
 30
0.0
 10
7.7672108924
 20
5.2240735966
 30
0.0
 10
7.7663117212
 20
5.2340566105
 30
0.0
 10
7.7654145171
 20
5.2427639504
 30
0.0
 10
7.7646384783
 20
5.2492163139
 30
0.0
 10
7.764007694
 20
5.253732868
 30
0.0
 10
7.7635569968
 20
5.256638852
 30
0.0
 10
7.7631069903
 20
5.2592209137
 30
0.0
 10
7.7626578307
 20
5.2614783351
 30
0.0
 10
7.7622100287
 20
5.2634108314
 30
0.0
 10
7.7617637363
 20
5.2650180081
 30
0.0
 10
7.7613738448
 20
5.2661484944
 30
0.0
 10
7.7610537823
 20
5.2668841947
 30
0.0
 10
7.7608928253
 20
5.2671961497
 30
0.0
 10
7.7608112944
 20
5.2673372901
 30
0.0
  0
SPLINE
  5
3C0
100
AcDbEntity
  8
0
100
AcDbSpline
 62
7
  6
CONTINUOUS
 70
0
 71
3
 72
37
 73
33
 74
0
 42
0.0000001
 43
0.0000001
 44
0.0000000001
 40
0.0
 40
0.0
 40
0.0
 40
0.0
 40
0.1131053755
 40
0.2208835163
 40
0.3229189031
 40
0.4187973101
 40
0.5081663471
 40
0.5907664963
 40
0.6663461201
 40
0.7346574507
 40
0.7954910396
 40
0.8486612738
 40
0.8723152377
 40
0.8939847159
 40
0.9136498603
 40
0.9312996134
 40
0.9469251788
 40
0.9605186592
 40
0.9720737016
 40
0.9770857147
 40
0.9815872385
 40
0.985578838
 40
0.9890619276
 40
0.9920393875
 40
0.9945174058
 40
0.996507926
 40
0.9973274696
 40
0.998035761
 40
0.9986405528
 40
0.9991542866
 40
0.9995971258
 40
1.0
 40
1.0
 40
1.0
 40
1.0
 10
7.7661779535
 20
3.3979576218
 30
0.0
 10
7.7666820743
 20
3.3799665797
 30
0.0
 10
7.7676787986
 20
3.3448322088
 30
0.0
 10
7.7691905452
 20
3.2934693663
 30
0.0
 10
7.7706932109
 20
3.2448487592
 30
0.0
 10
7.7721968413
 20
3.1991590388
 30
0.0
 10
7.77370733
 20
3.1565640119
 30
0.0
 10
7.7752201048
 20
3.1172013356
 30
0.0
 10
7.7767327491
 20
3.0811921845
 30
0.0
 10
7.778242223
 20
3.0486498626
 30
0.0
 10
7.7797476172
 20
3.0196775429
 30
0.0
 10
7.7810430143
 20
2.9978105084
 30
0.0
 10
7.782092504
 20
2.982172618
 30
0.0
 10
7.7828480786
 20
2.97185875
 30
0.0
 10
7.7836031478
 20
2.9625030658
 30
0.0
 10
7.7843573941
 20
2.9541125104
 30
0.0
 10
7.7851102652
 20
2.9466922967
 30
0.0
 10
7.7858614286
 20
2.9402474122
 30
0.0
 10
7.7865118094
 20
2.9354917717
 30
0.0
 10
7.7870410021
 20
2.9321810795
 30
0.0
 10
7.7874184019
 20
2.9300653058
 30
0.0
 10
7.7877951688
 20
2.9281969669
 30
0.0
 10
7.7881711466
 20
2.9265765262
 30
0.0
 10
7.7885459448
 20
2.9252038445
 30
0.0
 10
7.7889194359
 20
2.9240788168
 30
0.0
 10
7.789246633
 20
2.9233015947
 30
0.0
 10
7.7895157814
 20
2.9228100755
 30
0.0
 10
7.7897044964
 20
2.9225273456
 30
0.0
 10
7.7898937114
 20
2.9223054869
 30
0.0
 10
7.790084703
 20
2.9221441983
 30
0.0
 10
7.7902793334
 20
2.9220443682
 30
0.0
 10
7.7904147206
 20
2.9220212499
 30
0.0
 10
7.7904788286
 20
2.922021375
 30
0.0
  0
SPLINE
  5
3C1
100
AcDbEntity
  8
0
100
AcDbSpline
 62
7
  6
CONTINUOUS
 70
0
 71
3
 72
13
 73
9
 74
0
 42
0.0000001
 43
0.0000001
 44
0.0000000001
 40
0.0
 40
0.0
 40
0.0
 40
0.0
 40
0.2637638621
 40
0.52576695
 40
0.6525489643
 40
0.7747463097
 40
0.8910301999
 40
1.0
 40
1.0
 40
1.0
 40
1.0
 10
7.7441161329
 20
4.3537246955
 30
0.0
 10
7.7459586846
 20
4.2696901405
 30
0.0
 10
7.7496208021
 20
4.1021817793
 30
0.0
 10
7.7541587053
 20
3.8942807264
 30
0.0
 10
7.7578510469
 20
3.7314856285
 30
0.0
 10
7.7605930513
 20
3.6151179116
 30
0.0
 10
7.7633403804
 20
3.5044282689
 30
0.0
 10
7.7652298687
 20
3.4326705471
 30
0.0
 10
7.7661779535
 20
3.3979576218
 30
0.0
  0
SPLINE
  5
3C2
100
AcDbEntity
  8
0
100
AcDbSpline
 62
7
  6
CONTINUOUS
 70
0
 71
3
 72
39
 73
35
 74
0
 42
0.0000001
 43
0.0000001
 44
0.0000000001
 40
0.0
 40
0.0
 40
0.0
 40
0.0
 40
0.1123471983
 40
0.2196061913
 40
0.3213191293
 40
0.4170323125
 40
0.5063772392
 40
0.5890660818
 40
0.6648144273
 40
0.733350477
 40
0.7944459679
 40
0.8478829246
 40
0.8716618033
 40
0.8934482683
 40
0.9132275682
 40
0.9309867426
 40
0.9467133447
 40
0.9603957564
 40
0.9664672102
 40
0.9720239868
 40
0.9770652495
 40
0.9815905017
 40
0.9856003508
 40
0.9890970786
 40
0.992084343
 40
0.994568163
 40
0.9956245932
 40
0.9965599018
 40
0.9973771815
 40
0.9980810946
 40
0.9986789756
 40
0.9991828279
 40
0.9996126267
 40
1.0
 40
1.0
 40
1.0
 40
1.0
 10
7.856650123
 20
4.8387089724
 30
0.0
 10
7.8561334491
 20
4.8582603062
 30
0.0
 10
7.8551000588
 20
4.8964768799
 30
0.0
 10
7.8535094959
 20
4.9523916874
 30
0.0
 10
7.8519164439
 20
5.0054094288
 30
0.0
 10
7.8503250075
 20
5.0553071317
 30
0.0
 10
7.8487367837
 20
5.1018913093
 30
0.0
 10
7.8471512276
 20
5.1449978079
 30
0.0
 10
7.8455676575
 20
5.1844791855
 30
0.0
 10
7.8439851678
 20
5.2201982048
 30
0.0
 10
7.8424050186
 20
5.2520289745
 30
0.0
 10
7.8410445952
 20
5.2760690014
 30
0.0
 10
7.8399421934
 20
5.2932687757
 30
0.0
 10
7.8391483889
 20
5.304616761
 30
0.0
 10
7.8383554194
 20
5.3149140599
 30
0.0
 10
7.8375635609
 20
5.3241530838
 30
0.0
 10
7.8367730575
 20
5.3323264816
 30
0.0
 10
7.8360918193
 20
5.3384658144
 30
0.0
 10
7.8355400109
 20
5.3428374531
 30
0.0
 10
7.8351431002
 20
5.3457121987
 30
0.0
 10
7.8347465691
 20
5.3483150341
 30
0.0
 10
7.8343504812
 20
5.3506452228
 30
0.0
 10
7.8339549505
 20
5.3527023163
 30
0.0
 10
7.8335603239
 20
5.35448637
 30
0.0
 10
7.833166756
 20
5.3559975111
 30
0.0
 10
7.8328243771
 20
5.3570820313
 30
0.0
 10
7.8325448142
 20
5.3578095479
 30
0.0
 10
7.8323467642
 20
5.358256939
 30
0.0
 10
7.8321488785
 20
5.3586364662
 30
0.0
 10
7.8319509647
 20
5.3589484753
 30
0.0
 10
7.8317525707
 20
5.3591935043
 30
0.0
 10
7.8315523471
 20
5.3593720212
 30
0.0
 10
7.8313479998
 20
5.3594832592
 30
0.0
 10
7.8312049502
 20
5.3595096217
 30
0.0
 10
7.8311375138
 20
5.3595097441
 30
0.0
  0
SPLINE
  5
3C3
100
AcDbEntity
  8
0
100
AcDbSpline
 62
7
  6
CONTINUOUS
 70
0
 71
3
 72
14
 73
10
 74
0
 42
0.0000001
 43
0.0000001
 44
0.0000000001
 40
0.0
 40
0.0
 40
0.0
 40
0.0
 40
0.2316051538
 40
0.3529408075
 40
0.4774456152
 40
0.6047807153
 40
0.734604519
 40
0.8664996958
 40
1.0
 40
1.0
 40
1.0
 40
1.0
 10
7.8993914339
 20
4.8387089724
 30
0.0
 10
7.9004207642
 20
4.8012709016
 30
0.0
 10
7.9018597387
 20
4.7442158648
 30
0.0
 10
7.9037253422
 20
4.6670320384
 30
0.0
 10
7.9051638995
 20
4.6067040107
 30
0.0
 10
7.9066077651
 20
4.545003135
 30
0.0
 10
7.9080477766
 20
4.4821067727
 30
0.0
 10
7.9094839783
 20
4.4182131113
 30
0.0
 10
7.9104376536
 20
4.3753073513
 30
0.0
 10
7.9109161329
 20
4.3537246955
 30
0.0
  0
LINE
  5
3C4
100
AcDbEntity
  8
0
100
AcDbLine
 62
7
  6
CONTINUOUS
 10
7.9109161329
 20
4.3537246955
 11
7.9154285927
 21
4.147692925
  0
SPLINE
  5
3C5
100
AcDbEntity
  8
0
100
AcDbSpline
 62
7
  6
CONTINUOUS
 70
0
 71
3
 72
13
 73
9
 74
0
 42
0.0000001
 43
0.0000001
 44
0.0000000001
 40
0.0
 40
0.0
 40
0.0
 40
0.0
 40
0.1089699816
 40
0.2252539308
 40
0.3474513129
 40
0.4742333456
 40
0.7362363888
 40
1.0
 40
1.0
 40
1.0
 40
1.0
 10
7.8902366426
 20
3.3979576218
 30
0.0
 10
7.8892772478
 20
3.4326702947
 30
0.0
 10
7.88738543
 20
3.5044280548
 30
0.0
 10
7.8846542441
 20
3.6151181828
 30
0.0
 10
7.8819148183
 20
3.731485994
 30
0.0
 10
7.8782159722
 20
3.8942809491
 30
0.0
 10
7.8736649538
 20
4.1021816288
 30
0.0
 10
7.8700506562
 20
4.2696909556
 30
0.0
 10
7.868174822
 20
4.3537246955
 30
0.0
  0
ELLIPSE
  5
3C6
100
AcDbEntity
  8
0
100
AcDbEllipse
 62
7
  6
CONTINUOUS
 10
6.0282072981
 20
5.8378219074
 30
0.0
 11
0.84375
 21
0.0
 31
0.0
 40
1.0
 41
-1.9050381946
 42
-1.236554459
  0
ELLIPSE
  5
3C7
100
AcDbEntity
  8
0
100
AcDbEllipse
 62
7
  6
CONTINUOUS
 10
6.0282072981
 20
5.8378219074
 30
0.0
 11
-0.0
 21
0.84375
 31
0.0
 40
1.0
 41
-4.082439751
 42
-3.7068618376
  0
ELLIPSE
  5
3C8
100
AcDbEntity
  8
0
100
AcDbEllipse
 62
7
  6
CONTINUOUS
 10
6.0282072981
 20
5.8378219074
 30
0.0
 11
0.84375
 21
0.0
 31
0.0
 40
1.0
 41
-1.0055271428
 42
-0.6299492294
  0
ENDSEC
  0
SECTION
  2
OBJECTS
  0
DICTIONARY
  5
C
100
AcDbDictionary
280
0
281
1
  3
ACAD_GROUP
350
D
  3
ACAD_MLINESTYLE
350
17
  3
ACAD_LAYOUT
350
1A
  3
ACAD_PLOTSETTINGS
350
19
  3
ACAD_PLOTSTYLENAME
350
E
  0
DICTIONARY
  5
D
102
{ACAD_REACTORS
330
C
102
}
100
AcDbDictionary
280
0
281
1
  0
ACDBDICTIONARYWDFLT
  5
E
102
{ACAD_REACTORS
330
C
102
}
100
AcDbDictionary
281
1
  3
Normal
350
F
100
AcDbDictionaryWithDefault
340
F
  0
DICTIONARY
  5
17
102
{ACAD_REACTORS
330
C
102
}
100
AcDbDictionary
280
0
281
1
  3
Standard
350
18
  0
DICTIONARY
  5
19
102
{ACAD_REACTORS
330
C
102
}
100
AcDbDictionary
281
1
  0
DICTIONARY
  5
1A
102
{ACAD_REACTORS
330
C
102
}
100
AcDbDictionary
281
1
  3
Model
350
3C9
  3
Layout1
350
3CA
  0
ACDBPLACEHOLDER
  5
F
102
{ACAD_REACTORS
330
E
102
}
  0
MLINESTYLE
  5
18
102
{ACAD_REACTORS
330
17
102
}
100
AcDbMlineStyle
  2
STANDARD
 70
0
  3

 62
256
 51
90.0
 52
90.0
 71
2
 49
0.5
 62
256
  6
BYLAYER
 49
-0.5
 62
256
  6
BYLAYER
  0
LAYOUT
  5
3C9
102
{ACAD_REACTORS
330
1A
102
}
100
AcDbPlotSettings
  1

  2
none_device
  4
ANSI_A_(11.00_x_8.50_Inches)
  6

 40
0.0
 41
0.0
 42
0.0
 43
0.0
 44
279.4
 45
215.9
 46
0.0
 47
0.0
 48
0.0
 49
0.0
140
0.0
141
0.0
142
1.0
143
1.0
 70
1024
 72
0
 73
0
 74
0
  7

 75
0
147
1.0
148
0.0
149
0.0
100
AcDbLayout
  1
Model
 70
0
 71
0
 10
0.0
 20
0.0
 11
11.0
 21
8.5
 12
0.0
 22
0.0
 32
0.0
 14
0.0
 24
0.0
 34
0.0
 15
0.0
 25
0.0
 35
0.0
146
0.0
 13
0.0
 23
0.0
 33
0.0
 16
1.0
 26
0.0
 36
0.0
 17
0.0
 27
1.0
 37
0.0
 76
0
330
21F
345
0
346
0
  0
LAYOUT
  5
3CA
102
{ACAD_REACTORS
330
1A
102
}
100
AcDbPlotSettings
  1

  2
none_device
  4
ANSI_A_(11.00_x_8.50_Inches)
  6

 40
0.0
 41
0.0
 42
0.0
 43
0.0
 44
279.4
 45
215.9
 46
0.0
 47
0.0
 48
0.0
 49
0.0
140
0.0
141
0.0
142
1.0
143
1.0
 70
0
 72
0
 73
0
 74
0
  7

 75
0
147
1.0
148
0.0
149
0.0
100
AcDbLayout
  1
Layout1
 70
0
 71
1
 10
0.0
 20
0.0
 11
11.0
 21
8.5
 12
0.0
 22
0.0
 32
0.0
 14
0.0
 24
0.0
 34
0.0
 15
0.0
 25
0.0
 35
0.0
146
0.0
 13
0.0
 23
0.0
 33
0.0
 16
1.0
 26
0.0
 36
0.0
 17
0.0
 27
1.0
 37
0.0
 76
0
330
220
345
0
346
0
  0
ENDSEC
  0
EOF
