999
DXF file: C:\Prowork\plots\403_front.dxf
999
Pro/ENGINEER 2018500 by Parametric Technology Corporation
  0
SECTION
  2
HEADER
  9
$ACADVER
  1
AC1032
  9
$DWGCODEPAGE
  3
ANSI_1252
  9
$EXTMAX
 10
11.0
 20
8.5
 30
0.0
  9
$EXTMIN
 10
0.0
 20
0.0
 30
0.0
  9
$LIMMIN
 10
0.0
 20
0.0
  9
$LIMMAX
 10
11.0
 20
8.5
  9
$VIEWCTR
 10
5.5
 20
4.25
  9
$VIEWSIZE
 40
8.5
  9
$CLAYER
  8
0
  9
$LTSCALE
 40
0.605
  9
$CELTYPE
  6
BYLAYER
  9
$DIMSCALE
 40
1.0
  9
$DIMASZ
 40
0.1
  9
$DIMEXO
 40
0.0625
  9
$DIMDLI
 40
0.418
  9
$DIMEXE
 40
0.125
  9
$DIMCEN
 40
0.099
  9
$DIMLFAC
 40
1.0
  9
$DIMBLK
  1
_FILLED
  9
$DIMALT
 70
1
  9
$DIMALTD
 70
2
  9
$DIMALTTD
 70
2
  9
$DIMALTF
 40
25.4
  9
$DIMTXT
 40
0.08
  9
$DIMTOL
 70
1
  9
$DIMLIM
 70
0
  9
$DIMTFAC
 40
1.0
  9
$DIMTP
 40
0.001
  9
$DIMTM
 40
0.001
  9
$DIMGAP
 40
0.09
  9
$DIMDSEP
 70
46
  9
$AUNITS
 70
0
  9
$PDMODE
 70
3
  9
$PDSIZE
 40
0.06
  9
$HANDSEED
  5
26E
  9
$TILEMODE
 70
1
  9
$MEASUREMENT
 70
0
  9
$INSUNITS
 70
1
  0
ENDSEC
  0
SECTION
  2
CLASSES
  0
CLASS
  1
ACDBDICTIONARYWDFLT
  2
AcDbDictionaryWithDefault
  3
AutoCAD 2000
 90
0
 91
1
280
0
281
0
  0
CLASS
  1
ACDBPLACEHOLDER
  2
AcDbPlaceHolder
  3
AutoCAD 2000
 90
0
 91
1
280
0
281
0
  0
CLASS
  1
LAYOUT
  2
AcDbLayout
  3
AutoCAD 2000
 90
0
 91
0
280
0
281
0
  0
ENDSEC
  0
SECTION
  2
TABLES
  0
TABLE
  2
VPORT
  5
8
100
AcDbSymbolTable
 70
2
  0
VPORT
  5
1F4
100
AcDbSymbolTableRecord
100
AcDbViewportTableRecord
  2
*ACTIVE
 70
0
 10
0.0
 20
0.0
 11
1.0
 21
1.0
 12
5.5
 22
4.25
 13
0.0
 23
0.0
 14
1.0
 24
1.0
 15
0.0
 25
0.0
 16
0.0
 26
0.0
 36
1.0
 17
0.0
 27
0.0
 37
0.0
 40
8.5
 41
1.2941176471
 42
50.0
 43
0.0
 44
0.0
 50
0.0
 51
0.0
 71
0
 72
100
 73
1
 74
1
 75
0
 76
0
 77
0
 78
0
  0
ENDTAB
  0
TABLE
  2
LTYPE
  5
5
100
AcDbSymbolTable
 70
6
  0
LTYPE
  5
14
100
AcDbSymbolTableRecord
100
AcDbLinetypeTableRecord
  2
BYBLOCK
 70
0
  3

 72
65
 73
0
 40
0.0
  0
LTYPE
  5
15
100
AcDbSymbolTableRecord
100
AcDbLinetypeTableRecord
  2
BYLAYER
 70
0
  3

 72
65
 73
0
 40
0.0
  0
LTYPE
  5
16
100
AcDbSymbolTableRecord
100
AcDbLinetypeTableRecord
  2
CONTINUOUS
 70
64
  3
Solid line
 72
65
 73
0
 40
0.0
  0
LTYPE
  5
1F5
100
AcDbSymbolTableRecord
100
AcDbLinetypeTableRecord
  2
CENTER
 70
64
  3
____ _ ____ _ ____ _ ____ _ ____ _ ____ _ ____
 72
65
 73
4
 40
0.6
 49
0.375
 74
0
 49
-0.075
 74
0
 49
0.075
 74
0
 49
-0.075
 74
0
  0
LTYPE
  5
1F6
100
AcDbSymbolTableRecord
100
AcDbLinetypeTableRecord
  2
HIDDEN
 70
64
  3
- - - - - - - - - - - - - - - - - - - -
 72
65
 73
2
 40
0.2
 49
0.1
 74
0
 49
-0.1
 74
0
  0
LTYPE
  5
1F7
100
AcDbSymbolTableRecord
100
AcDbLinetypeTableRecord
  2
PHANTOM
 70
64
  3
_____ _ _ _____ _ _ _____ _ _ _____
 72
65
 73
6
 40
0.8
 49
0.45
 74
0
 49
-0.05
 74
0
 49
0.1
 74
0
 49
-0.05
 74
0
 49
0.1
 74
0
 49
-0.05
 74
0
  0
LTYPE
  5
1F8
100
AcDbSymbolTableRecord
100
AcDbLinetypeTableRecord
  2
DOT
 70
64
  3
. . . . . . . . . . . . . . . . . . . .
 72
65
 73
2
 40
0.2
 49
0.1
 74
0
 49
-0.1
 74
0
  0
LTYPE
  5
1F9
100
AcDbSymbolTableRecord
100
AcDbLinetypeTableRecord
  2
DASHED
 70
64
  3
- - - - - - - - - - - - - - - - - - - -
 72
65
 73
2
 40
0.2
 49
0.1
 74
0
 49
-0.1
 74
0
  0
ENDTAB
  0
TABLE
  2
LAYER
  5
2
100
AcDbSymbolTable
 70
36
  0
LAYER
  5
10
100
AcDbSymbolTableRecord
100
AcDbLayerTableRecord
  2
0
 70
0
 62
7
  6
CONTINUOUS
370
-3
390
F
  0
LAYER
  5
1FA
100
AcDbSymbolTableRecord
100
AcDbLayerTableRecord
  2
DEFAULT_1
 70
0
 62
7
  6
CENTER
370
-3
390
F
  0
LAYER
  5
1FB
100
AcDbSymbolTableRecord
100
AcDbLayerTableRecord
  2
DEFAULT_2
 70
0
 62
8
  6
HIDDEN
370
-3
390
F
  0
LAYER
  5
1FC
100
AcDbSymbolTableRecord
100
AcDbLayerTableRecord
  2
DEFAULT_3
 70
0
 62
7
  6
PHANTOM
370
-3
390
F
  0
LAYER
  5
1FD
100
AcDbSymbolTableRecord
100
AcDbLayerTableRecord
  2
50350
 70
0
 62
7
  6
CONTINUOUS
370
-3
390
F
  0
LAYER
  5
1FE
100
AcDbSymbolTableRecord
100
AcDbLayerTableRecord
  2
50355
 70
0
 62
7
  6
CONTINUOUS
370
-3
390
F
  0
LAYER
  5
1FF
100
AcDbSymbolTableRecord
100
AcDbLayerTableRecord
  2
50359
 70
0
 62
7
  6
CONTINUOUS
370
-3
390
F
  0
LAYER
  5
200
100
AcDbSymbolTableRecord
100
AcDbLayerTableRecord
  2
50362
 70
0
 62
7
  6
CONTINUOUS
370
-3
390
F
  0
LAYER
  5
201
100
AcDbSymbolTableRecord
100
AcDbLayerTableRecord
  2
50663
 70
0
 62
7
  6
CONTINUOUS
370
-3
390
F
  0
LAYER
  5
202
100
AcDbSymbolTableRecord
100
AcDbLayerTableRecord
  2
50664
 70
0
 62
7
  6
CONTINUOUS
370
-3
390
F
  0
LAYER
  5
203
100
AcDbSymbolTableRecord
100
AcDbLayerTableRecord
  2
50668
 70
0
 62
7
  6
CONTINUOUS
370
-3
390
F
  0
LAYER
  5
204
100
AcDbSymbolTableRecord
100
AcDbLayerTableRecord
  2
50675
 70
0
 62
7
  6
CONTINUOUS
370
-3
390
F
  0
LAYER
  5
205
100
AcDbSymbolTableRecord
100
AcDbLayerTableRecord
  2
50677
 70
0
 62
7
  6
CONTINUOUS
370
-3
390
F
  0
LAYER
  5
206
100
AcDbSymbolTableRecord
100
AcDbLayerTableRecord
  2
50678
 70
0
 62
7
  6
CONTINUOUS
370
-3
390
F
  0
LAYER
  5
207
100
AcDbSymbolTableRecord
100
AcDbLayerTableRecord
  2
6-403
 70
0
 62
7
  6
CONTINUOUS
370
-3
390
F
  0
LAYER
  5
208
100
AcDbSymbolTableRecord
100
AcDbLayerTableRecord
  2
92073
 70
0
 62
7
  6
CONTINUOUS
370
-3
390
F
  0
LAYER
  5
209
100
AcDbSymbolTableRecord
100
AcDbLayerTableRecord
  2
DEFAULT_COORDINATE_SYSTEM
 70
0
 62
7
  6
CONTINUOUS
370
-3
390
F
  0
LAYER
  5
20A
100
AcDbSymbolTableRecord
100
AcDbLayerTableRecord
  2
DEFAULT_DATUM_AXES
 70
0
 62
7
  6
CONTINUOUS
370
-3
390
F
  0
LAYER
  5
20B
100
AcDbSymbolTableRecord
100
AcDbLayerTableRecord
  2
DEFAULT_DATUM_PLANES
 70
0
 62
7
  6
CONTINUOUS
370
-3
390
F
  0
LAYER
  5
20C
100
AcDbSymbolTableRecord
100
AcDbLayerTableRecord
  2
INTF_50350
 70
0
 62
7
  6
CONTINUOUS
370
-3
390
F
  0
LAYER
  5
20D
100
AcDbSymbolTableRecord
100
AcDbLayerTableRecord
  2
INTF_50355
 70
0
 62
7
  6
CONTINUOUS
370
-3
390
F
  0
LAYER
  5
20E
100
AcDbSymbolTableRecord
100
AcDbLayerTableRecord
  2
INTF_50359
 70
0
 62
7
  6
CONTINUOUS
370
-3
390
F
  0
LAYER
  5
20F
100
AcDbSymbolTableRecord
100
AcDbLayerTableRecord
  2
INTF_50362
 70
0
 62
7
  6
CONTINUOUS
370
-3
390
F
  0
LAYER
  5
210
100
AcDbSymbolTableRecord
100
AcDbLayerTableRecord
  2
INTF_50663
 70
0
 62
7
  6
CONTINUOUS
370
-3
390
F
  0
LAYER
  5
211
100
AcDbSymbolTableRecord
100
AcDbLayerTableRecord
  2
INTF_50664
 70
0
 62
7
  6
CONTINUOUS
370
-3
390
F
  0
LAYER
  5
212
100
AcDbSymbolTableRecord
100
AcDbLayerTableRecord
  2
INTF_50668
 70
0
 62
7
  6
CONTINUOUS
370
-3
390
F
  0
LAYER
  5
213
100
AcDbSymbolTableRecord
100
AcDbLayerTableRecord
  2
INTF_50675
 70
0
 62
7
  6
CONTINUOUS
370
-3
390
F
  0
LAYER
  5
214
100
AcDbSymbolTableRecord
100
AcDbLayerTableRecord
  2
INTF_50677
 70
0
 62
7
  6
CONTINUOUS
370
-3
390
F
  0
LAYER
  5
215
100
AcDbSymbolTableRecord
100
AcDbLayerTableRecord
  2
INTF_50678
 70
0
 62
7
  6
CONTINUOUS
370
-3
390
F
  0
LAYER
  5
216
100
AcDbSymbolTableRecord
100
AcDbLayerTableRecord
  2
INTF_92073
 70
0
 62
7
  6
CONTINUOUS
370
-3
390
F
  0
LAYER
  5
217
100
AcDbSymbolTableRecord
100
AcDbLayerTableRecord
  2
INTF_BLANK
 70
0
 62
7
  6
CONTINUOUS
370
-3
390
F
  0
LAYER
  5
218
100
AcDbSymbolTableRecord
100
AcDbLayerTableRecord
  2
NONE
 70
0
 62
7
  6
CONTINUOUS
370
-3
390
F
  0
LAYER
  5
219
100
AcDbSymbolTableRecord
100
AcDbLayerTableRecord
  2
PLATED_SURFACE
 70
0
 62
7
  6
CONTINUOUS
370
-3
390
F
  0
LAYER
  5
21A
100
AcDbSymbolTableRecord
100
AcDbLayerTableRecord
  2
_BLACK_HOLE
 70
0
 62
7
  6
CONTINUOUS
370
-3
390
F
  0
ENDTAB
  0
TABLE
  2
STYLE
  5
3
100
AcDbSymbolTable
 70
1
  0
STYLE
  5
11
100
AcDbSymbolTableRecord
100
AcDbTextStyleTableRecord
  2
STANDARD
 70
0
 40
0.0
 41
0.8
 50
0.0
 71
0
 42
0.2
  3
txt
  4

  0
STYLE
  5
21B
100
AcDbSymbolTableRecord
100
AcDbTextStyleTableRecord
  2
TEXTSTYLE_1
 70
0
 40
0.0
 41
0.8
 50
0.0
 71
0
 42
0.2
  3
gdt
  4

  0
ENDTAB
  0
TABLE
  2
VIEW
  5
6
100
AcDbSymbolTable
 70
0
  0
ENDTAB
  0
TABLE
  2
UCS
  5
7
100
AcDbSymbolTable
 70
0
  0
ENDTAB
  0
TABLE
  2
APPID
  5
9
100
AcDbSymbolTable
 70
1
  0
APPID
  5
21C
100
AcDbSymbolTableRecord
100
AcDbRegAppTableRecord
  2
ACAD
 70
0
  0
ENDTAB
  0
TABLE
  2
BLOCK_RECORD
  5
1
100
AcDbSymbolTable
 70
0
  0
BLOCK_RECORD
  5
21D
100
AcDbSymbolTableRecord
100
AcDbBlockTableRecord
  2
*Model_Space
  0
BLOCK_RECORD
  5
21E
100
AcDbSymbolTableRecord
100
AcDbBlockTableRecord
  2
*Paper_Space
  0
BLOCK_RECORD
  5
21F
100
AcDbSymbolTableRecord
100
AcDbBlockTableRecord
  2
_FILLED
  0
ENDTAB
  0
TABLE
  2
DIMSTYLE
  5
A
100
AcDbSymbolTable
 70
1
100
AcDbDimStyleTable
 71
0
  0
DIMSTYLE
105
220
100
AcDbSymbolTableRecord
100
AcDbDimStyleTableRecord
  2
STANDARD
 70
0
  3

  4

 40
1.0
 41
0.1
 42
0.0625
 43
0.38
 44
0.125
 45
0.0
 46
0.0
 47
0.001
 48
0.001
140
0.08
141
0.09
142
0.0
143
25.4
144
1.0
145
0.0
146
1.0
147
0.09
 71
1.0
 72
0.0
 73
1
 74
1
 75
0
 76
0
 77
0
 78
4
 79
1
170
1
171
2
172
0
173
0
174
0
175
0
176
0
177
0
178
0
270
2
179
3
271
3
272
3
273
2
274
2
275
0
280
0
281
0
282
0
283
1
284
4
285
0
286
0
287
3
288
0
340
11
278
46
341
21F
342
21F
343
21F
344
21F
  0
ENDTAB
  0
ENDSEC
  0
SECTION
  2
BLOCKS
  0
BLOCK
  5
20
100
AcDbEntity
  8
0
100
AcDbBlockBegin
  2
*Model_Space
 70
0
 10
0.0
 20
0.0
 30
0.0
  3
*Model_Space
  1

  0
ENDBLK
  5
21
100
AcDbEntity
  8
0
100
AcDbBlockEnd
  0
BLOCK
  5
1C
100
AcDbEntity
  8
0
100
AcDbBlockBegin
  2
*Paper_Space
 70
0
 10
0.0
 20
0.0
 30
0.0
  3
*Paper_Space
  1

  0
ENDBLK
  5
1D
100
AcDbEntity
  8
0
100
AcDbBlockEnd
  0
BLOCK
  5
221
100
AcDbEntity
  8
0
100
AcDbBlockBegin
  2
_FILLED
 70
64
 10
0.0
 20
0.0
  3
_FILLED
  1

  0
SOLID
  5
222
100
AcDbEntity
  8
0
  6
BYBLOCK
 62
0
100
AcDbTrace
 10
0.0
 20
0.0
 11
-1.0
 21
0.2
 12
-1.0
 22
-0.2
 13
-1.0
 23
-0.2
  0
ENDBLK
  5
223
100
AcDbEntity
  8
0
  6
BYBLOCK
 62
0
100
AcDbBlockEnd
  0
ENDSEC
  0
SECTION
  2
ENTITIES
  0
MTEXT
  5
224
100
AcDbEntity
  8
0
100
AcDbMText
 62
7
  6
CONTINUOUS
  7
STANDARD
 71
1
 72
1
 10
9.702503882
 20
0.3411451863
 30
0.0
 11
1.0
 21
0.0
 31
0.0
 73
2
 44
0.9
  1
SCALE: 3.00
 40
0.08
 41
0.704
  0
LINE
  5
225
100
AcDbEntity
  8
0
100
AcDbLine
 62
7
  6
CONTINUOUS
 10
0.0
 20
0.0
 11
0.0
 21
8.5
  0
LINE
  5
226
100
AcDbEntity
  8
0
100
AcDbLine
 62
7
  6
CONTINUOUS
 10
0.0
 20
0.0
 11
11.0
 21
0.0
  0
LINE
  5
227
100
AcDbEntity
  8
0
100
AcDbLine
 62
7
  6
CONTINUOUS
 10
0.0
 20
8.5
 11
11.0
 21
8.5
  0
LINE
  5
228
100
AcDbEntity
  8
0
100
AcDbLine
 62
7
  6
CONTINUOUS
 10
11.0
 20
0.0
 11
11.0
 21
8.5
  0
LINE
  5
229
100
AcDbEntity
  8
0
100
AcDbLine
 62
9
  6
CONTINUOUS
 10
6.386179399
 20
6.580409896
 11
6.371730603
 21
6.5685571347
  0
LINE
  5
22A
100
AcDbEntity
  8
0
100
AcDbLine
 62
9
  6
CONTINUOUS
 10
6.386179399
 20
1.3212624622
 11
6.3717367365
 21
1.3331227213
  0
LINE
  5
22B
100
AcDbEntity
  8
0
100
AcDbLine
 62
7
  6
CONTINUOUS
 10
4.7642663043
 20
6.2368746254
 11
4.7642663043
 21
6.9838361791
  0
LINE
  5
22C
100
AcDbEntity
  8
0
100
AcDbLine
 62
7
  6
CONTINUOUS
 10
5.6545163043
 20
4.2718104539
 11
5.6545163043
 21
3.6298619043
  0
LINE
  5
22D
100
AcDbEntity
  8
0
100
AcDbLine
 62
7
  6
CONTINUOUS
 10
5.7017663043
 20
4.4233361791
 11
5.7017663043
 21
4.4039582579
  0
LINE
  5
22E
100
AcDbEntity
  8
0
100
AcDbLine
 62
7
  6
CONTINUOUS
 10
5.7017663043
 20
3.9980861791
 11
5.7017663043
 21
3.9035861791
  0
LINE
  5
22F
100
AcDbEntity
  8
0
100
AcDbLine
 62
7
  6
CONTINUOUS
 10
5.7017663043
 20
3.4977141003
 11
5.7017663043
 21
3.4783664735
  0
LINE
  5
230
100
AcDbEntity
  8
0
100
AcDbLine
 62
7
  6
CONTINUOUS
 10
5.7490163043
 20
3.9980861791
 11
5.6545163043
 21
3.9035861791
  0
LINE
  5
231
100
AcDbEntity
  8
0
100
AcDbLine
 62
7
  6
CONTINUOUS
 10
5.3807920295
 20
3.9035861791
 11
6.0227405792
 21
3.9035861791
  0
LINE
  5
232
100
AcDbEntity
  8
0
100
AcDbLine
 62
7
  6
CONTINUOUS
 10
5.7490163043
 20
3.9508361791
 11
5.6545163043
 21
3.9508361791
  0
LINE
  5
233
100
AcDbEntity
  8
0
100
AcDbLine
 62
7
  6
CONTINUOUS
 10
6.0227405792
 20
3.9980861791
 11
5.3807920295
 21
3.9980861791
  0
LINE
  5
234
100
AcDbEntity
  8
0
100
AcDbLine
 62
7
  6
CONTINUOUS
 10
5.6545163043
 20
3.9980861791
 11
5.7490163043
 21
3.9035861791
  0
LINE
  5
235
100
AcDbEntity
  8
0
100
AcDbLine
 62
7
  6
CONTINUOUS
 10
5.7807622783
 20
3.9747983042
 11
5.7807908022
 21
3.9744393154
  0
LINE
  5
236
100
AcDbEntity
  8
0
100
AcDbLine
 62
7
  6
CONTINUOUS
 10
5.7490163043
 20
4.2718104539
 11
5.7490163043
 21
3.6298619043
  0
LINE
  5
237
100
AcDbEntity
  8
0
100
AcDbLine
 62
7
  6
CONTINUOUS
 10
5.7807422474
 20
3.9747724784
 11
5.7807622783
 21
3.9747983042
  0
LINE
  5
238
100
AcDbEntity
  8
0
100
AcDbLine
 62
7
  6
CONTINUOUS
 10
5.7764362703
 20
3.9750979217
 11
5.7807522025
 21
3.9765002531
  0
LINE
  5
239
100
AcDbEntity
  8
0
100
AcDbLine
 62
7
  6
CONTINUOUS
 10
6.6392663043
 20
6.2368745054
 11
6.6392663043
 21
6.9838361791
  0
LINE
  5
23A
100
AcDbEntity
  8
0
100
AcDbLine
 62
9
  6
CONTINUOUS
 10
5.0173532097
 20
6.580409896
 11
5.0317958637
 21
6.5685496266
  0
LINE
  5
23B
100
AcDbEntity
  8
0
100
AcDbLine
 62
9
  6
CONTINUOUS
 10
5.0318020027
 20
1.3331152256
 11
5.0173532097
 21
1.3212624622
  0
LINE
  5
23C
100
AcDbEntity
  8
0
100
AcDbLine
 62
7
  6
CONTINUOUS
 10
6.6392663046
 20
6.9838361791
 11
4.7642663041
 21
6.9838361791
  0
ARC
  5
23D
100
AcDbEntity
  8
0
100
AcDbCircle
 62
7
  6
CONTINUOUS
 10
5.7017637931
 20
3.0034058723
 40
1.2692842502
100
AcDbArc
 50
89.9998866435
 51
92.1332552169
  0
ARC
  5
23E
100
AcDbEntity
  8
0
100
AcDbCircle
 62
7
  6
CONTINUOUS
 10
4.7543362404
 20
3.9508336634
 40
1.2692840073
100
AcDbArc
 50
357.866744579
 51
0.0001135606
  0
ARC
  5
23F
100
AcDbEntity
  8
0
100
AcDbCircle
 62
7
  6
CONTINUOUS
 10
4.7547754349
 20
3.9508254867
 40
1.2688448129
100
AcDbArc
 50
357.8663753171
 51
0.0004828226
  0
ARC
  5
240
100
AcDbEntity
  8
0
100
AcDbCircle
 62
7
  6
CONTINUOUS
 10
5.7017555911
 20
3.0038464303
 40
1.2688436922
100
AcDbArc
 50
89.9995162349
 51
92.1336256255
  0
ARC
  5
241
100
AcDbEntity
  8
0
100
AcDbCircle
 62
7
  6
CONTINUOUS
 10
3.1785533226
 20
3.9508361791
 40
4.1477129817
100
AcDbArc
 50
320.6555074171
 51
39.3444925829
  0
ARC
  5
242
100
AcDbEntity
  8
0
100
AcDbCircle
 62
7
  6
CONTINUOUS
 10
5.7017637932
 20
4.8982664894
 40
1.2692842537
100
AcDbArc
 50
267.866744786
 51
270.0001133535
  0
ARC
  5
243
100
AcDbEntity
  8
0
100
AcDbCircle
 62
7
  6
CONTINUOUS
 10
4.7543362392
 20
3.9508386948
 40
1.2692840086
100
AcDbArc
 50
359.9998864404
 51
2.13325542
  0
ARC
  5
244
100
AcDbEntity
  8
0
100
AcDbCircle
 62
7
  6
CONTINUOUS
 10
4.7547754353
 20
3.9508468715
 40
1.2688448125
100
AcDbArc
 50
359.9995171772
 51
2.1336246832
  0
ARC
  5
245
100
AcDbEntity
  8
0
100
AcDbCircle
 62
7
  6
CONTINUOUS
 10
5.5834840878
 20
3.9775229592
 40
0.1972706131
100
AcDbArc
 50
357.3455894737
 51
359.6996413954
  0
ARC
  5
246
100
AcDbEntity
  8
0
100
AcDbCircle
 62
7
  6
CONTINUOUS
 10
5.7017770174
 20
3.0038464233
 40
1.2688436992
100
AcDbArc
 50
87.8663743804
 51
90.0004837592
  0
ARC
  5
247
100
AcDbEntity
  8
0
100
AcDbCircle
 62
7
  6
CONTINUOUS
 10
5.7017663043
 20
1.8823361791
 40
0.885
100
AcDbArc
 50
219.3444925829
 51
320.6555074171
  0
ARC
  5
248
100
AcDbEntity
  8
0
100
AcDbCircle
 62
9
  6
CONTINUOUS
 10
5.7017663025
 20
1.8812239729
 40
0.8656222773
100
AcDbArc
 50
219.2871598574
 51
320.7134812556
  0
ARC
  5
249
100
AcDbEntity
  8
0
100
AcDbCircle
 62
7
  6
CONTINUOUS
 10
5.7627664487
 20
3.8700095681
 40
0.1059738149
100
AcDbArc
 50
80.2073501072
 51
81.8718255882
  0
ARC
  5
24A
100
AcDbEntity
  8
0
100
AcDbCircle
 62
7
  6
CONTINUOUS
 10
5.7628901755
 20
3.8708517468
 40
0.1051226031
100
AcDbArc
 50
81.8736841103
 51
82.5962810777
  0
ARC
  5
24B
100
AcDbEntity
  8
0
100
AcDbCircle
 62
7
  6
CONTINUOUS
 10
5.7143684316
 20
3.9326066547
 40
0.0752284127
100
AcDbArc
 50
28.3999358934
 51
29.9801779981
  0
ARC
  5
24C
100
AcDbEntity
  8
0
100
AcDbCircle
 62
7
  6
CONTINUOUS
 10
5.7163118034
 20
3.9337353516
 40
0.0729810574
100
AcDbArc
 50
29.9750186611
 51
31.7374623005
  0
ARC
  5
24D
100
AcDbEntity
  8
0
100
AcDbCircle
 62
7
  6
CONTINUOUS
 10
5.7169350763
 20
3.9340818909
 40
0.0722682978
100
AcDbArc
 50
29.8995927901
 51
33.6000733636
  0
ARC
  5
24E
100
AcDbEntity
  8
0
100
AcDbCircle
 62
7
  6
CONTINUOUS
 10
8.2249792861
 20
3.9508361791
 40
4.1477129817
100
AcDbArc
 50
140.6555074171
 51
219.3444925829
  0
ARC
  5
24F
100
AcDbEntity
  8
0
100
AcDbCircle
 62
7
  6
CONTINUOUS
 10
6.6492313772
 20
3.9508361791
 40
1.2693190857
100
AcDbArc
 50
177.8666899237
 51
182.1333100763
  0
ARC
  5
250
100
AcDbEntity
  8
0
100
AcDbCircle
 62
7
  6
CONTINUOUS
 10
5.7017688155
 20
4.8982664865
 40
1.2692842508
100
AcDbArc
 50
269.999886644
 51
272.1332552164
  0
ARC
  5
251
100
AcDbEntity
  8
0
100
AcDbCircle
 62
7
  6
CONTINUOUS
 10
5.7017663043
 20
6.0193361791
 40
0.885
100
AcDbArc
 50
39.3444925829
 51
140.6555074171
  0
ARC
  5
252
100
AcDbEntity
  8
0
100
AcDbCircle
 62
9
  6
CONTINUOUS
 10
5.7017663062
 20
6.0204482716
 40
0.8656222773
100
AcDbArc
 50
39.2871659141
 51
140.7134763122
  0
CIRCLE
  5
253
100
AcDbEntity
  8
0
100
AcDbCircle
 62
7
  6
CONTINUOUS
 10
5.7017663043
 20
3.9508361791
 40
0.495
  0
CIRCLE
  5
254
100
AcDbEntity
  8
0
100
AcDbCircle
 62
7
  6
CONTINUOUS
 10
5.7017663043
 20
3.9508361791
 40
0.4725
  0
CIRCLE
  5
255
100
AcDbEntity
  8
0
100
AcDbCircle
 62
9
  6
CONTINUOUS
 10
5.7017663043
 20
3.9508361791
 40
0.4531220788
  0
SPLINE
  5
256
100
AcDbEntity
  8
0
100
AcDbSpline
 62
7
  6
CONTINUOUS
 70
0
 71
3
 72
20
 73
16
 74
0
 42
0.0000001
 43
0.0000001
 44
0.0000000001
 40
0.0
 40
0.0
 40
0.0
 40
0.0
 40
0.1270372268
 40
0.2534885586
 40
0.3164860892
 40
0.3793237258
 40
0.5044790167
 40
0.5668256219
 40
0.6290291064
 40
0.6910955589
 40
0.7530414753
 40
0.7839793944
 40
0.8148976351
 40
0.8766742311
 40
1.0
 40
1.0
 40
1.0
 40
1.0
 10
6.6392663043
 20
6.8388044244
 30
0.0
 10
6.6210611322
 20
6.8493151854
 30
0.0
 10
6.5843363944
 20
6.8696092131
 30
0.0
 10
6.5374076629
 20
6.8929027578
 30
0.0
 10
6.4993279158
 20
6.9100247852
 30
0.0
 10
6.4609949837
 20
6.9260200775
 30
0.0
 10
6.4220725493
 20
6.9402947434
 30
0.0
 10
6.382609002
 20
6.9525640046
 30
0.0
 10
6.352808789
 20
6.9606870792
 30
0.0
 10
6.3227929892
 20
6.9676869328
 30
0.0
 10
6.2976081224
 20
6.9725384184
 30
0.0
 10
6.2773818437
 20
6.975798769
 30
0.0
 10
6.2571196258
 20
6.9786354172
 30
0.0
 10
6.2215739624
 20
6.982482636
 30
0.0
 10
6.1909236718
 20
6.9838361791
 30
0.0
 10
6.1705163043
 20
6.9838361791
 30
0.0
  0
SPLINE
  5
257
100
AcDbEntity
  8
0
100
AcDbSpline
 62
7
  6
CONTINUOUS
 70
0
 71
3
 72
18
 73
14
 74
0
 42
0.0000001
 43
0.0000001
 44
0.0000000001
 40
0.0
 40
0.0
 40
0.0
 40
0.0
 40
0.1264977455
 40
0.2524986196
 40
0.3779967367
 40
0.5030449011
 40
0.5654174654
 40
0.6276948853
 40
0.6898908013
 40
0.7520223464
 40
0.8140965844
 40
0.876116454
 40
1.0
 40
1.0
 40
1.0
 40
1.0
 10
5.5905502445
 20
6.8969607777
 30
0.0
 10
5.5763705572
 20
6.9035583657
 30
0.0
 10
5.5478128588
 20
6.9161914009
 30
0.0
 10
5.5042984337
 20
6.9332765147
 30
0.0
 10
5.4601972275
 20
6.9482456227
 30
0.0
 10
5.422950099
 20
6.9587791286
 30
0.0
 10
5.3929160958
 20
6.9659349689
 30
0.0
 10
5.3702964739
 20
6.9706407144
 30
0.0
 10
5.3475759284
 20
6.9746654201
 30
0.0
 10
5.3247667463
 20
6.9779833536
 30
0.0
 10
5.301885839
 20
6.9805821571
 30
0.0
 10
5.2713254625
 20
6.9830742817
 30
0.0
 10
5.248332528
 20
6.9838361791
 30
0.0
 10
5.2330163043
 20
6.9838361791
 30
0.0
  0
SPLINE
  5
258
100
AcDbEntity
  8
0
100
AcDbSpline
 62
7
  6
CONTINUOUS
 70
0
 71
3
 72
18
 73
14
 74
0
 42
0.0000001
 43
0.0000001
 44
0.0000000001
 40
0.0
 40
0.0
 40
0.0
 40
0.0
 40
0.123883535
 40
0.1859034164
 40
0.247977675
 40
0.3101092459
 40
0.3723051713
 40
0.4345825838
 40
0.4969551339
 40
0.622003285
 40
0.7475013925
 40
0.8735022511
 40
1.0
 40
1.0
 40
1.0
 40
1.0
 10
6.1705163043
 20
6.9838361791
 30
0.0
 10
6.1551998987
 20
6.9838361791
 30
0.0
 10
6.1322066888
 20
6.9830742568
 30
0.0
 10
6.1016459467
 20
6.9805820672
 30
0.0
 10
6.0787647618
 20
6.9779832012
 30
0.0
 10
6.0559553037
 20
6.974665201
 30
0.0
 10
6.0332344896
 20
6.9706404075
 30
0.0
 10
6.0106146094
 20
6.9659345525
 30
0.0
 10
5.9805802708
 20
6.9587785438
 30
0.0
 10
5.9433327325
 20
6.9482448011
 30
0.0
 10
5.8992310489
 20
6.9332753795
 30
0.0
 10
5.8557161642
 20
6.9161899116
 30
0.0
 10
5.8271581725
 20
6.9035566194
 30
0.0
 10
5.8129783392
 20
6.8969589003
 30
0.0
  0
SPLINE
  5
259
100
AcDbEntity
  8
0
100
AcDbSpline
 62
7
  6
CONTINUOUS
 70
0
 71
3
 72
20
 73
16
 74
0
 42
0.0000001
 43
0.0000001
 44
0.0000000001
 40
0.0
 40
0.0
 40
0.0
 40
0.0
 40
0.1233257946
 40
0.1851024228
 40
0.2160206825
 40
0.2469586179
 40
0.3089045438
 40
0.3709709897
 40
0.4331744684
 40
0.4955210758
 40
0.6206763469
 40
0.6835139746
 40
0.7465115031
 40
0.8729628019
 40
1.0
 40
1.0
 40
1.0
 40
1.0
 10
5.2330163043
 20
6.9838361791
 30
0.0
 10
5.2126089327
 20
6.9838361791
 30
0.0
 10
5.1819586329
 20
6.9824826237
 30
0.0
 10
5.1464129575
 20
6.9786354009
 30
0.0
 10
5.1261507277
 20
6.9757987579
 30
0.0
 10
5.1059244401
 20
6.9725384165
 30
0.0
 10
5.0807395701
 20
6.9676869297
 30
0.0
 10
5.0507237728
 20
6.9606870681
 30
0.0
 10
5.0209235638
 20
6.9525639857
 30
0.0
 10
4.9814600192
 20
6.9402947295
 30
0.0
 10
4.9425375887
 20
6.9260200655
 30
0.0
 10
4.9042046628
 20
6.9100247718
 30
0.0
 10
4.8661249254
 20
6.8929027407
 30
0.0
 10
4.8191962024
 20
6.8696092035
 30
0.0
 10
4.7824714723
 20
6.849315183
 30
0.0
 10
4.7642663043
 20
6.8388044244
 30
0.0
  0
SPLINE
  5
25A
100
AcDbEntity
  8
0
100
AcDbSpline
 62
7
  6
CONTINUOUS
 70
0
 71
3
 72
39
 73
35
 74
0
 42
0.0000001
 43
0.0000001
 44
0.0000000001
 40
0.0
 40
0.0
 40
0.0
 40
0.0
 40
0.0033394607
 40
0.0059675277
 40
0.0079153446
 40
0.0092208484
 40
0.0099505961
 40
0.0103718775
 40
0.0111082601
 40
0.012346857
 40
0.0163429778
 40
0.0222364981
 40
0.0298323994
 40
0.0389259852
 40
0.0493095746
 40
0.0607742968
 40
0.086109283
 40
0.1132538053
 40
0.1405345728
 40
0.1919487949
 40
0.239101973
 40
0.2823326599
 40
0.321973025
 40
0.3917631572
 40
0.4509546298
 40
0.5018362121
 40
0.5465353366
 40
0.6259419465
 40
0.6658820743
 40
0.710203495
 40
0.7624290477
 40
0.8259995545
 40
0.9041638704
 40
1.0
 40
1.0
 40
1.0
 40
1.0
 10
5.7806839066
 20
3.9703811493
 30
0.0
 10
5.780683168
 20
3.9703765311
 30
0.0
 10
5.7806817733
 20
3.9703682679
 30
0.0
 10
5.7806795546
 20
3.9703574774
 30
0.0
 10
5.780677549
 20
3.970349312
 30
0.0
 10
5.7806755981
 20
3.9703444184
 30
0.0
 10
5.780673952
 20
3.9703407685
 30
0.0
 10
5.7806708342
 20
3.9703410596
 30
0.0
 10
5.7806695708
 20
3.970344633
 30
0.0
 10
5.7806670862
 20
3.9703522794
 30
0.0
 10
5.7806650033
 20
3.9703680879
 30
0.0
 10
5.7806624832
 20
3.9703922675
 30
0.0
 10
5.7806603033
 20
3.9704238962
 30
0.0
 10
5.7806581949
 20
3.9704617282
 30
0.0
 10
5.7806562119
 20
3.9705050264
 30
0.0
 10
5.7806535397
 20
3.97057105
 30
0.0
 10
5.780650302
 20
3.9706605483
 30
0.0
 10
5.7806460893
 20
3.9707721739
 30
0.0
 10
5.780639372
 20
3.9709202538
 30
0.0
 10
5.7806278964
 20
3.9710961563
 30
0.0
 10
5.7806095047
 20
3.9712939183
 30
0.0
 10
5.7805874143
 20
3.9714747026
 30
0.0
 10
5.7805552433
 20
3.9716860957
 30
0.0
 10
5.7805097375
 20
3.9719179827
 30
0.0
 10
5.7804475931
 20
3.9721621793
 30
0.0
 10
5.7803856689
 20
3.9723699982
 30
0.0
 10
5.7803130768
 20
3.972603797
 30
0.0
 10
5.7802566246
 20
3.9728282191
 30
0.0
 10
5.7802494147
 20
3.9730582987
 30
0.0
 10
5.7802727496
 20
3.9732486794
 30
0.0
 10
5.7803292305
 20
3.9734662091
 30
0.0
 10
5.7804230214
 20
3.9737214599
 30
0.0
 10
5.7805588196
 20
3.9740253882
 30
0.0
 10
5.7806683515
 20
3.9742431461
 30
0.0
 10
5.7807302939
 20
3.9743622181
 30
0.0
  0
LINE
  5
25B
100
AcDbEntity
  8
0
100
AcDbLine
 62
7
  6
CONTINUOUS
 10
5.7764362703
 20
3.9750979217
 11
5.7775915253
 21
3.9734248954
  0
SPLINE
  5
25C
100
AcDbEntity
  8
0
100
AcDbSpline
 62
7
  6
CONTINUOUS
 70
0
 71
3
 72
15
 73
11
 74
0
 42
0.0000001
 43
0.0000001
 44
0.0000000001
 40
0.0
 40
0.0
 40
0.0
 40
0.0
 40
0.125067267
 40
0.2517531597
 40
0.3797104469
 40
0.507563961
 40
0.6339130544
 40
0.7578127469
 40
0.8793018325
 40
1.0
 40
1.0
 40
1.0
 40
1.0
 10
5.7775915253
 20
3.9734248954
 30
0.0
 10
5.7776614216
 20
3.9733109835
 30
0.0
 10
5.7777975731
 20
3.9730787955
 30
0.0
 10
5.777982588
 20
3.9727174744
 30
0.0
 10
5.7781551055
 20
3.972346916
 30
0.0
 10
5.7783275203
 20
3.9719767175
 30
0.0
 10
5.7785101762
 20
3.9716161512
 30
0.0
 10
5.7787142077
 20
3.971274693
 30
0.0
 10
5.7789510345
 20
3.9709620628
 30
0.0
 10
5.7791380307
 20
3.9707809328
 30
0.0
 10
5.779238684
 20
3.9707002843
 30
0.0
  0
SPLINE
  5
25D
100
AcDbEntity
  8
0
100
AcDbSpline
 62
7
  6
CONTINUOUS
 70
0
 71
3
 72
11
 73
7
 74
0
 42
0.0000001
 43
0.0000001
 44
0.0000000001
 40
0.0
 40
0.0
 40
0.0
 40
0.0
 40
0.2588448008
 40
0.513498406
 40
0.7587517234
 40
1.0
 40
1.0
 40
1.0
 40
1.0
 10
5.779238684
 20
3.9707002843
 30
0.0
 10
5.7793429265
 20
3.9706167598
 30
0.0
 10
5.7795660524
 20
3.9704702428
 30
0.0
 10
5.7799331081
 20
3.9703250764
 30
0.0
 10
5.7803176925
 20
3.9702768685
 30
0.0
 10
5.7805697385
 20
3.9703315008
 30
0.0
 10
5.7806839066
 20
3.9703811493
 30
0.0
  0
SPLINE
  5
25E
100
AcDbEntity
  8
0
100
AcDbSpline
 62
9
  6
CONTINUOUS
 70
0
 71
3
 72
37
 73
33
 74
0
 42
0.0000001
 43
0.0000001
 44
0.0000000001
 40
0.0
 40
0.0
 40
0.0
 40
0.0
 40
0.0313158458
 40
0.0626354987
 40
0.0939514645
 40
0.12525671
 40
0.1565461767
 40
0.187819896
 40
0.2190790775
 40
0.2503252149
 40
0.2815601904
 40
0.312785468
 40
0.3440023196
 40
0.3752122808
 40
0.4064172569
 40
0.4376186285
 40
0.4999997642
 40
0.5623809341
 40
0.5935823329
 40
0.6247873292
 40
0.6559972973
 40
0.6872141525
 40
0.718439445
 40
0.7496744614
 40
0.78092067
 40
0.8121799145
 40
0.8434536381
 40
0.8747429995
 40
0.9060480231
 40
0.9373638205
 40
0.9686835734
 40
1.0
 40
1.0
 40
1.0
 40
1.0
 10
5.1105324637
 20
1.3904840311
 30
0.0
 10
5.0734599669
 20
1.4351206817
 30
0.0
 10
5.0012053847
 20
1.5259929337
 30
0.0
 10
4.8987372008
 20
1.6667816705
 30
0.0
 10
4.8023770576
 20
1.8117999799
 30
0.0
 10
4.7123460951
 20
1.960764653
 30
0.0
 10
4.6288589701
 20
2.113404404
 30
0.0
 10
4.5520654437
 20
2.2694236249
 30
0.0
 10
4.4821076262
 20
2.4285377628
 30
0.0
 10
4.4191270778
 20
2.5904638962
 30
0.0
 10
4.3632664132
 20
2.754915874
 30
0.0
 10
4.3146172823
 20
2.9215868724
 30
0.0
 10
4.2732714399
 20
3.0901707603
 30
0.0
 10
4.2393210594
 20
3.2603594685
 30
0.0
 10
4.2128586347
 20
3.4318463492
 30
0.0
 10
4.1876063469
 20
3.6617394045
 30
0.0
 10
4.1749070888
 20
3.9508349176
 30
0.0
 10
4.1876062139
 20
4.2399304856
 30
0.0
 10
4.2128583634
 20
4.4698237078
 30
0.0
 10
4.2393206709
 20
4.6413107083
 30
0.0
 10
4.273270924
 20
4.8114995001
 30
0.0
 10
4.3146166628
 20
4.9800834623
 30
0.0
 10
4.3632657494
 20
5.1467545888
 30
0.0
 10
4.4191264614
 20
5.3112067999
 30
0.0
 10
4.482107137
 20
5.4731332323
 30
0.0
 10
4.5520650397
 20
5.6322476125
 30
0.0
 10
4.6288584657
 20
5.7882668034
 30
0.0
 10
4.7123451883
 20
5.9409060916
 30
0.0
 10
4.802375571
 20
6.089870043
 30
0.0
 10
4.8987354076
 20
6.2348879116
 30
0.0
 10
5.0012041733
 20
6.3756773992
 30
0.0
 10
5.0734594593
 20
6.4665506981
 30
0.0
 10
5.110532524
 20
6.511188276
 30
0.0
  0
SPLINE
  5
25F
100
AcDbEntity
  8
0
100
AcDbSpline
 62
9
  6
CONTINUOUS
 70
0
 71
3
 72
27
 73
23
 74
0
 42
0.0000001
 43
0.0000001
 44
0.0000000001
 40
0.0
 40
0.0
 40
0.0
 40
0.0
 40
0.031110222
 40
0.0622480103
 40
0.0934137828
 40
0.124605701
 40
0.1870314517
 40
0.2495229409
 40
0.3120756306
 40
0.3746901505
 40
0.4373410614
 40
0.4999994295
 40
0.5626578874
 40
0.6253089503
 40
0.687923488
 40
0.750475848
 40
0.8129665924
 40
0.8753917609
 40
0.9065836978
 40
0.9377498317
 40
0.9688884264
 40
1.0
 40
1.0
 40
1.0
 40
1.0
 10
6.2930001509
 20
1.3904840244
 30
0.0
 10
6.2840761762
 20
1.3797398144
 30
0.0
 10
6.2656069833
 20
1.3587430957
 30
0.0
 10
6.2361778674
 20
1.3288360516
 30
0.0
 10
6.2051111852
 20
1.3005758655
 30
0.0
 10
6.1616459271
 20
1.2651957483
 30
0.0
 10
6.1037234652
 20
1.2254684938
 30
0.0
 10
6.0293775305
 20
1.1856603747
 30
0.0
 10
5.9509901925
 20
1.1543161987
 30
0.0
 10
5.8695997497
 20
1.1316599824
 30
0.0
 10
5.7861959308
 20
1.1178945475
 30
0.0
 10
5.7017670335
 20
1.11323354
 30
0.0
 10
5.6173380827
 20
1.117894753
 30
0.0
 10
5.5339341602
 20
1.1316602247
 30
0.0
 10
5.4525437291
 20
1.1543161768
 30
0.0
 10
5.3741566409
 20
1.1856596683
 30
0.0
 10
5.2998110236
 20
1.2254668057
 30
0.0
 10
5.2418888515
 20
1.2651934663
 30
0.0
 10
5.1984236195
 20
1.3005734744
 30
0.0
 10
5.1673565607
 20
1.3288340404
 30
0.0
 10
5.1379266992
 20
1.3587419387
 30
0.0
 10
5.1194568884
 20
1.3797394037
 30
0.0
 10
5.1105325197
 20
1.3904840752
 30
0.0
  0
SPLINE
  5
260
100
AcDbEntity
  8
0
100
AcDbSpline
 62
9
  6
CONTINUOUS
 70
0
 71
3
 72
37
 73
33
 74
0
 42
0.0000001
 43
0.0000001
 44
0.0000000001
 40
0.0
 40
0.0
 40
0.0
 40
0.0
 40
0.0313158406
 40
0.0626354851
 40
0.0939514407
 40
0.1252566759
 40
0.1565461335
 40
0.1878198448
 40
0.2190790194
 40
0.2503251507
 40
0.2815601206
 40
0.3127853925
 40
0.3440022373
 40
0.3752121899
 40
0.4064171551
 40
0.4376185151
 40
0.4999996344
 40
0.5623808061
 40
0.5935822101
 40
0.6247872124
 40
0.6559971859
 40
0.6872140459
 40
0.7184393428
 40
0.7496743634
 40
0.7809205765
 40
0.812179827
 40
0.8434535594
 40
0.8747429343
 40
0.9060479766
 40
0.9373637942
 40
0.9686835641
 40
1.0
 40
1.0
 40
1.0
 40
1.0
 10
6.2930001451
 20
6.5111883272
 30
0.0
 10
6.3300726361
 20
6.4665516843
 30
0.0
 10
6.4023272038
 20
6.375679453
 30
0.0
 10
6.5047953642
 20
6.2348907537
 30
0.0
 10
6.6011554806
 20
6.0898724908
 30
0.0
 10
6.6911864189
 20
5.9409078673
 30
0.0
 10
6.7746735273
 20
5.788268165
 30
0.0
 10
6.8514670446
 20
5.6322489892
 30
0.0
 10
6.9214248593
 20
5.4731348926
 30
0.0
 10
6.984405409
 20
5.3112087969
 30
0.0
 10
7.0402660774
 20
5.1467568545
 30
0.0
 10
7.0889152149
 20
4.9800858931
 30
0.0
 10
7.1302610672
 20
4.811502048
 30
0.0
 10
7.1642114613
 20
4.6413133922
 30
0.0
 10
7.1906739041
 20
4.4698265725
 30
0.0
 10
7.215926221
 20
4.2399335927
 30
0.0
 10
7.2286255188
 20
3.9508381301
 30
0.0
 10
7.2159264406
 20
3.6617425778
 30
0.0
 10
7.1906743306
 20
3.4318493272
 30
0.0
 10
7.1642120496
 20
3.2603622913
 30
0.0
 10
7.1302618186
 20
3.0901734645
 30
0.0
 10
7.0889160988
 20
2.9215894697
 30
0.0
 10
7.0402670293
 20
2.7549183123
 30
0.0
 10
6.9844063334
 20
2.5904660701
 30
0.0
 10
6.9214256729
 20
2.4285396027
 30
0.0
 10
6.8514677781
 20
2.2694251798
 30
0.0
 10
6.7746743464
 20
2.1134059331
 30
0.0
 10
6.6911875988
 20
1.9607665717
 30
0.0
 10
6.6011571717
 20
1.8118025338
 30
0.0
 10
6.5047972828
 20
1.6667845755
 30
0.0
 10
6.4023284722
 20
1.525995014
 30
0.0
 10
6.3300731593
 20
1.4351216741
 30
0.0
 10
6.2930000845
 20
1.3904840823
 30
0.0
  0
SPLINE
  5
261
100
AcDbEntity
  8
0
100
AcDbSpline
 62
9
  6
CONTINUOUS
 70
0
 71
3
 72
27
 73
23
 74
0
 42
0.0000001
 43
0.0000001
 44
0.0000000001
 40
0.0
 40
0.0
 40
0.0
 40
0.0
 40
0.031110233
 40
0.0622480328
 40
0.0934138171
 40
0.1246057468
 40
0.187031518
 40
0.2495230211
 40
0.3120757153
 40
0.3746902328
 40
0.4373411383
 40
0.4999995014
 40
0.5626579568
 40
0.6253090185
 40
0.6879235541
 40
0.7504759091
 40
0.8129666438
 40
0.8753917985
 40
0.9065837272
 40
0.9377498521
 40
0.968888437
 40
1.0
 40
1.0
 40
1.0
 40
1.0
 10
5.1105324581
 20
6.5111883335
 30
0.0
 10
5.1194564364
 20
6.5219325469
 30
0.0
 10
5.1379256373
 20
6.5429292721
 30
0.0
 10
5.1673547663
 20
6.5728363249
 30
0.0
 10
5.1984214626
 20
6.6010965188
 30
0.0
 10
5.2418867391
 20
6.6364766444
 30
0.0
 10
5.2998092214
 20
6.6762039057
 30
0.0
 10
5.3741551744
 20
6.7160120275
 30
0.0
 10
5.4525425218
 20
6.7473561995
 30
0.0
 10
5.5339329661
 20
6.7700124054
 30
0.0
 10
5.6173367816
 20
6.783777826
 30
0.0
 10
5.7017656739
 20
6.7884388181
 30
0.0
 10
5.78619462
 20
6.7837775916
 30
0.0
 10
5.869598538
 20
6.7700121094
 30
0.0
 10
5.9509889631
 20
6.7473561503
 30
0.0
 10
6.029376042
 20
6.7160126557
 30
0.0
 10
6.1037216452
 20
6.6762055193
 30
0.0
 10
6.1616438028
 20
6.6364788628
 30
0.0
 10
6.2051090217
 20
6.6010988607
 30
0.0
 10
6.2361760698
 20
6.572838301
 30
0.0
 10
6.2656059204
 20
6.5429304105
 30
0.0
 10
6.2840757241
 20
6.5219329515
 30
0.0
 10
6.2930000893
 20
6.5111882833
 30
0.0
  0
SPLINE
  5
262
100
AcDbEntity
  8
0
100
AcDbSpline
 62
9
  6
CONTINUOUS
 70
0
 71
3
 72
28
 73
24
 74
0
 42
0.0000001
 43
0.0000001
 44
0.0000000001
 40
0.0
 40
0.0
 40
0.0
 40
0.0
 40
0.1887509202
 40
0.282445811
 40
0.3742587858
 40
0.4631163243
 40
0.5479328608
 40
0.627620272
 40
0.7010914672
 40
0.7673691567
 40
0.8259102774
 40
0.8762824801
 40
0.9180587913
 40
0.9356097382
 40
0.9509539564
 40
0.9641396397
 40
0.975218427
 40
0.9842483598
 40
0.9913007484
 40
0.9941170706
 40
0.9964835355
 40
0.9984288513
 40
1.0
 40
1.0
 40
1.0
 40
1.0
 10
6.2930001182
 20
6.5111883098
 30
0.0
 10
6.2977931212
 20
6.5150320806
 30
0.0
 10
6.3049875578
 20
6.520756284
 30
0.0
 10
6.3145690865
 20
6.5282796967
 30
0.0
 10
6.3216193939
 20
6.5337615554
 30
0.0
 10
6.3284700596
 20
6.5390291692
 30
0.0
 10
6.3350372799
 20
6.5440176865
 30
0.0
 10
6.3412368004
 20
6.5486620284
 30
0.0
 10
6.3469869693
 20
6.5528993937
 30
0.0
 10
6.3522206259
 20
6.5566769047
 30
0.0
 10
6.3568840199
 20
6.5599592159
 30
0.0
 10
6.3609374257
 20
6.5627215727
 30
0.0
 10
6.363928271
 20
6.5646730873
 30
0.0
 10
6.3659958714
 20
6.5659511001
 30
0.0
 10
6.3672872175
 20
6.5667144137
 30
0.0
 10
6.368413338
 20
6.5673424779
 30
0.0
 10
6.3693771072
 20
6.5678388322
 30
0.0
 10
6.3701813493
 20
6.5682066686
 30
0.0
 10
6.3707577889
 20
6.5684245292
 30
0.0
 10
6.371142134
 20
6.5685299919
 30
0.0
 10
6.3713705811
 20
6.5685728138
 30
0.0
 10
6.3715620551
 20
6.5685862157
 30
0.0
 10
6.3716770482
 20
6.5685743014
 30
0.0
 10
6.3717266032
 20
6.5685616629
 30
0.0
  0
SPLINE
  5
263
100
AcDbEntity
  8
0
100
AcDbSpline
 62
7
  6
CONTINUOUS
 70
0
 71
3
 72
25
 73
21
 74
0
 42
0.0000001
 43
0.0000001
 44
0.0000000001
 40
0.0
 40
0.0
 40
0.0
 40
0.0
 40
0.0618833278
 40
0.1241047712
 40
0.1865385673
 40
0.2490794737
 40
0.3116992826
 40
0.3743929472
 40
0.4057767755
 40
0.437179146
 40
0.5000000303
 40
0.5628210485
 40
0.5942235528
 40
0.6256075107
 40
0.6883012872
 40
0.7509209431
 40
0.8134615468
 40
0.8758951549
 40
0.9381166049
 40
1.0
 40
1.0
 40
1.0
 40
1.0
 10
5.6545163043
 20
4.1178063389
 30
0.0
 10
5.6545163043
 20
4.1139305049
 30
0.0
 10
5.6541271246
 20
4.1061524332
 30
0.0
 10
5.6524046169
 20
4.0945793208
 30
0.0
 10
5.6495564709
 20
4.0831865827
 30
0.0
 10
5.6455908048
 20
4.07210643
 30
0.0
 10
5.6405516018
 20
4.0614543565
 30
0.0
 10
5.6355000274
 20
4.0530201641
 30
0.0
 10
5.6309734908
 20
4.0465923018
 30
0.0
 10
5.6261294304
 20
4.0403900327
 30
0.0
 10
5.6195104564
 20
4.0330919906
 30
0.0
 10
5.612212284
 20
4.0264731525
 30
0.0
 10
5.6060099563
 20
4.0216291288
 30
0.0
 10
5.5995820872
 20
4.0171025632
 30
0.0
 10
5.5911479654
 20
4.0120508672
 30
0.0
 10
5.5804960025
 20
4.0070114787
 30
0.0
 10
5.5694159205
 20
4.0030457171
 30
0.0
 10
5.5580231856
 20
4.0001976637
 30
0.0
 10
5.5464500588
 20
3.9984753015
 30
0.0
 10
5.5386719827
 20
3.9980861791
 30
0.0
 10
5.5347961445
 20
3.9980861791
 30
0.0
  0
SPLINE
  5
264
100
AcDbEntity
  8
0
100
AcDbSpline
 62
7
  6
CONTINUOUS
 70
0
 71
3
 72
25
 73
21
 74
0
 42
0.0000001
 43
0.0000001
 44
0.0000000001
 40
0.0
 40
0.0
 40
0.0
 40
0.0
 40
0.0618834554
 40
0.1241051588
 40
0.1865391989
 40
0.249080204
 40
0.3116999754
 40
0.3743935824
 40
0.4057773859
 40
0.4371797396
 40
0.500000613
 40
0.5628216399
 40
0.5942241597
 40
0.6256081411
 40
0.6883019717
 40
0.7509216622
 40
0.8134621676
 40
0.8758955355
 40
0.9381167302
 40
1.0
 40
1.0
 40
1.0
 40
1.0
 10
5.8687364642
 20
3.9980861791
 30
0.0
 10
5.8648606222
 20
3.9980861791
 30
0.0
 10
5.8570825263
 20
3.9984753451
 30
0.0
 10
5.8455093679
 20
4.0001978093
 30
0.0
 10
5.8341165788
 20
4.0030459095
 30
0.0
 10
5.8230364032
 20
4.0070115763
 30
0.0
 10
5.8123843593
 20
4.0120508465
 30
0.0
 10
5.8039502087
 20
4.0171024744
 30
0.0
 10
5.7975223668
 20
4.0216290287
 30
0.0
 10
5.7913201081
 20
4.0264730969
 30
0.0
 10
5.7840220704
 20
4.0330920734
 30
0.0
 10
5.7774032348
 20
4.0403902498
 30
0.0
 10
5.7725592185
 20
4.0465925873
 30
0.0
 10
5.7680326701
 20
4.053020476
 30
0.0
 10
5.7629810265
 20
4.0614546386
 30
0.0
 10
5.7579417041
 20
4.0721066302
 30
0.0
 10
5.7539759433
 20
4.0831866896
 30
0.0
 10
5.751127845
 20
4.0945793743
 30
0.0
 10
5.7494054403
 20
4.1061524561
 30
0.0
 10
5.7490163043
 20
4.1139305085
 30
0.0
 10
5.7490163043
 20
4.1178063389
 30
0.0
  0
SPLINE
  5
265
100
AcDbEntity
  8
0
100
AcDbSpline
 62
9
  6
CONTINUOUS
 70
0
 71
3
 72
28
 73
24
 74
0
 42
0.0000001
 43
0.0000001
 44
0.0000000001
 40
0.0
 40
0.0
 40
0.0
 40
0.0
 40
0.0015711504
 40
0.0035164683
 40
0.0058829357
 40
0.0086992607
 40
0.0157516553
 40
0.0247815946
 40
0.0358603888
 40
0.0490460793
 40
0.0643903049
 40
0.0819412594
 40
0.1237175862
 40
0.1740898041
 40
0.2326309386
 40
0.2989086396
 40
0.3723798428
 40
0.4520672576
 40
0.5368837922
 40
0.6257413224
 40
0.7175542815
 40
0.811249149
 40
1.0
 40
1.0
 40
1.0
 40
1.0
 10
6.3717266705
 20
1.3331106386
 30
0.0
 10
6.3716771153
 20
1.3330980003
 30
0.0
 10
6.371562122
 20
1.3330860862
 30
0.0
 10
6.3713706476
 20
1.3330994883
 30
0.0
 10
6.3711422001
 20
1.3331423105
 30
0.0
 10
6.3707578544
 20
1.3332477737
 30
0.0
 10
6.3701814139
 20
1.3334656349
 30
0.0
 10
6.3693771707
 20
1.3338334722
 30
0.0
 10
6.3684134002
 20
1.3343298275
 30
0.0
 10
6.3672872782
 20
1.3349578928
 30
0.0
 10
6.3659959305
 20
1.3357212078
 30
0.0
 10
6.3639283276
 20
1.3369992225
 30
0.0
 10
6.3609374789
 20
1.3389507399
 30
0.0
 10
6.3568840686
 20
1.3417131004
 30
0.0
 10
6.3522206697
 20
1.3449954157
 30
0.0
 10
6.3469870079
 20
1.348772931
 30
0.0
 10
6.3412368335
 20
1.3530103009
 30
0.0
 10
6.3350373077
 20
1.3576546475
 30
0.0
 10
6.328470082
 20
1.3626431695
 30
0.0
 10
6.3216194112
 20
1.3679107878
 30
0.0
 10
6.3145690991
 20
1.3733926508
 30
0.0
 10
6.304987565
 20
1.3809160684
 30
0.0
 10
6.2977931247
 20
1.3866402754
 30
0.0
 10
6.2930001194
 20
1.3904840483
 30
0.0
  0
SPLINE
  5
266
100
AcDbEntity
  8
0
100
AcDbSpline
 62
9
  6
CONTINUOUS
 70
0
 71
3
 72
28
 73
24
 74
0
 42
0.0000001
 43
0.0000001
 44
0.0000000001
 40
0.0
 40
0.0
 40
0.0
 40
0.0
 40
0.1892157222
 40
0.2830850275
 40
0.3750252331
 40
0.4639582014
 40
0.5488008514
 40
0.6284693168
 40
0.7018807606
 40
0.7680635112
 40
0.8264855861
 40
0.8767270754
 40
0.9183734297
 40
0.9358634632
 40
0.9511510418
 40
0.964285343
 40
0.9753189835
 40
0.984310969
 40
0.9913335357
 40
0.9941382493
 40
0.9964954061
 40
0.9984337157
 40
1.0
 40
1.0
 40
1.0
 40
1.0
 10
5.1105324961
 20
6.5111882997
 30
0.0
 10
5.1057276872
 20
6.5150415389
 30
0.0
 10
5.0985169036
 20
6.5207786271
 30
0.0
 10
5.0889155491
 20
6.5283172018
 30
0.0
 10
5.0818553449
 20
6.5338063386
 30
0.0
 10
5.0749985047
 20
6.5390781493
 30
0.0
 10
5.0684288171
 20
6.5440678733
 30
0.0
 10
5.0622302953
 20
6.548710703
 30
0.0
 10
5.0564842689
 20
6.5529441715
 30
0.0
 10
5.0512573917
 20
6.556715859
 30
0.0
 10
5.0466026918
 20
6.5599910365
 30
0.0
 10
5.0425589953
 20
6.5627456996
 30
0.0
 10
5.0395764727
 20
6.5646908194
 30
0.0
 10
5.0375153713
 20
6.5659640267
 30
0.0
 10
5.0362285174
 20
6.5667241354
 30
0.0
 10
5.0351065202
 20
6.567349359
 30
0.0
 10
5.0341464273
 20
6.5678432921
 30
0.0
 10
5.0333453361
 20
6.5682091831
 30
0.0
 10
5.0327711778
 20
6.5684257662
 30
0.0
 10
5.0323883502
 20
6.5685305161
 30
0.0
 10
5.0321607663
 20
6.5685729999
 30
0.0
 10
5.0319699716
 20
6.568586218
 30
0.0
 10
5.0318553778
 20
6.5685742918
 30
0.0
 10
5.031805976
 20
6.5685616929
 30
0.0
  0
SPLINE
  5
267
100
AcDbEntity
  8
0
100
AcDbSpline
 62
9
  6
CONTINUOUS
 70
0
 71
3
 72
28
 73
24
 74
0
 42
0.0000001
 43
0.0000001
 44
0.0000000001
 40
0.0
 40
0.0
 40
0.0
 40
0.0
 40
0.0015662823
 40
0.0035045898
 40
0.0058617444
 40
0.008666456
 40
0.0156890192
 40
0.0246810018
 40
0.0357146402
 40
0.0488489401
 40
0.0641365185
 40
0.0816265526
 40
0.123272911
 40
0.1735144075
 40
0.2319364918
 40
0.2981192532
 40
0.3715307081
 40
0.4511991836
 40
0.5360418411
 40
0.6249748129
 40
0.7169150166
 40
0.8107843141
 40
1.0
 40
1.0
 40
1.0
 40
1.0
 10
5.0318059141
 20
1.3331106156
 30
0.0
 10
5.0318553159
 20
1.3330980167
 30
0.0
 10
5.0319699097
 20
1.3330860903
 30
0.0
 10
5.0321607043
 20
1.3330993083
 30
0.0
 10
5.0323882882
 20
1.333141792
 30
0.0
 10
5.0327711159
 20
1.3332465418
 30
0.0
 10
5.0333452743
 20
1.333463125
 30
0.0
 10
5.0341463659
 20
1.3338290162
 30
0.0
 10
5.0351064594
 20
1.3343229495
 30
0.0
 10
5.0362284573
 20
1.3349481735
 30
0.0
 10
5.0375153121
 20
1.3357082829
 30
0.0
 10
5.0395764152
 20
1.3369814913
 30
0.0
 10
5.0425589403
 20
1.3389266128
 30
0.0
 10
5.0466026403
 20
1.3416812785
 30
0.0
 10
5.0512573444
 20
1.3449564592
 30
0.0
 10
5.0564842262
 20
1.3487281503
 30
0.0
 10
5.0622302577
 20
1.3529616227
 30
0.0
 10
5.0684287848
 20
1.3576044567
 30
0.0
 10
5.0749984778
 20
1.362594185
 30
0.0
 10
5.0818553234
 20
1.367866
 30
0.0
 10
5.0889155327
 20
1.373355141
 30
0.0
 10
5.0985168931
 20
1.3808937207
 30
0.0
 10
5.1057276809
 20
1.3866308125
 30
0.0
 10
5.1105324924
 20
1.390484054
 30
0.0
  0
SPLINE
  5
268
100
AcDbEntity
  8
0
100
AcDbSpline
 62
9
  6
CONTINUOUS
 70
0
 71
3
 72
43
 73
39
 74
0
 42
0.0000001
 43
0.0000001
 44
0.0000000001
 40
0.0
 40
0.0
 40
0.0
 40
0.0
 40
0.0312105718
 40
0.0624524862
 40
0.0937104774
 40
0.1093417307
 40
0.1249718004
 40
0.1562264998
 40
0.1874779795
 40
0.2187282557
 40
0.249979251
 40
0.2812310891
 40
0.3124831975
 40
0.3281101238
 40
0.3437370197
 40
0.3749890424
 40
0.4062412192
 40
0.4374936421
 40
0.4687465874
 40
0.5000000214
 40
0.5312534556
 40
0.5625064013
 40
0.5937588245
 40
0.6250110012
 40
0.6562630236
 40
0.6718899191
 40
0.6875168449
 40
0.7187689527
 40
0.7500207913
 40
0.7812717894
 40
0.8125220693
 40
0.8437735498
 40
0.8750282438
 40
0.8906583072
 40
0.9062895529
 40
0.9375475296
 40
0.9687894329
 40
1.0
 40
1.0
 40
1.0
 40
1.0
 10
5.0317958637
 20
6.5685496266
 30
0.0
 10
4.9944741262
 20
6.5228732117
 30
0.0
 10
4.9217308706
 20
6.4298711376
 30
0.0
 10
4.8186087442
 20
6.2858253007
 30
0.0
 10
4.7378034445
 20
6.1621777681
 30
0.0
 10
4.6763572106
 20
6.061247221
 30
0.0
 10
4.6170868731
 20
5.9590308025
 30
0.0
 10
4.5471218618
 20
5.8289313398
 30
0.0
 10
4.4699160777
 20
5.6693862197
 30
0.0
 10
4.3996024074
 20
5.5066916948
 30
0.0
 10
4.3363273024
 20
5.3411318664
 30
0.0
 10
4.2801971972
 20
5.1730133026
 30
0.0
 10
4.239461709
 20
5.0310319886
 30
0.0
 10
4.2105532887
 20
4.9164851415
 30
0.0
 10
4.1841150351
 20
4.8013432319
 30
0.0
 10
4.1557177155
 20
4.6563885759
 30
0.0
 10
4.1291395532
 20
4.4811480081
 30
0.0
 10
4.1101098324
 20
4.3049242544
 30
0.0
 10
4.0986868951
 20
4.1280423988
 30
0.0
 10
4.0948804749
 20
3.9508312063
 30
0.0
 10
4.0986873299
 20
3.7736200225
 30
0.0
 10
4.1101106845
 20
3.5967381925
 30
0.0
 10
4.1291408309
 20
3.4205144834
 30
0.0
 10
4.1557194229
 20
3.2452739811
 30
0.0
 10
4.1841170931
 20
3.1003193954
 30
0.0
 10
4.2105556143
 20
2.9851775496
 30
0.0
 10
4.2394643047
 20
2.8706307736
 30
0.0
 10
4.280200136
 20
2.7286495591
 30
0.0
 10
4.336330655
 20
2.5605311282
 30
0.0
 10
4.3996061627
 20
2.3949714396
 30
0.0
 10
4.4699202359
 20
2.2322770736
 30
0.0
 10
4.547126411
 20
2.0727321446
 30
0.0
 10
4.6170917209
 20
1.942632866
 30
0.0
 10
4.6763622681
 20
1.8404166117
 30
0.0
 10
4.7378086981
 20
1.7394862471
 30
0.0
 10
4.8186142495
 20
1.6158389537
 30
0.0
 10
4.9217366884
 20
1.4717934105
 30
0.0
 10
4.9944801565
 20
1.3787915402
 30
0.0
 10
5.0318020027
 20
1.3331152256
 30
0.0
  0
SPLINE
  5
269
100
AcDbEntity
  8
0
100
AcDbSpline
 62
7
  6
CONTINUOUS
 70
0
 71
3
 72
25
 73
21
 74
0
 42
0.0000001
 43
0.0000001
 44
0.0000000001
 40
0.0
 40
0.0
 40
0.0
 40
0.0
 40
0.0618833278
 40
0.1241047712
 40
0.1865385673
 40
0.2490794737
 40
0.3116992826
 40
0.3743929472
 40
0.4057767755
 40
0.437179146
 40
0.5000000303
 40
0.5628210485
 40
0.5942235528
 40
0.6256075107
 40
0.6883012872
 40
0.7509209431
 40
0.8134615468
 40
0.8758951549
 40
0.9381166049
 40
1.0
 40
1.0
 40
1.0
 40
1.0
 10
5.7490163043
 20
3.7838660193
 30
0.0
 10
5.7490163043
 20
3.7877418533
 30
0.0
 10
5.7494054841
 20
3.795519925
 30
0.0
 10
5.7511279918
 20
3.8070930374
 30
0.0
 10
5.7539761378
 20
3.8184857755
 30
0.0
 10
5.7579418039
 20
3.8295659282
 30
0.0
 10
5.7629810069
 20
3.8402180017
 30
0.0
 10
5.7680325813
 20
3.8486521941
 30
0.0
 10
5.7725591178
 20
3.8550800564
 30
0.0
 10
5.7774031783
 20
3.8612823255
 30
0.0
 10
5.7840221523
 20
3.8685803676
 30
0.0
 10
5.7913203247
 20
3.8751992057
 30
0.0
 10
5.7975226524
 20
3.8800432294
 30
0.0
 10
5.8039505215
 20
3.884569795
 30
0.0
 10
5.8123846433
 20
3.889621491
 30
0.0
 10
5.8230366062
 20
3.8946608795
 30
0.0
 10
5.8341166882
 20
3.8986266411
 30
0.0
 10
5.8455094231
 20
3.9014746945
 30
0.0
 10
5.8570825499
 20
3.9031970567
 30
0.0
 10
5.864860626
 20
3.9035861791
 30
0.0
 10
5.8687364642
 20
3.9035861791
 30
0.0
  0
SPLINE
  5
26A
100
AcDbEntity
  8
0
100
AcDbSpline
 62
7
  6
CONTINUOUS
 70
0
 71
3
 72
25
 73
21
 74
0
 42
0.0000001
 43
0.0000001
 44
0.0000000001
 40
0.0
 40
0.0
 40
0.0
 40
0.0
 40
0.0618834554
 40
0.1241051588
 40
0.1865391989
 40
0.249080204
 40
0.3116999754
 40
0.3743935824
 40
0.4057773859
 40
0.4371797396
 40
0.500000613
 40
0.5628216399
 40
0.5942241597
 40
0.6256081411
 40
0.6883019717
 40
0.7509216622
 40
0.8134621676
 40
0.8758955355
 40
0.9381167302
 40
1.0
 40
1.0
 40
1.0
 40
1.0
 10
5.5347961445
 20
3.9035861791
 30
0.0
 10
5.5386719865
 20
3.9035861791
 30
0.0
 10
5.5464500824
 20
3.9031970131
 30
0.0
 10
5.5580232408
 20
3.9014745489
 30
0.0
 10
5.5694160299
 20
3.8986264487
 30
0.0
 10
5.5804962055
 20
3.8946607819
 30
0.0
 10
5.5911482494
 20
3.8896215117
 30
0.0
 10
5.5995824
 20
3.8845698838
 30
0.0
 10
5.6060102418
 20
3.8800433295
 30
0.0
 10
5.6122125006
 20
3.8751992613
 30
0.0
 10
5.6195105383
 20
3.8685802848
 30
0.0
 10
5.6261293739
 20
3.8612821084
 30
0.0
 10
5.6309733902
 20
3.8550797709
 30
0.0
 10
5.6354999386
 20
3.8486518822
 30
0.0
 10
5.6405515822
 20
3.8402177196
 30
0.0
 10
5.6455909046
 20
3.829565728
 30
0.0
 10
5.6495566654
 20
3.8184856686
 30
0.0
 10
5.6524047637
 20
3.8070929839
 30
0.0
 10
5.6541271684
 20
3.7955199021
 30
0.0
 10
5.6545163043
 20
3.7877418497
 30
0.0
 10
5.6545163043
 20
3.7838660193
 30
0.0
  0
SPLINE
  5
26B
100
AcDbEntity
  8
0
100
AcDbSpline
 62
9
  6
CONTINUOUS
 70
0
 71
3
 72
43
 73
39
 74
0
 42
0.0000001
 43
0.0000001
 44
0.0000000001
 40
0.0
 40
0.0
 40
0.0
 40
0.0
 40
0.0312105719
 40
0.0624524862
 40
0.0937104774
 40
0.1093417307
 40
0.1249718004
 40
0.1562264998
 40
0.1874779794
 40
0.2187282557
 40
0.249979251
 40
0.281231089
 40
0.3124831974
 40
0.3281101238
 40
0.3437370196
 40
0.3749890424
 40
0.4062412191
 40
0.4374936421
 40
0.4687465873
 40
0.5000000214
 40
0.5312534556
 40
0.5625064013
 40
0.5937588244
 40
0.6250110011
 40
0.6562630235
 40
0.671889919
 40
0.6875168449
 40
0.7187689526
 40
0.7500207913
 40
0.7812717893
 40
0.8125220692
 40
0.8437735498
 40
0.8750282438
 40
0.8906583072
 40
0.9062895529
 40
0.9375475296
 40
0.9687894329
 40
1.0
 40
1.0
 40
1.0
 40
1.0
 10
6.3717367365
 20
1.3331227213
 30
0.0
 10
6.4090584738
 20
1.3787991366
 30
0.0
 10
6.4818017294
 20
1.4718012112
 30
0.0
 10
6.5849238566
 20
1.6158470482
 30
0.0
 10
6.6657291575
 20
1.7394945805
 30
0.0
 10
6.7271753922
 20
1.8404251275
 30
0.0
 10
6.7864457303
 20
1.9426415459
 30
0.0
 10
6.8564107423
 20
2.0727410087
 30
0.0
 10
6.9336165269
 20
2.232286129
 30
0.0
 10
7.0039301975
 20
2.3949806543
 30
0.0
 10
7.067205303
 20
2.560540483
 30
0.0
 10
7.1233354087
 20
2.7286590472
 30
0.0
 10
7.1640708974
 20
2.8706403615
 30
0.0
 10
7.192979318
 20
2.9851872088
 30
0.0
 10
7.2194175719
 20
3.1003291187
 30
0.0
 10
7.247814892
 20
3.2452837751
 30
0.0
 10
7.2743930548
 20
3.4205243433
 30
0.0
 10
7.2934227759
 20
3.5967480975
 30
0.0
 10
7.3048457135
 20
3.7736299536
 30
0.0
 10
7.3086521339
 20
3.9508411466
 30
0.0
 10
7.304845279
 20
4.1280523309
 30
0.0
 10
7.2934219244
 20
4.3049341615
 30
0.0
 10
7.2743917781
 20
4.4811578711
 30
0.0
 10
7.2478131863
 20
4.656398374
 30
0.0
 10
7.2194155162
 20
4.8013529601
 30
0.0
 10
7.192976995
 20
4.9164948063
 30
0.0
 10
7.1640683046
 20
5.0310415826
 30
0.0
 10
7.1233324733
 20
5.1730227976
 30
0.0
 10
7.0672019541
 20
5.341141229
 30
0.0
 10
7.0039264462
 20
5.5067009181
 30
0.0
 10
6.9336123727
 20
5.6693952846
 30
0.0
 10
6.8564061974
 20
5.8289402142
 30
0.0
 10
6.7864408872
 20
5.9590394932
 30
0.0
 10
6.7271703398
 20
6.0612557478
 30
0.0
 10
6.6657239096
 20
6.1621861128
 30
0.0
 10
6.5849183581
 20
6.2858334067
 30
0.0
 10
6.4817959188
 20
6.4298789503
 30
0.0
 10
6.4090524503
 20
6.5228808207
 30
0.0
 10
6.3717306037
 20
6.5685571353
 30
0.0
  0
ENDSEC
  0
SECTION
  2
OBJECTS
  0
DICTIONARY
  5
C
100
AcDbDictionary
280
0
281
1
  3
ACAD_GROUP
350
D
  3
ACAD_MLINESTYLE
350
17
  3
ACAD_LAYOUT
350
1A
  3
ACAD_PLOTSETTINGS
350
19
  3
ACAD_PLOTSTYLENAME
350
E
  0
DICTIONARY
  5
D
102
{ACAD_REACTORS
330
C
102
}
100
AcDbDictionary
280
0
281
1
  0
ACDBDICTIONARYWDFLT
  5
E
102
{ACAD_REACTORS
330
C
102
}
100
AcDbDictionary
281
1
  3
Normal
350
F
100
AcDbDictionaryWithDefault
340
F
  0
DICTIONARY
  5
17
102
{ACAD_REACTORS
330
C
102
}
100
AcDbDictionary
280
0
281
1
  3
Standard
350
18
  0
DICTIONARY
  5
19
102
{ACAD_REACTORS
330
C
102
}
100
AcDbDictionary
281
1
  0
DICTIONARY
  5
1A
102
{ACAD_REACTORS
330
C
102
}
100
AcDbDictionary
281
1
  3
Model
350
26C
  3
Layout1
350
26D
  0
ACDBPLACEHOLDER
  5
F
102
{ACAD_REACTORS
330
E
102
}
  0
MLINESTYLE
  5
18
102
{ACAD_REACTORS
330
17
102
}
100
AcDbMlineStyle
  2
STANDARD
 70
0
  3

 62
256
 51
90.0
 52
90.0
 71
2
 49
0.5
 62
256
  6
BYLAYER
 49
-0.5
 62
256
  6
BYLAYER
  0
LAYOUT
  5
26C
102
{ACAD_REACTORS
330
1A
102
}
100
AcDbPlotSettings
  1

  2
none_device
  4
ANSI_A_(11.00_x_8.50_Inches)
  6

 40
0.0
 41
0.0
 42
0.0
 43
0.0
 44
279.4
 45
215.9
 46
0.0
 47
0.0
 48
0.0
 49
0.0
140
0.0
141
0.0
142
1.0
143
1.0
 70
1024
 72
0
 73
0
 74
0
  7

 75
0
147
1.0
148
0.0
149
0.0
100
AcDbLayout
  1
Model
 70
0
 71
0
 10
0.0
 20
0.0
 11
11.0
 21
8.5
 12
0.0
 22
0.0
 32
0.0
 14
0.0
 24
0.0
 34
0.0
 15
0.0
 25
0.0
 35
0.0
146
0.0
 13
0.0
 23
0.0
 33
0.0
 16
1.0
 26
0.0
 36
0.0
 17
0.0
 27
1.0
 37
0.0
 76
0
330
21D
345
0
346
0
  0
LAYOUT
  5
26D
102
{ACAD_REACTORS
330
1A
102
}
100
AcDbPlotSettings
  1

  2
none_device
  4
ANSI_A_(11.00_x_8.50_Inches)
  6

 40
0.0
 41
0.0
 42
0.0
 43
0.0
 44
279.4
 45
215.9
 46
0.0
 47
0.0
 48
0.0
 49
0.0
140
0.0
141
0.0
142
1.0
143
1.0
 70
0
 72
0
 73
0
 74
0
  7

 75
0
147
1.0
148
0.0
149
0.0
100
AcDbLayout
  1
Layout1
 70
0
 71
1
 10
0.0
 20
0.0
 11
11.0
 21
8.5
 12
0.0
 22
0.0
 32
0.0
 14
0.0
 24
0.0
 34
0.0
 15
0.0
 25
0.0
 35
0.0
146
0.0
 13
0.0
 23
0.0
 33
0.0
 16
1.0
 26
0.0
 36
0.0
 17
0.0
 27
1.0
 37
0.0
 76
0
330
21E
345
0
346
0
  0
ENDSEC
  0
EOF
