999
DXF file: C:\Prowork\plots\403_top.dxf
999
Pro/ENGINEER 2018500 by Parametric Technology Corporation
  0
SECTION
  2
HEADER
  9
$ACADVER
  1
AC1032
  9
$DWGCODEPAGE
  3
ANSI_1252
  9
$EXTMAX
 10
11.0
 20
8.5
 30
0.0
  9
$EXTMIN
 10
0.0
 20
0.0
 30
0.0
  9
$LIMMIN
 10
0.0
 20
0.0
  9
$LIMMAX
 10
11.0
 20
8.5
  9
$VIEWCTR
 10
5.5
 20
4.25
  9
$VIEWSIZE
 40
8.5
  9
$CLAYER
  8
0
  9
$LTSCALE
 40
0.605
  9
$CELTYPE
  6
BYLAYER
  9
$DIMSCALE
 40
1.0
  9
$DIMASZ
 40
0.1
  9
$DIMEXO
 40
0.0625
  9
$DIMDLI
 40
0.418
  9
$DIMEXE
 40
0.125
  9
$DIMCEN
 40
0.099
  9
$DIMLFAC
 40
1.0
  9
$DIMBLK
  1
_FILLED
  9
$DIMALT
 70
1
  9
$DIMALTD
 70
2
  9
$DIMALTTD
 70
2
  9
$DIMALTF
 40
25.4
  9
$DIMTXT
 40
0.08
  9
$DIMTOL
 70
1
  9
$DIMLIM
 70
0
  9
$DIMTFAC
 40
1.0
  9
$DIMTP
 40
0.001
  9
$DIMTM
 40
0.001
  9
$DIMGAP
 40
0.09
  9
$DIMDSEP
 70
46
  9
$AUNITS
 70
0
  9
$PDMODE
 70
3
  9
$PDSIZE
 40
0.06
  9
$HANDSEED
  5
389
  9
$TILEMODE
 70
1
  9
$MEASUREMENT
 70
0
  9
$INSUNITS
 70
1
  0
ENDSEC
  0
SECTION
  2
CLASSES
  0
CLASS
  1
ACDBDICTIONARYWDFLT
  2
AcDbDictionaryWithDefault
  3
AutoCAD 2000
 90
0
 91
1
280
0
281
0
  0
CLASS
  1
ACDBPLACEHOLDER
  2
AcDbPlaceHolder
  3
AutoCAD 2000
 90
0
 91
1
280
0
281
0
  0
CLASS
  1
LAYOUT
  2
AcDbLayout
  3
AutoCAD 2000
 90
0
 91
0
280
0
281
0
  0
ENDSEC
  0
SECTION
  2
TABLES
  0
TABLE
  2
VPORT
  5
8
100
AcDbSymbolTable
 70
2
  0
VPORT
  5
1F4
100
AcDbSymbolTableRecord
100
AcDbViewportTableRecord
  2
*ACTIVE
 70
0
 10
0.0
 20
0.0
 11
1.0
 21
1.0
 12
5.5
 22
4.25
 13
0.0
 23
0.0
 14
1.0
 24
1.0
 15
0.0
 25
0.0
 16
0.0
 26
0.0
 36
1.0
 17
0.0
 27
0.0
 37
0.0
 40
8.5
 41
1.2941176471
 42
50.0
 43
0.0
 44
0.0
 50
0.0
 51
0.0
 71
0
 72
100
 73
1
 74
1
 75
0
 76
0
 77
0
 78
0
  0
ENDTAB
  0
TABLE
  2
LTYPE
  5
5
100
AcDbSymbolTable
 70
6
  0
LTYPE
  5
14
100
AcDbSymbolTableRecord
100
AcDbLinetypeTableRecord
  2
BYBLOCK
 70
0
  3

 72
65
 73
0
 40
0.0
  0
LTYPE
  5
15
100
AcDbSymbolTableRecord
100
AcDbLinetypeTableRecord
  2
BYLAYER
 70
0
  3

 72
65
 73
0
 40
0.0
  0
LTYPE
  5
16
100
AcDbSymbolTableRecord
100
AcDbLinetypeTableRecord
  2
CONTINUOUS
 70
64
  3
Solid line
 72
65
 73
0
 40
0.0
  0
LTYPE
  5
1F5
100
AcDbSymbolTableRecord
100
AcDbLinetypeTableRecord
  2
CENTER
 70
64
  3
____ _ ____ _ ____ _ ____ _ ____ _ ____ _ ____
 72
65
 73
4
 40
0.6
 49
0.375
 74
0
 49
-0.075
 74
0
 49
0.075
 74
0
 49
-0.075
 74
0
  0
LTYPE
  5
1F6
100
AcDbSymbolTableRecord
100
AcDbLinetypeTableRecord
  2
HIDDEN
 70
64
  3
- - - - - - - - - - - - - - - - - - - -
 72
65
 73
2
 40
0.2
 49
0.1
 74
0
 49
-0.1
 74
0
  0
LTYPE
  5
1F7
100
AcDbSymbolTableRecord
100
AcDbLinetypeTableRecord
  2
PHANTOM
 70
64
  3
_____ _ _ _____ _ _ _____ _ _ _____
 72
65
 73
6
 40
0.8
 49
0.45
 74
0
 49
-0.05
 74
0
 49
0.1
 74
0
 49
-0.05
 74
0
 49
0.1
 74
0
 49
-0.05
 74
0
  0
LTYPE
  5
1F8
100
AcDbSymbolTableRecord
100
AcDbLinetypeTableRecord
  2
DOT
 70
64
  3
. . . . . . . . . . . . . . . . . . . .
 72
65
 73
2
 40
0.2
 49
0.1
 74
0
 49
-0.1
 74
0
  0
LTYPE
  5
1F9
100
AcDbSymbolTableRecord
100
AcDbLinetypeTableRecord
  2
DASHED
 70
64
  3
- - - - - - - - - - - - - - - - - - - -
 72
65
 73
2
 40
0.2
 49
0.1
 74
0
 49
-0.1
 74
0
  0
ENDTAB
  0
TABLE
  2
LAYER
  5
2
100
AcDbSymbolTable
 70
36
  0
LAYER
  5
10
100
AcDbSymbolTableRecord
100
AcDbLayerTableRecord
  2
0
 70
0
 62
7
  6
CONTINUOUS
370
-3
390
F
  0
LAYER
  5
1FA
100
AcDbSymbolTableRecord
100
AcDbLayerTableRecord
  2
DEFAULT_1
 70
0
 62
7
  6
CENTER
370
-3
390
F
  0
LAYER
  5
1FB
100
AcDbSymbolTableRecord
100
AcDbLayerTableRecord
  2
DEFAULT_2
 70
0
 62
8
  6
HIDDEN
370
-3
390
F
  0
LAYER
  5
1FC
100
AcDbSymbolTableRecord
100
AcDbLayerTableRecord
  2
DEFAULT_3
 70
0
 62
7
  6
PHANTOM
370
-3
390
F
  0
LAYER
  5
1FD
100
AcDbSymbolTableRecord
100
AcDbLayerTableRecord
  2
50350
 70
0
 62
7
  6
CONTINUOUS
370
-3
390
F
  0
LAYER
  5
1FE
100
AcDbSymbolTableRecord
100
AcDbLayerTableRecord
  2
50355
 70
0
 62
7
  6
CONTINUOUS
370
-3
390
F
  0
LAYER
  5
1FF
100
AcDbSymbolTableRecord
100
AcDbLayerTableRecord
  2
50359
 70
0
 62
7
  6
CONTINUOUS
370
-3
390
F
  0
LAYER
  5
200
100
AcDbSymbolTableRecord
100
AcDbLayerTableRecord
  2
50362
 70
0
 62
7
  6
CONTINUOUS
370
-3
390
F
  0
LAYER
  5
201
100
AcDbSymbolTableRecord
100
AcDbLayerTableRecord
  2
50663
 70
0
 62
7
  6
CONTINUOUS
370
-3
390
F
  0
LAYER
  5
202
100
AcDbSymbolTableRecord
100
AcDbLayerTableRecord
  2
50664
 70
0
 62
7
  6
CONTINUOUS
370
-3
390
F
  0
LAYER
  5
203
100
AcDbSymbolTableRecord
100
AcDbLayerTableRecord
  2
50668
 70
0
 62
7
  6
CONTINUOUS
370
-3
390
F
  0
LAYER
  5
204
100
AcDbSymbolTableRecord
100
AcDbLayerTableRecord
  2
50675
 70
0
 62
7
  6
CONTINUOUS
370
-3
390
F
  0
LAYER
  5
205
100
AcDbSymbolTableRecord
100
AcDbLayerTableRecord
  2
50677
 70
0
 62
7
  6
CONTINUOUS
370
-3
390
F
  0
LAYER
  5
206
100
AcDbSymbolTableRecord
100
AcDbLayerTableRecord
  2
50678
 70
0
 62
7
  6
CONTINUOUS
370
-3
390
F
  0
LAYER
  5
207
100
AcDbSymbolTableRecord
100
AcDbLayerTableRecord
  2
6-403
 70
0
 62
7
  6
CONTINUOUS
370
-3
390
F
  0
LAYER
  5
208
100
AcDbSymbolTableRecord
100
AcDbLayerTableRecord
  2
92073
 70
0
 62
7
  6
CONTINUOUS
370
-3
390
F
  0
LAYER
  5
209
100
AcDbSymbolTableRecord
100
AcDbLayerTableRecord
  2
DEFAULT_COORDINATE_SYSTEM
 70
0
 62
7
  6
CONTINUOUS
370
-3
390
F
  0
LAYER
  5
20A
100
AcDbSymbolTableRecord
100
AcDbLayerTableRecord
  2
DEFAULT_DATUM_AXES
 70
0
 62
7
  6
CONTINUOUS
370
-3
390
F
  0
LAYER
  5
20B
100
AcDbSymbolTableRecord
100
AcDbLayerTableRecord
  2
DEFAULT_DATUM_PLANES
 70
0
 62
7
  6
CONTINUOUS
370
-3
390
F
  0
LAYER
  5
20C
100
AcDbSymbolTableRecord
100
AcDbLayerTableRecord
  2
INTF_50350
 70
0
 62
7
  6
CONTINUOUS
370
-3
390
F
  0
LAYER
  5
20D
100
AcDbSymbolTableRecord
100
AcDbLayerTableRecord
  2
INTF_50355
 70
0
 62
7
  6
CONTINUOUS
370
-3
390
F
  0
LAYER
  5
20E
100
AcDbSymbolTableRecord
100
AcDbLayerTableRecord
  2
INTF_50359
 70
0
 62
7
  6
CONTINUOUS
370
-3
390
F
  0
LAYER
  5
20F
100
AcDbSymbolTableRecord
100
AcDbLayerTableRecord
  2
INTF_50362
 70
0
 62
7
  6
CONTINUOUS
370
-3
390
F
  0
LAYER
  5
210
100
AcDbSymbolTableRecord
100
AcDbLayerTableRecord
  2
INTF_50663
 70
0
 62
7
  6
CONTINUOUS
370
-3
390
F
  0
LAYER
  5
211
100
AcDbSymbolTableRecord
100
AcDbLayerTableRecord
  2
INTF_50664
 70
0
 62
7
  6
CONTINUOUS
370
-3
390
F
  0
LAYER
  5
212
100
AcDbSymbolTableRecord
100
AcDbLayerTableRecord
  2
INTF_50668
 70
0
 62
7
  6
CONTINUOUS
370
-3
390
F
  0
LAYER
  5
213
100
AcDbSymbolTableRecord
100
AcDbLayerTableRecord
  2
INTF_50675
 70
0
 62
7
  6
CONTINUOUS
370
-3
390
F
  0
LAYER
  5
214
100
AcDbSymbolTableRecord
100
AcDbLayerTableRecord
  2
INTF_50677
 70
0
 62
7
  6
CONTINUOUS
370
-3
390
F
  0
LAYER
  5
215
100
AcDbSymbolTableRecord
100
AcDbLayerTableRecord
  2
INTF_50678
 70
0
 62
7
  6
CONTINUOUS
370
-3
390
F
  0
LAYER
  5
216
100
AcDbSymbolTableRecord
100
AcDbLayerTableRecord
  2
INTF_92073
 70
0
 62
7
  6
CONTINUOUS
370
-3
390
F
  0
LAYER
  5
217
100
AcDbSymbolTableRecord
100
AcDbLayerTableRecord
  2
INTF_BLANK
 70
0
 62
7
  6
CONTINUOUS
370
-3
390
F
  0
LAYER
  5
218
100
AcDbSymbolTableRecord
100
AcDbLayerTableRecord
  2
NONE
 70
0
 62
7
  6
CONTINUOUS
370
-3
390
F
  0
LAYER
  5
219
100
AcDbSymbolTableRecord
100
AcDbLayerTableRecord
  2
PLATED_SURFACE
 70
0
 62
7
  6
CONTINUOUS
370
-3
390
F
  0
LAYER
  5
21A
100
AcDbSymbolTableRecord
100
AcDbLayerTableRecord
  2
_BLACK_HOLE
 70
0
 62
7
  6
CONTINUOUS
370
-3
390
F
  0
ENDTAB
  0
TABLE
  2
STYLE
  5
3
100
AcDbSymbolTable
 70
1
  0
STYLE
  5
11
100
AcDbSymbolTableRecord
100
AcDbTextStyleTableRecord
  2
STANDARD
 70
0
 40
0.0
 41
0.8
 50
0.0
 71
0
 42
0.2
  3
txt
  4

  0
STYLE
  5
21B
100
AcDbSymbolTableRecord
100
AcDbTextStyleTableRecord
  2
TEXTSTYLE_1
 70
0
 40
0.0
 41
0.8
 50
0.0
 71
0
 42
0.2
  3
gdt
  4

  0
ENDTAB
  0
TABLE
  2
VIEW
  5
6
100
AcDbSymbolTable
 70
0
  0
ENDTAB
  0
TABLE
  2
UCS
  5
7
100
AcDbSymbolTable
 70
0
  0
ENDTAB
  0
TABLE
  2
APPID
  5
9
100
AcDbSymbolTable
 70
1
  0
APPID
  5
21C
100
AcDbSymbolTableRecord
100
AcDbRegAppTableRecord
  2
ACAD
 70
0
  0
ENDTAB
  0
TABLE
  2
BLOCK_RECORD
  5
1
100
AcDbSymbolTable
 70
0
  0
BLOCK_RECORD
  5
21D
100
AcDbSymbolTableRecord
100
AcDbBlockTableRecord
  2
*Model_Space
  0
BLOCK_RECORD
  5
21E
100
AcDbSymbolTableRecord
100
AcDbBlockTableRecord
  2
*Paper_Space
  0
BLOCK_RECORD
  5
21F
100
AcDbSymbolTableRecord
100
AcDbBlockTableRecord
  2
_FILLED
  0
ENDTAB
  0
TABLE
  2
DIMSTYLE
  5
A
100
AcDbSymbolTable
 70
1
100
AcDbDimStyleTable
 71
0
  0
DIMSTYLE
105
220
100
AcDbSymbolTableRecord
100
AcDbDimStyleTableRecord
  2
STANDARD
 70
0
  3

  4

 40
1.0
 41
0.1
 42
0.0625
 43
0.38
 44
0.125
 45
0.0
 46
0.0
 47
0.001
 48
0.001
140
0.08
141
0.09
142
0.0
143
25.4
144
1.0
145
0.0
146
1.0
147
0.09
 71
1.0
 72
0.0
 73
1
 74
1
 75
0
 76
0
 77
0
 78
4
 79
1
170
1
171
2
172
0
173
0
174
0
175
0
176
0
177
0
178
0
270
2
179
3
271
3
272
3
273
2
274
2
275
0
280
0
281
0
282
0
283
1
284
4
285
0
286
0
287
3
288
0
340
11
278
46
341
21F
342
21F
343
21F
344
21F
  0
ENDTAB
  0
ENDSEC
  0
SECTION
  2
BLOCKS
  0
BLOCK
  5
20
100
AcDbEntity
  8
0
100
AcDbBlockBegin
  2
*Model_Space
 70
0
 10
0.0
 20
0.0
 30
0.0
  3
*Model_Space
  1

  0
ENDBLK
  5
21
100
AcDbEntity
  8
0
100
AcDbBlockEnd
  0
BLOCK
  5
1C
100
AcDbEntity
  8
0
100
AcDbBlockBegin
  2
*Paper_Space
 70
0
 10
0.0
 20
0.0
 30
0.0
  3
*Paper_Space
  1

  0
ENDBLK
  5
1D
100
AcDbEntity
  8
0
100
AcDbBlockEnd
  0
BLOCK
  5
221
100
AcDbEntity
  8
0
100
AcDbBlockBegin
  2
_FILLED
 70
64
 10
0.0
 20
0.0
  3
_FILLED
  1

  0
SOLID
  5
222
100
AcDbEntity
  8
0
  6
BYBLOCK
 62
0
100
AcDbTrace
 10
0.0
 20
0.0
 11
-1.0
 21
0.2
 12
-1.0
 22
-0.2
 13
-1.0
 23
-0.2
  0
ENDBLK
  5
223
100
AcDbEntity
  8
0
  6
BYBLOCK
 62
0
100
AcDbBlockEnd
  0
ENDSEC
  0
SECTION
  2
ENTITIES
  0
MTEXT
  5
224
100
AcDbEntity
  8
0
100
AcDbMText
 62
7
  6
CONTINUOUS
  7
STANDARD
 71
1
 72
1
 10
9.6448563665
 20
0.3642041925
 30
0.0
 11
1.0
 21
0.0
 31
0.0
 73
2
 44
0.9
  1
SCALE: 3.00
 40
0.08
 41
0.704
  0
LINE
  5
225
100
AcDbEntity
  8
0
100
AcDbLine
 62
7
  6
CONTINUOUS
 10
0.0
 20
0.0
 11
0.0
 21
8.5
  0
LINE
  5
226
100
AcDbEntity
  8
0
100
AcDbLine
 62
7
  6
CONTINUOUS
 10
0.0
 20
0.0
 11
11.0
 21
0.0
  0
LINE
  5
227
100
AcDbEntity
  8
0
100
AcDbLine
 62
7
  6
CONTINUOUS
 10
0.0
 20
8.5
 11
11.0
 21
8.5
  0
LINE
  5
228
100
AcDbEntity
  8
0
100
AcDbLine
 62
7
  6
CONTINUOUS
 10
11.0
 20
0.0
 11
11.0
 21
8.5
  0
LINE
  5
229
100
AcDbEntity
  8
0
100
AcDbLine
 62
7
  6
CONTINUOUS
 10
5.7701746894
 20
0.6912230952
 11
5.7626572861
 21
0.6906996543
  0
LINE
  5
22A
100
AcDbEntity
  8
0
100
AcDbLine
 62
7
  6
CONTINUOUS
 10
5.7701746894
 20
0.6912230953
 11
5.7238064291
 21
0.6882170296
  0
LINE
  5
22B
100
AcDbEntity
  8
0
100
AcDbLine
 62
9
  6
CONTINUOUS
 10
4.8220531454
 20
0.6383908371
 11
5.7282962335
 21
0.6383908371
  0
LINE
  5
22C
100
AcDbEntity
  8
0
100
AcDbLine
 62
7
  6
CONTINUOUS
 10
4.8264827544
 20
0.6882024265
 11
4.7801746895
 21
0.6912230951
  0
LINE
  5
22D
100
AcDbEntity
  8
0
100
AcDbLine
 62
7
  6
CONTINUOUS
 10
4.7820489221
 20
0.691087264
 11
4.7801746894
 21
0.691223095
  0
LINE
  5
22E
100
AcDbEntity
  8
0
100
AcDbLine
 62
7
  6
CONTINUOUS
 10
3.6507268375
 20
1.5519577522
 11
6.8996225414
 21
1.5519577522
  0
LINE
  5
22F
100
AcDbEntity
  8
0
100
AcDbLine
 62
7
  6
CONTINUOUS
 10
5.8376746894
 20
1.6149577522
 11
5.8332319635
 21
1.6149577522
  0
LINE
  5
230
100
AcDbEntity
  8
0
100
AcDbLine
 62
7
  6
CONTINUOUS
 10
5.8237090008
 20
1.6149577522
 11
5.7754449828
 21
1.6149577522
  0
LINE
  5
231
100
AcDbEntity
  8
0
100
AcDbLine
 62
7
  6
CONTINUOUS
 10
5.7480247047
 20
1.6149577522
 11
5.6573180216
 21
1.6149577522
  0
LINE
  5
232
100
AcDbEntity
  8
0
100
AcDbLine
 62
7
  6
CONTINUOUS
 10
5.6153077182
 20
1.6149577522
 11
5.4930989347
 21
1.6149577522
  0
LINE
  5
233
100
AcDbEntity
  8
0
100
AcDbLine
 62
7
  6
CONTINUOUS
 10
5.4415656686
 20
1.6149577522
 11
5.3025949676
 21
1.6149577522
  0
LINE
  5
234
100
AcDbEntity
  8
0
100
AcDbLine
 62
7
  6
CONTINUOUS
 10
5.2477544113
 20
1.6149577522
 11
5.1087837103
 21
1.6149577522
  0
LINE
  5
235
100
AcDbEntity
  8
0
100
AcDbLine
 62
7
  6
CONTINUOUS
 10
5.0572504442
 20
1.6149577522
 11
4.9350416607
 21
1.6149577522
  0
LINE
  5
236
100
AcDbEntity
  8
0
100
AcDbLine
 62
7
  6
CONTINUOUS
 10
4.8930313572
 20
1.6149577522
 11
4.8023246742
 21
1.6149577522
  0
LINE
  5
237
100
AcDbEntity
  8
0
100
AcDbLine
 62
7
  6
CONTINUOUS
 10
4.774904396
 20
1.6149577522
 11
4.7266403781
 21
1.6149577522
  0
LINE
  5
238
100
AcDbEntity
  8
0
100
AcDbLine
 62
7
  6
CONTINUOUS
 10
4.7171174154
 20
1.6149577522
 11
4.7126746894
 21
1.6149577522
  0
LINE
  5
239
100
AcDbEntity
  8
0
100
AcDbLine
 62
7
  6
CONTINUOUS
 10
4.331675927
 20
1.7619577522
 11
6.2186734519
 21
1.7619577522
  0
LINE
  5
23A
100
AcDbEntity
  8
0
100
AcDbLine
 62
7
  6
CONTINUOUS
 10
6.2186746894
 20
1.8369577522
 11
4.3316746894
 21
1.8369577522
  0
LINE
  5
23B
100
AcDbEntity
  8
0
100
AcDbLine
 62
7
  6
CONTINUOUS
 10
3.9626746894
 20
2.0090252781
 11
4.3316746894
 21
1.8369577522
  0
LINE
  5
23C
100
AcDbEntity
  8
0
100
AcDbLine
 62
7
  6
CONTINUOUS
 10
4.1486144081
 20
6.2776286156
 11
4.0572265955
 21
6.2248227636
  0
LINE
  5
23D
100
AcDbEntity
  8
0
100
AcDbLine
 62
7
  6
CONTINUOUS
 10
4.1485587868
 20
6.1108555045
 11
4.0572739621
 21
6.0581117579
  0
LWPOLYLINE
  5
23E
100
AcDbEntity
  8
0
100
AcDbPolyline
 62
7
  6
CONTINUOUS
 90
12
 70
0
 10
3.6704248071
 20
1.0005647522
 10
3.672661098
 20
0.9881556841
 10
3.6761559175
 20
0.9761392392
 10
3.680912105
 20
0.9644906263
 10
3.6868658098
 20
0.953397512
 10
3.6939052484
 20
0.9430467866
 10
3.7020342252
 20
0.9334328939
 10
3.7111194798
 20
0.924728989
 10
3.721010188
 20
0.9170630233
 10
3.7317292449
 20
0.9104227012
 10
3.7431669931
 20
0.9049098495
 10
3.7533947985
 20
0.9011670192
  0
LINE
  5
23F
100
AcDbEntity
  8
0
100
AcDbLine
 62
7
  6
CONTINUOUS
 10
3.6695502954
 20
1.0114327832
 11
3.6704248071
 21
1.0005647522
  0
LINE
  5
240
100
AcDbEntity
  8
0
100
AcDbLine
 62
7
  6
CONTINUOUS
 10
4.0564246894
 20
6.0571292371
 11
4.0572739551
 21
6.0581203453
  0
LINE
  5
241
100
AcDbEntity
  8
0
100
AcDbLine
 62
7
  6
CONTINUOUS
 10
4.1051746894
 20
5.9184750622
 11
4.1060697657
 21
5.9195135379
  0
LINE
  5
242
100
AcDbEntity
  8
0
100
AcDbLine
 62
7
  6
CONTINUOUS
 10
4.1485549953
 20
5.9440609961
 11
4.1060697665
 21
5.9195126165
  0
LINE
  5
243
100
AcDbEntity
  8
0
100
AcDbLine
 62
7
  6
CONTINUOUS
 10
4.1060697657
 20
5.9195135379
 11
4.1069990504
 21
5.9199577522
  0
LINE
  5
244
100
AcDbEntity
  8
0
100
AcDbLine
 62
7
  6
CONTINUOUS
 10
4.0571574124
 20
2.8086955396
 11
4.1293995895
 21
2.7669577522
  0
LINE
  5
245
100
AcDbEntity
  8
0
100
AcDbLine
 62
7
  6
CONTINUOUS
 10
4.0564246894
 20
2.8094870968
 11
4.0571573878
 21
2.8086592434
  0
LINE
  5
246
100
AcDbEntity
  8
0
100
AcDbLine
 62
7
  6
CONTINUOUS
 10
3.6695541004
 20
1.0113221569
 11
3.6506746894
 21
1.5519577522
  0
LINE
  5
247
100
AcDbEntity
  8
0
100
AcDbLine
 62
7
  6
CONTINUOUS
 10
4.0571124878
 20
2.9587329652
 11
4.1484478
 21
2.9059646455
  0
LINE
  5
248
100
AcDbEntity
  8
0
100
AcDbLine
 62
7
  6
CONTINUOUS
 10
4.1476862613
 20
2.9068442082
 11
4.1484478
 21
2.9059646455
  0
LINE
  5
249
100
AcDbEntity
  8
0
100
AcDbLine
 62
7
  6
CONTINUOUS
 10
4.0564246894
 20
2.9594870968
 11
4.0571124563
 21
2.9586850308
  0
LINE
  5
24A
100
AcDbEntity
  8
0
100
AcDbLine
 62
7
  6
CONTINUOUS
 10
5.2594181586
 20
2.9252491351
 11
5.2753731484
 21
2.9255869254
  0
LINE
  5
24B
100
AcDbEntity
  8
0
100
AcDbLine
 62
7
  6
CONTINUOUS
 10
5.274976006
 20
2.9443285176
 11
5.259425286
 21
2.943999286
  0
LINE
  5
24C
100
AcDbEntity
  8
0
100
AcDbLine
 62
7
  6
CONTINUOUS
 10
3.9851746894
 20
2.6919577522
 11
6.5651746894
 21
2.6919577522
  0
LINE
  5
24D
100
AcDbEntity
  8
0
100
AcDbLine
 62
7
  6
CONTINUOUS
 10
3.9851746894
 20
2.7669577522
 11
6.5651746894
 21
2.7669577522
  0
LINE
  5
24E
100
AcDbEntity
  8
0
100
AcDbLine
 62
7
  6
CONTINUOUS
 10
3.9626746894
 20
7.9974577522
 11
3.9626746894
 21
6.3099577522
  0
LINE
  5
24F
100
AcDbEntity
  8
0
100
AcDbLine
 62
7
  6
CONTINUOUS
 10
3.9626746894
 20
2.0090263382
 11
3.9626746894
 21
2.6814647699
  0
LINE
  5
250
100
AcDbEntity
  8
0
100
AcDbLine
 62
7
  6
CONTINUOUS
 10
3.9851746894
 20
2.6919577522
 11
3.9851746894
 21
2.7669577522
  0
LINE
  5
251
100
AcDbEntity
  8
0
100
AcDbLine
 62
9
  6
CONTINUOUS
 10
4.0376746894
 20
2.606086125
 11
4.0376746894
 21
2.084404983
  0
LINE
  5
252
100
AcDbEntity
  8
0
100
AcDbLine
 62
7
  6
CONTINUOUS
 10
4.0564246894
 20
3.1449577522
 11
4.0564246894
 21
2.9594870968
  0
LINE
  5
253
100
AcDbEntity
  8
0
100
AcDbLine
 62
7
  6
CONTINUOUS
 10
4.0564246894
 20
2.8354284077
 11
4.0564246894
 21
2.8094870968
  0
LINE
  5
254
100
AcDbEntity
  8
0
100
AcDbLine
 62
7
  6
CONTINUOUS
 10
4.0564246894
 20
6.0143896963
 11
4.0564246894
 21
6.0571282196
  0
LINE
  5
255
100
AcDbEntity
  8
0
100
AcDbLine
 62
7
  6
CONTINUOUS
 10
4.0564246894
 20
6.1811890354
 11
4.0564246894
 21
6.2238941608
  0
LINE
  5
256
100
AcDbEntity
  8
0
100
AcDbLine
 62
7
  6
CONTINUOUS
 10
4.0751746894
 20
3.4449577522
 11
4.0751746894
 21
5.3949577522
  0
LINE
  5
257
100
AcDbEntity
  8
0
100
AcDbLine
 62
7
  6
CONTINUOUS
 10
4.1051746894
 20
5.3949577522
 11
4.1051746894
 21
5.9184732479
  0
LINE
  5
258
100
AcDbEntity
  8
0
100
AcDbLine
 62
7
  6
CONTINUOUS
 10
4.1476263773
 20
6.1285291651
 11
4.1476263773
 21
6.1097791651
  0
LINE
  5
259
100
AcDbEntity
  8
0
100
AcDbLine
 62
7
  6
CONTINUOUS
 10
4.1476275945
 20
5.9617391896
 11
4.1476275945
 21
5.9429891896
  0
LINE
  5
25A
100
AcDbEntity
  8
0
100
AcDbLine
 62
7
  6
CONTINUOUS
 10
4.1476814176
 20
6.2953018365
 11
4.1476814176
 21
6.2765518365
  0
LINE
  5
25B
100
AcDbEntity
  8
0
100
AcDbLine
 62
7
  6
CONTINUOUS
 10
4.1476862613
 20
2.9068442082
 11
4.1476862613
 21
2.8880942082
  0
LINE
  5
25C
100
AcDbEntity
  8
0
100
AcDbLine
 62
7
  6
CONTINUOUS
 10
4.1501746894
 20
3.1449577522
 11
4.1501746894
 21
3.4449577522
  0
LINE
  5
25D
100
AcDbEntity
  8
0
100
AcDbLine
 62
7
  6
CONTINUOUS
 10
6.4017326835
 20
6.2108511232
 11
6.4930582571
 21
6.2636210983
  0
LINE
  5
25E
100
AcDbEntity
  8
0
100
AcDbLine
 62
7
  6
CONTINUOUS
 10
4.3376746894
 20
4.9612236296
 11
5.2751746894
 21
5.502489507
  0
LINE
  5
25F
100
AcDbEntity
  8
0
100
AcDbLine
 62
7
  6
CONTINUOUS
 10
4.0564246894
 20
3.1449577522
 11
6.4939246894
 21
3.1449577522
  0
LINE
  5
260
100
AcDbEntity
  8
0
100
AcDbLine
 62
7
  6
CONTINUOUS
 10
4.3316746894
 20
1.8369577522
 11
4.3316746894
 21
1.7619577522
  0
LINE
  5
261
100
AcDbEntity
  8
0
100
AcDbLine
 62
7
  6
CONTINUOUS
 10
4.3376746894
 20
3.8786918749
 11
4.3376746894
 21
4.9612236296
  0
LINE
  5
262
100
AcDbEntity
  8
0
100
AcDbLine
 62
7
  6
CONTINUOUS
 10
4.4781184146
 20
3.4449577522
 11
4.4781184146
 21
3.7976066523
  0
LINE
  5
263
100
AcDbEntity
  8
0
100
AcDbLine
 62
7
  6
CONTINUOUS
 10
4.4781184146
 20
5.0423088521
 11
4.4781184146
 21
5.3949577522
  0
LINE
  5
264
100
AcDbEntity
  8
0
100
AcDbLine
 62
7
  6
CONTINUOUS
 10
6.4017282867
 20
6.0440453895
 11
6.4930480327
 21
6.0968122063
  0
LINE
  5
265
100
AcDbEntity
  8
0
100
AcDbLine
 62
7
  6
CONTINUOUS
 10
4.0751746894
 20
3.4449577522
 11
5.0889242268
 21
3.4449577522
  0
LINE
  5
266
100
AcDbEntity
  8
0
100
AcDbLine
 62
7
  6
CONTINUOUS
 10
5.4614251521
 20
3.4449577522
 11
6.4751746894
 21
3.4449577522
  0
LINE
  5
267
100
AcDbEntity
  8
0
100
AcDbLine
 62
7
  6
CONTINUOUS
 10
6.5651746894
 20
2.6919577522
 11
6.5876746894
 21
2.6814658299
  0
LINE
  5
268
100
AcDbEntity
  8
0
100
AcDbLine
 62
7
  6
CONTINUOUS
 10
5.2751746894
 20
3.3374259975
 11
4.3376746894
 21
3.8786918749
  0
LINE
  5
269
100
AcDbEntity
  8
0
100
AcDbLine
 62
9
  6
CONTINUOUS
 10
4.5907615948
 20
1.5519577522
 11
4.6052042488
 21
1.0167922232
  0
LINE
  5
26A
100
AcDbEntity
  8
0
100
AcDbLine
 62
7
  6
CONTINUOUS
 10
4.5626746894
 20
5.3949577522
 11
4.5626746894
 21
5.0911274402
  0
LINE
  5
26B
100
AcDbEntity
  8
0
100
AcDbLine
 62
7
  6
CONTINUOUS
 10
4.5626746894
 20
3.7487880643
 11
4.5626746894
 21
3.4449577522
  0
LINE
  5
26C
100
AcDbEntity
  8
0
100
AcDbLine
 62
7
  6
CONTINUOUS
 10
4.7126746894
 20
1.6149577522
 11
4.7126746894
 21
1.7619577522
  0
LINE
  5
26D
100
AcDbEntity
  8
0
100
AcDbLine
 62
7
  6
CONTINUOUS
 10
4.7171174154
 20
1.5519577522
 11
4.7171174154
 21
1.6149577522
  0
LINE
  5
26E
100
AcDbEntity
  8
0
100
AcDbLine
 62
7
  6
CONTINUOUS
 10
4.7266403781
 20
1.6149577522
 11
4.7266403781
 21
1.5519577522
  0
LINE
  5
26F
100
AcDbEntity
  8
0
100
AcDbLine
 62
7
  6
CONTINUOUS
 10
6.4832094041
 20
2.7669577522
 11
6.4018800456
 21
2.8139463347
  0
LINE
  5
270
100
AcDbEntity
  8
0
100
AcDbLine
 62
7
  6
CONTINUOUS
 10
6.4932280402
 20
2.9111834284
 11
6.4018866114
 21
2.9639559805
  0
LINE
  5
271
100
AcDbEntity
  8
0
100
AcDbLine
 62
7
  6
CONTINUOUS
 10
4.774904396
 20
1.5519577522
 11
4.774904396
 21
1.6149577522
  0
LINE
  5
272
100
AcDbEntity
  8
0
100
AcDbLine
 62
7
  6
CONTINUOUS
 10
4.7781184146
 20
3.4449577522
 11
4.7781184146
 21
3.6244015716
  0
LINE
  5
273
100
AcDbEntity
  8
0
100
AcDbLine
 62
7
  6
CONTINUOUS
 10
4.7781184146
 20
5.2155139329
 11
4.7781184146
 21
5.3949577522
  0
LINE
  5
274
100
AcDbEntity
  8
0
100
AcDbLine
 62
7
  6
CONTINUOUS
 10
4.8023246742
 20
1.6149577522
 11
4.8023246742
 21
1.5519577522
  0
LINE
  5
275
100
AcDbEntity
  8
0
100
AcDbLine
 62
7
  6
CONTINUOUS
 10
4.8805955426
 20
1.6149577522
 11
4.8805955426
 21
1.5519577522
  0
LINE
  5
276
100
AcDbEntity
  8
0
100
AcDbLine
 62
7
  6
CONTINUOUS
 10
4.8930313572
 20
1.5519577522
 11
4.8930313572
 21
1.6149577522
  0
LINE
  5
277
100
AcDbEntity
  8
0
100
AcDbLine
 62
7
  6
CONTINUOUS
 10
4.9350416607
 20
1.6149577522
 11
4.9350416607
 21
1.5519577522
  0
LINE
  5
278
100
AcDbEntity
  8
0
100
AcDbLine
 62
7
  6
CONTINUOUS
 10
5.0109343084
 20
1.6149577522
 11
5.0109343084
 21
1.5519577522
  0
LINE
  5
279
100
AcDbEntity
  8
0
100
AcDbLine
 62
7
  6
CONTINUOUS
 10
5.0369150705
 20
1.6149577522
 11
5.0369150705
 21
1.5519577522
  0
LINE
  5
27A
100
AcDbEntity
  8
0
100
AcDbLine
 62
7
  6
CONTINUOUS
 10
6.4026742254
 20
6.2119390022
 11
6.4017326835
 21
6.2108511232
  0
LINE
  5
27B
100
AcDbEntity
  8
0
100
AcDbLine
 62
7
  6
CONTINUOUS
 10
6.4939246894
 20
6.2645879416
 11
6.4930582852
 21
6.2635868672
  0
LINE
  5
27C
100
AcDbEntity
  8
0
100
AcDbLine
 62
7
  6
CONTINUOUS
 10
6.4939246894
 20
6.097787943
 11
6.4930480585
 21
6.0967809757
  0
LINE
  5
27D
100
AcDbEntity
  8
0
100
AcDbLine
 62
7
  6
CONTINUOUS
 10
5.0572504442
 20
1.5519577522
 11
5.0572504442
 21
1.6149577522
  0
LINE
  5
27E
100
AcDbEntity
  8
0
100
AcDbLine
 62
7
  6
CONTINUOUS
 10
5.1087837103
 20
1.6149577522
 11
5.1087837103
 21
1.5519577522
  0
LINE
  5
27F
100
AcDbEntity
  8
0
100
AcDbLine
 62
7
  6
CONTINUOUS
 10
5.1731443639
 20
1.6149577522
 11
5.1731443639
 21
1.5519577522
  0
LINE
  5
280
100
AcDbEntity
  8
0
100
AcDbLine
 62
9
  6
CONTINUOUS
 10
5.2001746894
 20
2.084404983
 11
5.2001746894
 21
2.606086125
  0
LINE
  5
281
100
AcDbEntity
  8
0
100
AcDbLine
 62
7
  6
CONTINUOUS
 10
5.2026885965
 20
1.6149577522
 11
5.2026885965
 21
1.5519577522
  0
LINE
  5
282
100
AcDbEntity
  8
0
100
AcDbLine
 62
7
  6
CONTINUOUS
 10
5.2279246894
 20
0.5840052832
 11
5.2279246894
 21
0.545132723
  0
LINE
  5
283
100
AcDbEntity
  8
0
100
AcDbLine
 62
7
  6
CONTINUOUS
 10
5.2477544113
 20
1.5519577522
 11
5.2477544113
 21
1.6149577522
  0
LINE
  5
284
100
AcDbEntity
  8
0
100
AcDbLine
 62
7
  6
CONTINUOUS
 10
5.2751746894
 20
7.9974577522
 11
5.2751746894
 21
6.3099577522
  0
LINE
  5
285
100
AcDbEntity
  8
0
100
AcDbLine
 62
7
  6
CONTINUOUS
 10
5.2751746894
 20
0.6744345098
 11
5.2751746894
 21
0.6383911086
  0
LINE
  5
286
100
AcDbEntity
  8
0
100
AcDbLine
 62
7
  6
CONTINUOUS
 10
5.2751746894
 20
4.616522791
 11
5.2751746894
 21
4.6667743867
  0
LINE
  5
287
100
AcDbEntity
  8
0
100
AcDbLine
 62
7
  6
CONTINUOUS
 10
5.3025949676
 20
1.6149577522
 11
5.3025949676
 21
1.5519577522
  0
LINE
  5
288
100
AcDbEntity
  8
0
100
AcDbLine
 62
7
  6
CONTINUOUS
 10
4.0564246894
 20
2.8354284077
 11
4.0571491457
 21
2.8362515912
  0
LINE
  5
289
100
AcDbEntity
  8
0
100
AcDbLine
 62
7
  6
CONTINUOUS
 10
6.4018800456
 20
2.8139463347
 11
6.4026418278
 21
2.8130665672
  0
LINE
  5
28A
100
AcDbEntity
  8
0
100
AcDbLine
 62
7
  6
CONTINUOUS
 10
6.4026490772
 20
2.9630751629
 11
6.4018866114
 21
2.9639559805
  0
LINE
  5
28B
100
AcDbEntity
  8
0
100
AcDbLine
 62
7
  6
CONTINUOUS
 10
6.4939246894
 20
2.9104284077
 11
6.4932280748
 21
2.9112356168
  0
LINE
  5
28C
100
AcDbEntity
  8
0
100
AcDbLine
 62
7
  6
CONTINUOUS
 10
5.3224246894
 20
0.5840052832
 11
5.3224246894
 21
0.545132723
  0
LINE
  5
28D
100
AcDbEntity
  8
0
100
AcDbLine
 62
7
  6
CONTINUOUS
 10
5.3476607824
 20
1.6149577522
 11
5.3476607824
 21
1.5519577522
  0
LINE
  5
28E
100
AcDbEntity
  8
0
100
AcDbLine
 62
9
  6
CONTINUOUS
 10
5.3501746894
 20
2.606086125
 11
5.3501746894
 21
2.084404983
  0
LINE
  5
28F
100
AcDbEntity
  8
0
100
AcDbLine
 62
7
  6
CONTINUOUS
 10
5.377205015
 20
1.6149577522
 11
5.377205015
 21
1.5519577522
  0
LINE
  5
290
100
AcDbEntity
  8
0
100
AcDbLine
 62
7
  6
CONTINUOUS
 10
5.4415656686
 20
1.5519577522
 11
5.4415656686
 21
1.6149577522
  0
LINE
  5
291
100
AcDbEntity
  8
0
100
AcDbLine
 62
7
  6
CONTINUOUS
 10
5.4930989347
 20
1.6149577522
 11
5.4930989347
 21
1.5519577522
  0
LINE
  5
292
100
AcDbEntity
  8
0
100
AcDbLine
 62
7
  6
CONTINUOUS
 10
5.5134343084
 20
1.6149577522
 11
5.5134343084
 21
1.5519577522
  0
LINE
  5
293
100
AcDbEntity
  8
0
100
AcDbLine
 62
7
  6
CONTINUOUS
 10
5.5394150705
 20
1.6149577522
 11
5.5394150705
 21
1.5519577522
  0
LINE
  5
294
100
AcDbEntity
  8
0
100
AcDbLine
 62
7
  6
CONTINUOUS
 10
4.1476862613
 20
2.8880942082
 11
4.1484448468
 21
2.8889712104
  0
LINE
  5
295
100
AcDbEntity
  8
0
100
AcDbLine
 62
7
  6
CONTINUOUS
 10
5.7197779211
 20
4.3904769835
 11
5.7240319661
 21
4.3907297757
  0
LINE
  5
296
100
AcDbEntity
  8
0
100
AcDbLine
 62
7
  6
CONTINUOUS
 10
5.7239809303
 20
4.3889376712
 11
5.721944038
 21
4.388818437
  0
LINE
  5
297
100
AcDbEntity
  8
0
100
AcDbLine
 62
7
  6
CONTINUOUS
 10
5.2910264231
 20
4.3658926077
 11
5.2749141194
 21
4.3650716139
  0
LINE
  5
298
100
AcDbEntity
  8
0
100
AcDbLine
 62
7
  6
CONTINUOUS
 10
4.1476275945
 20
5.9617391896
 11
4.1485607113
 21
5.9606619941
  0
LINE
  5
299
100
AcDbEntity
  8
0
100
AcDbLine
 62
7
  6
CONTINUOUS
 10
4.0564246894
 20
6.0143879275
 11
4.0572732687
 21
6.0133972196
  0
LINE
  5
29A
100
AcDbEntity
  8
0
100
AcDbLine
 62
7
  6
CONTINUOUS
 10
5.6153077182
 20
1.5519577522
 11
5.6153077182
 21
1.6149577522
  0
LINE
  5
29B
100
AcDbEntity
  8
0
100
AcDbLine
 62
7
  6
CONTINUOUS
 10
5.6573180216
 20
1.6149577522
 11
5.6573180216
 21
1.5519577522
  0
LINE
  5
29C
100
AcDbEntity
  8
0
100
AcDbLine
 62
7
  6
CONTINUOUS
 10
5.6697538363
 20
1.6149577522
 11
5.6697538363
 21
1.5519577522
  0
LINE
  5
29D
100
AcDbEntity
  8
0
100
AcDbLine
 62
7
  6
CONTINUOUS
 10
5.7480247047
 20
1.5519577522
 11
5.7480247047
 21
1.6149577522
  0
LINE
  5
29E
100
AcDbEntity
  8
0
100
AcDbLine
 62
7
  6
CONTINUOUS
 10
5.7722309643
 20
3.4449577522
 11
5.7722309643
 21
3.6244015716
  0
LINE
  5
29F
100
AcDbEntity
  8
0
100
AcDbLine
 62
7
  6
CONTINUOUS
 10
5.7722309643
 20
5.2155139329
 11
5.7722309643
 21
5.3949577522
  0
LINE
  5
2A0
100
AcDbEntity
  8
0
100
AcDbLine
 62
7
  6
CONTINUOUS
 10
5.7754449828
 20
1.6149577522
 11
5.7754449828
 21
1.5519577522
  0
LINE
  5
2A1
100
AcDbEntity
  8
0
100
AcDbLine
 62
7
  6
CONTINUOUS
 10
5.8237090008
 20
1.5519577522
 11
5.8237090008
 21
1.6149577522
  0
LINE
  5
2A2
100
AcDbEntity
  8
0
100
AcDbLine
 62
7
  6
CONTINUOUS
 10
5.8332319635
 20
1.6149577522
 11
5.8332319635
 21
1.5519577522
  0
LINE
  5
2A3
100
AcDbEntity
  8
0
100
AcDbLine
 62
7
  6
CONTINUOUS
 10
5.8376746894
 20
1.7619577522
 11
5.8376746894
 21
1.6149577522
  0
LINE
  5
2A4
100
AcDbEntity
  8
0
100
AcDbLine
 62
7
  6
CONTINUOUS
 10
4.1476263773
 20
6.1285291651
 11
4.1485542358
 21
6.1274573278
  0
LINE
  5
2A5
100
AcDbEntity
  8
0
100
AcDbLine
 62
7
  6
CONTINUOUS
 10
4.1476814176
 20
6.2953018365
 11
4.1486042217
 21
6.2942338916
  0
LINE
  5
2A6
100
AcDbEntity
  8
0
100
AcDbLine
 62
7
  6
CONTINUOUS
 10
4.0564246894
 20
6.1811879272
 11
4.057282209
 21
6.1801920138
  0
LINE
  5
2A7
100
AcDbEntity
  8
0
100
AcDbLine
 62
7
  6
CONTINUOUS
 10
5.9876746894
 20
3.4449577522
 11
5.9876746894
 21
3.7487880643
  0
LINE
  5
2A8
100
AcDbEntity
  8
0
100
AcDbLine
 62
7
  6
CONTINUOUS
 10
5.9876746894
 20
5.0911274402
 11
5.9876746894
 21
5.3949577522
  0
LINE
  5
2A9
100
AcDbEntity
  8
0
100
AcDbLine
 62
7
  6
CONTINUOUS
 10
6.0722309643
 20
5.3949577522
 11
6.0722309643
 21
5.0423088521
  0
LINE
  5
2AA
100
AcDbEntity
  8
0
100
AcDbLine
 62
7
  6
CONTINUOUS
 10
6.0722309643
 20
3.7976066523
 11
6.0722309643
 21
3.4449577522
  0
LINE
  5
2AB
100
AcDbEntity
  8
0
100
AcDbLine
 62
9
  6
CONTINUOUS
 10
5.9595877841
 20
1.5519577522
 11
5.9451389881
 21
1.016792514
  0
LINE
  5
2AC
100
AcDbEntity
  8
0
100
AcDbLine
 62
7
  6
CONTINUOUS
 10
4.1484448468
 20
2.8889712104
 11
4.057149163
 21
2.8362259078
  0
LINE
  5
2AD
100
AcDbEntity
  8
0
100
AcDbLine
 62
7
  6
CONTINUOUS
 10
6.2126746894
 20
3.8786918749
 11
5.2751746894
 21
3.3374259975
  0
LINE
  5
2AE
100
AcDbEntity
  8
0
100
AcDbLine
 62
7
  6
CONTINUOUS
 10
6.2126746894
 20
4.9612236296
 11
6.2126746894
 21
3.8786918749
  0
LINE
  5
2AF
100
AcDbEntity
  8
0
100
AcDbLine
 62
7
  6
CONTINUOUS
 10
6.2186746894
 20
1.8369577522
 11
6.2186746894
 21
1.7619577522
  0
LINE
  5
2B0
100
AcDbEntity
  8
0
100
AcDbLine
 62
7
  6
CONTINUOUS
 10
3.9851746894
 20
2.6919577522
 11
3.9626746894
 21
2.6814658299
  0
LINE
  5
2B1
100
AcDbEntity
  8
0
100
AcDbLine
 62
7
  6
CONTINUOUS
 10
5.2751746894
 20
5.502489507
 11
6.2126746894
 21
4.9612236296
  0
LINE
  5
2B2
100
AcDbEntity
  8
0
100
AcDbLine
 62
7
  6
CONTINUOUS
 10
4.0572732769
 20
6.0134073363
 11
4.1473945304
 21
5.9613358423
  0
LINE
  5
2B3
100
AcDbEntity
  8
0
100
AcDbLine
 62
7
  6
CONTINUOUS
 10
4.0572822102
 20
6.1801934824
 11
4.1473943175
 21
6.1281275535
  0
LINE
  5
2B4
100
AcDbEntity
  8
0
100
AcDbLine
 62
7
  6
CONTINUOUS
 10
6.4001746894
 20
3.1449577522
 11
6.4001746894
 21
3.4449577522
  0
LINE
  5
2B5
100
AcDbEntity
  8
0
100
AcDbLine
 62
7
  6
CONTINUOUS
 10
6.4026418278
 20
2.8130665672
 11
6.4026418278
 21
2.8318165672
  0
LINE
  5
2B6
100
AcDbEntity
  8
0
100
AcDbLine
 62
7
  6
CONTINUOUS
 10
6.4026490772
 20
2.9630751629
 11
6.4026490772
 21
2.9818251629
  0
LINE
  5
2B7
100
AcDbEntity
  8
0
100
AcDbLine
 62
7
  6
CONTINUOUS
 10
6.4026694667
 20
6.026383153
 11
6.4026694667
 21
6.045133153
  0
LINE
  5
2B8
100
AcDbEntity
  8
0
100
AcDbLine
 62
7
  6
CONTINUOUS
 10
6.4026742254
 20
6.1931890022
 11
6.4026742254
 21
6.2119390022
  0
LINE
  5
2B9
100
AcDbEntity
  8
0
100
AcDbLine
 62
7
  6
CONTINUOUS
 10
6.4451746894
 20
5.3949577522
 11
6.4451746894
 21
5.9199577522
  0
LINE
  5
2BA
100
AcDbEntity
  8
0
100
AcDbLine
 62
7
  6
CONTINUOUS
 10
6.4751746894
 20
5.3949577522
 11
6.4751746894
 21
3.4449577522
  0
LINE
  5
2BB
100
AcDbEntity
  8
0
100
AcDbLine
 62
7
  6
CONTINUOUS
 10
6.4939246894
 20
2.8844870968
 11
6.4939246894
 21
2.9104284077
  0
LINE
  5
2BC
100
AcDbEntity
  8
0
100
AcDbLine
 62
7
  6
CONTINUOUS
 10
6.4939246894
 20
3.0344870968
 11
6.4939246894
 21
3.1449577522
  0
LINE
  5
2BD
100
AcDbEntity
  8
0
100
AcDbLine
 62
7
  6
CONTINUOUS
 10
6.4939246894
 20
5.9199577522
 11
6.4939246894
 21
5.9736947808
  0
LINE
  5
2BE
100
AcDbEntity
  8
0
100
AcDbLine
 62
7
  6
CONTINUOUS
 10
6.4939246894
 20
6.0978223968
 11
6.4939246894
 21
6.1404976541
  0
LINE
  5
2BF
100
AcDbEntity
  8
0
100
AcDbLine
 62
7
  6
CONTINUOUS
 10
6.4939246894
 20
6.2646193599
 11
6.4939246894
 21
6.3072712701
  0
LINE
  5
2C0
100
AcDbEntity
  8
0
100
AcDbLine
 62
9
  6
CONTINUOUS
 10
6.5126746894
 20
2.084404983
 11
6.5126746894
 21
2.606086125
  0
LINE
  5
2C1
100
AcDbEntity
  8
0
100
AcDbLine
 62
7
  6
CONTINUOUS
 10
6.5651746894
 20
2.7669577522
 11
6.5651746894
 21
2.6919577522
  0
LINE
  5
2C2
100
AcDbEntity
  8
0
100
AcDbLine
 62
7
  6
CONTINUOUS
 10
6.5876746894
 20
7.9974577522
 11
6.5876746894
 21
6.3099577522
  0
LINE
  5
2C3
100
AcDbEntity
  8
0
100
AcDbLine
 62
7
  6
CONTINUOUS
 10
6.5876746894
 20
2.6814647699
 11
6.5876746894
 21
2.0090263382
  0
LINE
  5
2C4
100
AcDbEntity
  8
0
100
AcDbLine
 62
7
  6
CONTINUOUS
 10
4.0751746894
 20
5.3949577522
 11
5.0889242268
 21
5.3949577522
  0
LINE
  5
2C5
100
AcDbEntity
  8
0
100
AcDbLine
 62
7
  6
CONTINUOUS
 10
5.4614251521
 20
5.3949577522
 11
6.4751746894
 21
5.3949577522
  0
LINE
  5
2C6
100
AcDbEntity
  8
0
100
AcDbLine
 62
7
  6
CONTINUOUS
 10
4.1234218543
 20
6.3087853206
 11
4.1474497839
 21
6.2949009802
  0
LINE
  5
2C7
100
AcDbEntity
  8
0
100
AcDbLine
 62
7
  6
CONTINUOUS
 10
4.1069990504
 20
5.9199577522
 11
6.4939276628
 21
5.9199577522
  0
LINE
  5
2C8
100
AcDbEntity
  8
0
100
AcDbLine
 62
7
  6
CONTINUOUS
 10
6.8807988961
 20
1.0114257527
 11
6.8996746894
 21
1.5519577522
  0
LINE
  5
2C9
100
AcDbEntity
  8
0
100
AcDbLine
 62
7
  6
CONTINUOUS
 10
6.4026490772
 20
2.9818251629
 11
6.4018883853
 21
2.9809458834
  0
LINE
  5
2CA
100
AcDbEntity
  8
0
100
AcDbLine
 62
7
  6
CONTINUOUS
 10
6.4939246894
 20
3.0344870968
 11
6.4932034353
 21
3.0336657347
  0
LINE
  5
2CB
100
AcDbEntity
  8
0
100
AcDbLine
 62
7
  6
CONTINUOUS
 10
6.4939246894
 20
2.8844870968
 11
6.4931922046
 21
2.883659364
  0
LINE
  5
2CC
100
AcDbEntity
  8
0
100
AcDbLine
 62
7
  6
CONTINUOUS
 10
6.4018883853
 20
2.9809458834
 11
6.4932034101
 21
3.0337031073
  0
LINE
  5
2CD
100
AcDbEntity
  8
0
100
AcDbLine
 62
7
  6
CONTINUOUS
 10
6.4018836382
 20
2.8309399146
 11
6.4931921813
 21
2.8836936263
  0
LINE
  5
2CE
100
AcDbEntity
  8
0
100
AcDbLine
 62
7
  6
CONTINUOUS
 10
6.5876746894
 20
6.3099577522
 11
3.9626746894
 21
6.3099577522
  0
LINE
  5
2CF
100
AcDbEntity
  8
0
100
AcDbLine
 62
7
  6
CONTINUOUS
 10
6.4930493601
 20
5.9747033686
 11
6.4029051022
 21
6.0267909283
  0
LINE
  5
2D0
100
AcDbEntity
  8
0
100
AcDbLine
 62
7
  6
CONTINUOUS
 10
6.4939246894
 20
6.1405292226
 11
6.493041659
 21
6.1415398576
  0
LINE
  5
2D1
100
AcDbEntity
  8
0
100
AcDbLine
 62
7
  6
CONTINUOUS
 10
6.4939246894
 20
5.9737292212
 11
6.4930493865
 21
5.9747354253
  0
LINE
  5
2D2
100
AcDbEntity
  8
0
100
AcDbLine
 62
7
  6
CONTINUOUS
 10
6.4017281417
 20
6.0274710423
 11
6.4026694667
 21
6.026383153
  0
LINE
  5
2D3
100
AcDbEntity
  8
0
100
AcDbLine
 62
7
  6
CONTINUOUS
 10
6.4017345972
 20
6.1942752215
 11
6.4026742254
 21
6.1931890022
  0
LINE
  5
2D4
100
AcDbEntity
  8
0
100
AcDbLine
 62
7
  6
CONTINUOUS
 10
6.4930416393
 20
6.1415160336
 11
6.4029095629
 21
6.1935962641
  0
LINE
  5
2D5
100
AcDbEntity
  8
0
100
AcDbLine
 62
7
  6
CONTINUOUS
 10
6.4939246894
 20
6.3073292101
 11
6.4930082059
 21
6.3083588254
  0
LINE
  5
2D6
100
AcDbEntity
  8
0
100
AcDbLine
 62
7
  6
CONTINUOUS
 10
6.5876746894
 20
2.0090252781
 11
6.2186746894
 21
1.8369577522
  0
LWPOLYLINE
  5
2D7
100
AcDbEntity
  8
0
100
AcDbPolyline
 62
7
  6
CONTINUOUS
 90
12
 70
0
 10
6.8071823846
 20
0.9049098495
 10
6.8186201324
 20
0.9104227007
 10
6.8293391891
 20
0.9170630225
 10
6.8392298972
 20
0.9247289878
 10
6.8483151519
 20
0.9334328923
 10
6.8564441289
 20
0.9430467847
 10
6.8634835678
 20
0.95339751
 10
6.8694372729
 20
0.9644906242
 10
6.8741934608
 20
0.9761392372
 10
6.8776882806
 20
0.9881556824
 10
6.8799245718
 20
1.0005647509
 10
6.8807988385
 20
1.0114257547
  0
LINE
  5
2D8
100
AcDbEntity
  8
0
100
AcDbLine
 62
7
  6
CONTINUOUS
 10
6.7969544571
 20
0.9011669808
 11
6.8071823846
 21
0.9049098495
  0
LINE
  5
2D9
100
AcDbEntity
  8
0
100
AcDbLine
 62
7
  6
CONTINUOUS
 10
6.5876746894
 20
7.9974577522
 11
3.9626746894
 21
7.9974577522
  0
ARC
  5
2DA
100
AcDbEntity
  8
0
100
AcDbCircle
 62
9
  6
CONTINUOUS
 10
3.7360413191
 20
14.5295460413
 40
13.5406779722
100
AcDbArc
 50
273.3390443306
 51
273.6802905091
  0
ARC
  5
2DB
100
AcDbEntity
  8
0
100
AcDbCircle
 62
9
  6
CONTINUOUS
 10
4.0817014341
 20
8.2144873462
 40
7.2167077176
100
AcDbArc
 50
273.5195884813
 51
274.1599121412
  0
ARC
  5
2DC
100
AcDbEntity
  8
0
100
AcDbCircle
 62
7
  6
CONTINUOUS
 10
4.430391668
 20
-0.5338727977
 40
3.2329410661
100
AcDbArc
 50
76.2252116362
 51
76.4795051288
  0
ARC
  5
2DD
100
AcDbEntity
  8
0
100
AcDbCircle
 62
7
  6
CONTINUOUS
 10
4.3441775215
 20
4.4526425817
 40
1.8564053854
100
AcDbArc
 50
93.6362173232
 51
94.4833199654
  0
ARC
  5
2DE
100
AcDbEntity
  8
0
100
AcDbCircle
 62
7
  6
CONTINUOUS
 10
5.0798526229
 20
-17.3915689479
 40
20.3073212894
100
AcDbArc
 50
91.7511019115
 51
91.9037657598
  0
ARC
  5
2DF
100
AcDbEntity
  8
0
100
AcDbCircle
 62
7
  6
CONTINUOUS
 10
4.8380746894
 20
0.6699577522
 40
0.0354
100
AcDbArc
 50
146.7485426117
 51
243.0893094774
  0
ARC
  5
2E0
100
AcDbEntity
  8
0
100
AcDbCircle
 62
7
  6
CONTINUOUS
 10
5.2751745076
 20
1.8529061639
 40
1.2697805494
100
AcDbArc
 50
269.2890195607
 51
270.0000082045
  0
ARC
  5
2E1
100
AcDbEntity
  8
0
100
AcDbCircle
 62
7
  6
CONTINUOUS
 10
5.2751664651
 20
1.8522990371
 40
1.2691733694
100
AcDbArc
 50
268.5778144251
 51
269.2890425053
  0
ARC
  5
2E2
100
AcDbEntity
  8
0
100
AcDbCircle
 62
7
  6
CONTINUOUS
 10
5.2751854025
 20
1.8519693138
 40
1.2688436992
100
AcDbArc
 50
269.9995162408
 51
272.1336256196
  0
ARC
  5
2E3
100
AcDbEntity
  8
0
100
AcDbCircle
 62
7
  6
CONTINUOUS
 10
5.2751337922
 20
1.8510314327
 40
1.2679053447
100
AcDbArc
 50
267.866159539
 51
268.5778687362
  0
ARC
  5
2E4
100
AcDbEntity
  8
0
100
AcDbCircle
 62
7
  6
CONTINUOUS
 10
5.2751746894
 20
1.5311306412
 40
1.0011510832
100
AcDbArc
 50
243.0893437986
 51
251.2473120573
  0
ARC
  5
2E5
100
AcDbEntity
  8
0
100
AcDbCircle
 62
7
  6
CONTINUOUS
 10
5.2751746894
 20
1.5311306412
 40
1.0011510832
100
AcDbArc
 50
288.7526879428
 51
296.9106562014
  0
ARC
  5
2E6
100
AcDbEntity
  8
0
100
AcDbCircle
 62
7
  6
CONTINUOUS
 10
5.2751746894
 20
1.5311306412
 40
1.0000354638
100
AcDbArc
 50
279.6113601359
 51
288.7211665166
  0
ARC
  5
2E7
100
AcDbEntity
  8
0
100
AcDbCircle
 62
7
  6
CONTINUOUS
 10
5.2751746894
 20
1.5311306412
 40
1.0000354638
100
AcDbArc
 50
251.2788334834
 51
260.3886398641
  0
ARC
  5
2E8
100
AcDbEntity
  8
0
100
AcDbCircle
 62
7
  6
CONTINUOUS
 10
5.2783321783
 20
8.0301099301
 40
7.3557803658
100
AcDbArc
 50
266.4782670509
 51
266.8150420275
  0
ARC
  5
2E9
100
AcDbEntity
  8
0
100
AcDbCircle
 62
7
  6
CONTINUOUS
 10
5.2756242514
 20
8.0236476818
 40
7.3492131728
100
AcDbArc
 50
268.6790669807
 51
269.9964951348
  0
ARC
  5
2EA
100
AcDbEntity
  8
0
100
AcDbCircle
 62
7
  6
CONTINUOUS
 10
5.2754119542
 20
8.0130700835
 40
7.3386353938
100
AcDbArc
 50
268.6788187667
 51
269.9981475755
  0
ARC
  5
2EB
100
AcDbEntity
  8
0
100
AcDbCircle
 62
7
  6
CONTINUOUS
 10
5.2731513545
 20
8.0108190841
 40
7.3364562866
100
AcDbArc
 50
273.1839982368
 51
273.521713805
  0
ARC
  5
2EC
100
AcDbEntity
  8
0
100
AcDbCircle
 62
7
  6
CONTINUOUS
 10
5.2732464125
 20
8.0097895454
 40
7.3354230625
100
AcDbArc
 50
273.1837098775
 51
273.5215874468
  0
ARC
  5
2ED
100
AcDbEntity
  8
0
100
AcDbCircle
 62
7
  6
CONTINUOUS
 10
5.27520604
 20
7.9853032451
 40
7.3108674543
100
AcDbArc
 50
269.9997543038
 51
273.1790335601
  0
ARC
  5
2EE
100
AcDbEntity
  8
0
100
AcDbCircle
 62
7
  6
CONTINUOUS
 10
5.2753653596
 20
7.9779450602
 40
7.3035103344
100
AcDbArc
 50
269.9985041995
 51
273.1809804609
  0
ARC
  5
2EF
100
AcDbEntity
  8
0
100
AcDbCircle
 62
7
  6
CONTINUOUS
 10
5.2747012148
 20
7.9713550474
 40
7.2969145408
100
AcDbArc
 50
266.8178763856
 51
268.6768457823
  0
ARC
  5
2F0
100
AcDbEntity
  8
0
100
AcDbCircle
 62
7
  6
CONTINUOUS
 10
5.2742884255
 20
7.962226273
 40
7.2877769403
100
AcDbArc
 50
266.8171269339
 51
268.6784344788
  0
ARC
  5
2F1
100
AcDbEntity
  8
0
100
AcDbCircle
 62
7
  6
CONTINUOUS
 10
5.2751746894
 20
5.7279577522
 40
5.061
100
AcDbArc
 50
252.5010061178
 51
264.3871122433
  0
ARC
  5
2F2
100
AcDbEntity
  8
0
100
AcDbCircle
 62
7
  6
CONTINUOUS
 10
5.2751746894
 20
5.7279577522
 40
5.061
100
AcDbArc
 50
275.6128877567
 51
287.4989039172
  0
CIRCLE
  5
2F3
100
AcDbEntity
  8
0
100
AcDbCircle
 62
7
  6
CONTINUOUS
 10
5.2751746894
 20
4.4199577522
 40
0.9375
  0
CIRCLE
  5
2F4
100
AcDbEntity
  8
0
100
AcDbCircle
 62
7
  6
CONTINUOUS
 10
5.2751746894
 20
4.4199577522
 40
0.573
  0
CIRCLE
  5
2F5
100
AcDbEntity
  8
0
100
AcDbCircle
 62
7
  6
CONTINUOUS
 10
5.2751746894
 20
4.4199577522
 40
0.57
  0
ARC
  5
2F6
100
AcDbEntity
  8
0
100
AcDbCircle
 62
7
  6
CONTINUOUS
 10
5.2751746894
 20
4.4199577522
 40
0.45
100
AcDbArc
 50
308.4700371551
 51
231.7466994108
  0
ARC
  5
2F7
100
AcDbEntity
  8
0
100
AcDbCircle
 62
7
  6
CONTINUOUS
 10
0.854113186
 20
197.6452586286
 40
191.7115598392
100
AcDbArc
 50
271.3214877956
 51
271.4694656097
  0
ARC
  5
2F8
100
AcDbEntity
  8
0
100
AcDbCircle
 62
7
  6
CONTINUOUS
 10
-1.1198167079
 20
130.4793862312
 40
126.5759512934
100
AcDbArc
 50
272.8958668264
 51
273.0146396118
  0
ARC
  5
2F9
100
AcDbEntity
  8
0
100
AcDbCircle
 62
7
  6
CONTINUOUS
 10
-0.4852196974
 20
118.0368874408
 40
114.1155686713
100
AcDbArc
 50
272.8934403444
 51
273.0338386611
  0
ARC
  5
2FA
100
AcDbEntity
  8
0
100
AcDbCircle
 62
7
  6
CONTINUOUS
 10
1.6930828529
 20
75.675065451
 40
71.7480208252
100
AcDbArc
 50
272.8617382306
 51
273.2003351994
  0
ARC
  5
2FB
100
AcDbEntity
  8
0
100
AcDbCircle
 62
7
  6
CONTINUOUS
 10
1.8462678021
 20
73.0544819896
 40
68.8234239899
100
AcDbArc
 50
272.8557605444
 51
273.2247576201
  0
ARC
  5
2FC
100
AcDbEntity
  8
0
100
AcDbCircle
 62
7
  6
CONTINUOUS
 10
3.6780545405
 20
39.473045824
 40
35.4432193905
100
AcDbArc
 50
273.0350180484
 51
273.3345244949
  0
ARC
  5
2FD
100
AcDbEntity
  8
0
100
AcDbCircle
 62
7
  6
CONTINUOUS
 10
3.8826205705
 20
35.5195982474
 40
31.4827644351
100
AcDbArc
 50
273.0496588007
 51
273.3845414331
  0
ARC
  5
2FE
100
AcDbEntity
  8
0
100
AcDbCircle
 62
7
  6
CONTINUOUS
 10
8.9357036052
 20
-154.3909533901
 40
160.4173971968
100
AcDbArc
 50
91.3074466444
 51
91.4842333017
  0
ARC
  5
2FF
100
AcDbEntity
  8
0
100
AcDbCircle
 62
7
  6
CONTINUOUS
 10
8.9278307245
 20
-154.0515373138
 40
160.096634637
100
AcDbArc
 50
91.3074064222
 51
91.4845599274
  0
ARC
  5
300
100
AcDbEntity
  8
0
100
AcDbCircle
 62
7
  6
CONTINUOUS
 10
11.6770831309
 20
-122.5157800329
 40
126.7426520493
100
AcDbArc
 50
92.8954220236
 51
93.0131208129
  0
ARC
  5
301
100
AcDbEntity
  8
0
100
AcDbCircle
 62
7
  6
CONTINUOUS
 10
9.2093023523
 20
-74.0496490479
 40
78.8129731722
100
AcDbArc
 50
92.8612392031
 51
93.1448835262
  0
ARC
  5
302
100
AcDbEntity
  8
0
100
AcDbCircle
 62
7
  6
CONTINUOUS
 10
8.9193934025
 20
-68.5042847943
 40
73.2132315976
100
AcDbArc
 50
92.8531017791
 51
93.1772581055
  0
ARC
  5
303
100
AcDbEntity
  8
0
100
AcDbCircle
 62
7
  6
CONTINUOUS
 10
8.9115955021
 20
-68.0784510936
 40
72.785852123
100
AcDbArc
 50
92.8637198466
 51
93.1904982368
  0
ARC
  5
304
100
AcDbEntity
  8
0
100
AcDbCircle
 62
7
  6
CONTINUOUS
 10
8.8531231889
 20
-67.5947700306
 40
71.7005930353
100
AcDbArc
 50
92.860318068
 51
93.1650094702
  0
ARC
  5
305
100
AcDbEntity
  8
0
100
AcDbCircle
 62
7
  6
CONTINUOUS
 10
8.8066589082
 20
-66.3548159252
 40
70.7594972827
100
AcDbArc
 50
92.8607212736
 51
93.2106846002
  0
ARC
  5
306
100
AcDbEntity
  8
0
100
AcDbCircle
 62
7
  6
CONTINUOUS
 10
7.0424669591
 20
-34.4461467624
 40
38.5511511042
100
AcDbArc
 50
93.0422557626
 51
93.2625129115
  0
ARC
  5
307
100
AcDbEntity
  8
0
100
AcDbCircle
 62
7
  6
CONTINUOUS
 10
6.6394390591
 20
-26.9129162558
 40
31.0088213882
100
AcDbArc
 50
93.0371328219
 51
93.3133645802
  0
ARC
  5
308
100
AcDbEntity
  8
0
100
AcDbCircle
 62
9
  6
CONTINUOUS
 10
6.4681605627
 20
8.2072688244
 40
7.2094729885
100
AcDbArc
 50
265.8397406867
 51
266.4807493522
  0
ARC
  5
309
100
AcDbEntity
  8
0
100
AcDbCircle
 62
9
  6
CONTINUOUS
 10
6.4681238696
 20
8.2067680215
 40
7.2089708432
100
AcDbArc
 50
265.839742792
 51
266.4807979367
  0
ARC
  5
30A
100
AcDbEntity
  8
0
100
AcDbCircle
 62
7
  6
CONTINUOUS
 10
6.1199587059
 20
-0.5338768553
 40
3.2329452439
100
AcDbArc
 50
103.520493872
 51
103.7747883678
  0
ARC
  5
30B
100
AcDbEntity
  8
0
100
AcDbCircle
 62
7
  6
CONTINUOUS
 10
5.7122746894
 20
0.6699577522
 40
0.0354
100
AcDbArc
 50
296.9106905226
 51
33.2510935936
  0
ARC
  5
30C
100
AcDbEntity
  8
0
100
AcDbCircle
 62
7
  6
CONTINUOUS
 10
6.3926661591
 20
6.231669499
 40
0.0227816989
100
AcDbArc
 50
286.8411802888
 51
288.1121641833
  0
ARC
  5
30D
100
AcDbEntity
  8
0
100
AcDbCircle
 62
7
  6
CONTINUOUS
 10
6.393738227
 20
3.0004769678
 40
0.0212402358
100
AcDbArc
 50
285.6602781397
 51
287.4724794631
  0
ARC
  5
30E
100
AcDbEntity
  8
0
100
AcDbCircle
 62
7
  6
CONTINUOUS
 10
5.4396043553
 20
24.0743772583
 40
21.2707076564
100
AcDbArc
 50
271.7410773724
 51
271.9272538014
  0
ARC
  5
30F
100
AcDbEntity
  8
0
100
AcDbCircle
 62
7
  6
CONTINUOUS
 10
5.4967064861
 20
22.4327871176
 40
19.4782103212
100
AcDbArc
 50
271.7333806818
 51
271.9538991242
  0
SPLINE
  5
310
100
AcDbEntity
  8
0
100
AcDbSpline
 62
9
  6
CONTINUOUS
 70
0
 71
3
 72
55
 73
51
 74
0
 42
0.0000001
 43
0.0000001
 44
0.0000000001
 40
0.0
 40
0.0
 40
0.0
 40
0.0
 40
0.1170913833
 40
0.2276226568
 40
0.3313701087
 40
0.4281353468
 40
0.5177811176
 40
0.5598930308
 40
0.600174373
 40
0.6386071989
 40
0.6751734215
 40
0.7098579417
 40
0.7426475275
 40
0.7735288386
 40
0.8024883998
 40
0.8295126042
 40
0.854587717
 40
0.8776998891
 40
0.8988370929
 40
0.9179915163
 40
0.9351558632
 40
0.950322778
 40
0.9571548847
 40
0.9634848484
 40
0.9693117337
 40
0.974634602
 40
0.9794525116
 40
0.9837645183
 40
0.9875696915
 40
0.9908675295
 40
0.9923261885
 40
0.9936580074
 40
0.9948629864
 40
0.9959411255
 40
0.9968924246
 40
0.9977168837
 40
0.9984145029
 40
0.9987157475
 40
0.9989852821
 40
0.9992231068
 40
0.9994292215
 40
0.9996036262
 40
0.9997463209
 40
0.9998573056
 40
0.9999009067
 40
0.9999365804
 40
0.9999643265
 40
0.9999841452
 40
0.9999960363
 40
1.0
 40
1.0
 40
1.0
 40
1.0
 10
4.5247091124
 20
1.011855297
 30
0.0
 10
4.4913661802
 20
1.0099145802
 30
0.0
 10
4.4265324252
 20
1.0064067394
 30
0.0
 10
4.3321013022
 20
1.0022530389
 30
0.0
 10
4.2434203607
 20
0.9994373188
 30
0.0
 10
4.1606641843
 20
0.9980281985
 30
0.0
 10
4.0954784921
 20
0.9977893462
 30
0.0
 10
4.0464062668
 20
0.9980546129
 30
0.0
 10
4.0119434749
 20
0.998428781
 30
0.0
 10
3.9790646826
 20
0.9989490141
 30
0.0
 10
3.9477845972
 20
0.9995792846
 30
0.0
 10
3.9181165575
 20
1.0002977135
 30
0.0
 10
3.8900725597
 20
1.0010888365
 30
0.0
 10
3.8636639893
 20
1.0019357576
 30
0.0
 10
3.8389022314
 20
1.0028219489
 30
0.0
 10
3.8157986688
 20
1.0037307785
 30
0.0
 10
3.7943646854
 20
1.00464572
 30
0.0
 10
3.7746110997
 20
1.0055500306
 30
0.0
 10
3.7565469794
 20
1.0064279387
 30
0.0
 10
3.7401796771
 20
1.0072684385
 30
0.0
 10
3.7255151458
 20
1.0080601689
 30
0.0
 10
3.7143618768
 20
1.0086900923
 30
0.0
 10
3.7062949346
 20
1.0091599471
 30
0.0
 10
3.7008879895
 20
1.0094806205
 30
0.0
 10
3.6959110759
 20
1.0097806308
 30
0.0
 10
3.6913649181
 20
1.0100585762
 30
0.0
 10
3.6872502396
 20
1.0103130402
 30
0.0
 10
3.6835677631
 20
1.0105426684
 30
0.0
 10
3.6803180735
 20
1.0107459417
 30
0.0
 10
3.6778806856
 20
1.0108983264
 30
0.0
 10
3.676147428
 20
1.0110067024
 30
0.0
 10
3.6750099777
 20
1.0110778225
 30
0.0
 10
3.6739808561
 20
1.0111421696
 30
0.0
 10
3.6730600631
 20
1.0111997432
 30
0.0
 10
3.6722475987
 20
1.0112505433
 30
0.0
 10
3.671543463
 20
1.0112945701
 30
0.0
 10
3.6710243888
 20
1.0113270256
 30
0.0
 10
3.6706632933
 20
1.0113496035
 30
0.0
 10
3.670433096
 20
1.0113639965
 30
0.0
 10
3.6702299773
 20
1.0113766973
 30
0.0
 10
3.6700539517
 20
1.0113877014
 30
0.0
 10
3.6699049761
 20
1.0113970219
 30
0.0
 10
3.6697831726
 20
1.0114046217
 30
0.0
 10
3.6696983899
 20
1.0114099594
 30
0.0
 10
3.6696444563
 20
1.0114132757
 30
0.0
 10
3.6696135055
 20
1.0114153281
 30
0.0
 10
3.6695910565
 20
1.0114164291
 30
0.0
 10
3.6695713076
 20
1.0114183484
 30
0.0
 10
3.6695661019
 20
1.0114174735
 30
0.0
 10
3.6695564646
 20
1.0114193185
 30
0.0
 10
3.6695574403
 20
1.0114187472
 30
0.0
  0
LINE
  5
311
100
AcDbEntity
  8
0
100
AcDbLine
 62
7
  6
CONTINUOUS
 10
5.55464148
 20
4.0795404562
 11
5.5369535499
 21
4.0785996215
  0
LINE
  5
312
100
AcDbEntity
  8
0
100
AcDbLine
 62
7
  6
CONTINUOUS
 10
5.0149009471
 20
4.0516532864
 11
4.9964635593
 21
4.0506728666
  0
SPLINE
  5
313
100
AcDbEntity
  8
0
100
AcDbSpline
 62
7
  6
CONTINUOUS
 70
0
 71
3
 72
15
 73
11
 74
0
 42
0.0000001
 43
0.0000001
 44
0.0000000001
 40
0.0
 40
0.0
 40
0.0
 40
0.0
 40
0.1187720258
 40
0.2430554265
 40
0.371025129
 40
0.5007971195
 40
0.6304641304
 40
0.7581307234
 40
0.8819187435
 40
1.0
 40
1.0
 40
1.0
 40
1.0
 10
4.8428072466
 20
4.2953220381
 30
0.0
 10
4.8774610991
 20
4.2973111725
 30
0.0
 10
4.9483842979
 20
4.3012521265
 30
0.0
 10
5.0566628972
 20
4.3070070445
 30
0.0
 10
5.1681605951
 20
4.3127619266
 30
0.0
 10
5.281233643
 20
4.3185175772
 30
0.0
 10
5.3942178575
 20
4.3242759176
 30
0.0
 10
5.5054510693
 20
4.3300327125
 30
0.0
 10
5.613293991
 20
4.3357844545
 30
0.0
 10
5.6838699034
 20
4.3397274331
 30
0.0
 10
5.7183214023
 20
4.3417190493
 30
0.0
  0
SPLINE
  5
314
100
AcDbEntity
  8
0
100
AcDbSpline
 62
7
  6
CONTINUOUS
 70
0
 71
3
 72
11
 73
7
 74
0
 42
0.0000001
 43
0.0000001
 44
0.0000000001
 40
0.0
 40
0.0
 40
0.0
 40
0.0
 40
0.2363556103
 40
0.4842091352
 40
0.7399823685
 40
1.0
 40
1.0
 40
1.0
 40
1.0
 10
5.7221921752
 20
4.388818097
 30
0.0
 10
5.6882316358
 20
4.3868498338
 30
0.0
 10
5.6186506597
 20
4.3829524297
 30
0.0
 10
5.5123003145
 20
4.3772676873
 30
0.0
 10
5.4025399854
 20
4.3715779359
 30
0.0
 10
5.3284010491
 20
4.3677965581
 30
0.0
 10
5.2910264231
 20
4.3658926077
 30
0.0
  0
SPLINE
  5
315
100
AcDbEntity
  8
0
100
AcDbSpline
 62
7
  6
CONTINUOUS
 70
0
 71
3
 72
11
 73
7
 74
0
 42
0.0000001
 43
0.0000001
 44
0.0000000001
 40
0.0
 40
0.0
 40
0.0
 40
0.0
 40
0.259748708
 40
0.5155616793
 40
0.7635641072
 40
1.0
 40
1.0
 40
1.0
 40
1.0
 10
5.2749139397
 20
4.365071905
 30
0.0
 10
5.2364950265
 20
4.3631151558
 30
0.0
 10
5.1602392822
 20
4.3592321895
 30
0.0
 10
5.0473064565
 20
4.3533934149
 30
0.0
 10
4.9378309522
 20
4.3475551326
 30
0.0
 10
4.8661973909
 20
4.3435520103
 30
0.0
 10
4.831239694
 20
4.3415306285
 30
0.0
  0
LINE
  5
316
100
AcDbEntity
  8
0
100
AcDbLine
 62
7
  6
CONTINUOUS
 10
4.9964941312
 20
4.0523500696
 11
5.0049858819
 21
4.0528007195
  0
LINE
  5
317
100
AcDbEntity
  8
0
100
AcDbLine
 62
7
  6
CONTINUOUS
 10
5.0049858819
 20
4.0528007195
 11
5.0149118336
 21
4.0533254579
  0
LINE
  5
318
100
AcDbEntity
  8
0
100
AcDbLine
 62
7
  6
CONTINUOUS
 10
5.0149118336
 20
4.0533254579
 11
5.2751746894
 21
4.0667922554
  0
LINE
  5
319
100
AcDbEntity
  8
0
100
AcDbLine
 62
7
  6
CONTINUOUS
 10
4.8313752562
 20
4.3431410785
 11
4.8365923244
 21
4.3434457485
  0
SPLINE
  5
31A
100
AcDbEntity
  8
0
100
AcDbSpline
 62
7
  6
CONTINUOUS
 70
0
 71
3
 72
12
 73
8
 74
0
 42
0.0000001
 43
0.0000001
 44
0.0000000001
 40
0.0
 40
0.0
 40
0.0
 40
0.0
 40
0.2366990884
 40
0.4847208933
 40
0.6118723347
 40
0.7405057285
 40
1.0
 40
1.0
 40
1.0
 40
1.0
 10
4.8365923244
 20
4.3434457485
 30
0.0
 10
4.8711865934
 20
4.3454630256
 30
0.0
 10
4.9420371263
 20
4.3494729187
 30
0.0
 10
5.0314903639
 20
4.3542172946
 30
0.0
 10
5.1051492565
 20
4.3580376952
 30
0.0
 10
5.1804869097
 20
4.3619175508
 30
0.0
 10
5.2372347356
 20
4.3648270581
 30
0.0
 10
5.2751746894
 20
4.3667818241
 30
0.0
  0
SPLINE
  5
31B
100
AcDbEntity
  8
0
100
AcDbSpline
 62
7
  6
CONTINUOUS
 70
0
 71
3
 72
13
 73
9
 74
0
 42
0.0000001
 43
0.0000001
 44
0.0000000001
 40
0.0
 40
0.0
 40
0.0
 40
0.0
 40
0.1186396671
 40
0.2397968517
 40
0.3631335512
 40
0.4883110117
 40
0.7427842773
 40
1.0
 40
1.0
 40
1.0
 40
1.0
 10
4.8867117957
 20
4.6463174309
 30
0.0
 10
4.9020709044
 20
4.6471864759
 30
0.0
 10
4.9331163274
 20
4.6489203437
 30
0.0
 10
4.980133343
 20
4.651477971
 30
0.0
 10
5.0279998186
 20
4.6540262906
 30
0.0
 10
5.0931316166
 20
4.6574359469
 30
0.0
 10
5.1756034944
 20
4.6616741932
 30
0.0
 10
5.2418662954
 20
4.6650607491
 30
0.0
 10
5.2751746894
 20
4.6667743867
 30
0.0
  0
SPLINE
  5
31C
100
AcDbEntity
  8
0
100
AcDbSpline
 62
9
  6
CONTINUOUS
 70
0
 71
3
 72
58
 73
54
 74
0
 42
0.0000001
 43
0.0000001
 44
0.0000000001
 40
0.0
 40
0.0
 40
0.0
 40
0.0
 40
0.0000009909
 40
0.0000039636
 40
0.000008918
 40
0.0000158542
 40
0.0000356718
 40
0.0000634165
 40
0.0000990881
 40
0.0001426868
 40
0.0001942125
 40
0.0002536652
 40
0.0003963516
 40
0.0005707461
 40
0.0007768486
 40
0.0010146592
 40
0.0012841778
 40
0.0015854045
 40
0.0022829819
 40
0.0031073915
 40
0.0040586333
 40
0.0051367072
 40
0.0063416132
 40
0.0076733514
 40
0.0091319217
 40
0.0107173241
 40
0.0124295586
 40
0.0162344996
 40
0.0205462508
 40
0.0253638927
 40
0.0306864923
 40
0.0365131189
 40
0.0428428442
 40
0.0496747429
 40
0.0570078929
 40
0.0648413747
 40
0.0820056703
 40
0.1011603432
 40
0.1222981574
 40
0.1454113249
 40
0.1704876085
 40
0.1975128597
 40
0.2264730747
 40
0.2573544126
 40
0.2901432019
 40
0.3248259463
 40
0.3998182734
 40
0.4822047701
 40
0.5718490722
 40
0.6686194597
 40
0.7723751492
 40
0.8829095446
 40
1.0
 40
1.0
 40
1.0
 40
1.0
 10
6.8807916344
 20
1.0114132415
 30
0.0
 10
6.8807915203
 20
1.011412983
 30
0.0
 10
6.8807899829
 20
1.0114134997
 30
0.0
 10
6.8807878389
 20
1.0114127754
 30
0.0
 10
6.8807833837
 20
1.0114128336
 30
0.0
 10
6.8807744926
 20
1.0114120779
 30
0.0
 10
6.8807588759
 20
1.01141126
 30
0.0
 10
6.8807352284
 20
1.0114097188
 30
0.0
 10
6.8807047427
 20
1.0114078549
 30
0.0
 10
6.8806675125
 20
1.0114055336
 30
0.0
 10
6.8806235027
 20
1.0114028052
 30
0.0
 10
6.8805512864
 20
1.011398321
 30
0.0
 10
6.8804440883
 20
1.0113916678
 30
0.0
 10
6.8802951405
 20
1.0113824218
 30
0.0
 10
6.8801191109
 20
1.0113714953
 30
0.0
 10
6.8799159999
 20
1.0113588878
 30
0.0
 10
6.8796858075
 20
1.0113445993
 30
0.0
 10
6.8793247214
 20
1.0113221861
 30
0.0
 10
6.8788056602
 20
1.0112899672
 30
0.0
 10
6.8781015424
 20
1.0112462617
 30
0.0
 10
6.8772890989
 20
1.0111958324
 30
0.0
 10
6.8763683297
 20
1.0111386794
 30
0.0
 10
6.8753392347
 20
1.0110748027
 30
0.0
 10
6.8742018141
 20
1.0110042022
 30
0.0
 10
6.8729560676
 20
1.0109268783
 30
0.0
 10
6.8716019956
 20
1.0108428291
 30
0.0
 10
6.8695799212
 20
1.010717326
 30
0.0
 10
6.8667816717
 20
1.0105435671
 30
0.0
 10
6.863099285
 20
1.0103155883
 30
0.0
 10
6.8589847006
 20
1.0100628411
 30
0.0
 10
6.8544386368
 20
1.0097866067
 30
0.0
 10
6.8494618125
 20
1.0094882216
 30
0.0
 10
6.8440549479
 20
1.0091690089
 30
0.0
 10
6.8382187627
 20
1.0088302982
 30
0.0
 10
6.8319539763
 20
1.0084734191
 30
0.0
 10
6.8227461263
 20
1.0079592542
 30
0.0
 10
6.8101702462
 20
1.0072798178
 30
0.0
 10
6.7938027711
 20
1.0064362043
 30
0.0
 10
6.7757383138
 20
1.0055520311
 30
0.0
 10
6.7559842837
 20
1.0046374651
 30
0.0
 10
6.7345497688
 20
1.0037103484
 30
0.0
 10
6.7114456896
 20
1.0027900547
 30
0.0
 10
6.6866835716
 20
1.0018955911
 30
0.0
 10
6.6602749393
 20
1.0010461238
 30
0.0
 10
6.6322313116
 20
1.0002606972
 30
0.0
 10
6.5916056603
 20
0.9992994744
 30
0.0
 10
6.5368281667
 20
0.9983795001
 30
0.0
 10
6.4663668124
 20
0.9978933774
 30
0.0
 10
6.3896919411
 20
0.9981966849
 30
0.0
 10
6.3069307448
 20
0.999484721
 30
0.0
 10
6.2182346437
 20
1.0019524861
 30
0.0
 10
6.1237864269
 20
1.0058072922
 30
0.0
 10
6.0589515866
 20
1.0093412021
 30
0.0
 10
6.0256152503
 20
1.0113912599
 30
0.0
  0
SPLINE
  5
31D
100
AcDbEntity
  8
0
100
AcDbSpline
 62
7
  6
CONTINUOUS
 70
0
 71
3
 72
15
 73
11
 74
0
 42
0.0000001
 43
0.0000001
 44
0.0000000001
 40
0.0
 40
0.0
 40
0.0
 40
0.0
 40
0.1207143385
 40
0.2458066087
 40
0.3737066772
 40
0.5028259223
 40
0.6315707745
 40
0.7583778493
 40
0.8817012552
 40
1.0
 40
1.0
 40
1.0
 40
1.0
 10
4.8925018923
 20
3.9981342698
 30
0.0
 10
4.9249989862
 20
3.9999476229
 30
0.0
 10
4.9911769649
 20
4.0035466258
 30
0.0
 10
5.0917991728
 20
4.0088301526
 30
0.0
 10
5.1946905524
 20
4.0141144749
 30
0.0
 10
5.2985680151
 20
4.0193991537
 30
0.0
 10
5.4021503438
 20
4.0246849325
 30
0.0
 10
5.5041679558
 20
4.0299700708
 30
0.0
 10
5.6033653216
 20
4.0352523366
 30
0.0
 10
5.6684128575
 20
4.0388610216
 30
0.0
 10
5.7002572732
 20
4.0406803171
 30
0.0
  0
SPLINE
  5
31E
100
AcDbEntity
  8
0
100
AcDbSpline
 62
7
  6
CONTINUOUS
 70
0
 71
3
 72
12
 73
8
 74
0
 42
0.0000001
 43
0.0000001
 44
0.0000000001
 40
0.0
 40
0.0
 40
0.0
 40
0.0
 40
0.2597819349
 40
0.3885220343
 40
0.5157367378
 40
0.7637011919
 40
1.0
 40
1.0
 40
1.0
 40
1.0
 10
5.2751746894
 20
4.3667818241
 30
0.0
 10
5.3136781693
 20
4.3687656244
 30
0.0
 10
5.3712633312
 20
4.3717224674
 30
0.0
 10
5.4477028405
 20
4.3756650426
 30
0.0
 10
5.5223895252
 20
4.3795423336
 30
0.0
 10
5.613012181
 20
4.3843539131
 30
0.0
 10
5.6847669307
 20
4.3884276846
 30
0.0
 10
5.7197763633
 20
4.3904775353
 30
0.0
  0
LINE
  5
31F
100
AcDbEntity
  8
0
100
AcDbLine
 62
7
  6
CONTINUOUS
 10
5.5544307666
 20
4.0812523872
 11
5.5575495863
 21
4.0814190037
  0
SPLINE
  5
320
100
AcDbEntity
  8
0
100
AcDbSpline
 62
7
  6
CONTINUOUS
 70
0
 71
3
 72
28
 73
24
 74
0
 42
0.0000001
 43
0.0000001
 44
0.0000000001
 40
0.0
 40
0.0
 40
0.0
 40
0.0
 40
0.0125581951
 40
0.0247324825
 40
0.0368667439
 40
0.0493124852
 40
0.0763508775
 40
0.0915408844
 40
0.1080942464
 40
0.1261596656
 40
0.145836309
 40
0.1671907924
 40
0.1902689647
 40
0.2416970094
 40
0.3002595248
 40
0.3659434314
 40
0.4385479775
 40
0.5177970545
 40
0.6033862808
 40
0.6949519238
 40
0.7919626506
 40
0.8938403999
 40
1.0
 40
1.0
 40
1.0
 40
1.0
 10
3.9626746894
 20
2.084404983
 30
0.0
 10
3.9626746894
 20
2.0847380125
 30
0.0
 10
3.9627242012
 20
2.085395392
 30
0.0
 10
3.9629622027
 20
2.0863485411
 30
0.0
 10
3.9633628894
 20
2.0872427001
 30
0.0
 10
3.9641327032
 20
2.0883818701
 30
0.0
 10
3.9652324032
 20
2.089362655
 30
0.0
 10
3.9665627173
 20
2.090177415
 30
0.0
 10
3.9677571023
 20
2.0907473806
 30
0.0
 10
3.9691078844
 20
2.0912500667
 30
0.0
 10
3.9706143581
 20
2.0916865036
 30
0.0
 10
3.9722746894
 20
2.0920564614
 30
0.0
 10
3.9747829965
 20
2.092475775
 30
0.0
 10
3.978300294
 20
2.0928104111
 30
0.0
 10
3.9829600144
 20
2.0929308983
 30
0.0
 10
3.9881802544
 20
2.0927794477
 30
0.0
 10
3.9939352498
 20
2.0923590061
 30
0.0
 10
4.0001955291
 20
2.0916715998
 30
0.0
 10
4.0069290967
 20
2.0907198779
 30
0.0
 10
4.0140987157
 20
2.0895078763
 30
0.0
 10
4.0216617117
 20
2.0880450737
 30
0.0
 10
4.0295703388
 20
2.0863413193
 30
0.0
 10
4.0349404176
 20
2.0850752897
 30
0.0
 10
4.0376746894
 20
2.084404983
 30
0.0
  0
SPLINE
  5
321
100
AcDbEntity
  8
0
100
AcDbSpline
 62
7
  6
CONTINUOUS
 70
0
 71
3
 72
25
 73
21
 74
0
 42
0.0000001
 43
0.0000001
 44
0.0000000001
 40
0.0
 40
0.0
 40
0.0
 40
0.0
 40
0.062731924
 40
0.1253870122
 40
0.1879648522
 40
0.2504707778
 40
0.3129115102
 40
0.3441130571
 40
0.3753045729
 40
0.4376617309
 40
0.4999999976
 40
0.5623382652
 40
0.6246954237
 40
0.655886939
 40
0.6870884848
 40
0.7495292153
 40
0.8120351395
 40
0.8746129805
 40
0.9372680733
 40
1.0
 40
1.0
 40
1.0
 40
1.0
 10
4.0376746894
 20
2.084404983
 30
0.0
 10
4.0615397975
 20
2.0785544518
 30
0.0
 10
4.1093750546
 20
2.0673989898
 30
0.0
 10
4.181474678
 20
2.052451907
 30
0.0
 10
4.2538642177
 20
2.039460456
 30
0.0
 10
4.3265166757
 20
2.028578403
 30
0.0
 10
4.3872647079
 20
2.0213751915
 30
0.0
 10
4.4359491908
 20
2.0168026581
 30
0.0
 10
4.4846703691
 20
2.0130438423
 30
0.0
 10
4.5456612074
 20
2.0098813713
 30
0.0
 10
4.6189246869
 20
2.0085988858
 30
0.0
 10
4.6921881665
 20
2.0098813733
 30
0.0
 10
4.7531790053
 20
2.0130438392
 30
0.0
 10
4.8019001832
 20
2.0168026557
 30
0.0
 10
4.8505846644
 20
2.0213751926
 30
0.0
 10
4.9113326948
 20
2.0285784034
 30
0.0
 10
4.9839851521
 20
2.0394604563
 30
0.0
 10
5.0563746928
 20
2.0524519107
 30
0.0
 10
5.1284743201
 20
2.0673989906
 30
0.0
 10
5.1763095804
 20
2.0785544515
 30
0.0
 10
5.2001746894
 20
2.084404983
 30
0.0
  0
SPLINE
  5
322
100
AcDbEntity
  8
0
100
AcDbSpline
 62
7
  6
CONTINUOUS
 70
0
 71
3
 72
12
 73
8
 74
0
 42
0.0000001
 43
0.0000001
 44
0.0000000001
 40
0.0
 40
0.0
 40
0.0
 40
0.0
 40
0.1158516938
 40
0.2352901696
 40
0.4829433056
 40
0.7392708927
 40
1.0
 40
1.0
 40
1.0
 40
1.0
 10
5.2001746894
 20
2.084404983
 30
0.0
 10
5.2030119105
 20
2.0851005277
 30
0.0
 10
5.2087999559
 20
2.0864100204
 30
0.0
 10
5.2207613348
 20
2.0887034037
 30
0.0
 10
5.2363344524
 20
2.090923696
 30
0.0
 10
5.2555595823
 20
2.0925268615
 30
0.0
 10
5.2686003304
 20
2.0928857563
 30
0.0
 10
5.2751746894
 20
2.0928857563
 30
0.0
  0
SPLINE
  5
323
100
AcDbEntity
  8
0
100
AcDbSpline
 62
7
  6
CONTINUOUS
 70
0
 71
3
 72
12
 73
8
 74
0
 42
0.0000001
 43
0.0000001
 44
0.0000000001
 40
0.0
 40
0.0
 40
0.0
 40
0.0
 40
0.1158527777
 40
0.2352929283
 40
0.4829432676
 40
0.7392684141
 40
1.0
 40
1.0
 40
1.0
 40
1.0
 10
5.3501746894
 20
2.084404983
 30
0.0
 10
5.347337442
 20
2.0851005342
 30
0.0
 10
5.3415493251
 20
2.0864100256
 30
0.0
 10
5.3295879424
 20
2.088703376
 30
0.0
 10
5.314014921
 20
2.0909237041
 30
0.0
 10
5.294789856
 20
2.0925267883
 30
0.0
 10
5.2817491106
 20
2.0928857563
 30
0.0
 10
5.2751746894
 20
2.0928857563
 30
0.0
  0
SPLINE
  5
324
100
AcDbEntity
  8
0
100
AcDbSpline
 62
7
  6
CONTINUOUS
 70
0
 71
3
 72
25
 73
21
 74
0
 42
0.0000001
 43
0.0000001
 44
0.0000000001
 40
0.0
 40
0.0
 40
0.0
 40
0.0
 40
0.062731924
 40
0.1253870122
 40
0.1879648522
 40
0.2504707778
 40
0.3129115102
 40
0.3441130571
 40
0.3753045729
 40
0.4376617309
 40
0.4999999976
 40
0.5623382652
 40
0.6246954237
 40
0.655886939
 40
0.6870884848
 40
0.7495292153
 40
0.8120351395
 40
0.8746129805
 40
0.9372680733
 40
1.0
 40
1.0
 40
1.0
 40
1.0
 10
5.3501746894
 20
2.084404983
 30
0.0
 10
5.3740397975
 20
2.0785544518
 30
0.0
 10
5.4218750546
 20
2.0673989898
 30
0.0
 10
5.493974678
 20
2.052451907
 30
0.0
 10
5.5663642177
 20
2.039460456
 30
0.0
 10
5.6390166757
 20
2.028578403
 30
0.0
 10
5.6997647079
 20
2.0213751915
 30
0.0
 10
5.7484491908
 20
2.0168026581
 30
0.0
 10
5.7971703691
 20
2.0130438423
 30
0.0
 10
5.8581612074
 20
2.0098813713
 30
0.0
 10
5.9314246869
 20
2.0085988858
 30
0.0
 10
6.0046881665
 20
2.0098813733
 30
0.0
 10
6.0656790053
 20
2.0130438392
 30
0.0
 10
6.1144001832
 20
2.0168026557
 30
0.0
 10
6.1630846644
 20
2.0213751926
 30
0.0
 10
6.2238326948
 20
2.0285784034
 30
0.0
 10
6.2964851521
 20
2.0394604563
 30
0.0
 10
6.3688746928
 20
2.0524519107
 30
0.0
 10
6.4409743201
 20
2.0673989906
 30
0.0
 10
6.4888095804
 20
2.0785544515
 30
0.0
 10
6.5126746894
 20
2.084404983
 30
0.0
  0
SPLINE
  5
325
100
AcDbEntity
  8
0
100
AcDbSpline
 62
7
  6
CONTINUOUS
 70
0
 71
3
 72
28
 73
24
 74
0
 42
0.0000001
 43
0.0000001
 44
0.0000000001
 40
0.0
 40
0.0
 40
0.0
 40
0.0
 40
0.1061597464
 40
0.2080379185
 40
0.30504928
 40
0.3966157043
 40
0.4822054043
 40
0.5614544083
 40
0.6340586534
 40
0.6997423411
 40
0.7583046104
 40
0.8097322441
 40
0.8328102225
 40
0.8541645539
 40
0.8738411077
 40
0.8919065125
 40
0.9084598417
 40
0.9236497406
 40
0.9506878196
 40
0.9631334209
 40
0.9752675828
 40
0.9874418182
 40
1.0
 40
1.0
 40
1.0
 40
1.0
 10
6.5126746894
 20
2.084404983
 30
0.0
 10
6.5154089654
 20
2.0850752907
 30
0.0
 10
6.5207790596
 20
2.0863413236
 30
0.0
 10
6.5286877189
 20
2.0880450849
 30
0.0
 10
6.5362507635
 20
2.0895078982
 30
0.0
 10
6.5434204317
 20
2.0907199148
 30
0.0
 10
6.5501540308
 20
2.0916716439
 30
0.0
 10
6.5564143149
 20
2.0923590395
 30
0.0
 10
6.5621692966
 20
2.0927794621
 30
0.0
 10
6.5673895173
 20
2.0929308987
 30
0.0
 10
6.5720492149
 20
2.0928103996
 30
0.0
 10
6.5755664886
 20
2.0924757458
 30
0.0
 10
6.5780747738
 20
2.0920564217
 30
0.0
 10
6.5797350925
 20
2.0916864593
 30
0.0
 10
6.5812415588
 20
2.0912500213
 30
0.0
 10
6.5825923398
 20
2.0907473427
 30
0.0
 10
6.5837867253
 20
2.0901773873
 30
0.0
 10
6.5851170318
 20
2.0893626373
 30
0.0
 10
6.5862167188
 20
2.0883818583
 30
0.0
 10
6.5869865141
 20
2.0872426931
 30
0.0
 10
6.5873871882
 20
2.0863485368
 30
0.0
 10
6.5876251803
 20
2.0853953899
 30
0.0
 10
6.5876746894
 20
2.0847380122
 30
0.0
 10
6.5876746894
 20
2.084404983
 30
0.0
  0
SPLINE
  5
326
100
AcDbEntity
  8
0
100
AcDbSpline
 62
7
  6
CONTINUOUS
 70
0
 71
3
 72
12
 73
8
 74
0
 42
0.0000001
 43
0.0000001
 44
0.0000000001
 40
0.0
 40
0.0
 40
0.0
 40
0.0
 40
0.2607295063
 40
0.5170575477
 40
0.7647102049
 40
0.8841484159
 40
1.0
 40
1.0
 40
1.0
 40
1.0
 10
5.2751746894
 20
2.5976053517
 30
0.0
 10
5.2686003203
 20
2.5976053517
 30
0.0
 10
5.255559551
 20
2.5979642577
 30
0.0
 10
5.2363344115
 20
2.5995674164
 30
0.0
 10
5.2207613
 20
2.6017877026
 30
0.0
 10
5.2087999434
 20
2.6040810879
 30
0.0
 10
5.2030119078
 20
2.605390581
 30
0.0
 10
5.2001746894
 20
2.606086125
 30
0.0
  0
SPLINE
  5
327
100
AcDbEntity
  8
0
100
AcDbSpline
 62
7
  6
CONTINUOUS
 70
0
 71
3
 72
26
 73
22
 74
0
 42
0.0000001
 43
0.0000001
 44
0.0000000001
 40
0.0
 40
0.0
 40
0.0
 40
0.0
 40
0.0627210296
 40
0.1253653363
 40
0.1879341315
 40
0.2504326257
 40
0.2816584514
 40
0.3128702894
 40
0.3440705502
 40
0.3752613435
 40
0.4376185808
 40
0.4999590025
 40
0.5623013615
 40
0.6246637925
 40
0.655858136
 40
0.6870626434
 40
0.749509713
 40
0.8120217051
 40
0.8746049019
 40
0.9372645255
 40
1.0
 40
1.0
 40
1.0
 40
1.0
 10
5.1862312035
 20
2.6094716844
 30
0.0
 10
5.1626361169
 20
2.615145125
 30
0.0
 10
5.1153438553
 20
2.625949738
 30
0.0
 10
5.0440690528
 20
2.6403857309
 30
0.0
 10
4.9725154613
 20
2.6528861127
 30
0.0
 10
4.9126609053
 20
2.6615729875
 30
0.0
 10
4.8646745178
 20
2.6674182618
 30
0.0
 10
4.828644642
 20
2.6712335789
 30
0.0
 10
4.7925711302
 20
2.6744641412
 30
0.0
 10
4.7444305164
 20
2.6779761168
 30
0.0
 10
4.6841720547
 20
2.6808636067
 30
0.0
 10
4.611796732
 20
2.6818696253
 30
0.0
 10
4.539427951
 20
2.6803734912
 30
0.0
 10
4.4791858818
 20
2.677088283
 30
0.0
 10
4.431064075
 20
2.6732625215
 30
0.0
 10
4.3829789121
 20
2.6686442814
 30
0.0
 10
4.3229792166
 20
2.6614253148
 30
0.0
 10
4.2512207889
 20
2.6505846863
 30
0.0
 10
4.1797199908
 20
2.6376905638
 30
0.0
 10
4.1085024907
 20
2.6228920129
 30
0.0
 10
4.0612497917
 20
2.6118655613
 30
0.0
 10
4.0376746894
 20
2.606086125
 30
0.0
  0
SPLINE
  5
328
100
AcDbEntity
  8
0
100
AcDbSpline
 62
7
  6
CONTINUOUS
 70
0
 71
3
 72
28
 73
24
 74
0
 42
0.0000001
 43
0.0000001
 44
0.0000000001
 40
0.0
 40
0.0
 40
0.0
 40
0.0
 40
0.1061597019
 40
0.2080377716
 40
0.3050489947
 40
0.3966152654
 40
0.4822048881
 40
0.5614539322
 40
0.6340582647
 40
0.6997420192
 40
0.7583043283
 40
0.8097319949
 40
0.8328099809
 40
0.8541643123
 40
0.8738408581
 40
0.891906249
 40
0.9084595796
 40
0.9236495061
 40
0.9506876859
 40
0.963133341
 40
0.9752675468
 40
0.9874418098
 40
1.0
 40
1.0
 40
1.0
 40
1.0
 10
4.0376746894
 20
2.606086125
 30
0.0
 10
4.0349404145
 20
2.6054158175
 30
0.0
 10
4.0295703233
 20
2.6041497868
 30
0.0
 10
4.0216616697
 20
2.6024460318
 30
0.0
 10
4.0140986338
 20
2.6009832261
 30
0.0
 10
4.0069289739
 20
2.5997712163
 30
0.0
 10
4.0001953792
 20
2.5988194888
 30
0.0
 10
3.993935094
 20
2.598132088
 30
0.0
 10
3.9881801073
 20
2.5977116564
 30
0.0
 10
3.9829598815
 20
2.5975602099
 30
0.0
 10
3.9783001796
 20
2.5976806992
 30
0.0
 10
3.9747829027
 20
2.5980153449
 30
0.0
 10
3.9722746154
 20
2.5984346644
 30
0.0
 10
3.9706142962
 20
2.5988046247
 30
0.0
 10
3.9691078301
 20
2.5992410622
 30
0.0
 10
3.9677570502
 20
2.5997437427
 30
0.0
 10
3.9665626658
 20
2.6003137016
 30
0.0
 10
3.9652323581
 20
2.6011284564
 30
0.0
 10
3.964132669
 20
2.6021092402
 30
0.0
 10
3.9633628703
 20
2.6032484094
 30
0.0
 10
3.9629621935
 20
2.6041425682
 30
0.0
 10
3.9627241993
 20
2.6050957168
 30
0.0
 10
3.9626746894
 20
2.6057530956
 30
0.0
 10
3.9626746894
 20
2.606086125
 30
0.0
  0
SPLINE
  5
329
100
AcDbEntity
  8
0
100
AcDbSpline
 62
7
  6
CONTINUOUS
 70
0
 71
3
 72
28
 73
24
 74
0
 42
0.0000001
 43
0.0000001
 44
0.0000000001
 40
0.0
 40
0.0
 40
0.0
 40
0.0
 40
0.0125581866
 40
0.0247324461
 40
0.036866663
 40
0.04931235
 40
0.0763506403
 40
0.0915406192
 40
0.1080939796
 40
0.1261594131
 40
0.1458360647
 40
0.1671905485
 40
0.1902687133
 40
0.2416967257
 40
0.3002592022
 40
0.3659430438
 40
0.4385475044
 40
0.5177965424
 40
0.6033858452
 40
0.6949516407
 40
0.7919625046
 40
0.8938403556
 40
1.0
 40
1.0
 40
1.0
 40
1.0
 10
6.5876746894
 20
2.606086125
 30
0.0
 10
6.5876746894
 20
2.6057530958
 30
0.0
 10
6.5876251784
 20
2.6050957173
 30
0.0
 10
6.5873871789
 20
2.60414257
 30
0.0
 10
6.5869864949
 20
2.6032484134
 30
0.0
 10
6.5862166848
 20
2.6021092475
 30
0.0
 10
6.5851169868
 20
2.6011284674
 30
0.0
 10
6.5837866739
 20
2.6003137124
 30
0.0
 10
6.5825922879
 20
2.5997437502
 30
0.0
 10
6.5812415046
 20
2.5992410661
 30
0.0
 10
6.5797350306
 20
2.5988046287
 30
0.0
 10
6.5780746999
 20
2.5984346687
 30
0.0
 10
6.5755663948
 20
2.5980153505
 30
0.0
 10
6.5720491005
 20
2.5976807062
 30
0.0
 10
6.5673893843
 20
2.5975602092
 30
0.0
 10
6.5621691494
 20
2.5977116499
 30
0.0
 10
6.5564141588
 20
2.5981320826
 30
0.0
 10
6.5501538806
 20
2.5988194838
 30
0.0
 10
6.5434203086
 20
2.5997712073
 30
0.0
 10
6.5362506815
 20
2.6009832156
 30
0.0
 10
6.5286876769
 20
2.6024460257
 30
0.0
 10
6.520779044
 20
2.6041497863
 30
0.0
 10
6.5154089622
 20
2.6054158181
 30
0.0
 10
6.5126746894
 20
2.606086125
 30
0.0
  0
SPLINE
  5
32A
100
AcDbEntity
  8
0
100
AcDbSpline
 62
7
  6
CONTINUOUS
 70
0
 71
3
 72
26
 73
22
 74
0
 42
0.0000001
 43
0.0000001
 44
0.0000000001
 40
0.0
 40
0.0
 40
0.0
 40
0.0
 40
0.0627354715
 40
0.12539509
 40
0.1879782856
 40
0.2504902793
 40
0.3129373508
 40
0.3441418594
 40
0.3753362036
 40
0.4376986344
 40
0.5000409924
 40
0.5623814148
 40
0.6247386528
 40
0.6559294457
 40
0.6871297054
 40
0.7183415423
 40
0.7495673671
 40
0.8120658596
 40
0.874634655
 40
0.9372789665
 40
1.0
 40
1.0
 40
1.0
 40
1.0
 10
6.5126746894
 20
2.606086125
 30
0.0
 10
6.4890995899
 20
2.6118655607
 30
0.0
 10
6.4418468968
 20
2.6228920101
 30
0.0
 10
6.3706294043
 20
2.637690557
 30
0.0
 10
6.2991286117
 20
2.650584673
 30
0.0
 10
6.2273701887
 20
2.6614253062
 30
0.0
 10
6.167370496
 20
2.6686442793
 30
0.0
 10
6.1192853347
 20
2.6732625193
 30
0.0
 10
6.0711635304
 20
2.6770882811
 30
0.0
 10
6.0109214656
 20
2.6803734944
 30
0.0
 10
5.9385526894
 20
2.6818696266
 30
0.0
 10
5.8661773713
 20
2.6808636024
 30
0.0
 10
5.8059189129
 20
2.6779761185
 30
0.0
 10
5.7577783023
 20
2.6744641456
 30
0.0
 10
5.721704794
 20
2.6712335831
 30
0.0
 10
5.6856749214
 20
2.6674182691
 30
0.0
 10
5.6376885378
 20
2.6615730005
 30
0.0
 10
5.5778339855
 20
2.6528861333
 30
0.0
 10
5.5062803979
 20
2.640385749
 30
0.0
 10
5.4350055969
 20
2.6259497551
 30
0.0
 10
5.387713335
 20
2.6151451422
 30
0.0
 10
5.3641182484
 20
2.609471702
 30
0.0
  0
SPLINE
  5
32B
100
AcDbEntity
  8
0
100
AcDbSpline
 62
7
  6
CONTINUOUS
 70
0
 71
3
 72
12
 73
8
 74
0
 42
0.0000001
 43
0.0000001
 44
0.0000000001
 40
0.0
 40
0.0
 40
0.0
 40
0.0
 40
0.1158516904
 40
0.2352901573
 40
0.4829432838
 40
0.7392708914
 40
1.0
 40
1.0
 40
1.0
 40
1.0
 10
5.3501746894
 20
2.606086125
 30
0.0
 10
5.3473374685
 20
2.6053905803
 30
0.0
 10
5.3415494237
 20
2.604081087
 30
0.0
 10
5.3295880457
 20
2.6017877023
 30
0.0
 10
5.3140149263
 20
2.5995674216
 30
0.0
 10
5.2947897966
 20
2.597964261
 30
0.0
 10
5.2817490484
 20
2.5976053517
 30
0.0
 10
5.2751746894
 20
2.5976053517
 30
0.0
  0
SPLINE
  5
32C
100
AcDbEntity
  8
0
100
AcDbSpline
 62
7
  6
CONTINUOUS
 70
0
 71
3
 72
11
 73
7
 74
0
 42
0.0000001
 43
0.0000001
 44
0.0000000001
 40
0.0
 40
0.0
 40
0.0
 40
0.0
 40
0.3296652695
 40
0.5974915274
 40
0.8142989159
 40
1.0
 40
1.0
 40
1.0
 40
1.0
 10
6.4018559105
 20
2.8309399079
 30
0.0
 10
6.4019711703
 20
2.8310062613
 30
0.0
 10
6.4021748775
 20
2.8311364707
 30
0.0
 10
6.4024227257
 20
2.8313547849
 30
0.0
 10
6.4025809015
 20
2.8315787715
 30
0.0
 10
6.4026213396
 20
2.8317416511
 30
0.0
 10
6.4026222195
 20
2.8318165621
 30
0.0
  0
SPLINE
  5
32D
100
AcDbEntity
  8
0
100
AcDbSpline
 62
7
  6
CONTINUOUS
 70
0
 71
3
 72
11
 73
7
 74
0
 42
0.0000001
 43
0.0000001
 44
0.0000000001
 40
0.0
 40
0.0
 40
0.0
 40
0.0
 40
0.1886915374
 40
0.4064550405
 40
0.6732041617
 40
1.0
 40
1.0
 40
1.0
 40
1.0
 10
4.0564256185
 20
6.2239292151
 30
0.0
 10
4.056425396
 20
6.2240111529
 30
0.0
 10
4.0564652023
 20
6.2241889084
 30
0.0
 10
4.0566296719
 20
6.2244355768
 30
0.0
 10
4.0568900978
 20
6.2246758203
 30
0.0
 10
4.0571052024
 20
6.2248192775
 30
0.0
 10
4.0572268927
 20
6.2248922817
 30
0.0
  0
SPLINE
  5
32E
100
AcDbEntity
  8
0
100
AcDbSpline
 62
7
  6
CONTINUOUS
 70
0
 71
3
 72
11
 73
7
 74
0
 42
0.0000001
 43
0.0000001
 44
0.0000000001
 40
0.0
 40
0.0
 40
0.0
 40
0.0
 40
0.3288892902
 40
0.5962685709
 40
0.8132244231
 40
1.0
 40
1.0
 40
1.0
 40
1.0
 10
4.1485845566
 20
5.9440610294
 30
0.0
 10
4.1484457347
 20
5.9439799056
 30
0.0
 10
4.1482005043
 20
5.9438206474
 30
0.0
 10
4.1479030183
 20
5.9435535642
 30
0.0
 10
4.1477145476
 20
5.9432792749
 30
0.0
 10
4.1476683978
 20
5.9430805816
 30
0.0
 10
4.1476685115
 20
5.9429892709
 30
0.0
  0
SPLINE
  5
32F
100
AcDbEntity
  8
0
100
AcDbSpline
 62
7
  6
CONTINUOUS
 70
0
 71
3
 72
11
 73
7
 74
0
 42
0.0000001
 43
0.0000001
 44
0.0000000001
 40
0.0
 40
0.0
 40
0.0
 40
0.0
 40
0.3289849747
 40
0.5962890567
 40
0.8131229292
 40
1.0
 40
1.0
 40
1.0
 40
1.0
 10
4.1485927004
 20
6.1108554666
 30
0.0
 10
4.148453568
 20
6.1107740184
 30
0.0
 10
4.1482078856
 20
6.1106141355
 30
0.0
 10
4.1479101873
 20
6.1103458967
 30
0.0
 10
4.1477222165
 20
6.1100702512
 30
0.0
 10
4.1476772449
 20
6.1098707202
 30
0.0
 10
4.1476780173
 20
6.1097791442
 30
0.0
  0
SPLINE
  5
330
100
AcDbEntity
  8
0
100
AcDbSpline
 62
7
  6
CONTINUOUS
 70
0
 71
3
 72
31
 73
27
 74
0
 42
0.0000001
 43
0.0000001
 44
0.0000000001
 40
0.0
 40
0.0
 40
0.0
 40
0.0
 40
0.0956456796
 40
0.1906462197
 40
0.2839217542
 40
0.3744163007
 40
0.461243906
 40
0.543599598
 40
0.620689645
 40
0.6917992872
 40
0.756281561
 40
0.8135170263
 40
0.8392673497
 40
0.8630611917
 40
0.8848749514
 40
0.904692934
 40
0.9225112645
 40
0.9383446838
 40
0.952248754
 40
0.9643363246
 40
0.9747876341
 40
0.9838888373
 40
0.9880726024
 40
0.9920980391
 40
0.9960453198
 40
1.0
 40
1.0
 40
1.0
 40
1.0
 10
5.4421448493
 20
0.545132723
 30
0.0
 10
5.4382790459
 20
0.5444780829
 30
0.0
 10
5.430562568
 20
0.5432369603
 30
0.0
 10
5.4190420704
 20
0.5415773927
 30
0.0
 10
5.4077046736
 20
0.5401385625
 30
0.0
 10
5.3966762607
 20
0.5389399786
 30
0.0
 10
5.3860726622
 20
0.5379932557
 30
0.0
 10
5.3759996622
 20
0.5373060799
 30
0.0
 10
5.3665567056
 20
0.5368870604
 30
0.0
 10
5.3578380884
 20
0.5367391531
 30
0.0
 10
5.3499328821
 20
0.5368606084
 30
0.0
 10
5.3438944423
 20
0.5371954117
 30
0.0
 10
5.3395368858
 20
0.5376161509
 30
0.0
 10
5.3366347035
 20
0.5379866934
 30
0.0
 10
5.3339875688
 20
0.5384220809
 30
0.0
 10
5.331601236
 20
0.5389211972
 30
0.0
 10
5.3294811987
 20
0.5394827704
 30
0.0
 10
5.3276321858
 20
0.5401061839
 30
0.0
 10
5.3260573167
 20
0.5407904719
 30
0.0
 10
5.3247571693
 20
0.5415343768
 30
0.0
 10
5.323732014
 20
0.5423379895
 30
0.0
 10
5.3230915114
 20
0.5430828741
 30
0.0
 10
5.3227413307
 20
0.5437023871
 30
0.0
 10
5.3225583421
 20
0.5441678257
 30
0.0
 10
5.3224485553
 20
0.5446461134
 30
0.0
 10
5.3224246894
 20
0.5449706073
 30
0.0
 10
5.3224246894
 20
0.545132723
 30
0.0
  0
SPLINE
  5
331
100
AcDbEntity
  8
0
100
AcDbSpline
 62
7
  6
CONTINUOUS
 70
0
 71
3
 72
31
 73
27
 74
0
 42
0.0000001
 43
0.0000001
 44
0.0000000001
 40
0.0
 40
0.0
 40
0.0
 40
0.0
 40
0.0039546825
 40
0.0079019793
 40
0.0119274578
 40
0.0161112954
 40
0.0252127242
 40
0.0356643081
 40
0.0477521053
 40
0.0616562512
 40
0.0774895163
 40
0.0953075335
 40
0.1151251153
 40
0.1369384534
 40
0.160731921
 40
0.186481985
 40
0.2437175968
 40
0.3082009784
 40
0.3793119355
 40
0.4564027074
 40
0.5387583414
 40
0.6255853703
 40
0.7160790966
 40
0.8093540584
 40
0.904354352
 40
1.0
 40
1.0
 40
1.0
 40
1.0
 10
5.2279246894
 20
0.545132723
 30
0.0
 10
5.2279246894
 20
0.5449706073
 30
0.0
 10
5.2279008209
 20
0.5446461126
 30
0.0
 10
5.2277910232
 20
0.5441678249
 30
0.0
 10
5.2276080186
 20
0.5437023869
 30
0.0
 10
5.22725781
 20
0.5430828738
 30
0.0
 10
5.2266172685
 20
0.5423379927
 30
0.0
 10
5.2255920744
 20
0.5415343834
 30
0.0
 10
5.2242919016
 20
0.5407904777
 30
0.0
 10
5.2227170295
 20
0.5401061844
 30
0.0
 10
5.2208680389
 20
0.539482758
 30
0.0
 10
5.2187480418
 20
0.5389211754
 30
0.0
 10
5.2163617591
 20
0.5384220513
 30
0.0
 10
5.213714676
 20
0.5379866583
 30
0.0
 10
5.2108125389
 20
0.5376161127
 30
0.0
 10
5.2064550043
 20
0.5371953709
 30
0.0
 10
5.2004165252
 20
0.536860578
 30
0.0
 10
5.1925112162
 20
0.5367391552
 30
0.0
 10
5.1837924741
 20
0.5368870899
 30
0.0
 10
5.1743494403
 20
0.5373061163
 30
0.0
 10
5.1642764404
 20
0.5379932885
 30
0.0
 10
5.1536729051
 20
0.5389400005
 30
0.0
 10
5.1426445761
 20
0.5401385675
 30
0.0
 10
5.1313072507
 20
0.5415773911
 30
0.0
 10
5.1197867933
 20
0.5432369602
 30
0.0
 10
5.1120703302
 20
0.5444780834
 30
0.0
 10
5.1082045296
 20
0.545132723
 30
0.0
  0
SPLINE
  5
332
100
AcDbEntity
  8
0
100
AcDbSpline
 62
7
  6
CONTINUOUS
 70
0
 71
3
 72
50
 73
46
 74
0
 42
0.0000001
 43
0.0000001
 44
0.0000000001
 40
0.0
 40
0.0
 40
0.0
 40
0.0
 40
0.000254172
 40
0.0005554968
 40
0.0009053318
 40
0.0013045319
 40
0.0022530289
 40
0.0034038794
 40
0.0047585071
 40
0.0063177084
 40
0.0080816579
 40
0.010049811
 40
0.0122214427
 40
0.0145957462
 40
0.0199488515
 40
0.0261018609
 40
0.0330471131
 40
0.0407765337
 40
0.0492784633
 40
0.0585383431
 40
0.0685414752
 40
0.0792731217
 40
0.0907185158
 40
0.1156832747
 40
0.1432778345
 40
0.1733364109
 40
0.2056812052
 40
0.2401100081
 40
0.2764171284
 40
0.3143834938
 40
0.3537748994
 40
0.3943553572
 40
0.4358780782
 40
0.4780894309
 40
0.5635550623
 40
0.6486782564
 40
0.7313987842
 40
0.7712265026
 40
0.809708753
 40
0.8466066505
 40
0.8817006523
 40
0.9147878657
 40
0.9456662871
 40
0.9741364106
 40
1.0
 40
1.0
 40
1.0
 40
1.0
 10
4.0572810092
 20
6.0581203462
 30
0.0
 10
4.0574433539
 20
6.0582150699
 30
0.0
 10
4.0578105904
 20
6.058400781
 30
0.0
 10
4.0584295844
 20
6.058656795
 30
0.0
 10
4.0591630813
 20
6.058913332
 30
0.0
 10
4.0603648222
 20
6.0592770738
 30
0.0
 10
4.0621593657
 20
6.0597212933
 30
0.0
 10
4.0646624973
 20
6.0602313824
 30
0.0
 10
4.0676247943
 20
6.0607430919
 30
0.0
 10
4.0710459236
 20
6.0612561291
 30
0.0
 10
4.0749250754
 20
6.0617699699
 30
0.0
 10
4.0792605261
 20
6.0622844916
 30
0.0
 10
4.0840501161
 20
6.0627995403
 30
0.0
 10
4.0913353477
 20
6.0635157465
 30
0.0
 10
4.1015620252
 20
6.0643997123
 30
0.0
 10
4.1151682519
 20
6.065425454
 30
0.0
 10
4.1305360151
 20
6.0664529887
 30
0.0
 10
4.1476441462
 20
6.0674817442
 30
0.0
 10
4.1664666648
 20
6.0685114129
 30
0.0
 10
4.1869728212
 20
6.0695419493
 30
0.0
 10
4.2091297213
 20
6.0705731166
 30
0.0
 10
4.2329043915
 20
6.0716048301
 30
0.0
 10
4.2677366277
 20
6.0730222729
 30
0.0
 10
4.315035226
 20
6.0747783051
 30
0.0
 10
4.3760961025
 20
6.0768330505
 30
0.0
 10
4.4426172141
 20
6.0788899934
 30
0.0
 10
4.5141943837
 20
6.0809482319
 30
0.0
 10
4.5903940436
 20
6.0830081503
 30
0.0
 10
4.6707522248
 20
6.0850689053
 30
0.0
 10
4.7547813489
 20
6.0871302288
 30
0.0
 10
4.8419714681
 20
6.0891923715
 30
0.0
 10
4.9317921915
 20
6.0912547921
 30
0.0
 10
5.0236987741
 20
6.093317509
 30
0.0
 10
5.1487902829
 20
6.0960795039
 30
0.0
 10
5.3061173351
 20
6.0995004668
 30
0.0
 10
5.4933931927
 20
6.1035893481
 30
0.0
 10
5.6469261168
 20
6.1070357442
 30
0.0
 10
5.76597449
 20
6.1098202397
 30
0.0
 10
5.8511449667
 20
6.111881714
 30
0.0
 10
5.9328138235
 20
6.113943453
 30
0.0
 10
6.0104917736
 20
6.1160046911
 30
0.0
 10
6.0837167796
 20
6.1180634584
 30
0.0
 10
6.1520415596
 20
6.1201176687
 30
0.0
 10
6.2150219873
 20
6.1221696939
 30
0.0
 10
6.2551756571
 20
6.1236108626
 30
0.0
 10
6.2742876244
 20
6.124341888
 30
0.0
  0
SPLINE
  5
333
100
AcDbEntity
  8
0
100
AcDbSpline
 62
7
  6
CONTINUOUS
 70
0
 71
3
 72
51
 73
47
 74
0
 42
0.0000001
 43
0.0000001
 44
0.0000000001
 40
0.0
 40
0.0
 40
0.0
 40
0.0
 40
0.0002495188
 40
0.0005462122
 40
0.0008914764
 40
0.0012861671
 40
0.0022257427
 40
0.0033675917
 40
0.0047128303
 40
0.0062619275
 40
0.0080150053
 40
0.0099719839
 40
0.0121326583
 40
0.0144967416
 40
0.0198326545
 40
0.0259711663
 40
0.0329021491
 40
0.0406152676
 40
0.0491000591
 40
0.0583457349
 40
0.0683380698
 40
0.0790603274
 40
0.0904956852
 40
0.1154382791
 40
0.1430205953
 40
0.173068972
 40
0.2054043317
 40
0.2398316692
 40
0.2761377577
 40
0.3141063654
 40
0.3535050006
 40
0.3940931701
 40
0.4356269677
 40
0.4778521177
 40
0.5633491396
 40
0.648509674
 40
0.731269112
 40
0.7711163433
 40
0.8096179051
 40
0.8465359175
 40
0.8816470313
 40
0.9147487626
 40
0.9304833474
 40
0.9456404327
 40
0.9741232906
 40
1.0
 40
1.0
 40
1.0
 40
1.0
 10
4.0572268927
 20
6.2248922817
 30
0.0
 10
4.0573851252
 20
6.2249872083
 30
0.0
 10
4.0577445705
 20
6.2251732124
 30
0.0
 10
4.0583524894
 20
6.2254292501
 30
0.0
 10
4.0590752603
 20
6.2256858299
 30
0.0
 10
4.0602630311
 20
6.226049902
 30
0.0
 10
4.0620405284
 20
6.2264942829
 30
0.0
 10
4.0645231084
 20
6.2270044318
 30
0.0
 10
4.0674640926
 20
6.2275162452
 30
0.0
 10
4.070862584
 20
6.2280294707
 30
0.0
 10
4.0747178269
 20
6.2285435818
 30
0.0
 10
4.0790287923
 20
6.2290583562
 30
0.0
 10
4.0837944281
 20
6.2295736528
 30
0.0
 10
4.0910512957
 20
6.2302904413
 30
0.0
 10
4.1012471302
 20
6.2311747154
 30
0.0
 10
4.1148196397
 20
6.2322006287
 30
0.0
 10
4.1301544112
 20
6.2332284047
 30
0.0
 10
4.14722764
 20
6.2342576933
 30
0.0
 10
4.1660153599
 20
6.235288024
 30
0.0
 10
4.1864908646
 20
6.236318961
 30
0.0
 10
4.2086229067
 20
6.2373504292
 30
0.0
 10
4.2323758516
 20
6.2383824735
 30
0.0
 10
4.2671782485
 20
6.2398004954
 30
0.0
 10
4.3144452198
 20
6.2415578643
 30
0.0
 10
4.375474772
 20
6.2436129593
 30
0.0
 10
4.4419741156
 20
6.2456707651
 30
0.0
 10
4.5135376269
 20
6.2477301516
 30
0.0
 10
4.589730558
 20
6.2497906034
 30
0.0
 10
4.6700907522
 20
6.2518523686
 30
0.0
 10
4.7541284269
 20
6.253914596
 30
0.0
 10
4.8413336571
 20
6.2559774439
 30
0.0
 10
4.9311760927
 20
6.2580408597
 30
0.0
 10
5.0231093064
 20
6.260104451
 30
0.0
 10
5.1482458737
 20
6.2628676565
 30
0.0
 10
5.3056383052
 20
6.2662898145
 30
0.0
 10
5.4929989285
 20
6.2703807971
 30
0.0
 10
5.6466068937
 20
6.2738293776
 30
0.0
 10
5.7657161004
 20
6.2766124694
 30
0.0
 10
5.8509325379
 20
6.2786739286
 30
0.0
 10
5.9326453765
 20
6.2807399786
 30
0.0
 10
6.0103635468
 20
6.2828091461
 30
0.0
 10
6.0724193219
 20
6.2845534044
 30
0.0
 10
6.1197228713
 20
6.2859441296
 30
0.0
 10
6.163610888
 20
6.2872776136
 30
0.0
 10
6.2149927311
 20
6.2889349855
 30
0.0
 10
6.2551662537
 20
6.2903893045
 30
0.0
 10
6.2742876244
 20
6.291141888
 30
0.0
  0
LINE
  5
334
100
AcDbEntity
  8
0
100
AcDbLine
 62
7
  6
CONTINUOUS
 10
6.4931996437
 20
3.0336601399
 11
6.4909437432
 21
3.0328121445
  0
SPLINE
  5
335
100
AcDbEntity
  8
0
100
AcDbSpline
 62
7
  6
CONTINUOUS
 70
0
 71
3
 72
35
 73
31
 74
0
 42
0.0000001
 43
0.0000001
 44
0.0000000001
 40
0.0
 40
0.0
 40
0.0
 40
0.0
 40
0.0009190372
 40
0.0019712892
 40
0.0044779003
 40
0.0075230486
 40
0.0111077376
 40
0.0152320404
 40
0.0198955315
 40
0.0250969867
 40
0.0308332351
 40
0.0438952917
 40
0.0590515774
 40
0.0762712006
 40
0.0955223276
 40
0.1167627554
 40
0.1399413982
 40
0.1650067817
 40
0.1919073589
 40
0.2205877475
 40
0.2509809977
 40
0.3166293818
 40
0.3882886094
 40
0.4653210094
 40
0.5470541624
 40
0.6327697983
 40
0.7217121694
 40
0.8131041218
 40
0.9061381255
 40
1.0
 40
1.0
 40
1.0
 40
1.0
 10
6.4909437432
 20
3.0328121445
 30
0.0
 10
6.4905849756
 20
3.0327115382
 30
0.0
 10
6.4898104754
 20
3.0325133637
 30
0.0
 10
6.4880379451
 20
3.0321198698
 30
0.0
 10
6.4854028995
 20
3.0316402676
 30
0.0
 10
6.4817395126
 20
3.031089869
 30
0.0
 10
6.4774142351
 20
3.030537845
 30
0.0
 10
6.4724285245
 20
3.0299842539
 30
0.0
 10
6.466783914
 20
3.0294295115
 30
0.0
 10
6.4604830845
 20
3.028873656
 30
0.0
 10
6.4507837607
 20
3.0280972834
 30
0.0
 10
6.4370504581
 20
3.0271403172
 30
0.0
 10
6.4186617147
 20
3.0260312818
 30
0.0
 10
6.3977598763
 20
3.0249196657
 30
0.0
 10
6.3743883308
 20
3.0238067658
 30
0.0
 10
6.3485983838
 20
3.0226931435
 30
0.0
 10
6.320449194
 20
3.0215786677
 30
0.0
 10
6.2900035747
 20
3.0204635208
 30
0.0
 10
6.2573260082
 20
3.0193478104
 30
0.0
 10
6.2224871949
 20
3.0182316846
 30
0.0
 10
6.1719440252
 20
3.0167032984
 30
0.0
 10
6.103979121
 20
3.0148080217
 30
0.0
 10
6.0171072726
 20
3.0125857006
 30
0.0
 10
5.9237122354
 20
3.0103610296
 30
0.0
 10
5.8246168123
 20
3.0081348461
 30
0.0
 10
5.7206915819
 20
3.0059075111
 30
0.0
 10
5.6128495283
 20
3.0036792178
 30
0.0
 10
5.5020397725
 20
3.0014505305
 30
0.0
 10
5.3892351107
 20
2.9992213352
 30
0.0
 10
5.3134761457
 20
2.9977373557
 30
0.0
 10
5.275428873
 20
2.9969920776
 30
0.0
  0
SPLINE
  5
336
100
AcDbEntity
  8
0
100
AcDbSpline
 62
7
  6
CONTINUOUS
 70
0
 71
3
 72
13
 73
9
 74
0
 42
0.0000001
 43
0.0000001
 44
0.0000000001
 40
0.0
 40
0.0
 40
0.0
 40
0.0
 40
0.2719642977
 40
0.5349709423
 40
0.6603846105
 40
0.7803468969
 40
0.893860212
 40
1.0
 40
1.0
 40
1.0
 40
1.0
 10
5.275428873
 20
2.9969920776
 30
0.0
 10
5.2019424863
 20
2.9955526106
 30
0.0
 10
5.0573901257
 20
2.9927211539
 30
0.0
 10
4.8789524725
 20
2.9891116258
 30
0.0
 10
4.7415892588
 20
2.9861844683
 30
0.0
 10
4.6446206429
 20
2.9840249649
 30
0.0
 10
4.5528622794
 20
2.9818664603
 30
0.0
 10
4.4935180043
 20
2.9803749755
 30
0.0
 10
4.4648427516
 20
2.9796230389
 30
0.0
  0
LINE
  5
337
100
AcDbEntity
  8
0
100
AcDbLine
 62
7
  6
CONTINUOUS
 10
4.4648427516
 20
2.9796230389
 11
4.4596417559
 21
2.9794863058
  0
LINE
  5
338
100
AcDbEntity
  8
0
100
AcDbLine
 62
7
  6
CONTINUOUS
 10
4.4596417559
 20
2.9794863058
 11
4.3984547279
 21
2.9778198053
  0
LINE
  5
339
100
AcDbEntity
  8
0
100
AcDbLine
 62
7
  6
CONTINUOUS
 10
4.3984547279
 20
2.9778198053
 11
4.3897888902
 21
2.9775741314
  0
SPLINE
  5
33A
100
AcDbEntity
  8
0
100
AcDbSpline
 62
7
  6
CONTINUOUS
 70
0
 71
3
 72
38
 73
34
 74
0
 42
0.0000001
 43
0.0000001
 44
0.0000000001
 40
0.0
 40
0.0
 40
0.0
 40
0.0
 40
0.1155965725
 40
0.225011471
 40
0.3279860904
 40
0.4242833813
 40
0.5137060029
 40
0.5960610863
 40
0.6711560552
 40
0.7388062392
 40
0.7988754361
 40
0.8512473865
 40
0.8745111828
 40
0.8958080789
 40
0.9151243933
 40
0.9324478776
 40
0.9477731883
 40
0.9610984463
 40
0.9670110148
 40
0.972423738
 40
0.9773371142
 40
0.9817520288
 40
0.9856699505
 40
0.9890932696
 40
0.992025915
 40
0.9944745742
 40
0.9964513433
 40
0.9972700833
 40
0.9979817858
 40
0.9985943527
 40
0.9991202327
 40
0.9995790526
 40
1.0
 40
1.0
 40
1.0
 40
1.0
 10
4.3897888902
 20
2.9775741314
 30
0.0
 10
4.3769051548
 20
2.9772069019
 30
0.0
 10
4.3518271468
 20
2.976474756
 30
0.0
 10
4.3152741989
 20
2.9753474816
 30
0.0
 10
4.2808741878
 20
2.9742203685
 30
0.0
 10
4.2487045756
 20
2.9730933492
 30
0.0
 10
4.2188355125
 20
2.9719671228
 30
0.0
 10
4.1913322552
 20
2.9708421949
 30
0.0
 10
4.1662587414
 20
2.9697191064
 30
0.0
 10
4.143672703
 20
2.9685983312
 30
0.0
 10
4.1236236465
 20
2.9674795831
 30
0.0
 10
4.1085231007
 20
2.9665151473
 30
0.0
 10
4.0977434495
 20
2.9657326729
 30
0.0
 10
4.0906434629
 20
2.965169029
 30
0.0
 10
4.0842081119
 20
2.9646052184
 30
0.0
 10
4.0784414206
 20
2.9640411145
 30
0.0
 10
4.0733462789
 20
2.9634773358
 30
0.0
 10
4.0695229928
 20
2.9629913688
 30
0.0
 10
4.0668026884
 20
2.9625980628
 30
0.0
 10
4.0650142304
 20
2.9623153406
 30
0.0
 10
4.0633949414
 20
2.9620331164
 30
0.0
 10
4.0619449794
 20
2.9617515025
 30
0.0
 10
4.0606644387
 20
2.9614706762
 30
0.0
 10
4.0595533958
 20
2.9611908284
 30
0.0
 10
4.0586115813
 20
2.9609122902
 30
0.0
 10
4.0578389049
 20
2.9606352267
 30
0.0
 10
4.0573051719
 20
2.960393129
 30
0.0
 10
4.0569677466
 20
2.9601947183
 30
0.0
 10
4.0567730887
 20
2.9600554309
 30
0.0
 10
4.0566202634
 20
2.9599159179
 30
0.0
 10
4.056509197
 20
2.9597753398
 30
0.0
 10
4.056440617
 20
2.9596326346
 30
0.0
 10
4.0564246894
 20
2.9595340322
 30
0.0
 10
4.0564246894
 20
2.9594870968
 30
0.0
  0
LINE
  5
33B
100
AcDbEntity
  8
0
100
AcDbLine
 62
7
  6
CONTINUOUS
 10
4.9273760307
 20
6.3099577628
 11
4.8498905001
 21
6.3080160495
  0
LINE
  5
33C
100
AcDbEntity
  8
0
100
AcDbLine
 62
7
  6
CONTINUOUS
 10
4.8498905001
 20
6.3080160495
 11
4.830094183
 21
6.3075110577
  0
SPLINE
  5
33D
100
AcDbEntity
  8
0
100
AcDbSpline
 62
7
  6
CONTINUOUS
 70
0
 71
3
 72
30
 73
26
 74
0
 42
0.0000001
 43
0.0000001
 44
0.0000000001
 40
0.0
 40
0.0
 40
0.0
 40
0.0
 40
0.1997087553
 40
0.2938279148
 40
0.3835880657
 40
0.4686317645
 40
0.5486009335
 40
0.6231330359
 40
0.6918639369
 40
0.7544335066
 40
0.8105404693
 40
0.8599306267
 40
0.8820282105
 40
0.9023533935
 40
0.9208894325
 40
0.9376287816
 40
0.9525644017
 40
0.9656897836
 40
0.9769992943
 40
0.9819718244
 40
0.9864890683
 40
0.990550669
 40
0.9941561226
 40
0.9973055139
 40
1.0
 40
1.0
 40
1.0
 40
1.0
 10
4.830094183
 20
6.3075110577
 30
0.0
 10
4.7848945334
 20
6.3063533871
 30
0.0
 10
4.7183942541
 20
6.3046035515
 30
0.0
 10
4.6315832301
 20
6.3021693223
 30
0.0
 10
4.5707247712
 20
6.3003804543
 30
0.0
 10
4.513071315
 20
6.2985927985
 30
0.0
 10
4.4588672141
 20
6.2968068766
 30
0.0
 10
4.4083584371
 20
6.2950226515
 30
0.0
 10
4.3617915367
 20
6.2932402644
 30
0.0
 10
4.3193993803
 20
6.2914590751
 30
0.0
 10
4.2813902006
 20
6.2896797623
 30
0.0
 10
4.2525427232
 20
6.2881500744
 30
0.0
 10
4.231792941
 20
6.2869116129
 30
0.0
 10
4.2180206228
 20
6.2860181032
 30
0.0
 10
4.2054641371
 20
6.2851253693
 30
0.0
 10
4.1941311572
 20
6.2842337163
 30
0.0
 10
4.1840272043
 20
6.2833435479
 30
0.0
 10
4.1751577921
 20
6.2824551211
 30
0.0
 10
4.1685437783
 20
6.281687956
 30
0.0
 10
4.1638759924
 20
6.2810654589
 30
0.0
 10
4.1608404438
 20
6.2806192288
 30
0.0
 10
4.1581179891
 20
6.2801735474
 30
0.0
 10
4.1557096558
 20
6.2797285499
 30
0.0
 10
4.153616639
 20
6.2792844801
 30
0.0
 10
4.1523323103
 20
6.2789646456
 30
0.0
 10
4.15174452
 20
6.2788014034
 30
0.0
  0
LINE
  5
33E
100
AcDbEntity
  8
0
100
AcDbLine
 62
7
  6
CONTINUOUS
 10
4.15174452
 20
6.2788014034
 11
4.1486148301
 21
6.2776287439
  0
LINE
  5
33F
100
AcDbEntity
  8
0
100
AcDbLine
 62
7
  6
CONTINUOUS
 10
6.401903144
 20
2.9809458478
 11
6.4001155584
 21
2.9802167294
  0
SPLINE
  5
340
100
AcDbEntity
  8
0
100
AcDbSpline
 62
7
  6
CONTINUOUS
 70
0
 71
3
 72
23
 73
19
 74
0
 42
0.0000001
 43
0.0000001
 44
0.0000000001
 40
0.0
 40
0.0
 40
0.0
 40
0.0
 40
0.0075851978
 40
0.0167424862
 40
0.0274850867
 40
0.0398213939
 40
0.0537518596
 40
0.0692703666
 40
0.1050414207
 40
0.1470704947
 40
0.1952877468
 40
0.2496206361
 40
0.3099949277
 40
0.3763304641
 40
0.4485401077
 40
0.6102292562
 40
0.7943535349
 40
1.0
 40
1.0
 40
1.0
 40
1.0
 10
6.3994716669
 20
2.9800251883
 30
0.0
 10
6.3988895045
 20
2.9798612477
 30
0.0
 10
6.3975922533
 20
2.9795431117
 30
0.0
 10
6.3954440977
 20
2.9791077422
 30
0.0
 10
6.3929108228
 20
2.9786709573
 30
0.0
 10
6.389992362
 20
2.9782332234
 30
0.0
 10
6.3866894604
 20
2.9777947735
 30
0.0
 10
6.3815255005
 20
2.9771799129
 30
0.0
 10
6.3741227095
 20
2.9764244903
 30
0.0
 10
6.3641124827
 20
2.975551663
 30
0.0
 10
6.3526175292
 20
2.9746766804
 30
0.0
 10
6.3396562611
 20
2.9737999386
 30
0.0
 10
6.3252474564
 20
2.9729221015
 30
0.0
 10
6.3094109179
 20
2.9720433758
 30
0.0
 10
6.2855027368
 20
2.9708244199
 30
0.0
 10
6.2522054202
 20
2.9693193058
 30
0.0
 10
6.2082694531
 20
2.9675703192
 30
0.0
 10
6.1772107854
 20
2.9664620253
 30
0.0
 10
6.1608231487
 20
2.9659017382
 30
0.0
  0
LINE
  5
341
100
AcDbEntity
  8
0
100
AcDbLine
 62
7
  6
CONTINUOUS
 10
6.0858947943
 20
2.9634898921
 11
6.0688039994
 21
2.9629749613
  0
SPLINE
  5
342
100
AcDbEntity
  8
0
100
AcDbSpline
 62
7
  6
CONTINUOUS
 70
0
 71
3
 72
14
 73
10
 74
0
 42
0.0000001
 43
0.0000001
 44
0.0000000001
 40
0.0
 40
0.0
 40
0.0
 40
0.0
 40
0.1031023324
 40
0.2147115261
 40
0.3338362439
 40
0.459322845
 40
0.5899397866
 40
0.7244382639
 40
1.0
 40
1.0
 40
1.0
 40
1.0
 10
6.0688039994
 20
2.9629749613
 30
0.0
 10
6.0415266753
 20
2.9621619153
 30
0.0
 10
5.9847188996
 20
2.9605524752
 30
0.0
 10
5.8963883925
 20
2.9582375983
 30
0.0
 10
5.802131265
 20
2.9559222258
 30
0.0
 10
5.7028417173
 20
2.9536054494
 30
0.0
 10
5.5994819766
 20
2.9512870299
 30
0.0
 10
5.4564078659
 20
2.9481691833
 30
0.0
 10
5.3478961839
 20
2.9458722903
 30
0.0
 10
5.274976006
 20
2.9443285176
 30
0.0
  0
LINE
  5
343
100
AcDbEntity
  8
0
100
AcDbLine
 62
7
  6
CONTINUOUS
 10
5.259425286
 20
2.943999286
 11
5.1481650607
 21
2.941637938
  0
LINE
  5
344
100
AcDbEntity
  8
0
100
AcDbLine
 62
7
  6
CONTINUOUS
 10
5.1481650607
 20
2.941637938
 11
5.1364209306
 21
2.9413875144
  0
SPLINE
  5
345
100
AcDbEntity
  8
0
100
AcDbSpline
 62
7
  6
CONTINUOUS
 70
0
 71
3
 72
44
 73
40
 74
0
 42
0.0000001
 43
0.0000001
 44
0.0000000001
 40
0.0
 40
0.0
 40
0.0
 40
0.0
 40
0.1015120067
 40
0.2010492547
 40
0.2977928441
 40
0.3909619161
 40
0.4797883966
 40
0.563554973
 40
0.6415821098
 40
0.7132227445
 40
0.7464663167
 40
0.777896833
 40
0.8074439291
 40
0.8350502651
 40
0.8606675564
 40
0.8842477742
 40
0.9057429977
 40
0.925106812
 40
0.9423016771
 40
0.9572938485
 40
0.963953592
 40
0.9700503537
 40
0.9755802091
 40
0.9805393926
 40
0.9849252864
 40
0.988738346
 40
0.9919801638
 40
0.9933877199
 40
0.9946536739
 40
0.9957787722
 40
0.9967640945
 40
0.9976112709
 40
0.9983228996
 40
0.9989034251
 40
0.9993611555
 40
0.9995491842
 40
0.9997143596
 40
0.999862124
 40
1.0
 40
1.0
 40
1.0
 40
1.0
 10
5.1364209306
 20
2.9413875144
 30
0.0
 10
5.1029252792
 20
2.9406728197
 30
0.0
 10
5.0365857502
 20
2.9392494279
 30
0.0
 10
4.9383249655
 20
2.937099791
 30
0.0
 10
4.842818361
 20
2.9349508885
 30
0.0
 10
4.7508476607
 20
2.9328031318
 30
0.0
 10
4.6631611316
 20
2.930655797
 30
0.0
 10
4.5804736268
 20
2.9285096596
 30
0.0
 10
4.5034601537
 20
2.9263658728
 30
0.0
 10
4.4431191888
 20
2.9245392097
 30
0.0
 10
4.398153621
 20
2.9230667003
 30
0.0
 10
4.3670752372
 20
2.9219903882
 30
0.0
 10
4.3378585565
 20
2.9209142099
 30
0.0
 10
4.3105618617
 20
2.9198382845
 30
0.0
 10
4.2852361011
 20
2.9187629906
 30
0.0
 10
4.2619291857
 20
2.9176885564
 30
0.0
 10
4.2406885092
 20
2.9166152957
 30
0.0
 10
4.2215581301
 20
2.9155434685
 30
0.0
 10
4.2045776837
 20
2.9144735221
 30
0.0
 10
4.1917894761
 20
2.9135519173
 30
0.0
 10
4.1826616533
 20
2.9128052493
 30
0.0
 10
4.1766502695
 20
2.9122680008
 30
0.0
 10
4.1712025303
 20
2.9117313133
 30
0.0
 10
4.1663223992
 20
2.9111952777
 30
0.0
 10
4.1620125621
 20
2.9106600602
 30
0.0
 10
4.1582743506
 20
2.9101259928
 30
0.0
 10
4.1555194453
 20
2.9096635643
 30
0.0
 10
4.1536035764
 20
2.9092874922
 30
0.0
 10
4.1523788
 20
2.9090191589
 30
0.0
 10
4.1512969772
 20
2.9087512104
 30
0.0
 10
4.150357929
 20
2.9084837271
 30
0.0
 10
4.1495614334
 20
2.908216884
 30
0.0
 10
4.1489065882
 20
2.9079507717
 30
0.0
 10
4.1483927703
 20
2.9076854641
 30
0.0
 10
4.1480596692
 20
2.907450641
 30
0.0
 10
4.1478727751
 20
2.9072579063
 30
0.0
 10
4.1477773325
 20
2.9071217941
 30
0.0
 10
4.1477177927
 20
2.9069841133
 30
0.0
 10
4.1477028379
 20
2.9068897354
 30
0.0
 10
4.1477019192
 20
2.9068442397
 30
0.0
  0
LINE
  5
346
100
AcDbEntity
  8
0
100
AcDbLine
 62
7
  6
CONTINUOUS
 10
4.0571157222
 20
2.9586932672
 11
4.0591399822
 21
2.9579070052
  0
LINE
  5
347
100
AcDbEntity
  8
0
100
AcDbLine
 62
7
  6
CONTINUOUS
 10
6.4931883648
 20
2.8836472855
 11
6.4909437431
 21
2.882803217
  0
SPLINE
  5
348
100
AcDbEntity
  8
0
100
AcDbSpline
 62
7
  6
CONTINUOUS
 70
0
 71
3
 72
35
 73
31
 74
0
 42
0.0000001
 43
0.0000001
 44
0.0000000001
 40
0.0
 40
0.0
 40
0.0
 40
0.0
 40
0.0009190596
 40
0.001971279
 40
0.0044777289
 40
0.0075226622
 40
0.011107133
 40
0.0152312452
 40
0.0198945934
 40
0.0250959616
 40
0.0308321666
 40
0.0438942211
 40
0.0590505613
 40
0.076270252
 40
0.0955214303
 40
0.1167618889
 40
0.1399405516
 40
0.1650059518
 40
0.1919065482
 40
0.2205869621
 40
0.2509802425
 40
0.3166286959
 40
0.388287997
 40
0.4653204737
 40
0.5470537083
 40
0.6327694302
 40
0.7217118907
 40
0.8131039346
 40
0.9061380315
 40
1.0
 40
1.0
 40
1.0
 40
1.0
 10
6.4909437431
 20
2.882803217
 30
0.0
 10
6.4905849918
 20
2.8827025205
 30
0.0
 10
6.4898105061
 20
2.8825042953
 30
0.0
 10
6.4880379797
 20
2.882111101
 30
0.0
 10
6.4854029048
 20
2.881632552
 30
0.0
 10
6.4817394919
 20
2.8810839787
 30
0.0
 10
6.4774142
 20
2.8805341078
 30
0.0
 10
6.4724284826
 20
2.8799826752
 30
0.0
 10
6.4667838714
 20
2.8794297696
 30
0.0
 10
6.4604830542
 20
2.8788751332
 30
0.0
 10
6.4507837172
 20
2.878099743
 30
0.0
 10
6.4370504286
 20
2.8771428021
 30
0.0
 10
6.4186617116
 20
2.876032836
 30
0.0
 10
6.3977598902
 20
2.8749199651
 30
0.0
 10
6.3743883444
 20
2.8738062611
 30
0.0
 10
6.3485983896
 20
2.8726924408
 30
0.0
 10
6.3204491948
 20
2.8715781046
 30
0.0
 10
6.2900035714
 20
2.8704632773
 30
0.0
 10
6.2573260026
 20
2.8693478676
 30
0.0
 10
6.2224871901
 20
2.8682318607
 30
0.0
 10
6.1719440202
 20
2.866703477
 30
0.0
 10
6.1039791189
 20
2.8648080146
 30
0.0
 10
6.0171072693
 20
2.8625856352
 30
0.0
 10
5.9237122301
 20
2.8603610177
 30
0.0
 10
5.824616806
 20
2.8581348646
 30
0.0
 10
5.7206915753
 20
2.8559075178
 30
0.0
 10
5.6128495212
 20
2.8536792133
 30
0.0
 10
5.5020397647
 20
2.8514505285
 30
0.0
 10
5.3892351024
 20
2.8492213362
 30
0.0
 10
5.313476137
 20
2.8477373543
 30
0.0
 10
5.2754288642
 20
2.8469920756
 30
0.0
  0
SPLINE
  5
349
100
AcDbEntity
  8
0
100
AcDbSpline
 62
7
  6
CONTINUOUS
 70
0
 71
3
 72
13
 73
9
 74
0
 42
0.0000001
 43
0.0000001
 44
0.0000000001
 40
0.0
 40
0.0
 40
0.0
 40
0.0
 40
0.2719643019
 40
0.5349709496
 40
0.6603846183
 40
0.780346902
 40
0.8938602116
 40
1.0
 40
1.0
 40
1.0
 40
1.0
 10
5.2754288642
 20
2.8469920756
 30
0.0
 10
5.2019424719
 20
2.8455526074
 30
0.0
 10
5.0573901002
 20
2.842721168
 30
0.0
 10
4.8789524342
 20
2.8391116261
 30
0.0
 10
4.7415892131
 20
2.8361844103
 30
0.0
 10
4.644620592
 20
2.83402497
 30
0.0
 10
4.552862221
 20
2.8318666382
 30
0.0
 10
4.4935179444
 20
2.8303751151
 30
0.0
 10
4.464842693
 20
2.82962306
 30
0.0
  0
LINE
  5
34A
100
AcDbEntity
  8
0
100
AcDbLine
 62
7
  6
CONTINUOUS
 10
4.464842693
 20
2.82962306
 11
4.4596417559
 21
2.8294863058
  0
LINE
  5
34B
100
AcDbEntity
  8
0
100
AcDbLine
 62
7
  6
CONTINUOUS
 10
4.4596417559
 20
2.8294863058
 11
4.3984547293
 21
2.8278194363
  0
LINE
  5
34C
100
AcDbEntity
  8
0
100
AcDbLine
 62
7
  6
CONTINUOUS
 10
4.3984547293
 20
2.8278194363
 11
4.3902561857
 21
2.8275870298
  0
SPLINE
  5
34D
100
AcDbEntity
  8
0
100
AcDbSpline
 62
7
  6
CONTINUOUS
 70
0
 71
3
 72
38
 73
34
 74
0
 42
0.0000001
 43
0.0000001
 44
0.0000000001
 40
0.0
 40
0.0
 40
0.0
 40
0.0
 40
0.1155839866
 40
0.2249889473
 40
0.3279560359
 40
0.4242475791
 40
0.5136659669
 40
0.5960182582
 40
0.6711118267
 40
0.738761777
 40
0.7988313048
 40
0.8512036352
 40
0.8744674189
 40
0.8957640125
 40
0.9150795759
 40
0.9324016673
 40
0.9477249625
 40
0.9610478045
 40
0.9669591156
 40
0.9723706257
 40
0.9772829127
 40
0.9816969683
 40
0.9856144089
 40
0.9890378362
 40
0.991971496
 40
0.9944225754
 40
0.9964040106
 40
0.9972263868
 40
0.9979429383
 40
0.9985619429
 40
0.9990962884
 40
0.9995659504
 40
1.0
 40
1.0
 40
1.0
 40
1.0
 10
4.3902561857
 20
2.8275870298
 30
0.0
 10
4.377355259
 20
2.8272194544
 30
0.0
 10
4.3522435661
 20
2.8264866572
 30
0.0
 10
4.3156411998
 20
2.8253586625
 30
0.0
 10
4.2811940961
 20
2.8242313115
 30
0.0
 10
4.2489799526
 20
2.8231045343
 30
0.0
 10
4.2190691501
 20
2.8219783637
 30
0.0
 10
4.1915271089
 20
2.8208526874
 30
0.0
 10
4.166417924
 20
2.8197275334
 30
0.0
 10
4.1437995671
 20
2.8186024829
 30
0.0
 10
4.1237216959
 20
2.8174790529
 30
0.0
 10
4.1085993564
 20
2.8165122063
 30
0.0
 10
4.0978040349
 20
2.8157301339
 30
0.0
 10
4.0906937295
 20
2.8151681575
 30
0.0
 10
4.0842490166
 20
2.8146076171
 30
0.0
 10
4.0784738855
 20
2.8140488007
 30
0.0
 10
4.0733712539
 20
2.8134914796
 30
0.0
 10
4.0695422921
 20
2.8130111618
 30
0.0
 10
4.0668179525
 20
2.8126218836
 30
0.0
 10
4.0650268561
 20
2.8123416723
 30
0.0
 10
4.0634051704
 20
2.8120614388
 30
0.0
 10
4.0619530509
 20
2.8117811631
 30
0.0
 10
4.0606705864
 20
2.8115008906
 30
0.0
 10
4.0595578452
 20
2.8112206819
 30
0.0
 10
4.0586145362
 20
2.8109407304
 30
0.0
 10
4.0578405472
 20
2.8106610676
 30
0.0
 10
4.0573060318
 20
2.8104155883
 30
0.0
 10
4.0569682957
 20
2.8102136761
 30
0.0
 10
4.0567732873
 20
2.810071405
 30
0.0
 10
4.0566201878
 20
2.8099284606
 30
0.0
 10
4.0565089799
 20
2.8097839853
 30
0.0
 10
4.0564404762
 20
2.809636988
 30
0.0
 10
4.0564246894
 20
2.809535563
 30
0.0
 10
4.0564246894
 20
2.8094870968
 30
0.0
  0
LINE
  5
34E
100
AcDbEntity
  8
0
100
AcDbLine
 62
7
  6
CONTINUOUS
 10
4.0571612285
 20
2.8086472981
 11
4.0594056358
 21
2.8078034028
  0
SPLINE
  5
34F
100
AcDbEntity
  8
0
100
AcDbSpline
 62
7
  6
CONTINUOUS
 70
0
 71
3
 72
53
 73
49
 74
0
 42
0.0000001
 43
0.0000001
 44
0.0000000001
 40
0.0
 40
0.0
 40
0.0
 40
0.0
 40
0.0262568747
 40
0.0551922005
 40
0.0865994135
 40
0.1202708585
 40
0.1559973323
 40
0.1935669369
 40
0.2732808279
 40
0.357413772
 40
0.4438639378
 40
0.5304732765
 40
0.5731606643
 40
0.6150792783
 40
0.6559659834
 40
0.6955678866
 40
0.7336343132
 40
0.7699285165
 40
0.8042257966
 40
0.8363066835
 40
0.8659760726
 40
0.8930468069
 40
0.9173470952
 40
0.928412901
 40
0.9387321599
 40
0.9482871992
 40
0.9570626219
 40
0.9650468417
 40
0.9722287122
 40
0.9785972098
 40
0.9841415115
 40
0.9866014896
 40
0.9888524519
 40
0.9908940503
 40
0.9927260141
 40
0.9943481903
 40
0.9957606146
 40
0.9969636433
 40
0.9979582241
 40
0.9983780095
 40
0.9987466857
 40
0.9990650034
 40
0.9993341771
 40
0.9995562813
 40
0.9997351176
 40
0.9998780813
 40
0.9999405028
 40
1.0
 40
1.0
 40
1.0
 40
1.0
 10
6.2742876244
 20
6.0816005771
 30
0.0
 10
6.2548726578
 20
6.0808697077
 30
0.0
 10
6.2140591918
 20
6.0794132889
 30
0.0
 10
6.1500142919
 20
6.0773193067
 30
0.0
 10
6.080480366
 20
6.0752231725
 30
0.0
 10
6.0059190451
 20
6.0731339811
 30
0.0
 10
5.9267961812
 20
6.07104568
 30
0.0
 10
5.8136124673
 20
6.0682023068
 30
0.0
 10
5.6646162314
 20
6.0646852476
 30
0.0
 10
5.479455872
 20
6.060540243
 30
0.0
 10
5.2891920803
 20
6.0563920775
 30
0.0
 10
5.12958842
 20
6.0529185329
 30
0.0
 10
5.0029290448
 20
6.0501136559
 30
0.0
 10
4.9100945784
 20
6.0480203477
 30
0.0
 10
4.8195437972
 20
6.0459272428
 30
0.0
 10
4.7318441995
 20
6.0438348297
 30
0.0
 10
4.6475438016
 20
6.0417429162
 30
0.0
 10
4.5671697881
 20
6.0396517653
 30
0.0
 10
4.4912262958
 20
6.0375620762
 30
0.0
 10
4.4201867605
 20
6.0354733666
 30
0.0
 10
4.3544968877
 20
6.0333869937
 30
0.0
 10
4.2945673186
 20
6.0313033056
 30
0.0
 10
4.2484016241
 20
6.0295185429
 30
0.0
 10
4.2146275495
 20
6.0280770557
 30
0.0
 10
4.1917573752
 20
6.0270305172
 30
0.0
 10
4.1705838383
 20
6.0259845833
 30
0.0
 10
4.1511403523
 20
6.0249392226
 30
0.0
 10
4.1334555922
 20
6.023894898
 30
0.0
 10
4.1175551311
 20
6.0228520751
 30
0.0
 10
4.103464294
 20
6.0218111037
 30
0.0
 10
4.092866746
 20
6.02091413
 30
0.0
 10
4.0853132165
 20
6.0201872342
 30
0.0
 10
4.080344041
 20
6.0196643917
 30
0.0
 10
4.0758423112
 20
6.0191420602
 30
0.0
 10
4.071809203
 20
6.018620375
 30
0.0
 10
4.0682458685
 20
6.0180995519
 30
0.0
 10
4.0651532179
 20
6.0175800928
 30
0.0
 10
4.0625322751
 20
6.0170622468
 30
0.0
 10
4.0606477026
 20
6.0166115408
 30
0.0
 10
4.0593806751
 20
6.0162426839
 30
0.0
 10
4.0586039228
 20
6.0159822949
 30
0.0
 10
4.0579454046
 20
6.0157223886
 30
0.0
 10
4.057404666
 20
6.0154630618
 30
0.0
 10
4.0569805602
 20
6.0152035784
 30
0.0
 10
4.0566712546
 20
6.0149432093
 30
0.0
 10
4.0565008875
 20
6.0147089578
 30
0.0
 10
4.0564362731
 20
6.0145224932
 30
0.0
 10
4.0564260159
 20
6.0144319476
 30
0.0
 10
4.0564261498
 20
6.014387923
 30
0.0
  0
SPLINE
  5
350
100
AcDbEntity
  8
0
100
AcDbSpline
 62
7
  6
CONTINUOUS
 70
0
 71
3
 72
22
 73
18
 74
0
 42
0.0000001
 43
0.0000001
 44
0.0000000001
 40
0.0
 40
0.0
 40
0.0
 40
0.0
 40
0.2243404309
 40
0.4195712802
 40
0.5857330786
 40
0.657946712
 40
0.7229433423
 40
0.7807593856
 40
0.8314502928
 40
0.8751028121
 40
0.911858482
 40
0.9419623056
 40
0.9658722891
 40
0.9757882807
 40
0.9845775221
 40
0.9925218459
 40
1.0
 40
1.0
 40
1.0
 40
1.0
 10
6.4751746894
 20
5.9690665871
 30
0.0
 10
6.4766355316
 20
5.9692484369
 30
0.0
 10
6.4793653696
 20
5.9696077632
 30
0.0
 10
6.4831658258
 20
5.9701835201
 30
0.0
 10
6.4859676331
 20
5.9706823651
 30
0.0
 10
6.4879166816
 20
5.9710882326
 30
0.0
 10
6.4891633426
 20
5.9713780242
 30
0.0
 10
6.4902646508
 20
5.9716674947
 30
0.0
 10
6.4912206746
 20
5.9719565603
 30
0.0
 10
6.4920315459
 20
5.9722450374
 30
0.0
 10
6.4926980854
 20
5.9725328912
 30
0.0
 10
6.4932208897
 20
5.9728200829
 30
0.0
 10
6.4935585323
 20
5.973074176
 30
0.0
 10
6.4937468737
 20
5.9732820686
 30
0.0
 10
6.4938428741
 20
5.9734293539
 30
0.0
 10
6.4939019812
 20
5.9735781421
 30
0.0
 10
6.4939160243
 20
5.9736796236
 30
0.0
 10
6.4939164302
 20
5.9737286934
 30
0.0
  0
SPLINE
  5
351
100
AcDbEntity
  8
0
100
AcDbSpline
 62
7
  6
CONTINUOUS
 70
0
 71
3
 72
31
 73
27
 74
0
 42
0.0000001
 43
0.0000001
 44
0.0000000001
 40
0.0
 40
0.0
 40
0.0
 40
0.0
 40
0.074800666
 40
0.1527878904
 40
0.2328151641
 40
0.3138407283
 40
0.3948050963
 40
0.4746154132
 40
0.5522067769
 40
0.6265424991
 40
0.6966357974
 40
0.7615451915
 40
0.8204108606
 40
0.8473258957
 40
0.8724444311
 40
0.8956799548
 40
0.9169516391
 40
0.9361949307
 40
0.9533483314
 40
0.9683511839
 40
0.9750300468
 40
0.9811537432
 40
0.9867173401
 40
0.9917160011
 40
0.9961450375
 40
1.0
 40
1.0
 40
1.0
 40
1.0
 10
4.7398860005
 20
5.9199577522
 30
0.0
 10
4.7831610195
 20
5.9210095636
 30
0.0
 10
4.87155623
 20
5.9230910898
 30
0.0
 10
5.0062540159
 20
5.9261352082
 30
0.0
 10
5.1445549822
 20
5.9291845084
 30
0.0
 10
5.2845792536
 20
5.9322339513
 30
0.0
 10
5.4244779636
 20
5.9352823581
 30
0.0
 10
5.5623888007
 20
5.9383306002
 30
0.0
 10
5.6964626578
 20
5.9413775562
 30
0.0
 10
5.824911729
 20
5.9444228488
 30
0.0
 10
5.9460195658
 20
5.9474646394
 30
0.0
 10
6.0581718229
 20
5.9505027478
 30
0.0
 10
6.1453389964
 20
5.9530999963
 30
0.0
 10
6.2094829656
 20
5.9552021354
 30
0.0
 10
6.253015086
 20
5.9567301554
 30
0.0
 10
6.2932792507
 20
5.9582566774
 30
0.0
 10
6.3301407696
 20
5.9597818746
 30
0.0
 10
6.3634793227
 20
5.9613050464
 30
0.0
 10
6.3931859523
 20
5.9628258523
 30
0.0
 10
6.4156222512
 20
5.9641363658
 30
0.0
 10
6.4316784679
 20
5.9651985267
 30
0.0
 10
6.4422796548
 20
5.9659632221
 30
0.0
 10
6.4519058206
 20
5.9667268084
 30
0.0
 10
6.4605480308
 20
5.9674888394
 30
0.0
 10
6.4681973335
 20
5.9682487635
 30
0.0
 10
6.4729608756
 20
5.9687910051
 30
0.0
 10
6.4751746894
 20
5.9690665871
 30
0.0
  0
SPLINE
  5
352
100
AcDbEntity
  8
0
100
AcDbSpline
 62
7
  6
CONTINUOUS
 70
0
 71
3
 72
18
 73
14
 74
0
 42
0.0000001
 43
0.0000001
 44
0.0000000001
 40
0.0
 40
0.0
 40
0.0
 40
0.0
 40
0.0310945576
 40
0.0665442618
 40
0.1063201414
 40
0.1503914829
 40
0.1987264688
 40
0.2512922041
 40
0.3689629965
 40
0.5030824964
 40
0.6533094317
 40
0.8191473566
 40
1.0
 40
1.0
 40
1.0
 40
1.0
 10
6.4751746894
 20
6.0931252762
 30
0.0
 10
6.4731047887
 20
6.0928668314
 30
0.0
 10
6.4686695561
 20
6.0923577754
 30
0.0
 10
6.4615728678
 20
6.0916427703
 30
0.0
 10
6.4536018077
 20
6.0909268602
 30
0.0
 10
6.4447632953
 20
6.090210355
 30
0.0
 10
6.4350642597
 20
6.0894934525
 30
0.0
 10
6.4204350757
 20
6.088499662
 30
0.0
 10
6.4000540496
 20
6.0872721705
 30
0.0
 10
6.3731225313
 20
6.0858432006
 30
0.0
 10
6.3429560358
 20
6.0844070189
 30
0.0
 10
6.3096513149
 20
6.0829699273
 30
0.0
 10
6.2864115046
 20
6.0820569763
 30
0.0
 10
6.2742876244
 20
6.0816005771
 30
0.0
  0
SPLINE
  5
353
100
AcDbEntity
  8
0
100
AcDbSpline
 62
7
  6
CONTINUOUS
 70
0
 71
3
 72
17
 73
13
 74
0
 42
0.0000001
 43
0.0000001
 44
0.0000000001
 40
0.0
 40
0.0
 40
0.0
 40
0.0
 40
0.1808544186
 40
0.3466919359
 40
0.4969178822
 40
0.6310371116
 40
0.7487086721
 40
0.8496108764
 40
0.8936831936
 40
0.9334594746
 40
0.9689083694
 40
1.0
 40
1.0
 40
1.0
 40
1.0
 10
6.2742876244
 20
6.124341888
 30
0.0
 10
6.2864113249
 20
6.1248056149
 30
0.0
 10
6.3096509321
 20
6.1257245333
 30
0.0
 10
6.3429559145
 20
6.1271546053
 30
0.0
 10
6.3731226726
 20
6.1285816706
 30
0.0
 10
6.4000542819
 20
6.1300083499
 30
0.0
 10
6.4236718498
 20
6.1314337796
 30
0.0
 10
6.4412484733
 20
6.1326698236
 30
0.0
 10
6.453601742
 20
6.1336746785
 30
0.0
 10
6.4615727202
 20
6.1343917066
 30
0.0
 10
6.4686693075
 20
6.1351052603
 30
0.0
 10
6.473104656
 20
6.135610832
 30
0.0
 10
6.4751746894
 20
6.1358665871
 30
0.0
  0
SPLINE
  5
354
100
AcDbEntity
  8
0
100
AcDbSpline
 62
7
  6
CONTINUOUS
 70
0
 71
3
 72
22
 73
18
 74
0
 42
0.0000001
 43
0.0000001
 44
0.0000000001
 40
0.0
 40
0.0
 40
0.0
 40
0.0
 40
0.2242897505
 40
0.4194900799
 40
0.5856373971
 40
0.6578486443
 40
0.7228455152
 40
0.7806640547
 40
0.83135943
 40
0.8750182481
 40
0.9117821487
 40
0.9418966716
 40
0.9658211479
 40
0.9757466361
 40
0.9845473798
 40
0.9925055683
 40
1.0
 40
1.0
 40
1.0
 40
1.0
 10
6.4751746894
 20
6.1358665871
 30
0.0
 10
6.476635759
 20
6.1360471039
 30
0.0
 10
6.4793660966
 20
6.1364042255
 30
0.0
 10
6.4831672976
 20
6.1369777794
 30
0.0
 10
6.4859697373
 20
6.137475694
 30
0.0
 10
6.4879192667
 20
6.1378813405
 30
0.0
 10
6.4891662707
 20
6.1381711875
 30
0.0
 10
6.490267883
 20
6.1384608944
 30
0.0
 10
6.4912241616
 20
6.1387503509
 30
0.0
 10
6.4920352286
 20
6.1390393474
 30
0.0
 10
6.4927018957
 20
6.1393278256
 30
0.0
 10
6.4932247526
 20
6.1396157225
 30
0.0
 10
6.4935623345
 20
6.1398704835
 30
0.0
 10
6.4937505464
 20
6.1400789125
 30
0.0
 10
6.4938464397
 20
6.1402265992
 30
0.0
 10
6.4939054016
 20
6.1403757863
 30
0.0
 10
6.4939193208
 20
6.1404775112
 30
0.0
 10
6.4939196651
 20
6.1405267014
 30
0.0
  0
SPLINE
  5
355
100
AcDbEntity
  8
0
100
AcDbSpline
 62
7
  6
CONTINUOUS
 70
0
 71
3
 72
54
 73
50
 74
0
 42
0.0000001
 43
0.0000001
 44
0.0000000001
 40
0.0
 40
0.0
 40
0.0
 40
0.0
 40
0.0262547847
 40
0.0551901991
 40
0.0865989103
 40
0.120272252
 40
0.15599912
 40
0.1935671577
 40
0.232744578
 40
0.2732813147
 40
0.3574149112
 40
0.443864641
 40
0.5304746015
 40
0.5731614172
 40
0.6150806228
 40
0.6559676915
 40
0.6955683026
 40
0.733636617
 40
0.7699300682
 40
0.8042260372
 40
0.8363100814
 40
0.8659768094
 40
0.8930479428
 40
0.9173507778
 40
0.9284145233
 40
0.9387318384
 40
0.9482873178
 40
0.9570655958
 40
0.9650513785
 40
0.9722315656
 40
0.9785974131
 40
0.984140879
 40
0.9866018121
 40
0.9888543067
 40
0.9908975041
 40
0.9927306247
 40
0.9943530313
 40
0.9957647246
 40
0.9969664452
 40
0.997959541
 40
0.9983786422
 40
0.9987467384
 40
0.9990646269
 40
0.9993335651
 40
0.9995556589
 40
0.9997346945
 40
0.9998779387
 40
0.9999404627
 40
1.0
 40
1.0
 40
1.0
 40
1.0
 10
6.2742876244
 20
6.2484005771
 30
0.0
 10
6.2548743836
 20
6.2476661773
 30
0.0
 10
6.2140625468
 20
6.2462079707
 30
0.0
 10
6.150018035
 20
6.2441180459
 30
0.0
 10
6.080481607
 20
6.2420247995
 30
0.0
 10
6.0059176725
 20
6.2399350063
 30
0.0
 10
5.9267944877
 20
6.2378454999
 30
0.0
 10
5.8435972662
 20
6.2357549539
 30
0.0
 10
5.7568399727
 20
6.2336626221
 30
0.0
 10
5.635634394
 20
6.2308363873
 30
0.0
 10
5.4794560149
 20
6.2273403051
 30
0.0
 10
5.2891920507
 20
6.223192002
 30
0.0
 10
5.1295890418
 20
6.2197186125
 30
0.0
 10
5.0029294882
 20
6.2169136255
 30
0.0
 10
4.9100949527
 20
6.2148203492
 30
0.0
 10
4.8195446289
 20
6.2127273187
 30
0.0
 10
4.7318445289
 20
6.2106347181
 30
0.0
 10
4.6475444368
 20
6.208543018
 30
0.0
 10
4.5671707405
 20
6.2064518226
 30
0.0
 10
4.4912266221
 20
6.204361869
 30
0.0
 10
4.4201878401
 20
6.2022736492
 30
0.0
 10
4.3544974687
 20
6.2001868829
 30
0.0
 10
4.294567831
 20
6.1981031429
 30
0.0
 10
4.248401569
 20
6.1963188461
 30
0.0
 10
4.214628664
 20
6.1948770717
 30
0.0
 10
4.1917611885
 20
6.1938304088
 30
0.0
 10
4.1705867024
 20
6.1927844272
 30
0.0
 10
4.1511396495
 20
6.1917392966
 30
0.0
 10
4.1334528915
 20
6.1906951584
 30
0.0
 10
4.1175545303
 20
6.1896521929
 30
0.0
 10
4.1034675765
 20
6.1886110045
 30
0.0
 10
4.0928719463
 20
6.1877139025
 30
0.0
 10
4.085317192
 20
6.1869871703
 30
0.0
 10
4.0803449829
 20
6.1864643785
 30
0.0
 10
4.0758400623
 20
6.1859421103
 30
0.0
 10
4.0718047229
 20
6.1854205185
 30
0.0
 10
4.0682408967
 20
6.1848997457
 30
0.0
 10
4.0651496118
 20
6.1843802603
 30
0.0
 10
4.0625313376
 20
6.1838623758
 30
0.0
 10
4.0606494294
 20
6.1834115923
 30
0.0
 10
4.0593845348
 20
6.1830426957
 30
0.0
 10
4.0586091132
 20
6.1827822853
 30
0.0
 10
4.0579516002
 20
6.1825223481
 30
0.0
 10
4.0574114419
 20
6.1822629759
 30
0.0
 10
4.0569874198
 20
6.1820034454
 30
0.0
 10
4.0566776849
 20
6.1817430895
 30
0.0
 10
4.0565064884
 20
6.181509
 30
0.0
 10
4.0564408722
 20
6.1813225719
 30
0.0
 10
4.0564300575
 20
6.1812319907
 30
0.0
 10
4.0564299179
 20
6.1811879365
 30
0.0
  0
SPLINE
  5
356
100
AcDbEntity
  8
0
100
AcDbSpline
 62
7
  6
CONTINUOUS
 70
0
 71
3
 72
18
 73
14
 74
0
 42
0.0000001
 43
0.0000001
 44
0.0000000001
 40
0.0
 40
0.0
 40
0.0
 40
0.0
 40
0.0310965944
 40
0.0665467701
 40
0.1063222848
 40
0.1503929293
 40
0.1987272486
 40
0.2512925972
 40
0.3689632942
 40
0.5030828603
 40
0.65330949
 40
0.8191470696
 40
1.0
 40
1.0
 40
1.0
 40
1.0
 10
6.4751746894
 20
6.2599252762
 30
0.0
 10
6.4731048881
 20
6.259664928
 30
0.0
 10
6.4686697364
 20
6.2591535163
 30
0.0
 10
6.4615729677
 20
6.2584377603
 30
0.0
 10
6.4536018483
 20
6.2577228423
 30
0.0
 10
6.4447632945
 20
6.2570082053
 30
0.0
 10
6.4350642302
 20
6.2562932176
 30
0.0
 10
6.4204350262
 20
6.2553007572
 30
0.0
 10
6.4000540626
 20
6.2540725676
 30
0.0
 10
6.3731226025
 20
6.2526424834
 30
0.0
 10
6.3429560235
 20
6.2512083665
 30
0.0
 10
6.3096511999
 20
6.2497737726
 30
0.0
 10
6.2864114474
 20
6.2488592195
 30
0.0
 10
6.2742876244
 20
6.2484005771
 30
0.0
  0
SPLINE
  5
357
100
AcDbEntity
  8
0
100
AcDbSpline
 62
7
  6
CONTINUOUS
 70
0
 71
3
 72
18
 73
14
 74
0
 42
0.0000001
 43
0.0000001
 44
0.0000000001
 40
0.0
 40
0.0
 40
0.0
 40
0.0
 40
0.1808567257
 40
0.3466925764
 40
0.4969163854
 40
0.6310354381
 40
0.7487075223
 40
0.8012738717
 40
0.8496091039
 40
0.8936803828
 40
0.9334560127
 40
0.9689054555
 40
1.0
 40
1.0
 40
1.0
 40
1.0
 10
6.2742876244
 20
6.291141888
 30
0.0
 10
6.2864109734
 20
6.2916190418
 30
0.0
 10
6.3096502169
 20
6.2925482508
 30
0.0
 10
6.3429557043
 20
6.2939645179
 30
0.0
 10
6.3731229565
 20
6.2953768024
 30
0.0
 10
6.4000543971
 20
6.2968048392
 30
0.0
 10
6.4204351535
 20
6.298038327
 30
0.0
 10
6.4350642358
 20
6.2990355772
 30
0.0
 10
6.444763259
 20
6.2997532665
 30
0.0
 10
6.4536017755
 20
6.3004695872
 30
0.0
 10
6.4615728549
 20
6.3011847955
 30
0.0
 10
6.4686695746
 20
6.3018991017
 30
0.0
 10
6.4731048071
 20
6.3024080105
 30
0.0
 10
6.4751746894
 20
6.3026665871
 30
0.0
  0
SPLINE
  5
358
100
AcDbEntity
  8
0
100
AcDbSpline
 62
7
  6
CONTINUOUS
 70
0
 71
3
 72
22
 73
18
 74
0
 42
0.0000001
 43
0.0000001
 44
0.0000000001
 40
0.0
 40
0.0
 40
0.0
 40
0.0
 40
0.2243601671
 40
0.4196067043
 40
0.5857798616
 40
0.6579973981
 40
0.7229966592
 40
0.7808139529
 40
0.8315045806
 40
0.8751550765
 40
0.9119066619
 40
0.9420038589
 40
0.965903957
 40
0.9758134929
 40
0.9845951947
 40
0.9925309926
 40
1.0
 40
1.0
 40
1.0
 40
1.0
 10
6.4751746894
 20
6.3026665871
 30
0.0
 10
6.4766355217
 20
6.3028490791
 30
0.0
 10
6.4793653381
 20
6.303209477
 30
0.0
 10
6.4831657781
 20
6.3037863277
 30
0.0
 10
6.4859675829
 20
6.3042856622
 30
0.0
 10
6.4879166375
 20
6.304691675
 30
0.0
 10
6.4891632961
 20
6.3049814695
 30
0.0
 10
6.4902646021
 20
6.3052708556
 30
0.0
 10
6.4912206236
 20
6.3055597606
 30
0.0
 10
6.4920314917
 20
6.3058480122
 30
0.0
 10
6.4926980268
 20
6.3061355856
 30
0.0
 10
6.4932208238
 20
6.3064224522
 30
0.0
 10
6.4935584836
 20
6.3066762365
 30
0.0
 10
6.493746847
 20
6.3068838815
 30
0.0
 10
6.4938428539
 20
6.3070309776
 30
0.0
 10
6.4939019701
 20
6.3071795782
 30
0.0
 10
6.4939160183
 20
6.3072809394
 30
0.0
 10
6.4939164254
 20
6.3073299472
 30
0.0
  0
SPLINE
  5
359
100
AcDbEntity
  8
0
100
AcDbSpline
 62
7
  6
CONTINUOUS
 70
0
 71
3
 72
30
 73
26
 74
0
 42
0.0000001
 43
0.0000001
 44
0.0000000001
 40
0.0
 40
0.0
 40
0.0
 40
0.0
 40
0.0016886255
 40
0.0035151038
 40
0.0055889001
 40
0.0079856504
 40
0.0107545069
 40
0.0139272506
 40
0.0215586085
 40
0.0309850804
 40
0.0422573206
 40
0.0554037045
 40
0.0704411621
 40
0.0873802094
 40
0.1062275108
 40
0.1269872865
 40
0.149662134
 40
0.2007615434
 40
0.2595301081
 40
0.3259582396
 40
0.3999944871
 40
0.4815695305
 40
0.5706122216
 40
0.770809675
 40
1.0
 40
1.0
 40
1.0
 40
1.0
 10
6.4026703172
 20
6.0263831713
 30
0.0
 10
6.4026701541
 20
6.0263212928
 30
0.0
 10
6.4026500034
 20
6.0261919032
 30
0.0
 10
6.4025635988
 20
6.0260040437
 30
0.0
 10
6.4024234985
 20
6.0258189803
 30
0.0
 10
6.4022307027
 20
6.0256355457
 30
0.0
 10
6.4019852083
 20
6.0254527019
 30
0.0
 10
6.4015604128
 20
6.0251930104
 30
0.0
 10
6.4008880668
 20
6.0248764152
 30
0.0
 10
6.3999143115
 20
6.0245148104
 30
0.0
 10
6.3987277051
 20
6.024152066
 30
0.0
 10
6.3973280689
 20
6.023788306
 30
0.0
 10
6.3957150015
 20
6.0234238514
 30
0.0
 10
6.3938885551
 20
6.0230588659
 30
0.0
 10
6.3918488091
 20
6.0226934946
 30
0.0
 10
6.3895959277
 20
6.0223278006
 30
0.0
 10
6.3861692034
 20
6.0218194181
 30
0.0
 10
6.3813526221
 20
6.021191663
 30
0.0
 10
6.3749333382
 20
6.0204633713
 30
0.0
 10
6.3676689077
 20
6.0197341295
 30
0.0
 10
6.359565126
 20
6.0190039256
 30
0.0
 10
6.3506296888
 20
6.0182729517
 30
0.0
 10
6.3370792967
 20
6.0172574675
 30
0.0
 10
6.3181227693
 20
6.0160040075
 30
0.0
 10
6.3024143048
 20
6.0150941007
 30
0.0
 10
6.2940284124
 20
6.0146332615
 30
0.0
  0
SPLINE
  5
35A
100
AcDbEntity
  8
0
100
AcDbSpline
 62
7
  6
CONTINUOUS
 70
0
 71
3
 72
18
 73
14
 74
0
 42
0.0000001
 43
0.0000001
 44
0.0000000001
 40
0.0
 40
0.0
 40
0.0
 40
0.0
 40
0.0405752769
 40
0.0845158078
 40
0.1317384041
 40
0.1821597236
 40
0.2922619945
 40
0.414063762
 40
0.4790813901
 40
0.5466978072
 40
0.689267568
 40
0.840733705
 40
1.0
 40
1.0
 40
1.0
 40
1.0
 10
6.2940284124
 20
6.0146332615
 30
0.0
 10
6.2869526948
 20
6.0142444217
 30
0.0
 10
6.2722123601
 20
6.0134715914
 30
0.0
 10
6.2492314029
 20
6.0123583939
 30
0.0
 10
6.2245290122
 20
6.0112445314
 30
0.0
 10
6.1882788234
 20
6.0097134228
 30
0.0
 10
6.1390075504
 20
6.007817197
 30
0.0
 10
6.0871821358
 20
6.0060110928
 30
0.0
 10
6.0427692601
 20
6.0045551796
 30
0.0
 10
5.9947292951
 20
6.0030409239
 30
0.0
 10
5.9315954451
 20
6.0011579298
 30
0.0
 10
5.8524582932
 20
5.9989345358
 30
0.0
 10
5.7982088388
 20
5.9974843346
 30
0.0
 10
5.7704028366
 20
5.9967555713
 30
0.0
  0
SPLINE
  5
35B
100
AcDbEntity
  8
0
100
AcDbSpline
 62
7
  6
CONTINUOUS
 70
0
 71
3
 72
29
 73
25
 74
0
 42
0.0000001
 43
0.0000001
 44
0.0000000001
 40
0.0
 40
0.0
 40
0.0
 40
0.0
 40
0.1998840908
 40
0.2939457738
 40
0.3835641249
 40
0.4683677582
 40
0.5479859845
 40
0.6220755938
 40
0.6903587044
 40
0.7525672004
 40
0.8084390659
 40
0.8577569498
 40
0.8798969699
 40
0.9003252429
 40
0.9190176318
 40
0.9359512646
 40
0.9511115557
 40
0.9644881245
 40
0.9760714471
 40
0.9858534646
 40
0.9900673274
 40
0.9938293161
 40
0.9971397878
 40
1.0
 40
1.0
 40
1.0
 40
1.0
 10
4.7805943379
 20
5.9726288837
 30
0.0
 10
4.7386775471
 20
5.9715304559
 30
0.0
 10
4.6770367162
 20
5.9698674947
 30
0.0
 10
4.5966068693
 20
5.967553252
 30
0.0
 10
4.5403106759
 20
5.9658534476
 30
0.0
 10
4.487045815
 20
5.9641546173
 30
0.0
 10
4.4370402557
 20
5.9624567024
 30
0.0
 10
4.3905024382
 20
5.960759346
 30
0.0
 10
4.3476193433
 20
5.95906356
 30
0.0
 10
4.3085610537
 20
5.9573701033
 30
0.0
 10
4.2734852749
 20
5.9556787268
 30
0.0
 10
4.2468136508
 20
5.9542252464
 30
0.0
 10
4.227573836
 20
5.9530493229
 30
0.0
 10
4.2147507556
 20
5.9521999835
 30
0.0
 10
4.2030223973
 20
5.9513514289
 30
0.0
 10
4.1924022368
 20
5.9505036201
 30
0.0
 10
4.1829010444
 20
5.9496569215
 30
0.0
 10
4.1745269781
 20
5.9488120462
 30
0.0
 10
4.1672874852
 20
5.9479693664
 30
0.0
 10
4.161970795
 20
5.9472389158
 30
0.0
 10
4.1582932887
 20
5.9466436408
 30
0.0
 10
4.1559636355
 20
5.9462202525
 30
0.0
 10
4.1539230621
 20
5.9457976729
 30
0.0
 10
4.1526641454
 20
5.945494721
 30
0.0
 10
4.1520842928
 20
5.945340511
 30
0.0
  0
SPLINE
  5
35C
100
AcDbEntity
  8
0
100
AcDbSpline
 62
7
  6
CONTINUOUS
 70
0
 71
3
 72
11
 73
7
 74
0
 42
0.0000001
 43
0.0000001
 44
0.0000000001
 40
0.0
 40
0.0
 40
0.0
 40
0.0
 40
0.3120227283
 40
0.582112631
 40
0.8110267051
 40
1.0
 40
1.0
 40
1.0
 40
1.0
 10
4.1520842928
 20
5.945340511
 30
0.0
 10
4.1517088474
 20
5.9452406624
 30
0.0
 10
4.1510112116
 20
5.94504349
 30
0.0
 10
4.1500518428
 20
5.9447268809
 30
0.0
 10
4.1492550481
 20
5.9444111088
 30
0.0
 10
4.1487877018
 20
5.9441797419
 30
0.0
 10
4.1485845566
 20
5.9440610294
 30
0.0
  0
LINE
  5
35D
100
AcDbEntity
  8
0
100
AcDbLine
 62
7
  6
CONTINUOUS
 10
4.0571529512
 20
2.8362600998
 11
4.0594057917
 21
2.8371074369
  0
SPLINE
  5
35E
100
AcDbEntity
  8
0
100
AcDbSpline
 62
7
  6
CONTINUOUS
 70
0
 71
3
 72
35
 73
31
 74
0
 42
0.0000001
 43
0.0000001
 44
0.0000000001
 40
0.0
 40
0.0
 40
0.0
 40
0.0
 40
0.0009190671
 40
0.0019713239
 40
0.0044779007
 40
0.0075229892
 40
0.0111076157
 40
0.0152318672
 40
0.0198953272
 40
0.0250967753
 40
0.0308330352
 40
0.043895149
 40
0.0590515118
 40
0.0762712114
 40
0.0955224007
 40
0.1167628761
 40
0.139941556
 40
0.165006969
 40
0.1919075703
 40
0.2205879801
 40
0.2509812487
 40
0.3166296578
 40
0.3882888925
 40
0.4653212842
 40
0.5470544144
 40
0.6327700164
 40
0.7217123421
 40
0.8131042407
 40
0.9061381858
 40
1.0
 40
1.0
 40
1.0
 40
1.0
 10
4.0594057917
 20
2.8371074369
 30
0.0
 10
4.0597645602
 20
2.8372080837
 30
0.0
 10
4.0605390703
 20
2.8374062806
 30
0.0
 10
4.0623116311
 20
2.8377996384
 30
0.0
 10
4.064946729
 20
2.8382787642
 30
0.0
 10
4.0686101732
 20
2.8388283378
 30
0.0
 10
4.072935501
 20
2.8393793887
 30
0.0
 10
4.0779212567
 20
2.8399320041
 30
0.0
 10
4.0835659078
 20
2.840485916
 30
0.0
 10
4.0898667703
 20
2.8410412201
 30
0.0
 10
4.0995661482
 20
2.8418171476
 30
0.0
 10
4.1132995003
 20
2.8427741011
 30
0.0
 10
4.1316882929
 20
2.8438835557
 30
0.0
 10
4.1525901767
 20
2.8449957374
 30
0.0
 10
4.1759617674
 20
2.8461089994
 30
0.0
 10
4.2017517555
 20
2.8472227099
 30
0.0
 10
4.2299009778
 20
2.8483371213
 30
0.0
 10
4.2603466214
 20
2.8494521225
 30
0.0
 10
4.2930242036
 20
2.8505676957
 30
0.0
 10
4.327863024
 20
2.8516837664
 30
0.0
 10
4.3784061904
 20
2.8532121494
 30
0.0
 10
4.4463710729
 20
2.8551075075
 30
0.0
 10
4.5332428795
 20
2.8573298524
 30
0.0
 10
4.6266378528
 20
2.8595544965
 30
0.0
 10
4.7257331918
 20
2.8617806635
 30
0.0
 10
4.8296583198
 20
2.8640080011
 30
0.0
 10
4.9375002561
 20
2.8662362969
 30
0.0
 10
5.0483098831
 20
2.8684649806
 30
0.0
 10
5.1611144087
 20
2.8706941715
 30
0.0
 10
5.2368732811
 20
2.8721781496
 30
0.0
 10
5.2749205071
 20
2.8729234269
 30
0.0
  0
SPLINE
  5
35F
100
AcDbEntity
  8
0
100
AcDbSpline
 62
7
  6
CONTINUOUS
 70
0
 71
3
 72
13
 73
9
 74
0
 42
0.0000001
 43
0.0000001
 44
0.0000000001
 40
0.0
 40
0.0
 40
0.0
 40
0.0
 40
0.2719643081
 40
0.5349709581
 40
0.6603846239
 40
0.780346907
 40
0.8938602171
 40
1.0
 40
1.0
 40
1.0
 40
1.0
 10
5.2749205071
 20
2.8729234269
 30
0.0
 10
5.3484069062
 20
2.8743628944
 30
0.0
 10
5.4929592899
 20
2.8771943495
 30
0.0
 10
5.6713969699
 20
2.8808038797
 30
0.0
 10
5.8087602012
 20
2.8837310459
 30
0.0
 10
5.905728827
 20
2.8858905407
 30
0.0
 10
5.9974871994
 20
2.8880490214
 30
0.0
 10
6.0568314794
 20
2.8895405119
 30
0.0
 10
6.085506734
 20
2.8902924652
 30
0.0
  0
LINE
  5
360
100
AcDbEntity
  8
0
100
AcDbLine
 62
7
  6
CONTINUOUS
 10
6.085506734
 20
2.8902924652
 11
6.0907115684
 21
2.8904293026
  0
LINE
  5
361
100
AcDbEntity
  8
0
100
AcDbLine
 62
7
  6
CONTINUOUS
 10
6.0907115684
 20
2.8904293026
 11
6.1518983758
 21
2.892095856
  0
LINE
  5
362
100
AcDbEntity
  8
0
100
AcDbLine
 62
7
  6
CONTINUOUS
 10
6.1518983758
 20
2.892095856
 11
6.160526235
 21
2.8923404556
  0
SPLINE
  5
363
100
AcDbEntity
  8
0
100
AcDbSpline
 62
7
  6
CONTINUOUS
 70
0
 71
3
 72
38
 73
34
 74
0
 42
0.0000001
 43
0.0000001
 44
0.0000000001
 40
0.0
 40
0.0
 40
0.0
 40
0.0
 40
0.1155953038
 40
0.2250091451
 40
0.3279829012
 40
0.4242794748
 40
0.5137015101
 40
0.5960561402
 40
0.6711507938
 40
0.7388007898
 40
0.7988698674
 40
0.8512417032
 40
0.8745054155
 40
0.8958021893
 40
0.915118322
 40
0.9324415397
 40
0.9477665047
 40
0.9610913703
 40
0.9670037395
 40
0.9724162726
 40
0.9773294792
 40
0.9817442597
 40
0.9856621039
 40
0.9890854319
 40
0.9920182172
 40
0.9944672174
 40
0.9964446463
 40
0.9972639005
 40
0.9979762884
 40
0.9985897652
 40
0.9991168422
 40
0.9995771966
 40
1.0
 40
1.0
 40
1.0
 40
1.0
 10
6.160526235
 20
2.8923404556
 30
0.0
 10
6.1734112308
 20
2.8927077152
 30
0.0
 10
6.1984917084
 20
2.8934399158
 30
0.0
 10
6.2350482794
 20
2.8945672353
 30
0.0
 10
6.2694517433
 20
2.8956943258
 30
0.0
 10
6.3016246209
 20
2.8968212558
 30
0.0
 10
6.3314967445
 20
2.8979474194
 30
0.0
 10
6.3590028458
 20
2.8990723977
 30
0.0
 10
6.384078976
 20
2.9001957218
 30
0.0
 10
6.4066673815
 20
2.9013170422
 30
0.0
 10
6.4267185454
 20
2.9024363908
 30
0.0
 10
6.4418206853
 20
2.9034011158
 30
0.0
 10
6.452601486
 20
2.9041834939
 30
0.0
 10
6.4597022267
 20
2.9047468753
 30
0.0
 10
6.466138261
 20
2.9053101985
 30
0.0
 10
6.4719055707
 20
2.9058735326
 30
0.0
 10
6.4770012628
 20
2.9064363785
 30
0.0
 10
6.4808249693
 20
2.9069215302
 30
0.0
 10
6.4835455721
 20
2.9073142528
 30
0.0
 10
6.4853342242
 20
2.9075966096
 30
0.0
 10
6.4869536902
 20
2.9078785414
 30
0.0
 10
6.488403812
 20
2.9081599545
 30
0.0
 10
6.4896844965
 20
2.9084406899
 30
0.0
 10
6.4907956681
 20
2.908720575
 30
0.0
 10
6.4917375995
 20
2.9089992981
 30
0.0
 10
6.4925103839
 20
2.9092767125
 30
0.0
 10
6.4930441739
 20
2.9095192723
 30
0.0
 10
6.4933816092
 20
2.909718164
 30
0.0
 10
6.4935762973
 20
2.9098578628
 30
0.0
 10
6.4937291463
 20
2.9099978499
 30
0.0
 10
6.493840222
 20
2.9101389676
 30
0.0
 10
6.4939087841
 20
2.9102822679
 30
0.0
 10
6.4939246894
 20
2.9103812602
 30
0.0
 10
6.4939246894
 20
2.9104284077
 30
0.0
  0
SPLINE
  5
364
100
AcDbEntity
  8
0
100
AcDbSpline
 62
7
  6
CONTINUOUS
 70
0
 71
3
 72
13
 73
9
 74
0
 42
0.0000001
 43
0.0000001
 44
0.0000000001
 40
0.0
 40
0.0
 40
0.0
 40
0.0
 40
0.0757123644
 40
0.1650034885
 40
0.2682495969
 40
0.385691898
 40
0.6637415972
 40
1.0
 40
1.0
 40
1.0
 40
1.0
 10
4.1484770913
 20
2.8889712662
 30
0.0
 10
4.1486181469
 20
2.8890519932
 30
0.0
 10
4.1489355653
 20
2.8892104466
 30
0.0
 10
4.1494684352
 20
2.8894294343
 30
0.0
 10
4.1500968998
 20
2.8896488368
 30
0.0
 10
4.1511216482
 20
2.8899594938
 30
0.0
 10
4.1526466992
 20
2.8903392204
 30
0.0
 10
4.153938575
 20
2.8906047705
 30
0.0
 10
4.154647525
 20
2.8907403855
 30
0.0
  0
SPLINE
  5
365
100
AcDbEntity
  8
0
100
AcDbSpline
 62
7
  6
CONTINUOUS
 70
0
 71
3
 72
22
 73
18
 74
0
 42
0.0000001
 43
0.0000001
 44
0.0000000001
 40
0.0
 40
0.0
 40
0.0
 40
0.0
 40
0.0100893569
 40
0.0215963129
 40
0.034524685
 40
0.0488770168
 40
0.0818514346
 40
0.120478659
 40
0.1646992952
 40
0.2144513877
 40
0.2696714888
 40
0.3302952209
 40
0.3962562598
 40
0.4674730197
 40
0.6253086193
 40
0.8030698249
 40
1.0
 40
1.0
 40
1.0
 40
1.0
 10
4.154647525
 20
2.8907403855
 30
0.0
 10
4.1554247218
 20
2.8908890554
 30
0.0
 10
4.1570931429
 20
2.8911821452
 30
0.0
 10
4.1597694949
 20
2.8915938758
 30
0.0
 10
4.1627835809
 20
2.8920062149
 30
0.0
 10
4.1674739768
 20
2.892583605
 30
0.0
 10
4.1741781645
 20
2.8932933253
 30
0.0
 10
4.183224964
 20
2.8941137247
 30
0.0
 10
4.1935921375
 20
2.8949360395
 30
0.0
 10
4.2052641077
 20
2.8957599265
 30
0.0
 10
4.2182253305
 20
2.8965848719
 30
0.0
 10
4.2324600606
 20
2.8974106361
 30
0.0
 10
4.2479512705
 20
2.8982369916
 30
0.0
 10
4.2710604427
 20
2.8993789713
 30
0.0
 10
4.3029349558
 20
2.9007914576
 30
0.0
 10
4.3446676667
 20
2.9024374461
 30
0.0
 10
4.374035409
 20
2.9034838974
 30
0.0
 10
4.3894712285
 20
2.9040119394
 30
0.0
  0
LINE
  5
366
100
AcDbEntity
  8
0
100
AcDbLine
 62
7
  6
CONTINUOUS
 10
4.3894712285
 20
2.9040119394
 11
4.4052258014
 21
2.904543404
  0
LINE
  5
367
100
AcDbEntity
  8
0
100
AcDbLine
 62
7
  6
CONTINUOUS
 10
4.4593068556
 20
2.9062688902
 11
4.4647033893
 21
2.9064338133
  0
SPLINE
  5
368
100
AcDbEntity
  8
0
100
AcDbSpline
 62
7
  6
CONTINUOUS
 70
0
 71
3
 72
14
 73
10
 74
0
 42
0.0000001
 43
0.0000001
 44
0.0000000001
 40
0.0
 40
0.0
 40
0.0
 40
0.0
 40
0.1032379115
 40
0.2144124139
 40
0.3327067372
 40
0.457288238
 40
0.5872588799
 40
0.721679406
 40
1.0
 40
1.0
 40
1.0
 40
1.0
 10
4.4647033893
 20
2.9064338133
 30
0.0
 10
4.4878288064
 20
2.9071380228
 30
0.0
 10
4.5358594609
 20
2.9085347123
 30
0.0
 10
4.6103935301
 20
2.9105494262
 30
0.0
 10
4.6897123945
 20
2.9125659312
 30
0.0
 10
4.7732448407
 20
2.9145828136
 30
0.0
 10
4.8603922408
 20
2.9166002608
 30
0.0
 10
4.9819862173
 20
2.9193228175
 30
0.0
 10
5.0744621302
 20
2.9213155625
 30
0.0
 10
5.1368209876
 20
2.9226460503
 30
0.0
  0
LINE
  5
369
100
AcDbEntity
  8
0
100
AcDbLine
 62
7
  6
CONTINUOUS
 10
5.1368209876
 20
2.9226460503
 11
5.1485655905
 21
2.9228964732
  0
LINE
  5
36A
100
AcDbEntity
  8
0
100
AcDbLine
 62
7
  6
CONTINUOUS
 10
5.1485655905
 20
2.9228964732
 11
5.2594181586
 21
2.9252491351
  0
SPLINE
  5
36B
100
AcDbEntity
  8
0
100
AcDbSpline
 62
7
  6
CONTINUOUS
 70
0
 71
3
 72
46
 73
42
 74
0
 42
0.0000001
 43
0.0000001
 44
0.0000000001
 40
0.0
 40
0.0
 40
0.0
 40
0.0
 40
0.097901229
 40
0.1948495253
 40
0.2899240981
 40
0.3822220539
 40
0.4708513738
 40
0.5549322457
 40
0.6336445471
 40
0.6707658708
 40
0.7062817075
 40
0.7401064099
 40
0.7721575017
 40
0.8023531342
 40
0.8306114979
 40
0.8568527649
 40
0.8810189732
 40
0.9030660245
 40
0.9229501736
 40
0.9406279018
 40
0.9560579138
 40
0.9629183944
 40
0.9692031457
 40
0.9749077542
 40
0.9800279435
 40
0.9845596477
 40
0.9884991413
 40
0.9902458366
 40
0.9918436654
 40
0.9932930624
 40
0.9945946178
 40
0.9957491154
 40
0.9967576436
 40
0.9976217986
 40
0.9983440811
 40
0.9989287493
 40
0.9993838559
 40
0.9995680174
 40
0.9997277747
 40
0.9998689832
 40
1.0
 40
1.0
 40
1.0
 40
1.0
 10
5.2753731484
 20
2.9255869254
 30
0.0
 10
5.3121998617
 20
2.9263665734
 30
0.0
 10
5.3854948325
 20
2.9279182322
 30
0.0
 10
5.4945527495
 20
2.9302499792
 30
0.0
 10
5.6015019729
 20
2.9325815128
 30
0.0
 10
5.7053204769
 20
2.9349119288
 30
0.0
 10
5.8050016074
 20
2.9372406279
 30
0.0
 10
5.8995697585
 20
2.9395680456
 30
0.0
 10
5.9747609328
 20
2.9415436015
 30
0.0
 10
6.0316833989
 20
2.9431337247
 30
0.0
 10
6.0717222233
 20
2.9443026311
 30
0.0
 10
6.1098525524
 20
2.9454711946
 30
0.0
 10
6.1459802016
 20
2.9466393227
 30
0.0
 10
6.1800123989
 20
2.9478069314
 30
0.0
 10
6.2118573309
 20
2.9489738582
 30
0.0
 10
6.2414320973
 20
2.9501405229
 30
0.0
 10
6.2686679483
 20
2.9513066112
 30
0.0
 10
6.2935096293
 20
2.9524715344
 30
0.0
 10
6.3159071996
 20
2.9536347877
 30
0.0
 10
6.3358115011
 20
2.9547960161
 30
0.0
 10
6.3508163789
 20
2.9557961646
 30
0.0
 10
6.3615372018
 20
2.9566063696
 30
0.0
 10
6.3686054362
 20
2.9571895121
 30
0.0
 10
6.3750165143
 20
2.9577720508
 30
0.0
 10
6.3807651137
 20
2.9583537797
 30
0.0
 10
6.3858458975
 20
2.9589345116
 30
0.0
 10
6.3896579125
 20
2.9594350647
 30
0.0
 10
6.3923683958
 20
2.9598406102
 30
0.0
 10
6.3941484217
 20
2.9601322817
 30
0.0
 10
6.3957585662
 20
2.9604236926
 30
0.0
 10
6.3971989831
 20
2.960714794
 30
0.0
 10
6.3984698683
 20
2.9610054758
 30
0.0
 10
6.3995715556
 20
2.9612955976
 30
0.0
 10
6.4005043937
 20
2.9615849503
 30
0.0
 10
6.40126958
 20
2.9618733351
 30
0.0
 10
6.4018678666
 20
2.9621606077
 30
0.0
 10
6.4022554008
 20
2.9624152622
 30
0.0
 10
6.4024718287
 20
2.9626253147
 30
0.0
 10
6.4025809075
 20
2.9627730202
 30
0.0
 10
6.4026477649
 20
2.962922861
 30
0.0
 10
6.4026629006
 20
2.9630258348
 30
0.0
 10
6.4026627414
 20
2.9630751292
 30
0.0
  0
SPLINE
  5
36C
100
AcDbEntity
  8
0
100
AcDbSpline
 62
7
  6
CONTINUOUS
 70
0
 71
3
 72
69
 73
65
 74
0
 42
0.0000001
 43
0.0000001
 44
0.0000000001
 40
0.0
 40
0.0
 40
0.0
 40
0.0
 40
0.000070588
 40
0.0001452685
 40
0.00022773
 40
0.0003207354
 40
0.0005452314
 40
0.0008284578
 40
0.0011748912
 40
0.0015869224
 40
0.0020659338
 40
0.0026127768
 40
0.0032280002
 40
0.0039119695
 40
0.0054870111
 40
0.0073391564
 40
0.0094689235
 40
0.0118764814
 40
0.0145615979
 40
0.0175226636
 40
0.0207574941
 40
0.0280393991
 40
0.0363889602
 40
0.0457874049
 40
0.0562150284
 40
0.0676473504
 40
0.0800579596
 40
0.0934203802
 40
0.1077080611
 40
0.138931493
 40
0.1734356433
 40
0.2109119978
 40
0.2510141132
 40
0.293379363
 40
0.3376258622
 40
0.3833549358
 40
0.4301570415
 40
0.4776035024
 40
0.5252634721
 40
0.5727057669
 40
0.6194999199
 40
0.6652239516
 40
0.7094614572
 40
0.751813367
 40
0.7919025696
 40
0.8293626409
 40
0.8638527236
 40
0.8950457867
 40
0.9093211596
 40
0.9226753678
 40
0.9350781749
 40
0.9465008841
 40
0.9569190544
 40
0.9663090616
 40
0.9746474167
 40
0.9819112671
 40
0.9851351434
 40
0.9880855282
 40
0.9907614536
 40
0.9931620359
 40
0.9952865205
 40
0.9971343601
 40
0.9987053629
 40
1.0
 40
1.0
 40
1.0
 40
1.0
 10
6.4026743462
 20
6.1931890016
 30
0.0
 10
6.4026750784
 20
6.1931360021
 30
0.0
 10
6.402662329
 20
6.1930262884
 30
0.0
 10
6.4026015955
 20
6.1928649703
 30
0.0
 10
6.4025006294
 20
6.1927053325
 30
0.0
 10
6.4023005591
 20
6.1924800168
 30
0.0
 10
6.4019389457
 20
6.1922046527
 30
0.0
 10
6.4013769207
 20
6.191893645
 30
0.0
 10
6.4006584905
 20
6.1915818738
 30
0.0
 10
6.3997829428
 20
6.191269373
 30
0.0
 10
6.3987493176
 20
6.1909561576
 30
0.0
 10
6.3975574279
 20
6.1906424204
 30
0.0
 10
6.3962071571
 20
6.1903282408
 30
0.0
 10
6.3940941319
 20
6.1898879462
 30
0.0
 10
6.3910543033
 20
6.1893465468
 30
0.0
 10
6.3869284235
 20
6.1887212448
 30
0.0
 10
6.3821714334
 20
6.1880945511
 30
0.0
 10
6.3767844192
 20
6.1874667135
 30
0.0
 10
6.3707694987
 20
6.1868382618
 30
0.0
 10
6.3641304088
 20
6.1862091655
 30
0.0
 10
6.3540476928
 20
6.1853348257
 30
0.0
 10
6.3399218121
 20
6.1842557065
 30
0.0
 10
6.3211684912
 20
6.183002845
 30
0.0
 10
6.3000485403
 20
6.1817477353
 30
0.0
 10
6.2766102058
 20
6.1804910629
 30
0.0
 10
6.2509071644
 20
6.1792331098
 30
0.0
 10
6.2229980232
 20
6.1779741448
 30
0.0
 10
6.1929428174
 20
6.1767143644
 30
0.0
 10
6.1487686227
 20
6.1749825418
 30
0.0
 10
6.0887232678
 20
6.1728399007
 30
0.0
 10
6.0112679815
 20
6.1703331226
 30
0.0
 10
5.9271425855
 20
6.1678237271
 30
0.0
 10
5.8371119553
 20
6.1653114143
 30
0.0
 10
5.7419958082
 20
6.1627976778
 30
0.0
 10
5.6426530076
 20
6.1602829285
 30
0.0
 10
5.5399775731
 20
6.1577672414
 30
0.0
 10
5.4348985971
 20
6.1552512579
 30
0.0
 10
5.3283693187
 20
6.1527347117
 30
0.0
 10
5.2213591957
 20
6.1502179318
 30
0.0
 10
5.1148390208
 20
6.1477013517
 30
0.0
 10
5.0097729385
 20
6.1451851999
 30
0.0
 10
4.9071140111
 20
6.1426698691
 30
0.0
 10
4.8077917743
 20
6.1401550736
 30
0.0
 10
4.7127021124
 20
6.1376409832
 30
0.0
 10
4.6227034248
 20
6.1351290186
 30
0.0
 10
4.5386105369
 20
6.1326194105
 30
0.0
 10
4.46120083
 20
6.130113779
 30
0.0
 10
4.401198151
 20
6.1279699969
 30
0.0
 10
4.3570622018
 20
6.1262381061
 30
0.0
 10
4.3270282735
 20
6.1249785332
 30
0.0
 10
4.2991383865
 20
6.1237197577
 30
0.0
 10
4.2734555469
 20
6.122461743
 30
0.0
 10
4.2500378969
 20
6.1212050284
 30
0.0
 10
4.2289398159
 20
6.1199502081
 30
0.0
 10
4.2102148301
 20
6.1186978455
 30
0.0
 10
4.1961192419
 20
6.1176185301
 30
0.0
 10
4.1860664745
 20
6.1167437973
 30
0.0
 10
4.1794506434
 20
6.1161146034
 30
0.0
 10
4.1734560088
 20
6.1154860432
 30
0.0
 10
4.1680851897
 20
6.1148582843
 30
0.0
 10
4.1633407792
 20
6.1142316227
 30
0.0
 10
4.1592250912
 20
6.1136066284
 30
0.0
 10
4.1557405664
 20
6.1129838743
 30
0.0
 10
4.1536366378
 20
6.1125277963
 30
0.0
 10
4.1526935066
 20
6.1122920773
 30
0.0
  0
SPLINE
  5
36D
100
AcDbEntity
  8
0
100
AcDbSpline
 62
7
  6
CONTINUOUS
 70
0
 71
3
 72
11
 73
7
 74
0
 42
0.0000001
 43
0.0000001
 44
0.0000000001
 40
0.0
 40
0.0
 40
0.0
 40
0.0
 40
0.3171099726
 40
0.588862971
 40
0.8160432122
 40
1.0
 40
1.0
 40
1.0
 40
1.0
 10
4.1526935066
 20
6.1122920773
 30
0.0
 10
4.1522467474
 20
6.1121804178
 30
0.0
 10
4.1514202062
 20
6.111960318
 30
0.0
 10
4.150288932
 20
6.1116054471
 30
0.0
 10
4.149361838
 20
6.1112518097
 30
0.0
 10
4.1488232416
 20
6.1109904255
 30
0.0
 10
4.1485927004
 20
6.1108554666
 30
0.0
  0
SPLINE
  5
36E
100
AcDbEntity
  8
0
100
AcDbSpline
 62
7
  6
CONTINUOUS
 70
0
 71
3
 72
17
 73
13
 74
0
 42
0.0000001
 43
0.0000001
 44
0.0000000001
 40
0.0
 40
0.0
 40
0.0
 40
0.0
 40
0.0273059325
 40
0.0590650799
 40
0.0953937622
 40
0.1363678845
 40
0.2324339227
 40
0.3475287606
 40
0.4817809114
 40
0.6352578777
 40
0.8079931858
 40
1.0
 40
1.0
 40
1.0
 40
1.0
 10
6.4930333069
 20
6.0967820883
 30
0.0
 10
6.4928888415
 20
6.0966993372
 30
0.0
 10
6.4925671337
 20
6.0965363855
 30
0.0
 10
6.4920312055
 20
6.0963096843
 30
0.0
 10
6.4914059373
 20
6.0960826516
 30
0.0
 10
6.4903983393
 20
6.0957624175
 30
0.0
 10
6.4889110743
 20
6.0953701027
 30
0.0
 10
6.4868536462
 20
6.0949187009
 30
0.0
 10
6.48443933
 20
6.0944660994
 30
0.0
 10
6.4816685329
 20
6.0940124952
 30
0.0
 10
6.4785415823
 20
6.0935582493
 30
0.0
 10
6.4763363558
 20
6.0932703201
 30
0.0
 10
6.4751746894
 20
6.0931252762
 30
0.0
  0
LINE
  5
36F
100
AcDbEntity
  8
0
100
AcDbLine
 62
7
  6
CONTINUOUS
 10
6.4017222472
 20
6.0440453277
 11
6.398945604
 21
6.0429743046
  0
SPLINE
  5
370
100
AcDbEntity
  8
0
100
AcDbSpline
 62
7
  6
CONTINUOUS
 70
0
 71
3
 72
33
 73
29
 74
0
 42
0.0000001
 43
0.0000001
 44
0.0000000001
 40
0.0
 40
0.0
 40
0.0
 40
0.0
 40
0.0010499473
 40
0.002230453
 40
0.0049856548
 40
0.0082691994
 40
0.0120826173
 40
0.0164265062
 40
0.0213009372
 40
0.0267053786
 40
0.0326369513
 40
0.0460653172
 40
0.0615530585
 40
0.0790662136
 40
0.0985702954
 40
0.1200251693
 40
0.1433797841
 40
0.1685816765
 40
0.1955782912
 40
0.2547345654
 40
0.3203358525
 40
0.3918293419
 40
0.4685986774
 40
0.5499569034
 40
0.6352009786
 40
0.7235939469
 40
0.8143875774
 40
1.0
 40
1.0
 40
1.0
 40
1.0
 10
6.398945604
 20
6.0429743046
 30
0.0
 10
6.3985674973
 20
6.0428645326
 30
0.0
 10
6.3977595936
 20
6.0426473475
 30
0.0
 10
6.3959404738
 20
6.0422151842
 30
0.0
 10
6.3932848727
 20
6.0416853132
 30
0.0
 10
6.3896408613
 20
6.0410748687
 30
0.0
 10
6.3853942415
 20
6.040462815
 30
0.0
 10
6.3805459526
 20
6.0398494202
 30
0.0
 10
6.3750969497
 20
6.0392351802
 30
0.0
 10
6.3690492815
 20
6.0386203683
 30
0.0
 10
6.3598023637
 20
6.0377641569
 30
0.0
 10
6.3467771637
 20
6.0367085492
 30
0.0
 10
6.3294095714
 20
6.0354844804
 30
0.0
 10
6.3097588389
 20
6.0342579832
 30
0.0
 10
6.287866753
 20
6.0330296555
 30
0.0
 10
6.263781135
 20
6.0318002184
 30
0.0
 10
6.2375564215
 20
6.0305696462
 30
0.0
 10
6.209251548
 20
6.0293382034
 30
0.0
 10
6.1675290748
 20
6.0276433548
 30
0.0
 10
6.1106613404
 20
6.0255468784
 30
0.0
 10
6.0371100349
 20
6.0230962766
 30
0.0
 10
5.9569507679
 20
6.0206428731
 30
0.0
 10
5.870880337
 20
6.0181873233
 30
0.0
 10
5.7796516831
 20
6.0157295023
 30
0.0
 10
5.6840628228
 20
6.0132706166
 30
0.0
 10
5.5849346958
 20
6.0108105713
 30
0.0
 10
5.4481789221
 20
6.0075062662
 30
0.0
 10
5.3445583389
 20
6.0050673899
 30
0.0
 10
5.2749749778
 20
6.0034289788
 30
0.0
  0
SPLINE
  5
371
100
AcDbEntity
  8
0
100
AcDbSpline
 62
7
  6
CONTINUOUS
 70
0
 71
3
 72
42
 73
38
 74
0
 42
0.0000001
 43
0.0000001
 44
0.0000000001
 40
0.0
 40
0.0
 40
0.0
 40
0.0
 40
0.1094745351
 40
0.2146353356
 40
0.3149679074
 40
0.4099867075
 40
0.4992205601
 40
0.5822042968
 40
0.6585458337
 40
0.727903454
 40
0.7899389983
 40
0.8181167822
 40
0.844359103
 40
0.8686349109
 40
0.890913303
 40
0.9111635868
 40
0.9293567105
 40
0.9454742051
 40
0.9595029884
 40
0.9657304311
 40
0.9714314429
 40
0.9766049361
 40
0.9812501134
 40
0.9853666199
 40
0.9889548062
 40
0.992016219
 40
0.9933506219
 40
0.9945553701
 40
0.9956319289
 40
0.9965823329
 40
0.9974095207
 40
0.9977783067
 40
0.9981181482
 40
0.9987148488
 40
0.9992116397
 40
0.9996288366
 40
1.0
 40
1.0
 40
1.0
 40
1.0
 10
4.7801174485
 20
5.9913663854
 30
0.0
 10
4.7569876235
 20
5.9907601297
 30
0.0
 10
4.7116398958
 20
5.9895517137
 30
0.0
 10
4.645096062
 20
5.9877062001
 30
0.0
 10
4.5816086983
 20
5.9858612608
 30
0.0
 10
4.5214890063
 20
5.9840172379
 30
0.0
 10
4.4650378184
 20
5.9821746401
 30
0.0
 10
4.4125363385
 20
5.9803329048
 30
0.0
 10
4.3642384783
 20
5.9784926789
 30
0.0
 10
4.320371484
 20
5.9766551119
 30
0.0
 10
4.2866822686
 20
5.9750803052
 30
0.0
 10
4.2621018742
 20
5.9738080795
 30
0.0
 10
4.2454948337
 20
5.9728852211
 30
0.0
 10
4.2301366784
 20
5.9719629597
 30
0.0
 10
4.2160473756
 20
5.9710414285
 30
0.0
 10
4.2032465934
 20
5.9701208795
 30
0.0
 10
4.1917515349
 20
5.9692014236
 30
0.0
 10
4.1815759902
 20
5.9682834297
 30
0.0
 10
4.1739287399
 20
5.9674924089
 30
0.0
 10
4.1684800554
 20
5.9668517039
 30
0.0
 10
4.164894931
 20
5.9663907911
 30
0.0
 10
4.1616471669
 20
5.9659303238
 30
0.0
 10
4.1587379101
 20
5.9654703877
 30
0.0
 10
4.1561681874
 20
5.9650112412
 30
0.0
 10
4.1539390676
 20
5.9645530388
 30
0.0
 10
4.1522982877
 20
5.9641564971
 30
0.0
 10
4.1511591452
 20
5.9638342657
 30
0.0
 10
4.1504303373
 20
5.9636039591
 30
0.0
 10
4.149787003
 20
5.9633738826
 30
0.0
 10
4.1492290028
 20
5.9631440257
 30
0.0
 10
4.1488204776
 20
5.9629457918
 30
0.0
 10
4.148538004
 20
5.9627856199
 30
0.0
 10
4.1483049448
 20
5.9626378694
 30
0.0
 10
4.1480623585
 20
5.9624548869
 30
0.0
 10
4.1478402174
 20
5.9622228539
 30
0.0
 10
4.147701323
 20
5.9619854282
 30
0.0
 10
4.1476684138
 20
5.9618177173
 30
0.0
 10
4.1476685115
 20
5.9617392709
 30
0.0
  0
LINE
  5
372
100
AcDbEntity
  8
0
100
AcDbLine
 62
7
  6
CONTINUOUS
 10
4.0572838408
 20
6.1801920221
 11
4.0592247075
 21
6.1793880719
  0
SPLINE
  5
373
100
AcDbEntity
  8
0
100
AcDbSpline
 62
7
  6
CONTINUOUS
 70
0
 71
3
 72
46
 73
42
 74
0
 42
0.0000001
 43
0.0000001
 44
0.0000000001
 40
0.0
 40
0.0
 40
0.0
 40
0.0
 40
0.0001312535
 40
0.0002730953
 40
0.0004337349
 40
0.0006189057
 40
0.001076137
 40
0.0016628298
 40
0.0023869352
 40
0.0032526816
 40
0.0042625675
 40
0.0054181984
 40
0.0067206779
 40
0.0081708074
 40
0.0097691967
 40
0.0115163276
 40
0.0154580882
 40
0.0199951904
 40
0.0251233126
 40
0.0308377008
 40
0.0371333878
 40
0.044005268
 40
0.0594566976
 40
0.0771497775
 40
0.0970418554
 40
0.1190902916
 40
0.1432522706
 40
0.1694848425
 40
0.1977403974
 40
0.2279428873
 40
0.2600053366
 40
0.2938407071
 40
0.3293619394
 40
0.3664823444
 40
0.4451760948
 40
0.5292297681
 40
0.6178545176
 40
0.7101493756
 40
0.805208332
 40
0.9021281843
 40
1.0
 40
1.0
 40
1.0
 40
1.0
 10
6.402624348
 20
2.8130665671
 30
0.0
 10
6.4026238379
 20
2.8130171881
 30
0.0
 10
6.4026072794
 20
2.8129141225
 30
0.0
 10
6.4025385883
 20
2.8127644333
 30
0.0
 10
6.4024278436
 20
2.8126168232
 30
0.0
 10
6.4022092396
 20
2.8124068971
 30
0.0
 10
6.401819418
 20
2.8121523395
 30
0.0
 10
6.4012186775
 20
2.8118650572
 30
0.0
 10
6.4004513513
 20
2.8115766748
 30
0.0
 10
6.3995166729
 20
2.811287332
 30
0.0
 10
6.3984134413
 20
2.8109972302
 30
0.0
 10
6.3971412857
 20
2.8107065758
 30
0.0
 10
6.3956998511
 20
2.8104155088
 30
0.0
 10
6.3940889179
 20
2.8101241381
 30
0.0
 10
6.3923082978
 20
2.8098325152
 30
0.0
 10
6.3895966869
 20
2.8094269442
 30
0.0
 10
6.3857817463
 20
2.8089264125
 30
0.0
 10
6.38069523
 20
2.8083459346
 30
0.0
 10
6.3749380986
 20
2.807764433
 30
0.0
 10
6.3685164329
 20
2.8071821273
 30
0.0
 10
6.3614363387
 20
2.8065992125
 30
0.0
 10
6.3506994062
 20
2.8057893961
 30
0.0
 10
6.3356769318
 20
2.804789759
 30
0.0
 10
6.3157565628
 20
2.8036288048
 30
0.0
 10
6.2933505834
 20
2.8024657129
 30
0.0
 10
6.2685079689
 20
2.8013009243
 30
0.0
 10
6.2412775396
 20
2.8001349821
 30
0.0
 10
6.2117098754
 20
2.7989682274
 30
0.0
 10
6.1798679505
 20
2.7978014731
 30
0.0
 10
6.1458312915
 20
2.7966342472
 30
0.0
 10
6.1096941922
 20
2.795466489
 30
0.0
 10
6.0715550436
 20
2.7942983054
 30
0.0
 10
6.0315120987
 20
2.793129718
 30
0.0
 10
5.974597175
 20
2.7915400985
 30
0.0
 10
5.8994265394
 20
2.789564922
 30
0.0
 10
5.8048810824
 20
2.7872373397
 30
0.0
 10
5.7052170102
 20
2.7849094226
 30
0.0
 10
5.6014113703
 20
2.7825798018
 30
0.0
 10
5.4944841194
 20
2.7802490803
 30
0.0
 10
5.3854581708
 20
2.77791771
 30
0.0
 10
5.3121878792
 20
2.7763661186
 30
0.0
 10
5.2753736931
 20
2.7755865912
 30
0.0
  0
LINE
  5
374
100
AcDbEntity
  8
0
100
AcDbLine
 62
7
  6
CONTINUOUS
 10
5.2753736931
 20
2.7755865912
 11
4.8766232504
 21
2.7669578998
  0
SPLINE
  5
375
100
AcDbEntity
  8
0
100
AcDbSpline
 62
7
  6
CONTINUOUS
 70
0
 71
3
 72
17
 73
13
 74
0
 42
0.0000001
 43
0.0000001
 44
0.0000000001
 40
0.0
 40
0.0
 40
0.0
 40
0.0
 40
0.0272066573
 40
0.0588792022
 40
0.0951349212
 40
0.1360500663
 40
0.2320401108
 40
0.3471136814
 40
0.4813971097
 40
0.6349554143
 40
0.8078195314
 40
1.0
 40
1.0
 40
1.0
 40
1.0
 10
6.4930471611
 20
6.2635926191
 30
0.0
 10
6.4929032114
 20
6.263509903
 30
0.0
 10
6.4925823841
 20
6.2633470336
 30
0.0
 10
6.492047566
 20
6.2631204934
 30
0.0
 10
6.4914230829
 20
6.2628935501
 30
0.0
 10
6.4904158967
 20
6.2625732497
 30
0.0
 10
6.4889283454
 20
6.2621806499
 30
0.0
 10
6.4868696699
 20
6.2617284992
 30
0.0
 10
6.4844529215
 20
6.2612745633
 30
0.0
 10
6.4816785546
 20
6.2608189376
 30
0.0
 10
6.4785469423
 20
6.2603618838
 30
0.0
 10
6.476338259
 20
6.2600716348
 30
0.0
 10
6.4751746894
 20
6.2599252762
 30
0.0
  0
LINE
  5
376
100
AcDbEntity
  8
0
100
AcDbLine
 62
7
  6
CONTINUOUS
 10
6.4017430566
 20
6.21085105
 11
6.3997484931
 21
6.2100166389
  0
SPLINE
  5
377
100
AcDbEntity
  8
0
100
AcDbSpline
 62
7
  6
CONTINUOUS
 70
0
 71
3
 72
72
 73
68
 74
0
 42
0.0000001
 43
0.0000001
 44
0.0000000001
 40
0.0
 40
0.0
 40
0.0
 40
0.0
 40
0.0005197495
 40
0.0011083611
 40
0.002493713
 40
0.0041582393
 40
0.0061028824
 40
0.0083280401
 40
0.0108338078
 40
0.0136195937
 40
0.0166834277
 40
0.0236361849
 40
0.0316736391
 40
0.0407768254
 40
0.0509263448
 40
0.0620990233
 40
0.0742681882
 40
0.0874069669
 40
0.1014884395
 40
0.1164839225
 40
0.1323571164
 40
0.1665830107
 40
0.20385525
 40
0.2438273992
 40
0.2861319576
 40
0.3303845643
 40
0.3761810067
 40
0.4231076986
 40
0.4707303723
 40
0.5186114781
 40
0.56631313
 40
0.6133978761
 40
0.6594362405
 40
0.7040050293
 40
0.7466967136
 40
0.7871276813
 40
0.8249243768
 40
0.8597396295
 40
0.8759228632
 40
0.891239773
 40
0.9056594529
 40
0.9191511588
 40
0.9316841778
 40
0.9432290907
 40
0.9537608729
 40
0.9632555249
 40
0.9716891813
 40
0.9790385193
 40
0.9823011893
 40
0.985287682
 40
0.9879970088
 40
0.9904282645
 40
0.9925806715
 40
0.994453657
 40
0.9960469987
 40
0.996738935
 40
0.9973612155
 40
0.9979141363
 40
0.9983982826
 40
0.9988145759
 40
0.9991644685
 40
0.9994504179
 40
0.999676963
 40
0.9997707569
 40
0.9998538578
 40
0.9999290372
 40
1.0
 40
1.0
 40
1.0
 40
1.0
 10
6.3992664678
 20
6.2098648727
 30
0.0
 10
6.3988927142
 20
6.2097515081
 30
0.0
 10
6.3980902718
 20
6.209527525
 30
0.0
 10
6.3962698567
 20
6.2090820596
 30
0.0
 10
6.3935896319
 20
6.2085369287
 30
0.0
 10
6.389888874
 20
6.2079098015
 30
0.0
 10
6.3855496485
 20
6.2072808473
 30
0.0
 10
6.3805728519
 20
6.2066503526
 30
0.0
 10
6.3749596396
 20
6.2060189494
 30
0.0
 10
6.3687127398
 20
6.2053868848
 30
0.0
 10
6.3591326708
 20
6.2045057592
 30
0.0
 10
6.3456089758
 20
6.2034199773
 30
0.0
 10
6.3275474734
 20
6.2021614676
 30
0.0
 10
6.3070788033
 20
6.2009003554
 30
0.0
 10
6.2842503207
 20
6.1996373622
 30
0.0
 10
6.2591147896
 20
6.19837306
 30
0.0
 10
6.2317304385
 20
6.197107591
 30
0.0
 10
6.2021581524
 20
6.1958412838
 30
0.0
 10
6.1704602359
 20
6.1945744081
 30
0.0
 10
6.1367060049
 20
6.1933073747
 30
0.0
 10
6.0878211288
 20
6.1915736279
 30
0.0
 10
6.0222006767
 20
6.1894236996
 30
0.0
 10
5.9384738047
 20
6.1869010372
 30
0.0
 10
5.8486737119
 20
6.1843756818
 30
0.0
 10
5.753626302
 20
6.1818485341
 30
0.0
 10
5.6542007588
 20
6.1793204582
 30
0.0
 10
5.5513008443
 20
6.1767913008
 30
0.0
 10
5.4458677444
 20
6.1742618574
 30
0.0
 10
5.3388676879
 20
6.1717318322
 30
0.0
 10
5.2312851301
 20
6.1692015314
 30
0.0
 10
5.1241069079
 20
6.1666713937
 30
0.0
 10
5.0183137996
 20
6.1641416795
 30
0.0
 10
4.9148755585
 20
6.1616127597
 30
0.0
 10
4.8147394974
 20
6.1590844666
 30
0.0
 10
4.7188185143
 20
6.1565567649
 30
0.0
 10
4.6279882339
 20
6.1540312602
 30
0.0
 10
4.5430790974
 20
6.1515079201
 30
0.0
 10
4.4763880732
 20
6.1493597182
 30
0.0
 10
4.4265852014
 20
6.1476270467
 30
0.0
 10
4.3921018236
 20
6.146359519
 30
0.0
 10
4.3596424288
 20
6.1450925254
 30
0.0
 10
4.3292766676
 20
6.1438261434
 30
0.0
 10
4.3010731353
 20
6.1425605366
 30
0.0
 10
4.275096222
 20
6.1412956974
 30
0.0
 10
4.251405375
 20
6.1400321447
 30
0.0
 10
4.230056014
 20
6.138770491
 30
0.0
 10
4.2111026178
 20
6.1375112955
 30
0.0
 10
4.1968315089
 20
6.1364262024
 30
0.0
 10
4.1866506837
 20
6.1355467952
 30
0.0
 10
4.1799484964
 20
6.1349141749
 30
0.0
 10
4.1738740446
 20
6.1342821961
 30
0.0
 10
4.1684300185
 20
6.1336509918
 30
0.0
 10
4.163618978
 20
6.1330209633
 30
0.0
 10
4.1594435307
 20
6.1323923523
 30
0.0
 10
4.1563659362
 20
6.1318481298
 30
0.0
 10
4.1542261949
 20
6.1314054823
 30
0.0
 10
4.1528589829
 20
6.131089626
 30
0.0
 10
4.1516524037
 20
6.1307741867
 30
0.0
 10
4.1506063122
 20
6.1304592625
 30
0.0
 10
4.1497203871
 20
6.1301450563
 30
0.0
 10
4.1489935066
 20
6.1298315893
 30
0.0
 10
4.148424805
 20
6.1295188983
 30
0.0
 10
4.1480586484
 20
6.1292420537
 30
0.0
 10
4.1478557198
 20
6.1290154881
 30
0.0
 10
4.14775311
 20
6.1288550134
 30
0.0
 10
4.1476910326
 20
6.1286928495
 30
0.0
 10
4.1476775675
 20
6.1285824676
 30
0.0
 10
4.1476780173
 20
6.1285291442
 30
0.0
  0
SPLINE
  5
378
100
AcDbEntity
  8
0
100
AcDbSpline
 62
7
  6
CONTINUOUS
 70
0
 71
3
 72
19
 73
15
 74
0
 42
0.0000001
 43
0.0000001
 44
0.0000000001
 40
0.0
 40
0.0
 40
0.0
 40
0.0
 40
0.0349723696
 40
0.0748655999
 40
0.119465183
 40
0.1685563734
 40
0.2219242112
 40
0.2793308886
 40
0.3404532396
 40
0.4049479987
 40
0.5426818895
 40
0.689782619
 40
0.843293687
 40
1.0
 40
1.0
 40
1.0
 40
1.0
 10
4.2475596219
 20
2.7669576409
 30
0.0
 10
4.2595254318
 20
2.76757234
 30
0.0
 10
4.285146335
 20
2.7687792894
 30
0.0
 10
4.3260403518
 20
2.7704733662
 30
0.0
 10
4.3717750564
 20
2.7721711
 30
0.0
 10
4.4221289354
 20
2.7738714893
 30
0.0
 10
4.4768727805
 20
2.7755734076
 30
0.0
 10
4.5357403568
 20
2.7772752655
 30
0.0
 10
4.5984214858
 20
2.7789783203
 30
0.0
 10
4.688616058
 20
2.7813015204
 30
0.0
 10
4.8082624116
 20
2.7841757921
 30
0.0
 10
4.9584022574
 20
2.7875584037
 30
0.0
 10
5.1150436305
 20
2.790941906
 30
0.0
 10
5.2213007766
 20
2.7931916078
 30
0.0
 10
5.2749765723
 20
2.7943281732
 30
0.0
  0
SPLINE
  5
379
100
AcDbEntity
  8
0
100
AcDbSpline
 62
7
  6
CONTINUOUS
 70
0
 71
3
 72
14
 73
10
 74
0
 42
0.0000001
 43
0.0000001
 44
0.0000000001
 40
0.0
 40
0.0
 40
0.0
 40
0.0
 40
0.277070004
 40
0.4121445309
 40
0.5431144432
 40
0.6686285902
 40
0.7873556109
 40
0.8981574638
 40
1.0
 40
1.0
 40
1.0
 40
1.0
 10
5.2749765723
 20
2.7943281732
 30
0.0
 10
5.3498722637
 20
2.7959140622
 30
0.0
 10
5.461280396
 20
2.798273035
 30
0.0
 10
5.608089384
 20
2.8014768635
 30
0.0
 10
5.7139298084
 20
2.8038581141
 30
0.0
 10
5.8153491794
 20
2.8062375586
 30
0.0
 10
5.9113140703
 20
2.8086169052
 30
0.0
 10
6.0008767279
 20
2.8109944402
 30
0.0
 10
6.0583464074
 20
2.8126514966
 30
0.0
 10
6.0858692082
 20
2.8134895548
 30
0.0
  0
LINE
  5
37A
100
AcDbEntity
  8
0
100
AcDbLine
 62
7
  6
CONTINUOUS
 10
6.1549506264
 20
2.8157017607
 11
6.1606352459
 21
2.8158950301
  0
SPLINE
  5
37B
100
AcDbEntity
  8
0
100
AcDbSpline
 62
7
  6
CONTINUOUS
 70
0
 71
3
 72
23
 73
19
 74
0
 42
0.0000001
 43
0.0000001
 44
0.0000000001
 40
0.0
 40
0.0
 40
0.0
 40
0.0
 40
0.2026042147
 40
0.3844179765
 40
0.5446881161
 40
0.6165346879
 40
0.6827441101
 40
0.7432334705
 40
0.7979209925
 40
0.8467258323
 40
0.8895684637
 40
0.9263715834
 40
0.942485425
 40
0.9570625007
 40
0.9700973792
 40
0.9815935634
 40
0.9915578696
 40
1.0
 40
1.0
 40
1.0
 40
1.0
 10
6.1606352459
 20
2.8158950301
 30
0.0
 10
6.1767138356
 20
2.8164444934
 30
0.0
 10
6.2072196013
 20
2.8175320069
 30
0.0
 10
6.2504371614
 20
2.8192474143
 30
0.0
 10
6.2832728468
 20
2.820721891
 30
0.0
 10
6.3069316947
 20
2.8219151587
 30
0.0
 10
6.3226738805
 20
2.8227765392
 30
0.0
 10
6.3370513767
 20
2.8236370544
 30
0.0
 10
6.3500442017
 20
2.8244965375
 30
0.0
 10
6.3616325136
 20
2.8253544864
 30
0.0
 10
6.3717964518
 20
2.826210569
 30
0.0
 10
6.3793646655
 20
2.8269502184
 30
0.0
 10
6.3846903938
 20
2.8275511419
 30
0.0
 10
6.3881358454
 20
2.827981207
 30
0.0
 10
6.3912115337
 20
2.8284108208
 30
0.0
 10
6.3939171066
 20
2.8288396932
 30
0.0
 10
6.3962529268
 20
2.8292675351
 30
0.0
 10
6.3976818419
 20
2.829577017
 30
0.0
 10
6.3983332222
 20
2.8297353833
 30
0.0
  0
SPLINE
  5
37C
100
AcDbEntity
  8
0
100
AcDbSpline
 62
7
  6
CONTINUOUS
 70
0
 71
3
 72
11
 73
7
 74
0
 42
0.0000001
 43
0.0000001
 44
0.0000000001
 40
0.0
 40
0.0
 40
0.0
 40
0.0
 40
0.3182400687
 40
0.5903631916
 40
0.8171632288
 40
1.0
 40
1.0
 40
1.0
 40
1.0
 10
6.3983332222
 20
2.8297353833
 30
0.0
 10
6.3987179642
 20
2.8298289234
 30
0.0
 10
6.3994291632
 20
2.8300132343
 30
0.0
 10
6.4004019066
 20
2.8303106597
 30
0.0
 10
6.4011972026
 20
2.8306069828
 30
0.0
 10
6.4016587627
 20
2.8308264125
 30
0.0
 10
6.4018559105
 20
2.8309399079
 30
0.0
  0
SPLINE
  5
37D
100
AcDbEntity
  8
0
100
AcDbSpline
 62
9
  6
CONTINUOUS
 70
0
 71
3
 72
43
 73
39
 74
0
 42
0.0000001
 43
0.0000001
 44
0.0000000001
 40
0.0
 40
0.0
 40
0.0
 40
0.0
 40
0.0000160155
 40
0.0000640514
 40
0.0001440982
 40
0.0002561465
 40
0.0004001867
 40
0.0005762095
 40
0.0010241644
 40
0.0015999357
 40
0.0023034476
 40
0.0031346246
 40
0.0040933912
 40
0.0063933916
 40
0.0092028466
 40
0.0125211552
 40
0.0163477179
 40
0.0206819365
 40
0.025523214
 40
0.030870955
 40
0.036724565
 40
0.0499470208
 40
0.0651858559
 40
0.0824348878
 40
0.1016820824
 40
0.1229140438
 40
0.1461175108
 40
0.1712793674
 40
0.19838665
 40
0.2583862904
 40
0.3260068499
 40
0.4011053297
 40
0.483534426
 40
0.5731522035
 40
0.6698085639
 40
0.7733044157
 40
0.8834341511
 40
1.0
 40
1.0
 40
1.0
 40
1.0
 10
3.7533947985
 20
0.9011670192
 30
0.0
 10
3.7533997702
 20
0.901166985
 30
0.0
 10
3.7534195651
 20
0.9011646766
 30
0.0
 10
3.753464207
 20
0.9011621376
 30
0.0
 10
3.7535385286
 20
0.9011561452
 30
0.0
 10
3.7536425999
 20
0.9011486149
 30
0.0
 10
3.7537763748
 20
0.9011386299
 30
0.0
 10
3.7540141526
 20
0.9011211124
 30
0.0
 10
3.7543856006
 20
0.9010938025
 30
0.0
 10
3.7549203814
 20
0.9010547739
 30
0.0
 10
3.7555738352
 20
0.901007369
 30
0.0
 10
3.7563459002
 20
0.900951722
 30
0.0
 10
3.7576123383
 20
0.9008610281
 30
0.0
 10
3.759491442
 20
0.900727841
 30
0.0
 10
3.7621013772
 20
0.900545262
 30
0.0
 10
3.7651842607
 20
0.9003324593
 30
0.0
 10
3.7687395936
 20
0.9000903521
 30
0.0
 10
3.7727668772
 20
0.8998198619
 30
0.0
 10
3.7772656125
 20
0.8995219098
 30
0.0
 10
3.7822353009
 20
0.8991974159
 30
0.0
 10
3.7898017699
 20
0.8987104608
 30
0.0
 10
3.8004334803
 20
0.8980417863
 30
0.0
 10
3.8145974401
 20
0.8971774094
 30
0.0
 10
3.830630078
 20
0.8962295145
 30
0.0
 10
3.848522675
 20
0.895218265
 30
0.0
 10
3.8682641677
 20
0.8941634011
 30
0.0
 10
3.8898430479
 20
0.8930849457
 30
0.0
 10
3.9132478083
 20
0.8920028758
 30
0.0
 10
3.9480695136
 20
0.8905315004
 30
0.0
 10
3.9960729733
 20
0.8888131655
 30
0.0
 10
4.058983203
 20
0.8871245184
 30
0.0
 10
4.1288700213
 20
0.8859710838
 30
0.0
 10
4.2055945461
 20
0.8855771506
 30
0.0
 10
4.2890108302
 20
0.8861682757
 30
0.0
 10
4.3789515946
 20
0.8879696473
 30
0.0
 10
4.4752235998
 20
0.8912291712
 30
0.0
 10
4.5776114609
 20
0.8961944888
 30
0.0
 10
4.647847015
 20
0.9006822691
 30
0.0
 10
4.6839409091
 20
0.9032719454
 30
0.0
  0
SPLINE
  5
37E
100
AcDbEntity
  8
0
100
AcDbSpline
 62
9
  6
CONTINUOUS
 70
0
 71
3
 72
58
 73
54
 74
0
 42
0.0000001
 43
0.0000001
 44
0.0000000001
 40
0.0
 40
0.0
 40
0.0
 40
0.0
 40
0.0000009909
 40
0.0000039637
 40
0.0000089181
 40
0.0000158543
 40
0.000035672
 40
0.0000634167
 40
0.0000990884
 40
0.0001426871
 40
0.0001942129
 40
0.0002536656
 40
0.0003963521
 40
0.0005707467
 40
0.0007768493
 40
0.00101466
 40
0.0012841787
 40
0.0015854055
 40
0.0022829831
 40
0.0031073929
 40
0.0040586348
 40
0.0051367089
 40
0.0063416151
 40
0.0076733533
 40
0.0091319237
 40
0.0107173261
 40
0.0124295606
 40
0.0162345016
 40
0.0205462531
 40
0.0253638957
 40
0.0306864963
 40
0.0365131241
 40
0.0428428508
 40
0.0496747512
 40
0.0570079027
 40
0.0648413862
 40
0.0820056849
 40
0.1011603602
 40
0.1222981759
 40
0.1454113446
 40
0.1704876314
 40
0.1975128874
 40
0.2264731082
 40
0.2573544522
 40
0.2901432474
 40
0.3248259969
 40
0.3998183318
 40
0.4822048353
 40
0.5718491354
 40
0.6686195057
 40
0.7723751709
 40
0.8829095512
 40
1.0
 40
1.0
 40
1.0
 40
1.0
 10
6.8807916331
 20
1.011413267
 30
0.0
 10
6.8807915607
 20
1.0114129938
 30
0.0
 10
6.8807899218
 20
1.0114135459
 30
0.0
 10
6.8807878757
 20
1.0114127873
 30
0.0
 10
6.8807833651
 20
1.0114128647
 30
0.0
 10
6.8807745077
 20
1.0114120971
 30
0.0
 10
6.8807588658
 20
1.0114112877
 30
0.0
 10
6.8807352304
 20
1.0114097422
 30
0.0
 10
6.8807047399
 20
1.0114078797
 30
0.0
 10
6.8806675114
 20
1.0114055575
 30
0.0
 10
6.880623501
 20
1.0114028291
 30
0.0
 10
6.8805512849
 20
1.0113983444
 30
0.0
 10
6.8804440866
 20
1.0113916908
 30
0.0
 10
6.8802951387
 20
1.0113824443
 30
0.0
 10
6.880119109
 20
1.0113715173
 30
0.0
 10
6.8799159979
 20
1.0113589091
 30
0.0
 10
6.8796858054
 20
1.0113446201
 30
0.0
 10
6.8793247191
 20
1.011322206
 30
0.0
 10
6.8788056577
 20
1.011289986
 30
0.0
 10
6.8781015396
 20
1.0112462793
 30
0.0
 10
6.8772890958
 20
1.0111958488
 30
0.0
 10
6.8763683263
 20
1.0111386945
 30
0.0
 10
6.875339231
 20
1.0110748164
 30
0.0
 10
6.87420181
 20
1.0110042146
 30
0.0
 10
6.8729560633
 20
1.0109268895
 30
0.0
 10
6.8716019909
 20
1.010842839
 30
0.0
 10
6.869579916
 20
1.0107173342
 30
0.0
 10
6.8667816657
 20
1.0105435734
 30
0.0
 10
6.8630992778
 20
1.0103155917
 30
0.0
 10
6.858984692
 20
1.0100628411
 30
0.0
 10
6.8544386262
 20
1.0097866032
 30
0.0
 10
6.8494617997
 20
1.0094882145
 30
0.0
 10
6.8440549325
 20
1.0091689983
 30
0.0
 10
6.8382187445
 20
1.0088302844
 30
0.0
 10
6.8319539551
 20
1.0084734024
 30
0.0
 10
6.8227461007
 20
1.0079592345
 30
0.0
 10
6.8101702151
 20
1.0072797966
 30
0.0
 10
6.7938027332
 20
1.0064361856
 30
0.0
 10
6.7757382688
 20
1.0055520211
 30
0.0
 10
6.7559842306
 20
1.0046374699
 30
0.0
 10
6.7345497063
 20
1.0037103679
 30
0.0
 10
6.711445616
 20
1.0027900876
 30
0.0
 10
6.6866834858
 20
1.0018956332
 30
0.0
 10
6.6602748407
 20
1.0010461688
 30
0.0
 10
6.6322312003
 20
1.0002607359
 30
0.0
 10
6.5916055325
 20
0.9992994897
 30
0.0
 10
6.536828019
 20
0.9983794437
 30
0.0
 10
6.4663666418
 20
0.9978931901
 30
0.0
 10
6.3896917514
 20
0.9981963834
 30
0.0
 10
6.3069305426
 20
0.9994843738
 30
0.0
 10
6.218234434
 20
1.0019522189
 30
0.0
 10
6.1237862087
 20
1.0058071624
 30
0.0
 10
6.0589513606
 20
1.0093411536
 30
0.0
 10
6.0256150183
 20
1.0113912398
 30
0.0
  0
SPLINE
  5
37F
100
AcDbEntity
  8
0
100
AcDbSpline
 62
9
  6
CONTINUOUS
 70
0
 71
3
 72
31
 73
27
 74
0
 42
0.0000001
 43
0.0000001
 44
0.0000000001
 40
0.0
 40
0.0
 40
0.0
 40
0.0
 40
0.0233664645
 40
0.0482128347
 40
0.0744502301
 40
0.1019890974
 40
0.1307395779
 40
0.1606121778
 40
0.1915172901
 40
0.2233650801
 40
0.2895092585
 40
0.3582282337
 40
0.428680181
 40
0.5000013533
 40
0.5713224821
 40
0.6417742947
 40
0.7104930417
 40
0.7766369248
 40
0.8084845483
 40
0.8393894706
 40
0.8692618461
 40
0.898012057
 40
0.9255506081
 40
0.9517876761
 40
0.9766337522
 40
1.0
 40
1.0
 40
1.0
 40
1.0
 10
5.9451389881
 20
1.016792514
 30
0.0
 10
5.9347212382
 20
1.0174646643
 30
0.0
 10
5.9132171947
 20
1.0187177535
 30
0.0
 10
5.8799935113
 20
1.0203233561
 30
0.0
 10
5.8448951387
 20
1.0217287264
 30
0.0
 10
5.8080446716
 20
1.022947965
 30
0.0
 10
5.7695642526
 20
1.023995289
 30
0.0
 10
5.729575629
 20
1.0248864084
 30
0.0
 10
5.6882001411
 20
1.0256371425
 30
0.0
 10
5.6306190422
 20
1.0264824215
 30
0.0
 10
5.5561414137
 20
1.0272532044
 30
0.0
 10
5.4644146377
 20
1.0278261554
 30
0.0
 10
5.3703737371
 20
1.0281444318
 30
0.0
 10
5.2751698199
 20
1.0282396972
 30
0.0
 10
5.1799659629
 20
1.0281444115
 30
0.0
 10
5.0859252439
 20
1.0278261106
 30
0.0
 10
4.9941987623
 20
1.0272531245
 30
0.0
 10
4.9197214423
 20
1.0264823091
 30
0.0
 10
4.8621406351
 20
1.0256370036
 30
0.0
 10
4.8207654071
 20
1.0248862481
 30
0.0
 10
4.7807770898
 20
1.0239951017
 30
0.0
 10
4.7422970339
 20
1.0229477419
 30
0.0
 10
4.7054469766
 20
1.0217284538
 30
0.0
 10
4.6703490253
 20
1.0203230335
 30
0.0
 10
4.6371257186
 20
1.0187173943
 30
0.0
 10
4.615621904
 20
1.0174643006
 30
0.0
 10
4.6052042507
 20
1.0167921567
 30
0.0
  0
SPLINE
  5
380
100
AcDbEntity
  8
0
100
AcDbSpline
 62
9
  6
CONTINUOUS
 70
0
 71
3
 72
22
 73
18
 74
0
 42
0.0000001
 43
0.0000001
 44
0.0000000001
 40
0.0
 40
0.0
 40
0.0
 40
0.0
 40
0.1038188466
 40
0.1589175264
 40
0.2161716565
 40
0.2756372968
 40
0.337163348
 40
0.4005206687
 40
0.4654752096
 40
0.5317832428
 40
0.5990921437
 40
0.6669736906
 40
0.7349654892
 40
0.8026220753
 40
0.8695968315
 40
0.9355243991
 40
1.0
 40
1.0
 40
1.0
 40
1.0
 10
5.8664085033
 20
0.9032718968
 30
0.0
 10
5.8713601839
 20
0.9044910756
 30
0.0
 10
5.8787699397
 20
0.9071401563
 30
0.0
 10
5.8881861121
 20
0.9120680347
 30
0.0
 10
5.8952757152
 20
0.9166723932
 30
0.0
 10
5.9021498873
 20
0.9221137281
 30
0.0
 10
5.9087395391
 20
0.9283405679
 30
0.0
 10
5.9149633254
 20
0.9352986075
 30
0.0
 10
5.9207374245
 20
0.942931086
 30
0.0
 10
5.9259733714
 20
0.951172463
 30
0.0
 10
5.9306383
 20
0.9599117846
 30
0.0
 10
5.9346972565
 20
0.9690384453
 30
0.0
 10
5.9381151616
 20
0.9784421111
 30
0.0
 10
5.9408570328
 20
0.9880178023
 30
0.0
 10
5.9429409567
 20
0.9976532925
 30
0.0
 10
5.9443895437
 20
1.0072456506
 30
0.0
 10
5.9449544723
 20
1.0136308655
 30
0.0
 10
5.9451349883
 20
1.0167927463
 30
0.0
  0
SPLINE
  5
381
100
AcDbEntity
  8
0
100
AcDbSpline
 62
9
  6
CONTINUOUS
 70
0
 71
3
 72
31
 73
27
 74
0
 42
0.0000001
 43
0.0000001
 44
0.0000000001
 40
0.0
 40
0.0
 40
0.0
 40
0.0
 40
0.0234420812
 40
0.0483427022
 40
0.0746169214
 40
0.102178882
 40
0.1309420526
 40
0.1608193964
 40
0.1917234939
 40
0.2235666325
 40
0.289693959
 40
0.3583759011
 40
0.4287615956
 40
0.4999994549
 40
0.5712374101
 40
0.6416232759
 40
0.71030529
 40
0.7764324141
 40
0.8082753095
 40
0.8391791233
 40
0.869056215
 40
0.8978192369
 40
0.9253812242
 40
0.9516557178
 40
0.9765569329
 40
1.0
 40
1.0
 40
1.0
 40
1.0
 10
4.6839408432
 20
0.9032718993
 30
0.0
 10
4.6931600679
 20
0.9039333509
 30
0.0
 10
4.7121819509
 20
0.9051622149
 30
0.0
 10
4.7415612956
 20
0.906727123
 30
0.0
 10
4.7725767945
 20
0.9080879242
 30
0.0
 10
4.8051238184
 20
0.9092614261
 30
0.0
 10
4.839097785
 20
0.9102645135
 30
0.0
 10
4.8743940379
 20
0.9111141436
 30
0.0
 10
4.9109079037
 20
0.9118273876
 30
0.0
 10
4.9617153148
 20
0.9126291158
 30
0.0
 10
5.0274205602
 20
0.9133623391
 30
0.0
 10
5.1083248216
 20
0.9138964134
 30
0.0
 10
5.1912453724
 20
0.9141623284
 30
0.0
 10
5.2751740526
 20
0.9142281704
 30
0.0
 10
5.3591028004
 20
0.914162308
 30
0.0
 10
5.4420234849
 20
0.9138963819
 30
0.0
 10
5.5229277624
 20
0.9133623146
 30
0.0
 10
5.5886328607
 20
0.912629119
 30
0.0
 10
5.6394399848
 20
0.9118274291
 30
0.0
 10
5.6759535441
 20
0.9111142169
 30
0.0
 10
5.7112495277
 20
0.9102646152
 30
0.0
 10
5.7452233473
 20
0.9092615467
 30
0.0
 10
5.7777704316
 20
0.908088048
 30
0.0
 10
5.808786283
 20
0.9067272282
 30
0.0
 10
5.8381663574
 20
0.9051622733
 30
0.0
 10
5.8571888618
 20
0.903933366
 30
0.0
 10
5.8664084744
 20
0.9032718892
 30
0.0
  0
SPLINE
  5
382
100
AcDbEntity
  8
0
100
AcDbSpline
 62
9
  6
CONTINUOUS
 70
0
 71
3
 72
33
 73
29
 74
0
 42
0.0000001
 43
0.0000001
 44
0.0000000001
 40
0.0
 40
0.0
 40
0.0
 40
0.0
 40
0.2266894049
 40
0.4268406327
 40
0.5164598991
 40
0.5988900434
 40
0.673989291
 40
0.7416104989
 40
0.8016107948
 40
0.8538804858
 40
0.8983164606
 40
0.9175639321
 40
0.9348132147
 40
0.9500522699
 40
0.9632749153
 40
0.9744764243
 40
0.9836520491
 40
0.9874786658
 40
0.9907970211
 40
0.9936065156
 40
0.9959065484
 40
0.9976965174
 40
0.9984000394
 40
0.9989758191
 40
0.9994237808
 40
0.9997438487
 40
0.9999359471
 40
1.0
 40
1.0
 40
1.0
 40
1.0
 10
5.8664085302
 20
0.9032719299
 30
0.0
 10
5.9366006804
 20
0.8982357239
 30
0.0
 10
6.0689211535
 20
0.8907607494
 30
0.0
 10
6.2292102208
 20
0.8863957725
 30
0.0
 10
6.3447544753
 20
0.8855771412
 30
0.0
 10
6.4214792065
 20
0.8859710395
 30
0.0
 10
6.4913659508
 20
0.8871244919
 30
0.0
 10
6.5542761109
 20
0.8888131583
 30
0.0
 10
6.6100857818
 20
0.8908109159
 30
0.0
 10
6.6586862094
 20
0.8929552528
 30
0.0
 10
6.6946346572
 20
0.8948117152
 30
0.0
 10
6.7197190941
 20
0.8962295151
 30
0.0
 10
6.7357517787
 20
0.8971773955
 30
0.0
 10
6.7499157779
 20
0.8980417727
 30
0.0
 10
6.7622043985
 20
0.8988146644
 30
0.0
 10
6.7726131841
 20
0.8994887848
 30
0.0
 10
6.7801102899
 20
0.8999882416
 30
0.0
 10
6.785165088
 20
0.9003324515
 30
0.0
 10
6.7882479787
 20
0.9005452579
 30
0.0
 10
6.7908579205
 20
0.900727833
 30
0.0
 10
6.7929944131
 20
0.9008792773
 30
0.0
 10
6.7944786778
 20
0.9009858192
 30
0.0
 10
6.7954289907
 20
0.9010547881
 30
0.0
 10
6.7959637786
 20
0.9010937565
 30
0.0
 10
6.7963798093
 20
0.9011245029
 30
0.0
 10
6.7966770914
 20
0.9011460565
 30
0.0
 10
6.7968554177
 20
0.9011600508
 30
0.0
 10
6.7969347779
 20
0.9011652211
 30
0.0
 10
6.7969545807
 20
0.9011670198
 30
0.0
  0
SPLINE
  5
383
100
AcDbEntity
  8
0
100
AcDbSpline
 62
9
  6
CONTINUOUS
 70
0
 71
3
 72
59
 73
55
 74
0
 42
0.0000001
 43
0.0000001
 44
0.0000000001
 40
0.0
 40
0.0
 40
0.0
 40
0.0
 40
0.1170904353
 40
0.2276248322
 40
0.331380536
 40
0.4281509176
 40
0.5177951863
 40
0.6001816418
 40
0.6386107972
 40
0.6751741416
 40
0.7098568727
 40
0.7426456502
 40
0.7735269778
 40
0.8024871844
 40
0.8295124295
 40
0.8545887095
 40
0.8777018763
 40
0.8988396885
 40
0.9179943566
 40
0.9351586461
 40
0.9429921248
 40
0.9503252716
 40
0.9571571674
 40
0.9634868902
 40
0.9693135148
 40
0.9746361131
 40
0.9794537546
 40
0.9837655063
 40
0.9875704487
 40
0.9892826836
 40
0.9908680863
 40
0.9923266566
 40
0.9936583945
 40
0.9948633002
 40
0.9959413736
 40
0.9968926147
 40
0.9977170236
 40
0.9984146002
 40
0.9987158264
 40
0.9989853446
 40
0.9992231547
 40
0.9994292568
 40
0.9996036508
 40
0.9997463367
 40
0.9998057892
 40
0.9998573146
 40
0.999900913
 40
0.9999365844
 40
0.9999643288
 40
0.9999841462
 40
0.9999910823
 40
0.9999960366
 40
0.9999990092
 40
1.0
 40
1.0
 40
1.0
 40
1.0
 10
4.524733546
 20
1.0113912876
 30
0.0
 10
4.491397233
 20
1.0093411926
 30
0.0
 10
4.4265624337
 20
1.0058071818
 30
0.0
 10
4.3321142668
 20
1.0019522035
 30
0.0
 10
4.2434182091
 20
0.999484354
 30
0.0
 10
4.1606570442
 20
0.998196318
 30
0.0
 10
4.0839822705
 20
0.9978932772
 30
0.0
 10
4.0239502023
 20
0.9983071627
 30
0.0
 10
3.9790634591
 20
0.9989586632
 30
0.0
 10
3.9477849471
 20
0.9995586751
 30
0.0
 10
3.9181178885
 20
1.0002607762
 30
0.0
 10
3.8900742873
 20
1.001046171
 30
0.0
 10
3.8636656747
 20
1.0018956394
 30
0.0
 10
3.8389035747
 20
1.0027900865
 30
0.0
 10
3.8157995105
 20
1.0037103641
 30
0.0
 10
3.7943650077
 20
1.0046374657
 30
0.0
 10
3.774610988
 20
1.0055520249
 30
0.0
 10
3.756546541
 20
1.006436195
 30
0.0
 10
3.7401790769
 20
1.0072798068
 30
0.0
 10
3.7276032066
 20
1.0079592435
 30
0.0
 10
3.7183953644
 20
1.0084734099
 30
0.0
 10
3.7121305837
 20
1.0088302907
 30
0.0
 10
3.7062944036
 20
1.0091690037
 30
0.0
 10
3.7008875438
 20
1.0094882195
 30
0.0
 10
3.6959107237
 20
1.0097866083
 30
0.0
 10
3.6913646633
 20
1.010062847
 30
0.0
 10
3.6872500815
 20
1.0103155995
 30
0.0
 10
3.6835676964
 20
1.0105435842
 30
0.0
 10
3.6807694479
 20
1.0107173491
 30
0.0
 10
3.678747374
 20
1.0108428559
 30
0.0
 10
3.6773933025
 20
1.0109269072
 30
0.0
 10
3.6761475568
 20
1.0110042326
 30
0.0
 10
3.6750101368
 20
1.0110748343
 30
0.0
 10
3.6739810427
 20
1.0111387117
 30
0.0
 10
3.6730602743
 20
1.011195865
 30
0.0
 10
3.6722478317
 20
1.0112462941
 30
0.0
 10
3.6715437149
 20
1.0112899992
 30
0.0
 10
3.6710246545
 20
1.0113222175
 30
0.0
 10
3.670663569
 20
1.0113446301
 30
0.0
 10
3.670433377
 20
1.0113589181
 30
0.0
 10
3.6702302666
 20
1.011371525
 30
0.0
 10
3.6700542373
 20
1.011382451
 30
0.0
 10
3.6699052902
 20
1.0113916956
 30
0.0
 10
3.6697980917
 20
1.0113983501
 30
0.0
 10
3.6697258769
 20
1.0114028306
 30
0.0
 10
3.6696818644
 20
1.0114055659
 30
0.0
 10
3.669644643
 20
1.0114078654
 30
0.0
 10
3.6696141337
 20
1.0114097884
 30
0.0
 10
3.6695905473
 20
1.0114111766
 30
0.0
 10
3.6695748045
 20
1.0114123103
 30
0.0
 10
3.6695660832
 20
1.0114126407
 30
0.0
 10
3.6695613493
 20
1.0114132808
 30
0.0
 10
3.6695596977
 20
1.0114127716
 30
0.0
 10
3.6695576506
 20
1.0114135319
 30
0.0
 10
3.6695577458
 20
1.0114132658
 30
0.0
  0
SPLINE
  5
384
100
AcDbEntity
  8
0
100
AcDbSpline
 62
9
  6
CONTINUOUS
 70
0
 71
3
 72
22
 73
18
 74
0
 42
0.0000001
 43
0.0000001
 44
0.0000000001
 40
0.0
 40
0.0
 40
0.0
 40
0.0
 40
0.1040849484
 40
0.1593034419
 40
0.2166647013
 40
0.2762218142
 40
0.3378216727
 40
0.4012322403
 40
0.4662154043
 40
0.5325236196
 40
0.5998044794
 40
0.6676304351
 40
0.7355389843
 40
0.8030846841
 40
0.8699242138
 40
0.9356963059
 40
1.0
 40
1.0
 40
1.0
 40
1.0
 10
4.6839408812
 20
0.9032719525
 30
0.0
 10
4.6789765153
 20
0.9044942528
 30
0.0
 10
4.6715492453
 20
0.9071520026
 30
0.0
 10
4.6621143428
 20
0.9120963666
 30
0.0
 10
4.6550147844
 20
0.9167142149
 30
0.0
 10
4.6481345964
 20
0.9221695544
 30
0.0
 10
4.6415427061
 20
0.9284096644
 30
0.0
 10
4.6353201646
 20
0.9353790642
 30
0.0
 10
4.6295504394
 20
0.9430198796
 30
0.0
 10
4.6243215246
 20
0.951265736
 30
0.0
 10
4.6196655927
 20
0.9600051738
 30
0.0
 10
4.6156166821
 20
0.969127283
 30
0.0
 10
4.6122089127
 20
0.9785215227
 30
0.0
 10
4.6094762685
 20
0.9880829683
 30
0.0
 10
4.6074001434
 20
0.9976999076
 30
0.0
 10
4.6059573142
 20
1.0072700997
 30
0.0
 10
4.605394397
 20
1.0136393004
 30
0.0
 10
4.6052143611
 20
1.0167927464
 30
0.0
  0
SPLINE
  5
385
100
AcDbEntity
  8
0
100
AcDbSpline
 62
7
  6
CONTINUOUS
 70
0
 71
3
 72
11
 73
7
 74
0
 42
0.0000001
 43
0.0000001
 44
0.0000000001
 40
0.0
 40
0.0
 40
0.0
 40
0.0
 40
0.2827073092
 40
0.5439608165
 40
0.7832334602
 40
1.0
 40
1.0
 40
1.0
 40
1.0
 10
4.3144917257
 20
6.3099576408
 30
0.0
 10
4.3061909965
 20
6.3095843464
 30
0.0
 10
4.2902205423
 20
6.3088415244
 30
0.0
 10
4.2672293514
 20
6.3076848066
 30
0.0
 10
4.2461788449
 20
6.3065292148
 30
0.0
 10
4.2327996631
 20
6.3057194017
 30
0.0
 10
4.2264417465
 20
6.3053107231
 30
0.0
  0
SPLINE
  5
386
100
AcDbEntity
  8
0
100
AcDbSpline
 62
7
  6
CONTINUOUS
 70
0
 71
3
 72
25
 73
21
 74
0
 42
0.0000001
 43
0.0000001
 44
0.0000000001
 40
0.0
 40
0.0
 40
0.0
 40
0.0
 40
0.2280399565
 40
0.426561825
 40
0.5147195006
 40
0.5954588463
 40
0.6687708487
 40
0.7346498496
 40
0.7930893105
 40
0.8440809351
 40
0.887629735
 40
0.9237668554
 40
0.9390818153
 40
0.9525837008
 40
0.9643035447
 40
0.9742916495
 40
0.9826328898
 40
0.9894775888
 40
0.9951021968
 40
1.0
 40
1.0
 40
1.0
 40
1.0
 10
4.1990644134
 20
6.3033676128
 30
0.0
 10
4.1950821563
 20
6.3030519503
 30
0.0
 10
4.187635661
 20
6.3024285276
 30
0.0
 10
4.1786598096
 20
6.3015671855
 30
0.0
 10
4.1722612806
 20
6.300869624
 30
0.0
 10
4.1680480264
 20
6.3003677262
 30
0.0
 10
4.1642280029
 20
6.2998662756
 30
0.0
 10
4.1608022254
 20
6.299365405
 30
0.0
 10
4.1577719666
 20
6.2988653425
 30
0.0
 10
4.1551385686
 20
6.2983664969
 30
0.0
 10
4.1529036746
 20
6.2978690999
 30
0.0
 10
4.1512956586
 20
6.2974363713
 30
0.0
 10
4.1502139249
 20
6.297082568
 30
0.0
 10
4.1495490502
 20
6.2968323512
 30
0.0
 10
4.1489846425
 20
6.2965825138
 30
0.0
 10
4.148520404
 20
6.2963329227
 30
0.0
 10
4.1481555298
 20
6.29608315
 30
0.0
 10
4.1478889768
 20
6.2958313648
 30
0.0
 10
4.1477203796
 20
6.2955731538
 30
0.0
 10
4.1476790915
 20
6.2953877306
 30
0.0
 10
4.1476789449
 20
6.2953019322
 30
0.0
  0
ENDSEC
  0
SECTION
  2
OBJECTS
  0
DICTIONARY
  5
C
100
AcDbDictionary
280
0
281
1
  3
ACAD_GROUP
350
D
  3
ACAD_MLINESTYLE
350
17
  3
ACAD_LAYOUT
350
1A
  3
ACAD_PLOTSETTINGS
350
19
  3
ACAD_PLOTSTYLENAME
350
E
  0
DICTIONARY
  5
D
102
{ACAD_REACTORS
330
C
102
}
100
AcDbDictionary
280
0
281
1
  0
ACDBDICTIONARYWDFLT
  5
E
102
{ACAD_REACTORS
330
C
102
}
100
AcDbDictionary
281
1
  3
Normal
350
F
100
AcDbDictionaryWithDefault
340
F
  0
DICTIONARY
  5
17
102
{ACAD_REACTORS
330
C
102
}
100
AcDbDictionary
280
0
281
1
  3
Standard
350
18
  0
DICTIONARY
  5
19
102
{ACAD_REACTORS
330
C
102
}
100
AcDbDictionary
281
1
  0
DICTIONARY
  5
1A
102
{ACAD_REACTORS
330
C
102
}
100
AcDbDictionary
281
1
  3
Model
350
387
  3
Layout1
350
388
  0
ACDBPLACEHOLDER
  5
F
102
{ACAD_REACTORS
330
E
102
}
  0
MLINESTYLE
  5
18
102
{ACAD_REACTORS
330
17
102
}
100
AcDbMlineStyle
  2
STANDARD
 70
0
  3

 62
256
 51
90.0
 52
90.0
 71
2
 49
0.5
 62
256
  6
BYLAYER
 49
-0.5
 62
256
  6
BYLAYER
  0
LAYOUT
  5
387
102
{ACAD_REACTORS
330
1A
102
}
100
AcDbPlotSettings
  1

  2
none_device
  4
ANSI_A_(11.00_x_8.50_Inches)
  6

 40
0.0
 41
0.0
 42
0.0
 43
0.0
 44
279.4
 45
215.9
 46
0.0
 47
0.0
 48
0.0
 49
0.0
140
0.0
141
0.0
142
1.0
143
1.0
 70
1024
 72
0
 73
0
 74
0
  7

 75
0
147
1.0
148
0.0
149
0.0
100
AcDbLayout
  1
Model
 70
0
 71
0
 10
0.0
 20
0.0
 11
11.0
 21
8.5
 12
0.0
 22
0.0
 32
0.0
 14
0.0
 24
0.0
 34
0.0
 15
0.0
 25
0.0
 35
0.0
146
0.0
 13
0.0
 23
0.0
 33
0.0
 16
1.0
 26
0.0
 36
0.0
 17
0.0
 27
1.0
 37
0.0
 76
0
330
21D
345
0
346
0
  0
LAYOUT
  5
388
102
{ACAD_REACTORS
330
1A
102
}
100
AcDbPlotSettings
  1

  2
none_device
  4
ANSI_A_(11.00_x_8.50_Inches)
  6

 40
0.0
 41
0.0
 42
0.0
 43
0.0
 44
279.4
 45
215.9
 46
0.0
 47
0.0
 48
0.0
 49
0.0
140
0.0
141
0.0
142
1.0
143
1.0
 70
0
 72
0
 73
0
 74
0
  7

 75
0
147
1.0
148
0.0
149
0.0
100
AcDbLayout
  1
Layout1
 70
0
 71
1
 10
0.0
 20
0.0
 11
11.0
 21
8.5
 12
0.0
 22
0.0
 32
0.0
 14
0.0
 24
0.0
 34
0.0
 15
0.0
 25
0.0
 35
0.0
146
0.0
 13
0.0
 23
0.0
 33
0.0
 16
1.0
 26
0.0
 36
0.0
 17
0.0
 27
1.0
 37
0.0
 76
0
330
21E
345
0
346
0
  0
ENDSEC
  0
EOF
